  0
SECTION
  2
HEADER
  9
$ACADVER
  1
AC1015
  9
$ACADMAINTVER
 70
     6
  9
$DWGCODEPAGE
  3
ANSI_1252
  9
$INSBASE
 10
0.0
 20
0.0
 30
0.0
  9
$EXTMIN
 10
0.0137411345688001
 20
0.0264071077211
 30
0.0
  9
$EXTMAX
 10
3.719334948102911
 20
1.6164038709304
 30
0.0
  9
$LIMMIN
 10
0.0
 20
0.0
  9
$LIMMAX
 10
12.0
 20
9.0
  9
$ORTHOMODE
 70
     1
  9
$REGENMODE
 70
     1
  9
$FILLMODE
 70
     1
  9
$QTEXTMODE
 70
     0
  9
$MIRRTEXT
 70
     1
  9
$LTSCALE
 40
1.0
  9
$ATTMODE
 70
     1
  9
$TEXTSIZE
 40
0.1
  9
$TRACEWID
 40
0.05
  9
$TEXTSTYLE
  7
STANDARD
  9
$CLAYER
  8
ETCHING
  9
$CELTYPE
  6
ByBlock
  9
$CECOLOR
 62
   256
  9
$CELTSCALE
 40
1.0
  9
$DISPSILH
 70
     0
  9
$DIMSCALE
 40
1.0
  9
$DIMASZ
 40
0.18
  9
$DIMEXO
 40
0.0625
  9
$DIMDLI
 40
0.38
  9
$DIMRND
 40
0.0
  9
$DIMDLE
 40
0.0
  9
$DIMEXE
 40
0.18
  9
$DIMTP
 40
0.0
  9
$DIMTM
 40
0.0
  9
$DIMTXT
 40
0.18
  9
$DIMCEN
 40
0.09
  9
$DIMTSZ
 40
0.0
  9
$DIMTOL
 70
     0
  9
$DIMLIM
 70
     0
  9
$DIMTIH
 70
     1
  9
$DIMTOH
 70
     1
  9
$DIMSE1
 70
     0
  9
$DIMSE2
 70
     0
  9
$DIMTAD
 70
     0
  9
$DIMZIN
 70
     0
  9
$DIMBLK
  1

  9
$DIMASO
 70
     1
  9
$DIMSHO
 70
     1
  9
$DIMPOST
  1

  9
$DIMAPOST
  1

  9
$DIMALT
 70
     0
  9
$DIMALTD
 70
     2
  9
$DIMALTF
 40
25.4
  9
$DIMLFAC
 40
1.0
  9
$DIMTOFL
 70
     0
  9
$DIMTVP
 40
0.0
  9
$DIMTIX
 70
     0
  9
$DIMSOXD
 70
     0
  9
$DIMSAH
 70
     0
  9
$DIMBLK1
  1

  9
$DIMBLK2
  1

  9
$DIMSTYLE
  2
STANDARD
  9
$DIMCLRD
 70
     0
  9
$DIMCLRE
 70
     0
  9
$DIMCLRT
 70
     0
  9
$DIMTFAC
 40
1.0
  9
$DIMGAP
 40
0.09
  9
$DIMJUST
 70
     0
  9
$DIMSD1
 70
     0
  9
$DIMSD2
 70
     0
  9
$DIMTOLJ
 70
     1
  9
$DIMTZIN
 70
     0
  9
$DIMALTZ
 70
     0
  9
$DIMALTTZ
 70
     0
  9
$DIMUPT
 70
     0
  9
$DIMDEC
 70
     4
  9
$DIMTDEC
 70
     4
  9
$DIMALTU
 70
     2
  9
$DIMALTTD
 70
     2
  9
$DIMTXSTY
  7
STANDARD
  9
$DIMAUNIT
 70
     0
  9
$DIMADEC
 70
     0
  9
$DIMALTRND
 40
0.0
  9
$DIMAZIN
 70
     0
  9
$DIMDSEP
 70
    46
  9
$DIMATFIT
 70
     3
  9
$DIMFRAC
 70
     0
  9
$DIMLDRBLK
  1

  9
$DIMLUNIT
 70
     2
  9
$DIMLWD
 70
    -2
  9
$DIMLWE
 70
    -2
  9
$DIMTMOVE
 70
     2
  9
$LUNITS
 70
     2
  9
$LUPREC
 70
     4
  9
$SKETCHINC
 40
0.1
  9
$FILLETRAD
 40
0.01
  9
$AUNITS
 70
     0
  9
$AUPREC
 70
     0
  9
$MENU
  1
.
  9
$ELEVATION
 40
0.0
  9
$PELEVATION
 40
0.0
  9
$THICKNESS
 40
0.0
  9
$LIMCHECK
 70
     0
  9
$CHAMFERA
 40
0.5
  9
$CHAMFERB
 40
0.5
  9
$CHAMFERC
 40
0.0
  9
$CHAMFERD
 40
0.0
  9
$SKPOLY
 70
     0
  9
$TDCREATE
 40
2456135.389094711
  9
$TDUCREATE
 40
2456135.597428044
  9
$TDUPDATE
 40
2457961.424017847
  9
$TDUUPDATE
 40
2457961.632351181
  9
$TDINDWG
 40
0.0301543866
  9
$TDUSRTIMER
 40
2457961.62714779
  9
$USRTIMER
 70
     1
  9
$ANGBASE
 50
0.0
  9
$ANGDIR
 70
     0
  9
$PDMODE
 70
     0
  9
$PDSIZE
 40
0.0
  9
$PLINEWID
 40
0.0
  9
$SPLFRAME
 70
     0
  9
$SPLINETYPE
 70
     6
  9
$SPLINESEGS
 70
     8
  9
$HANDSEED
  5
1B0D
  9
$SURFTAB1
 70
     6
  9
$SURFTAB2
 70
     6
  9
$SURFTYPE
 70
     6
  9
$SURFU
 70
     6
  9
$SURFV
 70
     6
  9
$UCSBASE
  2

  9
$UCSNAME
  2

  9
$UCSORG
 10
0.0
 20
0.0
 30
0.0
  9
$UCSXDIR
 10
1.0
 20
0.0
 30
0.0
  9
$UCSYDIR
 10
0.0
 20
1.0
 30
0.0
  9
$UCSORTHOREF
  2

  9
$UCSORTHOVIEW
 70
     0
  9
$UCSORGTOP
 10
0.0
 20
0.0
 30
0.0
  9
$UCSORGBOTTOM
 10
0.0
 20
0.0
 30
0.0
  9
$UCSORGLEFT
 10
0.0
 20
0.0
 30
0.0
  9
$UCSORGRIGHT
 10
0.0
 20
0.0
 30
0.0
  9
$UCSORGFRONT
 10
0.0
 20
0.0
 30
0.0
  9
$UCSORGBACK
 10
0.0
 20
0.0
 30
0.0
  9
$PUCSBASE
  2

  9
$PUCSNAME
  2

  9
$PUCSORG
 10
0.0
 20
0.0
 30
0.0
  9
$PUCSXDIR
 10
1.0
 20
0.0
 30
0.0
  9
$PUCSYDIR
 10
0.0
 20
1.0
 30
0.0
  9
$PUCSORTHOREF
  2

  9
$PUCSORTHOVIEW
 70
     0
  9
$PUCSORGTOP
 10
0.0
 20
0.0
 30
0.0
  9
$PUCSORGBOTTOM
 10
0.0
 20
0.0
 30
0.0
  9
$PUCSORGLEFT
 10
0.0
 20
0.0
 30
0.0
  9
$PUCSORGRIGHT
 10
0.0
 20
0.0
 30
0.0
  9
$PUCSORGFRONT
 10
0.0
 20
0.0
 30
0.0
  9
$PUCSORGBACK
 10
0.0
 20
0.0
 30
0.0
  9
$USERI1
 70
     0
  9
$USERI2
 70
     0
  9
$USERI3
 70
     0
  9
$USERI4
 70
     0
  9
$USERI5
 70
     0
  9
$USERR1
 40
0.0
  9
$USERR2
 40
0.0
  9
$USERR3
 40
0.0
  9
$USERR4
 40
0.0
  9
$USERR5
 40
0.0
  9
$WORLDVIEW
 70
     1
  9
$SHADEDGE
 70
     3
  9
$SHADEDIF
 70
    70
  9
$TILEMODE
 70
     1
  9
$MAXACTVP
 70
    64
  9
$PINSBASE
 10
0.0
 20
0.0
 30
0.0
  9
$PLIMCHECK
 70
     0
  9
$PEXTMIN
 10
1.000000000000000E+20
 20
1.000000000000000E+20
 30
1.000000000000000E+20
  9
$PEXTMAX
 10
-1.000000000000000E+20
 20
-1.000000000000000E+20
 30
-1.000000000000000E+20
  9
$PLIMMIN
 10
0.0
 20
0.0
  9
$PLIMMAX
 10
0.0
 20
0.0
  9
$UNITMODE
 70
     0
  9
$VISRETAIN
 70
     1
  9
$PLINEGEN
 70
     0
  9
$PSLTSCALE
 70
     1
  9
$TREEDEPTH
 70
  3020
  9
$CMLSTYLE
  2
Standard
  9
$CMLJUST
 70
     0
  9
$CMLSCALE
 40
1.0
  9
$PROXYGRAPHICS
 70
     1
  9
$MEASUREMENT
 70
     0
  9
$CELWEIGHT
370
    -1
  9
$ENDCAPS
280
     0
  9
$JOINSTYLE
280
     0
  9
$LWDISPLAY
290
     0
  9
$INSUNITS
 70
     0
  9
$HYPERLINKBASE
  1

  9
$STYLESHEET
  1

  9
$XEDIT
290
     1
  9
$CEPSNTYPE
380
     0
  9
$PSTYLEMODE
290
     1
  9
$FINGERPRINTGUID
  2
{3E853816-7C90-43E7-B3F5-A0829A683A64}
  9
$VERSIONGUID
  2
{FAEB1C32-E019-11D5-929B-00C0DF256EC4}
  9
$EXTNAMES
290
     1
  9
$PSVPSCALE
 40
0.0
  9
$OLESTARTUP
290
     0
  0
ENDSEC
  0
SECTION
  2
CLASSES
  0
CLASS
  1
ACDBDICTIONARYWDFLT
  2
AcDbDictionaryWithDefault
  3
ObjectDBX Classes
 90
        0
280
     0
281
     0
  0
CLASS
  1
MATERIAL
  2
AcDbMaterial
  3
ObjectDBX Classes
 90
     1153
280
     0
281
     0
  0
CLASS
  1
SCALE
  2
AcDbScale
  3
ObjectDBX Classes
 90
     1153
280
     0
281
     0
  0
CLASS
  1
VISUALSTYLE
  2
AcDbVisualStyle
  3
ObjectDBX Classes
 90
     4095
280
     0
281
     0
  0
CLASS
  1
TABLESTYLE
  2
AcDbTableStyle
  3
ObjectDBX Classes
 90
     4095
280
     0
281
     0
  0
CLASS
  1
MLEADERSTYLE
  2
AcDbMLeaderStyle
  3
ACDB_MLEADERSTYLE_CLASS
 90
     4095
280
     0
281
     0
  0
CLASS
  1
SUN
  2
AcDbSun
  3
SCENEOE
 90
     1153
280
     0
281
     0
  0
CLASS
  1
RASTERVARIABLES
  2
AcDbRasterVariables
  3
ISM
 90
        0
280
     0
281
     0
  0
CLASS
  1
DICTIONARYVAR
  2
AcDbDictionaryVar
  3
ObjectDBX Classes
 90
        0
280
     0
281
     0
  0
CLASS
  1
ACDBPLACEHOLDER
  2
AcDbPlaceHolder
  3
ObjectDBX Classes
 90
        0
280
     0
281
     0
  0
CLASS
  1
LAYOUT
  2
AcDbLayout
  3
ObjectDBX Classes
 90
        0
280
     0
281
     0
  0
ENDSEC
  0
SECTION
  2
TABLES
  0
TABLE
  2
VPORT
  5
1A90
330
0
100
AcDbSymbolTable
 70
     1
  0
VPORT
  5
1AA7
330
1A90
100
AcDbSymbolTableRecord
100
AcDbViewportTableRecord
  2
*ACTIVE
 70
     0
 10
0.0
 20
0.0
 11
1.0
 21
1.0
 12
1.683515652612661
 22
0.7831868866227396
 13
0.0
 23
0.0
 14
0.5
 24
0.5
 15
0.5
 25
0.5
 16
0.0
 26
0.0
 36
1.0
 17
0.0
 27
0.0
 37
0.0
 40
2.018915666788248
 41
2.45442536327609
 42
50.0
 43
0.0
 44
0.0
 50
0.0
 51
0.0
 71
    16
 72
   100
 73
     1
 74
     3
 75
     0
 76
     0
 77
     0
 78
     0
281
     0
 65
     0
110
0.0
120
0.0
130
0.0
111
1.0
121
0.0
131
0.0
112
0.0
122
1.0
132
0.0
 79
     0
146
0.0
  0
ENDTAB
  0
TABLE
  2
LTYPE
  5
1A8D
330
0
100
AcDbSymbolTable
 70
     1
  0
LTYPE
  5
1A9B
330
1A8D
100
AcDbSymbolTableRecord
100
AcDbLinetypeTableRecord
  2
ByBlock
 70
     0
  3

 72
    65
 73
     0
 40
0.0
  0
LTYPE
  5
1A9C
330
1A8D
100
AcDbSymbolTableRecord
100
AcDbLinetypeTableRecord
  2
ByLayer
 70
     0
  3

 72
    65
 73
     0
 40
0.0
  0
LTYPE
  5
1A9D
330
1A8D
100
AcDbSymbolTableRecord
100
AcDbLinetypeTableRecord
  2
CONTINUOUS
 70
     0
  3
Solid line
 72
    65
 73
     0
 40
0.0
  0
ENDTAB
  0
TABLE
  2
LAYER
  5
1A8A
102
{ACAD_XDICTIONARY
360
1AFA
102
}
330
0
100
AcDbSymbolTable
 70
     5
  0
LAYER
  5
1A98
330
1A8A
100
AcDbSymbolTableRecord
100
AcDbLayerTableRecord
  2
0
 70
     0
 62
     7
  6
CONTINUOUS
370
    -3
390
1A97
  0
LAYER
  5
1AAE
330
1A8A
100
AcDbSymbolTableRecord
100
AcDbLayerTableRecord
  2
ETCHING
 70
     0
 62
     1
  6
CONTINUOUS
370
    -3
390
1A97
  0
LAYER
  5
1AAF
330
1A8A
100
AcDbSymbolTableRecord
100
AcDbLayerTableRecord
  2
CENTER_HOLE
 70
     0
 62
     3
  6
CONTINUOUS
370
    -3
390
1A97
  0
LAYER
  5
1AB0
330
1A8A
100
AcDbSymbolTableRecord
100
AcDbLayerTableRecord
  2
OUTSIDE
 70
     0
 62
     5
  6
CONTINUOUS
370
    -3
390
1A97
  0
LAYER
  5
1AB1
330
1A8A
100
AcDbSymbolTableRecord
100
AcDbLayerTableRecord
  2
SINGLE
 70
     0
 62
     7
  6
CONTINUOUS
370
    -3
390
1A97
  0
ENDTAB
  0
TABLE
  2
STYLE
  5
1A8B
330
0
100
AcDbSymbolTable
 70
     1
  0
STYLE
  5
1A99
330
1A8B
100
AcDbSymbolTableRecord
100
AcDbTextStyleTableRecord
  2
STANDARD
 70
     0
 40
0.0
 41
1.0
 50
0.0
 71
     0
 42
0.1
  3
arial.ttf
  4

  0
ENDTAB
  0
TABLE
  2
VIEW
  5
1A8E
330
0
100
AcDbSymbolTable
 70
     0
  0
ENDTAB
  0
TABLE
  2
UCS
  5
1A8F
330
0
100
AcDbSymbolTable
 70
     0
  0
ENDTAB
  0
TABLE
  2
APPID
  5
1A91
330
0
100
AcDbSymbolTable
 70
     2
  0
APPID
  5
1A9A
330
1A91
100
AcDbSymbolTableRecord
100
AcDbRegAppTableRecord
  2
ACAD
 70
     0
  0
APPID
  5
1AB4
330
1A91
100
AcDbSymbolTableRecord
100
AcDbRegAppTableRecord
  2
ACAECLAYERSTANDARD
 70
     0
  0
ENDTAB
  0
TABLE
  2
DIMSTYLE
  5
1A92
330
0
100
AcDbSymbolTable
 70
     1
100
AcDbDimStyleTable
  0
DIMSTYLE
105
1AB5
330
1A92
100
AcDbSymbolTableRecord
100
AcDbDimStyleTableRecord
  2
STANDARD
 70
     0
178
     0
340
1A99
  0
ENDTAB
  0
TABLE
  2
BLOCK_RECORD
  5
1A89
330
0
100
AcDbSymbolTable
 70
     0
  0
BLOCK_RECORD
  5
1AA4
330
1A89
100
AcDbSymbolTableRecord
100
AcDbBlockTableRecord
  2
*Model_Space
340
1AA5
  0
BLOCK_RECORD
  5
1AA2
330
1A89
100
AcDbSymbolTableRecord
100
AcDbBlockTableRecord
  2
*Paper_Space
340
1AA3
  0
ENDTAB
  0
ENDSEC
  0
SECTION
  2
BLOCKS
  0
BLOCK
  5
1AB6
330
1AA4
100
AcDbEntity
  8
0
100
AcDbBlockBegin
  2
*Model_Space
 70
     0
 10
0.0
 20
0.0
 30
0.0
  3
*Model_Space
  1

  0
ENDBLK
  5
497
330
1AA4
100
AcDbEntity
  8
0
100
AcDbBlockEnd
  0
BLOCK
  5
1AB7
330
1AA2
100
AcDbEntity
 67
     1
  8
0
100
AcDbBlockBegin
  2
*Paper_Space
 70
     0
 10
0.0
 20
0.0
 30
0.0
  3
*Paper_Space
  1

  0
ENDBLK
  5
499
330
1AA2
100
AcDbEntity
 67
     1
  8
0
100
AcDbBlockEnd
  0
ENDSEC
  0
SECTION
  2
ENTITIES
  0
LWPOLYLINE
  5
51
330
1AA4
100
AcDbEntity
  8
ETCHING
100
AcDbPolyline
 90
      124
 70
     1
 43
0.0
 10
1.4876480200949
 20
0.9851253761372
 42
0.3440994558694
 10
1.4805723160361
 20
0.9667497105902
 10
1.4870527672002
 20
0.9454427726718
 10
1.4923586544393
 20
0.9241227530384
 10
1.4966064173335
 20
0.9025943183698
 10
1.4997924013542
 20
0.8808717000471
 10
1.501920762375
 20
0.8589108840597
 10
1.5030799521817
 20
0.8369828768832
 10
1.5030799521817
 20
0.8150912299013
 10
1.5020173698081
 20
0.7930667952494
 10
1.4998928948332
 20
0.7712426432341
 10
1.4967013995049
 20
0.7494824478138
 10
1.4925503027827
 20
0.7279546671384
 10
1.4872421640698
 20
0.706625600674
 10
1.4809613425647
 20
0.6855606916259
 10
1.4736142347104
 20
0.664776110196
 10
1.4653978291378
 20
0.644476755252
 10
1.4561368134515
 20
0.6245076901783
 10
1.4459106331527
 20
0.6051165369702
 10
1.434704342901
 20
0.586181770683
 10
1.4226223359095
 20
0.5678171200558
 10
1.4096822689681
 20
0.5500486699274
 10
1.3958692030146
 20
0.5329513785024
 10
1.3812820199445
 20
0.5165287220658
 10
1.3659221624084
 20
0.500879055897
 10
1.3497888328875
 20
0.4859050075393
 10
1.3329818040554
 20
0.4718025580594
 10
1.3155204273273
 20
0.4584894642005
 10
1.2973497084213
 20
0.4461179109027
 10
1.2787208304321
 20
0.434535188837
 10
1.2593991840903
 20
0.4240048915807
 10
1.2396615738077
 20
0.414232839431
 10
1.2195299801635
 20
0.40556373212
 10
1.1989293926991
 20
0.3979231386473
 10
1.178038412108
 20
0.3911529134558
 10
1.1568147936603
 20
0.3854611248721
 10
1.1353893038531
 20
0.3808285865354
 10
1.1132837106571
 20
0.3771934445431
 42
0.6202018774848
 10
1.1048799521817
 20
0.3497865392872
 10
1.1048799521817
 20
0.2726054893258
 10
1.0832299521817
 20
0.2726054893258
 10
1.0832299521817
 20
0.1702054893258
 10
1.1423299521817
 20
0.1702054893258
 10
1.1423299521817
 20
0.2726054893258
 10
1.1368799521817
 20
0.2726054893258
 10
1.1368799521817
 20
0.3486439299466
 10
1.1409761937063
 20
0.3493175341084
 42
0.0124888018309
 10
1.1417612768621
 20
0.3494668626787
 10
1.1639612768621
 20
0.3542668626787
 42
0.0122701328194
 10
1.1647244109663
 20
0.3544515752137
 10
1.1867244109663
 20
0.3603515752137
 42
0.0128451526524
 10
1.1875125807643
 20
0.3605848068422
 10
1.2091125807643
 20
0.3675848068422
 42
0.0104429032146
 10
1.2097438627972
 20
0.3678040594385
 10
1.2310438627971
 20
0.3757040594385
 42
0.0128653570547
 10
1.2318081096199
 20
0.376010101497
 10
1.2527081096199
 20
0.385010101497
 42
0.0132746470155
 10
1.2534790837285
 20
0.3853666493699
 10
1.2738790837285
 20
0.3954666493699
 42
0.0098198106521
 10
1.2744366641736
 20
0.3957564764966
 10
1.2944366641736
 20
0.4066564764966
 42
0.0143187018818
 10
1.2952282705203
 20
0.4071177773311
 10
1.3145282705203
 20
0.4191177773311
 42
0.0103731624289
 10
1.315084607815
 20
0.4194799013643
 10
1.333884607815
 20
0.4322799013643
 42
0.0134135953718
 10
1.3345808790372
 20
0.4327818098994
 10
1.3526808790372
 20
0.4465818098994
 42
0.0116782545898
 10
1.3532644160437
 20
0.4470486625313
 10
1.3706644160437
 20
0.4616486625313
 42
0.0125076197853
 10
1.3712644760095
 20
0.4621782926854
 10
1.3879644760095
 20
0.4776782926854
 42
0.0116493681277
 10
1.3884988975976
 20
0.4781980058621
 10
1.4043988975976
 20
0.494398005862
 42
0.0124445249742
 10
1.4049423828135
 20
0.4949800362352
 10
1.4200423828135
 20
0.5119800362352
 42
0.0116834847591
 10
1.4205256890121
 20
0.5125504590052
 10
1.4348256890121
 20
0.5302504590052
 42
0.0125264092873
 10
1.4353136475378
 20
0.530886385099
 10
1.4487136475378
 20
0.549286385099
 42
0.0118848502844
 10
1.4491466254976
 20
0.5499116253022
 10
1.4616466254976
 20
0.5689116253022
 42
0.0118779689047
 10
1.4620491791069
 20
0.5695563550231
 10
1.4736491791069
 20
0.5891563550231
 42
0.0122750434077
 10
1.4740325295817
 20
0.5898419410452
 10
1.4846325295817
 20
0.6099419410452
 42
0.0127640551572
 10
1.4849949639323
 20
0.6106738896733
 10
1.4945949639323
 20
0.6313738896733
 42
0.0124105385979
 10
1.4949111011933
 20
0.632102405202
 10
1.5034111011933
 20
0.653102405202
 42
0.0112068693291
 10
1.503665205064
 20
0.6537730278418
 10
1.511265205064
 20
0.6752730278418
 42
0.0125022834641
 10
1.5115128942681
 20
0.6760337405385
 10
1.5180128942681
 20
0.6978337405385
 42
0.0114652235186
 10
1.5182063560418
 20
0.698541452166
 10
1.5237063560418
 20
0.720641452166
 42
0.0133574178071
 10
1.5238905458652
 20
0.7214760923375
 10
1.5281905458652
 20
0.7437760923375
 42
0.011215176759
 10
1.5283105908102
 20
0.7444836623269
 10
1.5316105908103
 20
0.7669836623269
 42
0.0121478461476
 10
1.5317046781391
 20
0.7677552947635
 10
1.5339046781391
 20
0.7903552947635
 42
0.0122083946165
 10
1.533961363512
 20
0.791134456323
 10
1.535061363512
 20
0.813934456323
 42
0.0120526419206
 10
1.5350799521817
 20
0.8147054893258
 10
1.5350799521817
 20
0.8374054893258
 42
0.0132043362014
 10
1.5350576425866
 20
0.8382501249419
 10
1.5338576425866
 20
0.8609501249419
 42
0.0109505089951
 10
1.5338053352638
 20
0.8616489185232
 10
1.5316053352638
 20
0.8843489185232
 42
0.012254068262
 10
1.5315105908102
 20
0.8851273163246
 10
1.5282105908102
 20
0.9076273163246
 42
0.0122953062107
 10
1.5280773125589
 20
0.9084027263509
 10
1.5236773125589
 20
0.9307027263508
 42
0.0122772601701
 10
1.5235063560418
 20
0.9314695264855
 10
1.5180063560418
 20
0.9535695264855
 42
0.0128366427642
 10
1.5177875883273
 20
0.9543612680613
 10
1.5148220234222
 20
0.9641116860066
 10
1.6291118842685
 20
1.0326856025144
 42
0.311953240282
 10
1.6366238237145
 20
1.0492568940951
 10
1.6665799521817
 20
1.0690054893258
 10
1.6665799521817
 20
1.0690054893258
 10
1.6341799521817
 20
1.1183054893258
 10
1.5487799521817
 20
1.0620054893258
 10
1.5677283215088
 20
1.0331735569855
  0
LWPOLYLINE
  5
137
330
1AA4
100
AcDbEntity
  8
ETCHING
100
AcDbPolyline
 90
       39
 70
     1
 43
0.0
 10
0.7115691171257
 20
1.4942500717978
 10
0.7115691171257
 20
1.4942500717978
 42
-0.4281673633388
 10
0.7194107264665
 20
1.516039324047
 10
0.7522107264665
 20
1.5305393240469
 42
-0.0103614917405
 10
0.7528225997073
 20
1.5307947949506
 10
0.7861225979834
 20
1.5438947942725
 42
-0.0115018553268
 10
0.7868135421409
 20
1.5441484153076
 10
0.8208135421409
 20
1.5557484153076
 42
-0.0114734629114
 10
0.8215136743744
 20
1.5559694849828
 10
0.8559136743744
 20
1.5659694849828
 42
-0.0108350777993
 10
0.8565835139569
 20
1.5661485603481
 10
0.891383512507
 20
1.574648559994
 42
-0.0114990020329
 10
0.8921021630536
 20
1.5748066744429
 10
0.9273021630536
 20
1.5817066744429
 42
-0.0106536178303
 10
0.9279738269604
 20
1.5818235347619
 10
0.9634738269604
 20
1.5872235347619
 42
-0.0771144044881
 10
0.9683799521817
 20
1.5872089699551
 42
-0.4609497022656
 10
0.9868799521817
 20
1.5714054893258
 10
0.9868799521817
 20
1.4726054893258
 10
1.0085299521817
 20
1.4726054893258
 10
1.0085299521817
 20
1.3702054893258
 10
0.9494299521817
 20
1.3702054893258
 10
0.9494299521817
 20
1.4726054893258
 10
0.9548799521817
 20
1.4726054893258
 10
0.9548799521817
 20
1.5535482023067
 10
0.9331231544833
 20
1.5502387175864
 10
0.8986188849813
 20
1.543475096576
 10
0.8645132514383
 20
1.5351446975785
 10
0.8307988328741
 20
1.5253439945075
 10
0.7974947518001
 20
1.5139814256704
 10
0.7648458894673
 20
1.5011375789269
 10
0.747693710313
 20
1.4935550607032
 10
0.7556742064137
 20
1.4775940685017
 10
0.7598799521817
 20
1.4800054893258
 10
0.7911799521817
 20
1.4254054893258
 10
0.7468799521817
 20
1.4000054893258
 10
0.7155799521817
 20
1.4546054893258
 10
0.7155799521817
 20
1.4546054893258
 10
0.7278685049672
 20
1.4616512961148
  0
LWPOLYLINE
  5
1D7
330
1AA4
100
AcDbEntity
  8
ETCHING
100
AcDbPolyline
 90
      138
 70
     1
 43
0.0
 10
0.5241651587147
 20
0.4135436569924
 10
0.468060635703
 20
0.3686600385831
 10
0.480019640989
 20
0.3527517803887
 10
0.5025103006499
 20
0.3258607742724
 10
0.5261967261781
 20
0.300118915124
 10
0.5511561969654
 20
0.2754530851695
 10
0.5771794887258
 20
0.2520712553547
 10
0.6043745624201
 20
0.2299630299773
 10
0.6325550738735
 20
0.2092190423797
 10
0.6617149743686
 20
0.189844343393
 10
0.691852138082
 20
0.1718403235123
 10
0.722664981456
 20
0.1554068070462
 10
0.7543593233995
 20
0.1404400344617
 10
0.7867531292554
 20
0.1270323262978
 10
0.819635199421
 20
0.115190866506
 10
0.8531907864783
 20
0.1049187480191
 10
0.8871603282602
 20
0.0963039939072
 10
0.9214001662201
 20
0.0892603700983
 10
0.9560145047678
 20
0.0839802167606
 10
0.9908539159008
 20
0.0803592667271
 10
1.0258935092555
 20
0.0784017475452
 10
1.0609333648953
 20
0.0781081174701
 10
1.0958515965448
 20
0.0794774598877
 10
1.1307708426194
 20
0.0826074763425
 10
1.165506206372
 20
0.0874019350013
 10
1.1998487443721
 20
0.0938595062492
 10
1.2340142549097
 20
0.1019848282396
 10
1.2676674915259
 20
0.1116699166843
 10
1.3007320240265
 20
0.12301750772
 10
1.33332116771
 20
0.1359357268378
 10
1.3652016736715
 20
0.1504090853725
 10
1.3963084011164
 20
0.1664515485831
 10
1.4266673900385
 20
0.18398141638
 10
1.456213895525
 20
0.2028637857804
 10
1.4846773450885
 20
0.2232087944031
 10
1.5121759040987
 20
0.2448357749769
 10
1.5385888501273
 20
0.2678248205944
 10
1.5639290776802
 20
0.2920888222666
 10
1.5880075845085
 20
0.3175376506218
 10
1.610909629369
 20
0.3440609589858
 10
1.6324200209369
 20
0.3716333699956
 10
1.6468533877031
 20
0.3921623819495
 10
1.5777338888416
 20
0.4336340812663
 10
1.5649799521817
 20
0.4124054893258
 10
1.5649799521817
 20
0.4124054893258
 10
1.4773799521817
 20
0.4650054893258
 10
1.5077799521817
 20
0.5156054893258
 10
1.5953799521817
 20
0.4630054893258
 10
1.5942136971022
 20
0.461064288437
 10
1.6791118842685
 20
0.4101253761372
 42
-0.558894318103
 10
1.6794139904271
 20
0.3828714510804
 42
-0.0125497057388
 10
1.6789687471219
 20
0.382203128378
 10
1.6583687471219
 20
0.352903128378
 42
-0.0124331869983
 10
1.6578951212592
 20
0.3522638680596
 10
1.6358951212592
 20
0.3240638680596
 42
-0.0124376234562
 10
1.6353901250462
 20
0.3234487348966
 10
1.6119901250462
 20
0.2963487348966
 42
-0.011369717723
 10
1.6115022405079
 20
0.2958090165248
 10
1.5869022405079
 20
0.2698090165248
 42
-0.0123390833619
 10
1.5863455914615
 20
0.2692490354004
 10
1.5604455914615
 20
0.2444490354004
 42
-0.0118766597451
 10
1.5598843438301
 20
0.2439366138149
 10
1.5328843438301
 20
0.2204366138149
 42
-0.0124409925981
 10
1.5322710257302
 20
0.2199290564429
 10
1.5041710257302
 20
0.1978290564429
 42
-0.0114670243375
 10
1.5035839940981
 20
0.1973887768369
 10
1.4744839940981
 20
0.1765887768369
 42
-0.0129805999778
 10
1.4737959417776
 20
0.1761234745177
 10
1.4435959417776
 20
0.1568234745177
 42
-0.0112516209001
 10
1.4429806701086
 20
0.1564494973853
 10
1.4119806701086
 20
0.1385494973853
 42
-0.0118764659128
 10
1.4113136822226
 20
0.138185207905
 10
1.3795136822226
 20
0.121785207905
 42
-0.0124961192699
 10
1.3787940644812
 20
0.1214365662877
 10
1.3461940644812
 20
0.1066365662877
 42
-0.0121929054417
 10
1.3454759672442
 20
0.1063314513272
 10
1.3121759672442
 20
0.0931314513272
 42
-0.0116995809384
 10
1.3114737199065
 20
0.0928719247483
 10
1.2776737199065
 20
0.0812719247483
 42
-0.0125960855042
 10
1.2769049993188
 20
0.0810295679604
 10
1.2425049993188
 20
0.0711295679604
 42
-0.0116843024893
 10
1.2417818606347
 20
0.0709396333003
 10
1.2068818606347
 20
0.0626396333003
 42
-0.0119058051419
 10
1.2061366828767
 20
0.0624810579021
 10
1.1710366828767
 20
0.0558810579021
 42
-0.0121762366812
 10
1.1702676613388
 20
0.0557557597179
 10
1.1347676613388
 20
0.0508557597179
 42
-0.0119417199934
 10
1.1340083988426
 20
0.0507693812646
 10
1.0983083988426
 20
0.0475693812646
 42
-0.0125510692679
 10
1.0975069212488
 20
0.0475177781141
 10
1.0618069212488
 20
0.0461177781141
 42
-0.0118944155721
 10
1.0610458786768
 20
0.0461060510764
 10
1.0252458786768
 20
0.0464060510764
 42
-0.0118579195979
 10
1.0244874890374
 20
0.0464303990432
 10
0.9886874890374
 20
0.0484303990432
 42
-0.0119387933864
 10
0.9879259393339
 20
0.0484912114126
 10
0.9523259401427
 20
0.0521912113285
 42
-0.0119542263205
 10
0.951567184347
 20
0.0522884557425
 10
0.916167184347
 20
0.0576884557425
 42
-0.0128778231617
 10
0.9153560323089
 20
0.0578336566106
 10
0.8803560323089
 20
0.0650336566106
 42
-0.0113710413309
 10
0.8796468224988
 20
0.0651964438716
 10
0.8449468224988
 20
0.0739964438717
 42
-0.0121751499349
 10
0.8441965212994
 20
0.0742062908118
 10
0.8098965238282
 20
0.0847062900377
 42
-0.0121497861423
 10
0.80915885423
 20
0.0849518619557
 10
0.77555885423
 20
0.0970518619557
 42
-0.0116925872327
 10
0.7748610071424
 20
0.0973217647746
 10
0.7417610085468
 20
0.1110217641933
 42
-0.0121881982924
 10
0.7410478512952
 20
0.1113375109778
 10
0.7086478512952
 20
0.1266375109778
 42
-0.0121950659543
 10
0.707950540417
 20
0.1269878422669
 10
0.676450540417
 20
0.143787842267
 42
-0.0121381528181
 10
0.6757742668218
 20
0.1441698885827
 10
0.6449742681477
 20
0.1625698877906
 42
-0.0119867220035
 10
0.6443253996912
 20
0.162978940628
 10
0.6145253996912
 20
0.182778940628
 42
-0.0120259658115
 10
0.6138948733269
 20
0.1832200991835
 10
0.5850948733269
 20
0.2044200991835
 42
-0.0120094681371
 10
0.58448710802
 20
0.2048903978349
 10
0.55668710802
 20
0.2274903978349
 42
-0.0123498515712
 10
0.5560864081006
 20
0.2280038879635
 10
0.5294864081006
 20
0.2519038879635
 42
-0.0118749077992
 10
0.5289333855885
 20
0.252425035035
 10
0.5034333855885
 20
0.277625035035
 42
-0.0118698980642
 10
0.5029059476598
 20
0.2781716157102
 10
0.4787059482915
 20
0.3044716150237
 42
-0.0118290683431
 10
0.4782067211777
 20
0.3050406074111
 10
0.4552067222593
 20
0.3325406061179
 42
-0.0129769626912
 10
0.4546906924263
 20
0.3331911856635
 10
0.4341144109651
 20
0.3605624251887
 42
-0.4348315895038
 10
0.4358848314208
 20
0.3838993902769
 10
0.5079816265055
 20
0.4415768263446
 10
0.4953799521817
 20
0.4634054893258
 10
0.4953799521817
 20
0.4634054893258
 10
0.5838799521817
 20
0.5145054893258
 10
0.6133799521817
 20
0.4634054893258
 10
0.5248799521817
 20
0.4123054893258
  0
LWPOLYLINE
  5
263
330
1AA4
100
AcDbEntity
  8
ETCHING
100
AcDbPolyline
 90
      135
 70
     1
 43
0.0
 10
1.7233799521817
 20
0.5056020086965
 42
0.3423964066847
 10
1.7405656647571
 20
0.5150549109148
 10
1.7549656647571
 20
0.5483549109148
 42
0.0124260755436
 10
1.7552630345912
 20
0.5490923581576
 10
1.7679630345912
 20
0.5829923581576
 42
0.0117924532537
 10
1.7682110305272
 20
0.5837050554233
 10
1.7793110305272
 20
0.6182050554233
 42
0.0128923902577
 10
1.7795433715907
 20
0.6189966378828
 10
1.7888433715907
 20
0.6539966378828
 42
0.0113842594327
 10
1.7890143752955
 20
0.6547047814733
 10
1.7967143752955
 20
0.6901047814733
 42
0.0125987406923
 10
1.7968658255567
 20
0.6908966194963
 10
1.8027658255567
 20
0.7265966194963
 42
0.0125970115082
 10
1.8028771853922
 20
0.727394971099
 10
1.8069771853923
 20
0.763394971099
 42
0.0118002526612
 10
1.8070449039179
 20
0.7641470394869
 10
1.8094449039179
 20
0.8003470394869
 42
0.0117172495684
 10
1.8094769616587
 20
0.8010961548884
 10
1.8101769616587
 20
0.8372961548884
 42
0.0124286398671
 10
1.8101725704614
 20
0.8380914528647
 10
1.8090725704614
 20
0.8742914528647
 42
0.0124463626653
 10
1.8090285743469
 20
0.87508668058
 10
1.806128574347
 20
0.91118668058
 42
0.0125052937964
 10
1.806044571285
 20
0.9119824728853
 10
1.801344571285
 20
0.9478824728853
 42
0.0118026911425
 10
1.801228881219
 20
0.9486288267442
 10
1.794828881219
 20
0.9843288267442
 42
0.0120430104879
 10
1.7946746666977
 20
0.9850838799088
 10
1.7865746666977
 20
1.0203838799088
 42
0.0127130128702
 10
1.7863726294886
 20
1.0211718934902
 10
1.7764726294886
 20
1.0560718934902
 42
0.0117736353097
 10
1.7762500162358
 20
1.0567916624052
 10
1.7647500162358
 20
1.0910916624052
 42
0.0124567756096
 10
1.7644778790925
 20
1.091840879095
 10
1.7512778790925
 20
1.125540879095
 42
0.0117858618822
 10
1.7509863425568
 20
1.1262364433304
 10
1.7361863425568
 20
1.1593364433304
 42
0.0123395700981
 10
1.7358463461933
 20
1.1600491073379
 10
1.7194463461933
 20
1.1923491073379
 42
0.0123320611304
 10
1.7190718424557
 20
1.1930437123395
 10
1.7010718424557
 20
1.2245437123395
 42
0.0124260755436
 10
1.7006603065619
 20
1.2252240765525
 10
1.6811603065619
 20
1.2557240765525
 42
0.0124497662902
 10
1.680714598395
 20
1.25638439002
 10
1.659714598395
 20
1.28588439002
 42
0.0113272833135
 10
1.6592809651466
 20
1.2864652292948
 10
1.6369809651466
 20
1.3149652292948
 42
0.0128131125895
 10
1.6364593333135
 20
1.3155977984841
 10
1.6126593333135
 20
1.3429977984841
 42
0.011691472959
 10
1.6121556468006
 20
1.3435509994584
 10
1.5871556468006
 20
1.3697509994584
 42
0.0126932186696
 10
1.5865801898998
 20
1.3703242143051
 10
1.5602801898998
 20
1.3952242143051
 42
0.0122096891509
 10
1.5596998844275
 20
1.3957473595274
 10
1.5321998844275
 20
1.4193473595274
 42
0.0113188205174
 10
1.5316396921508
 20
1.4198065022907
 10
1.5031396921508
 20
1.4421065022907
 42
0.0132506865573
 10
1.5024583109825
 20
1.4426111266519
 10
1.4727583109825
 20
1.4634111266519
 42
0.0114795449646
 10
1.472147088189
 20
1.46381860076
 10
1.441547088189
 20
1.48321860076
 42
0.0126729382321
 10
1.440851411084
 20
1.483635318282
 10
1.409351411084
 20
1.501435318282
 42
0.0120588355527
 10
1.4086706396693
 20
1.5017986350067
 10
1.3762706396693
 20
1.5180986350067
 42
0.0120430104879
 10
1.3755740684249
 20
1.5184282952884
 10
1.3424740684249
 20
1.5331282952884
 42
0.0126932186696
 10
1.3417236174506
 20
1.533439019025
 10
1.3079236174506
 20
1.546439019025
 42
0.0117926661982
 10
1.3072130984891
 20
1.5466932290604
 10
1.2728130984891
 20
1.5580932290604
 42
0.0122282917391
 10
1.2720645321122
 20
1.5583211428902
 10
1.2371645321122
 20
1.5680211428902
 42
0.0120581643586
 10
1.2364163360745
 20
1.5682097832529
 10
1.2011163360745
 20
1.5762097832529
 42
0.0120486098094
 10
1.2003605175242
 20
1.5763620262669
 10
1.1646605175242
 20
1.5826620262669
 42
0.0125799646686
 10
1.1638645079351
 20
1.5827819353532
 10
1.1278645079351
 20
1.5872819353532
 42
0.0704280647742
 10
1.1233799521817
 20
1.5872089699551
 42
0.4609497022656
 10
1.1048799521817
 20
1.5714054893258
 10
1.1048799521817
 20
1.4726054893258
 10
1.0832299521817
 20
1.4726054893258
 10
1.0832299521817
 20
1.3702054893258
 10
1.1423299521817
 20
1.3702054893258
 10
1.1423299521817
 20
1.4726054893258
 10
1.1368799521817
 20
1.4726054893258
 10
1.1368799521817
 20
1.5539059738292
 10
1.1594958829434
 20
1.5510789824839
 10
1.1944196429803
 20
1.5449159660069
 10
1.2289671952832
 20
1.5370864923971
 10
1.2631183016493
 20
1.5275946376192
 10
1.2967885481623
 20
1.5164364745305
 10
1.3298571167062
 20
1.5037177943214
 10
1.3622335796378
 20
1.4893391234726
 10
1.3939444971724
 20
1.473385791503
 10
1.4247553728434
 20
1.4559752014413
 10
1.4547025265445
 20
1.4369890974609
 10
1.4837542150029
 20
1.4166431338267
 10
1.511634918454
 20
1.3948277062141
 10
1.5385634788069
 20
1.3717181053294
 10
1.5642847088993
 20
1.3473660661925
 10
1.588745945688
 20
1.3217306900379
 10
1.6120316486222
 20
1.2949227799372
 10
1.6338555424171
 20
1.2670312564774
 10
1.6544142298621
 20
1.2381511955428
 10
1.6734853742917
 20
1.2083219696399
 10
1.691092242825
 20
1.1775099497067
 10
1.7071347646813
 20
1.1459140072702
 10
1.7216195945759
 20
1.113518880952
 10
1.7345366224265
 20
1.0805413174243
 10
1.7457901060296
 20
1.0469765793734
 10
1.7554762366242
 20
1.0128305230347
 10
1.7633990359728
 20
0.9783027678487
 10
1.7696643679001
 20
0.9433539631922
 10
1.7742633783743
 20
0.908225351272
 10
1.7770994327332
 20
0.8729213642524
 10
1.7781752523041
 20
0.8375171201906
 10
1.7774901927977
 20
0.8020897571439
 10
1.7751399838753
 20
0.7666407725649
 10
1.7711283404484
 20
0.7314165863774
 10
1.7653598261918
 20
0.6965121865533
 10
1.7578229681847
 20
0.6618622159753
 10
1.7487224962182
 20
0.6276131279292
 10
1.7378644661859
 20
0.5938651967479
 10
1.7254363896989
 20
0.5606910398259
 10
1.7170185317652
 20
0.5412247433541
 10
1.6596390970469
 20
0.5699144607132
 10
1.6643799521817
 20
0.5778054893258
 10
1.5767799521817
 20
0.6304054893258
 10
1.5463799521817
 20
0.5798054893258
 10
1.6339799521817
 20
0.5272054893258
 10
1.6339799521817
 20
0.5272054893258
 10
1.6431098650673
 20
0.542401989063
 10
1.7137245346537
 20
0.5070946542698
 42
0.1563917595185
  0
LWPOLYLINE
  5
3EE
330
1AA4
100
AcDbEntity
  8
SINGLE
  6
ByBlock
100
AcDbPolyline
 90
        8
 70
   128
 43
0.0
 10
0.9548799521817
 20
0.3170658791186129
 10
0.9548799521817
 20
0.2726054893258
 10
0.9494299521817
 20
0.2726054893258
 10
0.9494299521817
 20
0.1702054893258
 10
1.0085299521817
 20
0.1702054893258
 10
1.0085299521817
 20
0.2726054893258
 10
0.9868799521817
 20
0.2726054893258
 10
0.9868799521817
 20
0.331125181339313
 42
0.459975554016
  0
LWPOLYLINE
  5
3F8
330
1AA4
100
AcDbEntity
  8
SINGLE
  6
ByBlock
100
AcDbPolyline
 90
       11
 70
   128
 43
0.0
 10
0.5707406944235347
 20
0.6526928412538295
 10
0.5180446240682
 20
0.6284880407359
 10
0.5168799521817
 20
0.6305054893258
 10
0.4948280739041
 20
0.6177727098909
 10
0.4691750213423
 20
0.6059328394778
 42
0.1701002233275
 10
0.4615747792954
 20
0.5985722200095
 10
0.4283799521817
 20
0.5794054893258
 10
0.4578799521817
 20
0.5283054893258
 10
0.5463799521817
 20
0.5794054893258
 10
0.5341102642486
 20
0.6006590843557
 10
0.5821645129029347
 20
0.6227215056270295
  0
LWPOLYLINE
  5
40C
330
1AA4
100
AcDbEntity
  8
OUTSIDE
  6
ByBlock
100
AcDbPolyline
 90
      135
 70
   129
 43
0.0
 10
0.2572094762382
 20
0.723572142192
 10
0.2595275505225
 20
0.7047377886322
 10
0.2661855692982
 20
0.6662802771962
 10
0.2747323961954
 20
0.6282170829913
 10
0.2850660193514
 20
0.5906583372894
 10
0.2973877412947
 20
0.5535938027343
 10
0.3114014599455
 20
0.5172177670875
 10
0.3272008707416
 20
0.481544883592
 10
0.3447918345936
 20
0.4466611078177
 10
0.3639727091916
 20
0.412672200499
 10
0.3848394911862
 20
0.3796828118217
 10
0.4072949656198
 20
0.3477880892856
 10
0.4313439438039
 20
0.3170809229265
 10
0.4567875003411
 20
0.2875624217876
 10
0.4837166067186
 20
0.2592421438629
 10
0.5120368846438
 20
0.2323130374849
 10
0.5415553857821
 20
0.2068694809483
 10
0.5722625521416
 20
0.1828205027638
 10
0.6041572746777
 20
0.1603650283302
 10
0.6371466633549
 20
0.1394982463357
 10
0.6711355706739
 20
0.1203173717375
 10
0.7060193464477
 20
0.1027264078858
 10
0.7416922299435
 20
0.0869269970896
 10
0.7780682655901
 20
0.0729132784388
 10
0.8151328001453
 20
0.0605915564955
 10
0.8526915458472
 20
0.0502579333395
 10
0.8907547400522
 20
0.0417111064423
 10
0.9292122514879
 20
0.0350530876666
 10
0.9679705418534
 20
0.0302828365447
 10
1.0068286056742
 20
0.0274007806603
 10
1.0458799521816
 20
0.0264071077211
 10
1.0849312986895
 20
0.0274007806603
 10
1.12378936251
 20
0.0302828365447
 10
1.1625476528753
 20
0.0350530876665
 10
1.2010051643116
 20
0.0417111064423
 10
1.2390683585161
 20
0.0502579333394
 10
1.276627104218
 20
0.0605915564955
 10
1.3136916387729
 20
0.0729132784387
 10
1.3500676744201
 20
0.0869269970897
 10
1.3857405579156
 20
0.1027264078857
 10
1.4206243336897
 20
0.1203173717376
 10
1.4546132410085
 20
0.1394982463356
 10
1.4876026296856
 20
0.1603650283302
 10
1.5194973522218
 20
0.1828205027638
 10
1.5502045185814
 20
0.2068694809483
 10
1.5797230197197
 20
0.2323130374851
 10
1.6080432976444
 20
0.2592421438626
 10
1.6349724040228
 20
0.2875624217882
 10
1.6604159605588
 20
0.3170809229257
 10
1.6844649387441
 20
0.3477880892863
 10
1.7069204131771
 20
0.3796828118216
 10
1.7277871951719
 20
0.4126722004991
 10
1.7469680697698
 20
0.4466611078177
 10
1.7645590336217
 20
0.4815448835916
 10
1.7803584444177
 20
0.5172177670871
 10
1.7943721630687
 20
0.5535938027343
 10
1.8066938850119
 20
0.5906583372892
 10
1.8170275081682
 20
0.6282170829921
 10
1.8255743350652
 20
0.666280277196
 10
1.8322323538411
 20
0.7047377886329
 10
1.8370026049627
 20
0.7434960789962
 10
1.8398846608472
 20
0.7823541428182
 10
1.8408783337863
 20
0.8214054893257
 10
1.8398846608472
 20
0.8604568358342
 10
1.8370026049628
 20
0.8993148996542
 10
1.832232353841
 20
0.9380731900186
 10
1.8255743350652
 20
0.9765307014551
 10
1.817027508168
 20
1.01459389566
 10
1.8066938850116
 20
1.0521526413632
 10
1.7943721630689
 20
1.0892171759165
 10
1.7803584444177
 20
1.1255932115645
 10
1.7645590336217
 20
1.1612660950597
 10
1.7469680697701
 20
1.1961498708333
 10
1.7277871951715
 20
1.230138778153
 10
1.7069204131771
 20
1.2631281668299
 10
1.6844649387439
 20
1.2950228893656
 10
1.6604159605591
 20
1.3257300557255
 10
1.6349724040226
 20
1.3552485568635
 10
1.6080432976448
 20
1.3835688347885
 10
1.5797230197197
 20
1.4104979411665
 10
1.5502045185812
 20
1.4359414977034
 10
1.519497352221
 20
1.4599904758883
 10
1.4876026296868
 20
1.4824459503205
 10
1.4546132410076
 20
1.5033127323164
 10
1.4206243336892
 20
1.5224936069142
 10
1.3857405579163
 20
1.5400845707655
 10
1.3500676744201
 20
1.5558839815619
 10
1.3136916387733
 20
1.5698977002127
 10
1.2766271042179
 20
1.5822194221561
 10
1.2390683585157
 20
1.5925530453122
 10
1.2010051643123
 20
1.6010998722091
 10
1.162547652875
 20
1.607757890985
 10
1.1237893625092
 20
1.612528142107
 10
1.0849312986904
 20
1.6154101979912
 10
1.0458799521815
 20
1.6164038709304
 10
1.0068286056738
 20
1.6154101979913
 10
0.9679705418531
 20
1.6125281421069
 10
0.9292122514885
 20
1.6077578909851
 10
0.8907547400518
 20
1.6010998722092
 10
0.8526915458477
 20
1.5925530453122
 10
0.8151328001456
 20
1.5822194221561
 10
0.7780682655894
 20
1.5698977002124
 10
0.7416922299433
 20
1.5558839815619
 10
0.7060193464477
 20
1.5400845707658
 10
0.6711355706736
 20
1.5224936069139
 10
0.6371466633559
 20
1.5033127323165
 10
0.604157274677
 20
1.4824459503208
 10
0.5722625521419
 20
1.459990475888
 10
0.5415553857821
 20
1.4359414977033
 10
0.5120368846436
 20
1.4104979411664
 10
0.4837166067187
 20
1.3835688347887
 10
0.4567875003409
 20
1.3552485568637
 10
0.4313439438042
 20
1.3257300557254
 10
0.4072949656197
 20
1.2950228893658
 10
0.3848394911862
 20
1.2631281668299
 10
0.3639727091916
 20
1.2301387781525
 10
0.3447918345936
 20
1.1961498708338
 10
0.3272008707416
 20
1.1612660950595
 10
0.3114014599454
 20
1.1255932115638
 10
0.2973877412948
 20
1.0892171759176
 10
0.2850660193516
 20
1.0521526413625
 10
0.2747323961953
 20
1.0145938956597
 10
0.2661855692982
 20
0.9765307014556
 10
0.2595275505225
 20
0.9380731900193
 10
0.2576749860271
 20
0.9230211034945
 10
0.0952461763483
 20
0.9230211034945
 10
0.0952461763483
 20
0.947244106896
 10
0.0406430629181
 20
0.947244106896
 10
0.0406430629181
 20
0.9230211034945
 10
0.0137411345688
 20
0.9230211034945
 10
0.0137411345688
 20
0.723572142192
 10
0.0406430629181
 20
0.723572142192
 10
0.0406430629181
 20
0.6995598810266
 10
0.0952461763483
 20
0.6995598810266
 10
0.0952461763483
 20
0.723572142192
  0
CIRCLE
  5
4D4
330
1AA4
100
AcDbEntity
  8
CENTER_HOLE
  6
ByBlock
100
AcDbCircle
 10
1.0458799521815
 20
0.8232966228432499
 30
0.0
 40
0.4
  0
LWPOLYLINE
  5
501
330
1AA4
100
AcDbEntity
  8
ETCHING
100
AcDbPolyline
 90
        2
 70
     0
 43
0.0
 10
0.4580799521817
 20
1.1132054893258
 10
0.4580799521817
 20
1.1132054893258
  0
LWPOLYLINE
  5
6B7
330
1AA4
100
AcDbEntity
  8
ETCHING
100
AcDbPolyline
 90
        2
 70
     0
 43
0.0
 10
0.5224799521817
 20
1.2306054893258
 10
0.5224799521817
 20
1.2306054893258
  0
LWPOLYLINE
  5
70A
330
1AA4
100
AcDbEntity
  8
ETCHING
100
AcDbPolyline
 90
      101
 70
     0
 43
0.0
 10
1.210842115773878
 20
1.277124993682944
 10
1.190542115773878
 20
1.284624993682944
 42
0.0131701701172
 10
1.189744180829878
 20
1.284896136583144
 10
1.169144180829878
 20
1.291296136583144
 42
0.0109759064487
 10
1.168469020439478
 20
1.291489751759944
 10
1.147569020439478
 20
1.296989751759944
 42
0.0131712378614
 10
1.146748590960278
 20
1.297182700563144
 10
1.125548590960278
 20
1.301582700563144
 42
0.0104448728813
 10
1.124891444578278
 20
1.301704830749944
 10
1.103591444578278
 20
1.305204830749944
 42
0.0127959422379
 10
1.102780341017178
 20
1.305316878345744
 10
1.081380341017178
 20
1.307716878345744
 42
0.0117401844521999
 10
1.080631993251578
 20
1.307783057001044
 10
1.059031993251578
 20
1.309183057001044
 42
0.0115524837268
 10
1.058293373155078
 20
1.309213816384944
 10
1.036693373155078
 20
1.309613816384944
 42
0.0127288052424001
 10
1.035878881202578
 20
1.309608163855544
 10
1.014278881202678
 20
1.308908163855544
 42
0.0116279068522
 10
1.013535947695278
 20
1.308866776250644
 10
0.9920359476969238
 20
1.307166776250793
 42
0.0116504535653
 10
0.9912943139396778
 20
1.307090712282444
 10
0.9698943139396778
 20
1.304390712282444
 42
0.0116224224596999
 10
0.9691587922270778
 20
1.304280490117244
 10
0.9478587922270778
 20
1.300580490117244
 42
0.0117950531832001
 10
0.9471184038380779
 20
1.300433808621744
 10
0.9260184038390622
 20
1.29573380862195
 42
0.0131927091398
 10
0.9251995415905778
 20
1.295528591932044
 10
0.904399541591744
 20
1.289728591932471
 42
0.0109872501436
 10
0.9037265948843778
 20
1.289524905688444
 10
0.8832265948843778
 20
1.282824905688444
 42
0.0120754077572
 10
0.8824981247608779
 20
1.282567190122244
 10
0.8622981247608779
 20
1.274867190122244
 42
0.0113937743486
 10
0.8616229307394778
 20
1.274592035773844
 10
0.8418229307390965
 20
1.265992035773647
 42
0.0124400343746
 10
0.8411009063899778
 20
1.265656839628744
 10
0.8217009063903362
 20
1.256056839628923
 42
0.0118963434063
 10
0.8210268407520779
 20
1.255703075581644
 10
0.8021268407521779
 20
1.245203075581644
 42
0.0125071235364
 10
0.8014371655722778
 20
1.244797024605944
 10
0.7831371655726483
 20
1.233397024606204
 42
0.0118864437052
 10
0.7825013076534778
 20
1.232979615745444
 10
0.7647013076534779
 20
1.220679615745444
 42
0.0106363859909
 10
0.7641496987036779
 20
1.220280849770944
 10
0.7469496987036779
 20
1.207280849770944
 42
0.0132177208651999
 10
0.7462886721548778
 20
1.206753214968444
 10
0.7297886721543727
 20
1.19285321496807
 42
0.0115312984162999
 10
0.7292354427164779
 20
1.192364912256144
 10
0.7133354427164779
 20
1.177664912256144
 42
0.0114333623006
 10
0.7130081615957982
 20
1.176957636763224
 10
0.6871374119078536
 20
1.151718309355838
 42
0.0131522162554999
 10
0.6881044538229669
 20
1.152807076826694
 10
0.6758051401123762
 20
1.138959597754005
 10
0.6069523723624
 20
1.1718891823301
 10
0.6120799521817
 20
1.1812054893258
 10
0.5224799521817
 20
1.2306054893258
 10
0.4940799521817
 20
1.1790054893258
 10
0.5836799521817
 20
1.1296054893258
 10
0.5914974999839
 20
1.1438092029383
 10
0.6708618457758423
 20
1.105852341907363
 42
0.32769457903969
 10
0.6874715775787669
 20
1.110172915820594
 42
0.1865725398409181
 10
0.6977297491011669
 20
1.115456659281393
 10
0.7117502117761669
 20
1.131241935439993
 10
0.7263974678740669
 20
1.146081918591894
 10
0.7505223571179391
 20
1.168478276582777
 10
0.7665820452204778
 20
1.182007347166144
 10
0.7831729940316778
 20
1.194547017779344
 10
0.8003799808766778
 20
1.206437239026144
 10
0.8180173314656778
 20
1.217424441032444
 10
0.8362345908212778
 20
1.227545140674444
 10
0.8549365072268779
 20
1.236799697246244
 10
0.8740368630040778
 20
1.245095811371744
 10
0.8935350079559778
 20
1.252528272566244
 10
0.9133334252793779
 20
1.258998974813344
 10
0.9333879904198779
 20
1.264591113169944
 10
0.9537073876251778
 20
1.269117234822244
 10
0.9742689834400778
 20
1.272688967428644
 10
0.9949300107795779
 20
1.275295732560244
 10
1.015687322171078
 20
1.276937008344644
 10
1.036508200084178
 20
1.277611759017744
 10
1.057331216703878
 20
1.277226147598844
 10
1.078187311109478
 20
1.275874363702244
 10
1.098806928515278
 20
1.273561883245544
 10
1.119372961759278
 20
1.270182488111544
 10
1.139832907787478
 20
1.265936084218844
 10
1.160999092615933
 20
1.260366035579804
 10
1.180641315487459
 20
1.254263597406123
 10
1.208142088469469
 20
1.24425766804904
 10
1.227370442856469
 20
1.23614117675004
 10
1.246541148415358
 20
1.226998224868164
 42
0.3664702910348998
 10
1.264071796508812
 20
1.229493139814303
 10
1.3057873257423
 20
1.289086753005
 10
1.3165799521817
 20
1.2800054893258
 10
1.3570799521817
 20
1.3281054893258
 10
1.3179799521817
 20
1.3610054893258
 10
1.2774799521817
 20
1.3129054893258
 10
1.2812052520478
 20
1.3097709019704
 10
1.24769594667447
 20
1.261900465722844
 10
1.240816269211569
 20
1.26518154266664
 42
0.0113993708533001
 10
1.240150864354869
 20
1.26548046653804
 10
1.211519283192378
 20
1.276658696907924
 42
0.0113798670695001
 10
1.210842115773878
 20
1.276926548656524
 42
0.0113798670695001
  0
LWPOLYLINE
  5
1470
330
1AA4
100
AcDbEntity
  8
ETCHING
100
AcDbPolyline
 90
        2
 70
     0
 43
0.0
 10
1.5929799521817
 20
1.1808054893258
 10
1.5929799521817
 20
1.1808054893258
  0
LWPOLYLINE
  5
148D
330
1AA4
100
AcDbEntity
  8
ETCHING
100
AcDbPolyline
 90
       37
 70
     0
 43
0.0
 10
1.410136427783722
 20
1.147364118253673
 42
-0.0087640996538
 10
1.41013644235783
 20
1.147364102257723
 10
1.397836427114892
 20
1.160864118987754
 42
0.0116200868039001
 10
1.397322995938238
 20
1.161401985761856
 10
1.384422979795144
 20
1.174302001904971
 42
0.0116207228998
 10
1.383885149991115
 20
1.174815398149869
 10
1.370385125745524
 20
1.187115420240253
 42
0.0087634478688
 10
1.369964018291481
 20
1.187485799669222
 10
1.356064017393222
 20
1.199285800431773
 42
0.012627879738
 10
1.355434991300222
 20
1.199793027975673
 10
1.353515119726322
 20
1.201262722766773
 10
1.397963188291784
 20
1.26052681418742
 10
1.4142799521817
 20
1.2799054893258
 10
1.3751799521817
 20
1.3128054893258
 10
1.3346799521817
 20
1.2647054893258
 10
1.350876176099143
 20
1.251077464597226
 10
1.318409286387316
 20
1.207788278314733
 42
0.4113294138784014
 10
1.321483581474422
 20
1.185483528653773
 10
1.335662662198422
 20
1.174629197892673
 10
1.349040754861922
 20
1.163272255919373
 10
1.362058545243122
 20
1.151411602460873
 10
1.374432610533422
 20
1.139037537170573
 10
1.386293263992522
 20
1.126019746788673
 10
1.397650205964922
 20
1.112641654126273
 10
1.408504536726322
 20
1.098462573401873
 42
0.0889458530999002
 10
1.412675248141922
 20
1.094654240069373
 42
0.4077352686541011
 10
1.434441218474122
 20
1.089468391503373
 10
1.503410400045746
 20
1.130849900446238
 10
1.5075799521817
 20
1.1245054893258
 10
1.5929799521817
 20
1.1808054893258
 10
1.5605799521817
 20
1.2301054893258
 10
1.4751799521817
 20
1.1738054893258
 10
1.485820842511346
 20
1.157614258052637
 10
1.429425675012622
 20
1.123777157553473
 10
1.422814035636701
 20
1.132413983765245
 42
0.0126279008832999
 10
1.422306809161081
 20
1.133043008547051
 10
1.410506808504422
 20
1.146943009320573
  0
LWPOLYLINE
  5
15AB
330
1AA4
100
AcDbEntity
  8
ETCHING
100
AcDbPolyline
 90
        2
 70
     0
 43
0.0
 10
1.3751799521817
 20
1.3128054893258
 10
1.3751799521817
 20
1.3128054893258
  0
LWPOLYLINE
  5
15AC
330
1AA4
100
AcDbEntity
  8
ETCHING
100
AcDbPolyline
 90
        2
 70
     0
 43
0.0
 10
1.3179799521817
 20
1.3610054893258
 10
1.3179799521817
 20
1.3610054893258
  0
LWPOLYLINE
  5
1632
330
1AA4
100
AcDbEntity
  8
SINGLE
  6
ByBlock
100
AcDbPolyline
 90
        2
 70
   128
 43
0.0
 10
0.2095801207981971
 20
0.8204197004219864
 10
0.6057891892019978
 20
0.8204197004219864
  0
LWPOLYLINE
  5
1633
330
1AA4
100
AcDbEntity
  8
ETCHING
100
AcDbPolyline
 90
        6
 70
     0
 43
0.0
 10
0.5336464209050097
 20
0.8104365077788209
 10
0.2388096849367723
 20
0.8104365077788209
 42
0.4142135623730951
 10
0.2288096849367723
 20
0.8004365077788209
 10
0.2288096849367722
 20
0.7654054893258
 42
0.4142135623730951
 10
0.2388096849367722
 20
0.7554054893258
 10
0.5195456647711097
 20
0.7554054893258
  0
LWPOLYLINE
  5
1636
330
1AA4
100
AcDbEntity
  8
ETCHING
100
AcDbPolyline
 90
      106
 70
     1
 43
0.0
 10
0.6202973441353626
 20
1.027085337168957
 42
-0.3965553524126905
 10
0.6259311045646383
 20
1.007639852862536
 10
0.617975191066238
 20
0.9889778335453355
 10
0.611036589346838
 20
0.9703785261586355
 10
0.604961034570238
 20
0.9513803628095355
 10
0.596179274496427
 20
0.9190179506857449
 10
0.5919810312953488
 20
0.9002657977208
 10
0.5885110202818489
 20
0.8806024019776
 10
0.5860093076915489
 20
0.8609735801155
 10
0.5844668071311488
 20
0.8411138854002
 10
0.5844157225949306
 20
0.8396105404772276
 42
-0.4042993427198543
 10
0.5744214909998583
 20
0.8299501502887154
 10
0.2958799521817
 20
0.8299501502887153
 10
0.2388096849367722
 20
0.8299501502887153
 42
-0.4142135623730951
 10
0.2288096849367722
 20
0.8399501502887153
 10
0.2288096849367723
 20
0.8774054893257999
 42
-0.4142135623730944
 10
0.2388096849367722
 20
0.8874054893257999
 10
0.2806489452648
 20
0.8874054893258
 10
0.2815993413709197
 20
0.9066929397140006
 42
-0.0123924000099018
 10
0.2816579843050364
 20
0.9074837601943674
 10
0.2850579843050596
 20
0.9417837601946017
 42
-0.0123079577027872
 10
0.2851549399409942
 20
0.9425653595727509
 10
0.2902549399407305
 20
0.976765359571063
 42
-0.0112024275165094
 10
0.2903765288535773
 20
0.9774718382585598
 10
0.296976528616941
 20
1.011271837046595
 42
-0.0125083176486765
 10
0.2971495258867839
 20
1.012053327562788
 10
0.305449527035388
 20
1.045553332198725
 42
-0.0112452896573024
 10
0.3056382458214135
 20
1.046247740524606
 10
0.3154382475295673
 20
1.079347746293978
 42
-0.0130625960386774
 10
0.3156963958145346
 20
1.080142747734333
 10
0.3271963994841679
 20
1.112642758105025
 42
-0.0107754962153758
 10
0.3274403657332301
 20
1.11328768574837
 10
0.3403403698471654
 20
1.14528769595347
 42
-0.0126575832339837
 10
0.340662119448226
 20
1.146031002891393
 10
0.3551621194487942
 20
1.177331002892619
 42
-0.0113468592280069
 10
0.3554822050503386
 20
1.177982750090654
 10
0.3713822050503842
 20
1.208582750090747
 42
-0.0123208938526898
 10
0.3717628543144006
 20
1.209273190765815
 10
0.3891628538154409
 20
1.239073189911275
 42
-0.0120626775250319
 10
0.389568036618391
 20
1.239730196823617
 10
0.4083680404363236
 20
1.268630202692676
 42
-0.0114680906919666
 10
0.4087822039151934
 20
1.269236005924627
 10
0.4288822075541031
 20
1.297236010993752
 42
-0.0120174286314162
 10
0.4293455435587928
 20
1.297849764084429
 10
0.4508455473474892
 20
1.324949768859952
 42
-0.0122435338578559
 10
0.4513473576984332
 20
1.325551420768725
 10
0.4740473648108867
 20
1.351451428883813
 42
-0.0113154278974582
 10
0.4745368266653389
 20
1.351985031433349
 10
0.4984368286989139
 20
1.37688503355201
 42
-0.0128207080002052
 10
0.4990199128076419
 20
1.377462141371657
 10
0.524119911687763
 20
1.401062140318698
 42
-0.0112601242925257
 10
0.5246558499204859
 20
1.401543779652153
 10
0.5508558576325445
 20
1.42404378627511
 42
-0.0118775636028127
 10
0.5514440501718071
 20
1.424525118149617
 10
0.578644058410374
 20
1.445725124570848
 42
-0.012301449195514
 10
0.5792766416256387
 20
1.446193616571745
 10
0.6075766505189562
 20
1.466093622825355
 42
-0.0122565861449475
 10
0.6082290613814719
 20
1.466528886329641
 10
0.6373290716286955
 20
1.484928892808997
 42
-0.6933185456312172
 10
0.6612105673736999
 20
1.466825943733
 10
0.6798582089026
 20
1.4341925710574
 10
0.6948799521817
 20
1.4428054893258
 10
0.7261799521817
 20
1.3882054893258
 10
0.6818799521817
 20
1.3628054893258
 10
0.6505799521817
 20
1.4174054893258
 10
0.6520975662405
 20
1.4182756337297
 10
0.6360915705247
 20
1.4462861262322
 10
0.6256623840613
 20
1.439691726544
 10
0.598005318348
 20
1.420243825212
 10
0.5714156683172
 20
1.3995195391586
 10
0.545777447566
 20
1.3775019831699
 10
0.5212389337571
 20
1.3544299144094
 10
0.4978738473407
 20
1.3300872093145
 10
0.4756708192889
 20
1.3047542389823
 10
0.4546534056065
 20
1.2782625222012
 10
0.4349917305082
 20
1.2508731240543
 10
0.4166023855622
 20
1.2226043969831
 10
0.3995958828191
 20
1.1934783175725
 10
0.3840451383501
 20
1.1635504697266
 10
0.3698680696925
 20
1.1329475560035
 10
0.3572484719769
 20
1.1016431275617
 10
0.3460029692467
 20
1.0698623589764
 10
0.3364238277451
 20
1.037508319823
 10
0.3283066537729
 20
1.0047462321039
 10
0.3218520852357
 20
0.9716910174739
 10
0.31686306359
 20
0.9382352252616
 10
0.3135410431944
 20
0.9047219018591
 10
0.3132047755054412
 20
0.8978976458181386
 42
0.4287089548312945
 10
0.3231926572622027
 20
0.8874054893258
 10
0.548827305515727
 20
0.8874054893258
 42
0.363930803762578
 10
0.5586751411039068
 20
0.8956676359867121
 10
0.5605313326358058
 20
0.9061860546674885
 42
-0.0113946242069931
 10
0.5606743793315702
 20
0.9069010468426016
 10
0.5651743794544165
 20
0.9270010473913154
 42
-0.0111822844821378
 10
0.5653462888350858
 20
0.9276956664328491
 10
0.5707462893581647
 20
0.9475956683607571
 42
-0.0111361481766472
 10
0.5709481848264957
 20
0.9482790925823901
 10
0.5772481852653386
 20
0.9679790939547183
 42
-0.0118874043674276
 10
0.5774970484202033
 20
0.9686979200178181
 10
0.5913344037500985
 20
1.005789719721565
 10
0.5320605806849
 20
1.0354266312542
 10
0.5192799521817
 20
1.0122054893258
 10
0.4296799521817
 20
1.0616054893258
 10
0.4580799521817
 20
1.1132054893258
 10
0.5476799521817
 20
1.0638054893258
 10
0.5475023631922
 20
1.0634828276405
  0
LWPOLYLINE
  5
165E
330
1AA4
100
AcDbEntity
  8
SINGLE
  6
ByBlock
100
AcDbPolyline
 90
        2
 70
   128
 43
0.0
 10
0.4242917095715377
 20
0.9973770771065968
 10
0.4242917095715377
 20
0.9143360534092917
  0
LWPOLYLINE
  5
1662
330
1AA4
100
AcDbEntity
  8
SINGLE
  6
ByBlock
100
AcDbPolyline
 90
        2
 70
   128
 43
0.0
 10
0.3951720813069901
 20
0.710637135021706
 10
0.462644405944836
 20
0.710637135021706
  0
LWPOLYLINE
  5
1663
330
1AA4
100
AcDbEntity
  8
SINGLE
  6
ByBlock
100
AcDbPolyline
 90
        2
 70
   128
 43
0.0
 10
0.3873594929418616
 20
0.9569211950300813
 10
0.459093223327379
 20
0.9569211950300813
  0
LWPOLYLINE
  5
169D
330
1AA4
100
AcDbEntity
  8
ETCHING
100
AcDbPolyline
 90
        2
 70
     0
 43
0.0
 10
0.6505799521817
 20
1.4174054893258
 10
0.6505799521817
 20
1.4174054893258
  0
TEXT
  5
1702
330
1AA4
100
AcDbEntity
  8
OUTSIDE
  6
ByBlock
100
AcDbText
 10
1.866838262448667
 20
1.33118780687811
 30
0.0
 40
0.1
  1
Outer
100
AcDbText
  0
TEXT
  5
1703
330
1AA4
100
AcDbEntity
  8
OUTSIDE
  6
ByBlock
100
AcDbText
 10
1.866838262448667
 20
1.18118780687811
 30
0.0
 40
0.1
  1
Profile
100
AcDbText
  0
TEXT
  5
1705
330
1AA4
100
AcDbEntity
  8
CENTER_HOLE
  6
ByBlock
100
AcDbText
 10
0.7829712519034311
 20
0.9130028972976645
 30
0.0
 40
0.1
  1
Inner
100
AcDbText
  0
TEXT
  5
1706
330
1AA4
100
AcDbEntity
  8
CENTER_HOLE
  6
ByBlock
100
AcDbText
 10
0.7829712519034311
 20
0.7630028972976645
 30
0.0
 40
0.1
  1
Profile
100
AcDbText
  0
TEXT
  5
1AFD
330
1AA4
100
AcDbEntity
  8
SINGLE
  6
ByBlock
100
AcDbText
 10
2.104900956909283
 20
0.8671972479223827
 30
0.0
 40
0.1
  1
Etch 0.005" deep using
100
AcDbText
  0
TEXT
  5
1AFE
330
1AA4
100
AcDbEntity
  8
SINGLE
  6
ByBlock
100
AcDbText
 10
2.104900956909283
 20
0.7171972479223827
 30
0.0
 40
0.1
  1
60%%d cutter
100
AcDbText
  0
TEXT
  5
1B09
330
1AA4
100
AcDbEntity
  8
ETCHING
  6
ByBlock
100
AcDbText
 10
2.110234948102911
 20
0.5204878203365542
 30
0.0
 40
0.1
  1
Outer Profile 0.005" deep 
100
AcDbText
  0
TEXT
  5
1B0A
330
1AA4
100
AcDbEntity
  8
ETCHING
  6
ByBlock
100
AcDbText
 10
2.110234948102911
 20
0.3704878203365541
 30
0.0
 40
0.1
  1
using 60%%d cutter
100
AcDbText
  0
ENDSEC
  0
SECTION
  2
OBJECTS
  0
DICTIONARY
  5
1A94
330
0
100
AcDbDictionary
281
     1
  3
ACAD_DETAILVIEWSTYLE
350
1B04
  3
ACAD_GROUP
350
1A95
  3
ACAD_IMAGE_VARS
350
1AF9
  3
ACAD_LAYOUT
350
1AA1
  3
ACAD_MLINESTYLE
350
1A9E
  3
ACAD_PLOTSETTINGS
350
1AA0
  3
ACAD_PLOTSTYLENAME
350
1A96
  3
ACAD_SCALELIST
350
1AB8
  3
ACAD_SECTIONVIEWSTYLE
350
1B05
  3
AcDbVariableDictionary
350
1AFF
  3
APPDATA
350
1AF7
  3
DWGPROPS
350
1B0C
  0
DICTIONARY
  5
1AFA
330
1A8A
100
AcDbDictionary
280
     1
281
     1
  3
ACAD_LAYERSTATES
360
1AFB
  0
DICTIONARY
  5
1B04
102
{ACAD_REACTORS
330
1A94
102
}
330
1A94
100
AcDbDictionary
281
     1
  0
DICTIONARY
  5
1A95
102
{ACAD_REACTORS
330
1A94
102
}
330
1A94
100
AcDbDictionary
281
     1
  0
RASTERVARIABLES
  5
1AF9
102
{ACAD_REACTORS
330
1A94
102
}
330
1A94
100
AcDbRasterVariables
 90
        0
 70
     1
 71
     1
 72
     0
  0
DICTIONARY
  5
1AA1
102
{ACAD_REACTORS
330
1A94
102
}
330
1A94
100
AcDbDictionary
281
     1
  3
Model
350
1AA5
  3
Sheet 1
350
1AA3
  0
DICTIONARY
  5
1A9E
102
{ACAD_REACTORS
330
1A94
102
}
330
1A94
100
AcDbDictionary
281
     1
  3
Standard
350
1A9F
  0
DICTIONARY
  5
1AA0
102
{ACAD_REACTORS
330
1A94
102
}
330
1A94
100
AcDbDictionary
281
     1
  0
ACDBDICTIONARYWDFLT
  5
1A96
102
{ACAD_REACTORS
330
1A94
102
}
330
1A94
100
AcDbDictionary
281
     1
  3
Normal
350
1A97
100
AcDbDictionaryWithDefault
340
1A97
  0
DICTIONARY
  5
1AB8
102
{ACAD_REACTORS
330
1A94
102
}
330
1A94
100
AcDbDictionary
281
     1
  3
A0
350
1AB9
  3
A1
350
1ABA
  3
A2
350
1ABB
  3
A3
350
1ABC
  3
A4
350
1ABD
  3
A5
350
1ABE
  3
A6
350
1ABF
  3
A7
350
1AC0
  3
A8
350
1AC1
  3
A9
350
1AC2
  3
B0
350
1AC3
  3
B1
350
1AC4
  3
B2
350
1AC5
  3
B3
350
1AC6
  3
B4
350
1AC7
  3
B5
350
1AC8
  3
B6
350
1AC9
  3
B7
350
1ACA
  3
B8
350
1ACB
  3
B9
350
1ACC
  3
C0
350
1ACD
  3
C1
350
1ACE
  3
C2
350
1ACF
  3
C3
350
1AD0
  3
C4
350
1AD1
  3
C5
350
1AD2
  3
C6
350
1AD3
  3
C7
350
1AD4
  3
C8
350
1AD5
  3
C9
350
1AD6
  3
D0
350
1AD7
  3
D1
350
1AD8
  3
D2
350
1AD9
  0
DICTIONARY
  5
1B05
102
{ACAD_REACTORS
330
1A94
102
}
330
1A94
100
AcDbDictionary
281
     1
  0
DICTIONARY
  5
1AFF
102
{ACAD_REACTORS
330
1A94
102
}
330
1A94
100
AcDbDictionary
281
     1
  0
DICTIONARY
  5
1AF7
102
{ACAD_REACTORS
330
1A94
102
}
330
1A94
100
AcDbDictionary
281
     1
  0
XRECORD
  5
1B0C
102
{ACAD_REACTORS
330
1A94
102
}
330
1A94
100
AcDbXrecord
280
     1
  1
DWGPROPS COOKIE
  2

  3

  4

  6

  7

  8
George
  9

300
=
301
=
302
=
303
=
304
=
305
=
306
=
307
=
308
=
309
=
 40
0.0
 41
2456135.597428044
 42
2457961.632351181
  1

 90
        0
  0
DICTIONARY
  5
1AFB
102
{ACAD_REACTORS
330
1AFA
102
}
330
1AFA
100
AcDbDictionary
281
     1
  0
LAYOUT
  5
1AA5
102
{ACAD_REACTORS
330
1AA1
102
}
330
1AA1
100
AcDbPlotSettings
  1

  2
none_device
  4
Letter_(8.50_x_11.00_Inches)
  6

 40
6.35
 41
6.35
 42
6.35
 43
6.35
 44
215.9
 45
279.4
 46
0.0
 47
0.0
 48
0.0
 49
0.0
140
0.0
141
0.0
142
1.0
143
1.0
 70
  1712
 72
     0
 73
     0
 74
     0
  7

 75
     0
147
1.0
148
0.0
149
0.0
100
AcDbLayout
  1
Model
 70
     1
 71
     0
 10
0.0
 20
0.0
 11
12.0
 21
9.0
 12
0.0
 22
0.0
 32
0.0
 14
0.0137411345688001
 24
0.0264071077211
 34
0.0
 15
3.719334948102911
 25
1.6164038709304
 35
0.0
146
0.0
 13
0.0
 23
0.0
 33
0.0
 16
1.0
 26
0.0
 36
0.0
 17
0.0
 27
1.0
 37
0.0
 76
     0
330
1AA4
331
1AA7
  0
LAYOUT
  5
1AA3
102
{ACAD_REACTORS
330
1AA1
102
}
330
1AA1
100
AcDbPlotSettings
  1

  2
none_device
  4

  6

 40
0.0
 41
0.0
 42
0.0
 43
0.0
 44
0.0
 45
0.0
 46
0.0
 47
0.0
 48
0.0
 49
0.0
140
0.0
141
0.0
142
1.0
143
1.0
 70
   688
 72
     0
 73
     0
 74
     5
  7

 75
    16
147
1.0
148
0.0
149
0.0
100
AcDbLayout
  1
Sheet 1
 70
     1
 71
     1
 10
0.0
 20
0.0
 11
0.0
 21
0.0
 12
0.0
 22
0.0
 32
0.0
 14
1.000000000000000E+20
 24
1.000000000000000E+20
 34
1.000000000000000E+20
 15
-1.000000000000000E+20
 25
-1.000000000000000E+20
 35
-1.000000000000000E+20
146
0.0
 13
0.0
 23
0.0
 33
0.0
 16
1.0
 26
0.0
 36
0.0
 17
0.0
 27
1.0
 37
0.0
 76
     0
330
1AA2
  0
MLINESTYLE
  5
1A9F
102
{ACAD_REACTORS
330
1A9E
102
}
330
1A9E
100
AcDbMlineStyle
  2
Standard
 70
     0
  3

 62
   256
 51
90.0
 52
90.0
 71
     2
 49
0.5
 62
   256
  6
BYLAYER
 49
-0.5
 62
   256
  6
BYLAYER
  0
ACDBPLACEHOLDER
  5
1A97
102
{ACAD_REACTORS
330
1A96
102
}
330
1A96
  0
SCALE
  5
1AB9
102
{ACAD_REACTORS
330
1AB8
102
}
330
1AB8
100
AcDbScale
 70
     0
300
1:1
140
1.0
141
1.0
290
     1
  0
SCALE
  5
1ABA
102
{ACAD_REACTORS
330
1AB8
102
}
330
1AB8
100
AcDbScale
 70
     0
300
1:2
140
1.0
141
2.0
290
     0
  0
SCALE
  5
1ABB
102
{ACAD_REACTORS
330
1AB8
102
}
330
1AB8
100
AcDbScale
 70
     0
300
1:4
140
1.0
141
4.0
290
     0
  0
SCALE
  5
1ABC
102
{ACAD_REACTORS
330
1AB8
102
}
330
1AB8
100
AcDbScale
 70
     0
300
1:5
140
1.0
141
5.0
290
     0
  0
SCALE
  5
1ABD
102
{ACAD_REACTORS
330
1AB8
102
}
330
1AB8
100
AcDbScale
 70
     0
300
1:8
140
1.0
141
8.0
290
     0
  0
SCALE
  5
1ABE
102
{ACAD_REACTORS
330
1AB8
102
}
330
1AB8
100
AcDbScale
 70
     0
300
1:10
140
1.0
141
10.0
290
     0
  0
SCALE
  5
1ABF
102
{ACAD_REACTORS
330
1AB8
102
}
330
1AB8
100
AcDbScale
 70
     0
300
1:16
140
1.0
141
16.0
290
     0
  0
SCALE
  5
1AC0
102
{ACAD_REACTORS
330
1AB8
102
}
330
1AB8
100
AcDbScale
 70
     0
300
1:20
140
1.0
141
20.0
290
     0
  0
SCALE
  5
1AC1
102
{ACAD_REACTORS
330
1AB8
102
}
330
1AB8
100
AcDbScale
 70
     0
300
1:30
140
1.0
141
30.0
290
     0
  0
SCALE
  5
1AC2
102
{ACAD_REACTORS
330
1AB8
102
}
330
1AB8
100
AcDbScale
 70
     0
300
1:40
140
1.0
141
40.0
290
     0
  0
SCALE
  5
1AC3
102
{ACAD_REACTORS
330
1AB8
102
}
330
1AB8
100
AcDbScale
 70
     0
300
1:50
140
1.0
141
50.0
290
     0
  0
SCALE
  5
1AC4
102
{ACAD_REACTORS
330
1AB8
102
}
330
1AB8
100
AcDbScale
 70
     0
300
1:100
140
1.0
141
100.0
290
     0
  0
SCALE
  5
1AC5
102
{ACAD_REACTORS
330
1AB8
102
}
330
1AB8
100
AcDbScale
 70
     0
300
2:1
140
2.0
141
1.0
290
     0
  0
SCALE
  5
1AC6
102
{ACAD_REACTORS
330
1AB8
102
}
330
1AB8
100
AcDbScale
 70
     0
300
4:1
140
4.0
141
1.0
290
     0
  0
SCALE
  5
1AC7
102
{ACAD_REACTORS
330
1AB8
102
}
330
1AB8
100
AcDbScale
 70
     0
300
8:1
140
8.0
141
1.0
290
     0
  0
SCALE
  5
1AC8
102
{ACAD_REACTORS
330
1AB8
102
}
330
1AB8
100
AcDbScale
 70
     0
300
10:1
140
10.0
141
1.0
290
     0
  0
SCALE
  5
1AC9
102
{ACAD_REACTORS
330
1AB8
102
}
330
1AB8
100
AcDbScale
 70
     0
300
100:1
140
100.0
141
1.0
290
     0
  0
SCALE
  5
1ACA
102
{ACAD_REACTORS
330
1AB8
102
}
330
1AB8
100
AcDbScale
 70
     0
300
1/128" = 1'-0"
140
0.0078125
141
12.0
290
     0
  0
SCALE
  5
1ACB
102
{ACAD_REACTORS
330
1AB8
102
}
330
1AB8
100
AcDbScale
 70
     0
300
1/64" = 1'-0"
140
0.015625
141
12.0
290
     0
  0
SCALE
  5
1ACC
102
{ACAD_REACTORS
330
1AB8
102
}
330
1AB8
100
AcDbScale
 70
     0
300
1/32" = 1'-0"
140
0.03125
141
12.0
290
     0
  0
SCALE
  5
1ACD
102
{ACAD_REACTORS
330
1AB8
102
}
330
1AB8
100
AcDbScale
 70
     0
300
1/16" = 1'-0"
140
0.0625
141
12.0
290
     0
  0
SCALE
  5
1ACE
102
{ACAD_REACTORS
330
1AB8
102
}
330
1AB8
100
AcDbScale
 70
     0
300
3/32" = 1'-0"
140
0.09375
141
12.0
290
     0
  0
SCALE
  5
1ACF
102
{ACAD_REACTORS
330
1AB8
102
}
330
1AB8
100
AcDbScale
 70
     0
300
1/8" = 1'-0"
140
0.125
141
12.0
290
     0
  0
SCALE
  5
1AD0
102
{ACAD_REACTORS
330
1AB8
102
}
330
1AB8
100
AcDbScale
 70
     0
300
3/16" = 1'-0"
140
0.1875
141
12.0
290
     0
  0
SCALE
  5
1AD1
102
{ACAD_REACTORS
330
1AB8
102
}
330
1AB8
100
AcDbScale
 70
     0
300
1/4" = 1'-0"
140
0.25
141
12.0
290
     0
  0
SCALE
  5
1AD2
102
{ACAD_REACTORS
330
1AB8
102
}
330
1AB8
100
AcDbScale
 70
     0
300
3/8" = 1'-0"
140
0.375
141
12.0
290
     0
  0
SCALE
  5
1AD3
102
{ACAD_REACTORS
330
1AB8
102
}
330
1AB8
100
AcDbScale
 70
     0
300
1/2" = 1'-0"
140
0.5
141
12.0
290
     0
  0
SCALE
  5
1AD4
102
{ACAD_REACTORS
330
1AB8
102
}
330
1AB8
100
AcDbScale
 70
     0
300
3/4" = 1'-0"
140
0.75
141
12.0
290
     0
  0
SCALE
  5
1AD5
102
{ACAD_REACTORS
330
1AB8
102
}
330
1AB8
100
AcDbScale
 70
     0
300
1" = 1'-0"
140
1.0
141
12.0
290
     0
  0
SCALE
  5
1AD6
102
{ACAD_REACTORS
330
1AB8
102
}
330
1AB8
100
AcDbScale
 70
     0
300
1-1/2" = 1'-0"
140
1.5
141
12.0
290
     0
  0
SCALE
  5
1AD7
102
{ACAD_REACTORS
330
1AB8
102
}
330
1AB8
100
AcDbScale
 70
     0
300
3" = 1'-0"
140
3.0
141
12.0
290
     0
  0
SCALE
  5
1AD8
102
{ACAD_REACTORS
330
1AB8
102
}
330
1AB8
100
AcDbScale
 70
     0
300
6" = 1'-0"
140
6.0
141
12.0
290
     0
  0
SCALE
  5
1AD9
102
{ACAD_REACTORS
330
1AB8
102
}
330
1AB8
100
AcDbScale
 70
     0
300
1'-0" = 1'-0"
140
12.0
141
12.0
290
     0
  0
ENDSEC
  0
EOF
