  0
SECTION
  2
HEADER
  9
$ACADVER
  1
AC1014
  9
$HANDSEED
  5
FFFF
  9
$MEASUREMENT
 70
     1
  0
ENDSEC
  0
SECTION
  2
TABLES
  0
TABLE
  2
VPORT
  5
8
330
0
100
AcDbSymbolTable
 70
     4
  0
VPORT
  5
2E
330
8
100
AcDbSymbolTableRecord
100
AcDbViewportTableRecord
  2
*ACTIVE
 70
     0
 10
0.0
 20
0.0
 11
1.0
 21
1.0
 12
210.0
 22
148.5
 13
0.0
 23
0.0
 14
10.0
 24
10.0
 15
10.0
 25
10.0
 16
0.0
 26
0.0
 36
1.0
 17
0.0
 27
0.0
 37
0.0
 40
341.0
 41
1.24
 42
50.0
 43
0.0
 44
0.0
 50
0.0
 51
0.0
 71
     0
 72
   100
 73
     1
 74
     3
 75
     0
 76
     0
 77
     0
 78
     0
  0
ENDTAB
  0
TABLE
  2
LTYPE
  5
5
330
0
100
AcDbSymbolTable
 70
     1
  0
LTYPE
  5
14
330
5
100
AcDbSymbolTableRecord
100
AcDbLinetypeTableRecord
  2
BYBLOCK
 70
     0
  3

 72
    65
 73
     0
 40
0.0
  0
LTYPE
  5
15
330
5
100
AcDbSymbolTableRecord
100
AcDbLinetypeTableRecord
  2
BYLAYER
 70
     0
  3

 72
    65
 73
     0
 40
0.0
  0
LTYPE
  5
16
330
5
100
AcDbSymbolTableRecord
100
AcDbLinetypeTableRecord
  2
CONTINUOUS
 70
     0
  3
Solid line
 72
    65
 73
     0
 40
0.0
  0
ENDTAB
  0
TABLE
  2
LAYER
  5
2
100
AcDbSymbolTable
 70
2
  0
LAYER
  5
50
100
AcDbSymbolTableRecord
100
AcDbLayerTableRecord
  2
0
 70
0
  6
CONTINUOUS
  0
LAYER
  5
51
100
AcDbSymbolTableRecord
100
AcDbLayerTableRecord
  2
Layer_1
 70
0
  6
CONTINUOUS
  0
ENDTAB
  0
TABLE
  2
STYLE
  5
3
330
0
100
AcDbSymbolTable
 70
     1
  0
STYLE
  5
11
330
3
100
AcDbSymbolTableRecord
100
AcDbTextStyleTableRecord
  2
STANDARD
 70
     0
 40
0.0
 41
1.0
 50
0.0
 71
     0
 42
2.5
  3
txt
  4

  0
ENDTAB
  0
TABLE
  2
VIEW
  5
6
330
0
100
AcDbSymbolTable
 70
     0
  0
ENDTAB
  0
TABLE
  2
UCS
  5
7
330
0
100
AcDbSymbolTable
 70
     0
  0
ENDTAB
  0
TABLE
  2
APPID
  5
9
330
0
100
AcDbSymbolTable
 70
     2
  0
APPID
  5
12
330
9
100
AcDbSymbolTableRecord
100
AcDbRegAppTableRecord
  2
ACAD
 70
     0
  0
ENDTAB
  0
TABLE
  2
DIMSTYLE
  5
A
330
0
100
AcDbSymbolTable
 70
     1
  0
DIMSTYLE
105
27
330
A
100
AcDbSymbolTableRecord
100
AcDbDimStyleTableRecord
  2
ISO-25
 70
     0
  3

  4

  5

  6

  7

 40
1.0
 41
2.5
 42
0.625
 43
3.75
 44
1.25
 45
0.0
 46
0.0
 47
0.0
 48
0.0
140
2.5
141
2.5
142
0.0
143
0.03937007874016
144
1.0
145
0.0
146
1.0
147
0.625
 71
     0
 72
     0
 73
     0
 74
     0
 75
     0
 76
     0
 77
     1
 78
     8
170
     0
171
     3
172
     1
173
     0
174
     0
175
     0
176
     0
177
     0
178
     0
270
     2
271
     2
272
     2
273
     2
274
     3
340
11
275
     0
280
     0
281
     0
282
     0
283
     0
284
     8
285
     0
286
     0
287
     3
288
     0
  0
ENDTAB
  0
TABLE
  2
BLOCK_RECORD
  5
1
330
0
100
AcDbSymbolTable
 70
     1
  0
BLOCK_RECORD
  5
1F
330
1
100
AcDbSymbolTableRecord
100
AcDbBlockTableRecord
  2
*MODEL_SPACE
  0
BLOCK_RECORD
  5
1B
330
1
100
AcDbSymbolTableRecord
100
AcDbBlockTableRecord
  2
*PAPER_SPACE
  0
ENDTAB
  0
ENDSEC
  0
SECTION
  2
BLOCKS
  0
BLOCK
  5
20
330
1F
100
AcDbEntity
  8
0
100
AcDbBlockBegin
  2
*MODEL_SPACE
 70
     0
 10
0.0
 20
0.0
 30
0.0
  3
*MODEL_SPACE
  1

  0
ENDBLK
  5
21
330
1F
100
AcDbEntity
  8
0
100
AcDbBlockEnd
  0
BLOCK
  5
1C
330
1B
100
AcDbEntity
 67
     1
  8
0
100
AcDbBlockBegin
  2
*PAPER_SPACE
  1

  0
ENDBLK
  5
1D
330
1B
100
AcDbEntity
 67
     1
  8
0
100
AcDbBlockEnd
  0
ENDSEC
  0
SECTION
  2
ENTITIES
  0
SPLINE
  5
100
100
AcDbEntity
  8
Layer_1
 62
3
100
AcDbSpline
 70
8
 71
3
 72
8
 73
4
 74
0
 40
0
 40
0
 40
0
 40
0
 40
1
 40
1
 40
1
 40
1
 10
363.640210
 20
133.888386
 30
0.0
 10
363.611969
 20
133.848875
 30
0.0
 10
363.580915
 20
133.812186
 30
0.0
 10
363.547048
 20
133.778320
 30
0.0
  0
SPLINE
  5
101
100
AcDbEntity
  8
Layer_1
 62
3
100
AcDbSpline
 70
8
 71
3
 72
8
 73
4
 74
0
 40
0
 40
0
 40
0
 40
0
 40
1
 40
1
 40
1
 40
1
 10
363.547048
 20
133.778320
 30
0.0
 10
363.513181
 20
133.738790
 30
0.0
 10
363.479305
 20
133.699260
 30
0.0
 10
363.445420
 20
133.659730
 30
0.0
  0
SPLINE
  5
102
100
AcDbEntity
  8
Layer_1
 62
3
100
AcDbSpline
 70
8
 71
3
 72
8
 73
4
 74
0
 40
0
 40
0
 40
0
 40
0
 40
1
 40
1
 40
1
 40
1
 10
363.445420
 20
133.659730
 30
0.0
 10
363.247827
 20
133.462137
 30
0.0
 10
363.019170
 20
133.309699
 30
0.0
 10
362.759450
 20
133.202417
 30
0.0
  0
SPLINE
  5
103
100
AcDbEntity
  8
Layer_1
 62
3
100
AcDbSpline
 70
8
 71
3
 72
8
 73
4
 74
0
 40
0
 40
0
 40
0
 40
0
 40
1
 40
1
 40
1
 40
1
 10
362.759450
 20
133.202417
 30
0.0
 10
362.505394
 20
133.095154
 30
0.0
 10
362.234395
 20
133.041522
 30
0.0
 10
361.946453
 20
133.041522
 30
0.0
  0
LINE
  5
104
100
AcDbEntity
  8
Layer_1
 62
3
100
AcDbLine
 10
361.946453
 20
133.041522
 30
0.0
 11
361.099560
 21
133.041522
 31
0.0
  0
SPLINE
  5
105
100
AcDbEntity
  8
Layer_1
 62
3
100
AcDbSpline
 70
8
 71
3
 72
8
 73
4
 74
0
 40
0
 40
0
 40
0
 40
0
 40
1
 40
1
 40
1
 40
1
 10
361.099560
 20
133.041522
 30
0.0
 10
360.811637
 20
133.041522
 30
0.0
 10
360.537816
 20
133.095154
 30
0.0
 10
360.278096
 20
133.202417
 30
0.0
  0
SPLINE
  5
106
100
AcDbEntity
  8
Layer_1
 62
3
100
AcDbSpline
 70
8
 71
3
 72
8
 73
4
 74
0
 40
0
 40
0
 40
0
 40
0
 40
1
 40
1
 40
1
 40
1
 10
360.278096
 20
133.202417
 30
0.0
 10
360.024040
 20
133.309699
 30
0.0
 10
359.798205
 20
133.462137
 30
0.0
 10
359.600593
 20
133.659730
 30
0.0
  0
SPLINE
  5
107
100
AcDbEntity
  8
Layer_1
 62
3
100
AcDbSpline
 70
8
 71
3
 72
8
 73
4
 74
0
 40
0
 40
0
 40
0
 40
0
 40
1
 40
1
 40
1
 40
1
 10
359.600593
 20
133.659730
 30
0.0
 10
359.402981
 20
133.857342
 30
0.0
 10
359.250544
 20
134.085998
 30
0.0
 10
359.143281
 20
134.345699
 30
0.0
  0
SPLINE
  5
108
100
AcDbEntity
  8
Layer_1
 62
3
100
AcDbSpline
 70
8
 71
3
 72
8
 73
4
 74
0
 40
0
 40
0
 40
0
 40
0
 40
1
 40
1
 40
1
 40
1
 10
359.143281
 20
134.345699
 30
0.0
 10
359.036017
 20
134.599775
 30
0.0
 10
358.982386
 20
134.870783
 30
0.0
 10
358.982386
 20
135.158725
 30
0.0
  0
SPLINE
  5
109
100
AcDbEntity
  8
Layer_1
 62
3
100
AcDbSpline
 70
8
 71
3
 72
8
 73
4
 74
0
 40
0
 40
0
 40
0
 40
0
 40
1
 40
1
 40
1
 40
1
 10
358.982386
 20
135.158725
 30
0.0
 10
358.982386
 20
135.446648
 30
0.0
 10
359.036017
 20
135.720470
 30
0.0
 10
359.143281
 20
135.980189
 30
0.0
  0
SPLINE
  5
10a
100
AcDbEntity
  8
Layer_1
 62
3
100
AcDbSpline
 70
8
 71
3
 72
8
 73
4
 74
0
 40
0
 40
0
 40
0
 40
0
 40
1
 40
1
 40
1
 40
1
 10
359.143281
 20
135.980189
 30
0.0
 10
359.250544
 20
136.234246
 30
0.0
 10
359.402981
 20
136.460080
 30
0.0
 10
359.600593
 20
136.657692
 30
0.0
  0
SPLINE
  5
10b
100
AcDbEntity
  8
Layer_1
 62
3
100
AcDbSpline
 70
8
 71
3
 72
8
 73
4
 74
0
 40
0
 40
0
 40
0
 40
0
 40
1
 40
1
 40
1
 40
1
 10
359.600593
 20
136.657692
 30
0.0
 10
359.798205
 20
136.855304
 30
0.0
 10
360.024040
 20
137.007742
 30
0.0
 10
360.278096
 20
137.115005
 30
0.0
  0
SPLINE
  5
10c
100
AcDbEntity
  8
Layer_1
 62
3
100
AcDbSpline
 70
8
 71
3
 72
8
 73
4
 74
0
 40
0
 40
0
 40
0
 40
0
 40
1
 40
1
 40
1
 40
1
 10
360.278096
 20
137.115005
 30
0.0
 10
360.537816
 20
137.222268
 30
0.0
 10
360.811637
 20
137.275900
 30
0.0
 10
361.099560
 20
137.275900
 30
0.0
  0
LINE
  5
10d
100
AcDbEntity
  8
Layer_1
 62
3
100
AcDbLine
 10
361.099560
 20
137.275900
 30
0.0
 11
361.946453
 21
137.275900
 31
0.0
  0
SPLINE
  5
10e
100
AcDbEntity
  8
Layer_1
 62
3
100
AcDbSpline
 70
8
 71
3
 72
8
 73
4
 74
0
 40
0
 40
0
 40
0
 40
0
 40
1
 40
1
 40
1
 40
1
 10
361.946453
 20
137.275900
 30
0.0
 10
362.234395
 20
137.275900
 30
0.0
 10
362.505394
 20
137.222268
 30
0.0
 10
362.759450
 20
137.115005
 30
0.0
  0
SPLINE
  5
10f
100
AcDbEntity
  8
Layer_1
 62
3
100
AcDbSpline
 70
8
 71
3
 72
8
 73
4
 74
0
 40
0
 40
0
 40
0
 40
0
 40
1
 40
1
 40
1
 40
1
 10
362.759450
 20
137.115005
 30
0.0
 10
363.019170
 20
137.007742
 30
0.0
 10
363.247827
 20
136.855304
 30
0.0
 10
363.445420
 20
136.657692
 30
0.0
  0
SPLINE
  5
110
100
AcDbEntity
  8
Layer_1
 62
3
100
AcDbSpline
 70
8
 71
3
 72
8
 73
4
 74
0
 40
0
 40
0
 40
0
 40
0
 40
1
 40
1
 40
1
 40
1
 10
363.445420
 20
136.657692
 30
0.0
 10
363.479305
 20
136.618162
 30
0.0
 10
363.513181
 20
136.581464
 30
0.0
 10
363.547048
 20
136.547597
 30
0.0
  0
SPLINE
  5
111
100
AcDbEntity
  8
Layer_1
 62
3
100
AcDbSpline
 70
8
 71
3
 72
8
 73
4
 74
0
 40
0
 40
0
 40
0
 40
0
 40
1
 40
1
 40
1
 40
1
 10
363.547048
 20
136.547597
 30
0.0
 10
363.580915
 20
136.508067
 30
0.0
 10
363.611969
 20
136.468547
 30
0.0
 10
363.640210
 20
136.429036
 30
0.0
  0
SPLINE
  5
112
100
AcDbEntity
  8
Layer_1
 62
3
100
AcDbSpline
 70
8
 71
3
 72
8
 73
4
 74
0
 40
0
 40
0
 40
0
 40
0
 40
1
 40
1
 40
1
 40
1
 10
363.640210
 20
136.429036
 30
0.0
 10
363.668432
 20
136.468547
 30
0.0
 10
363.699486
 20
136.508067
 30
0.0
 10
363.733371
 20
136.547597
 30
0.0
  0
SPLINE
  5
113
100
AcDbEntity
  8
Layer_1
 62
3
100
AcDbSpline
 70
8
 71
3
 72
8
 73
4
 74
0
 40
0
 40
0
 40
0
 40
0
 40
1
 40
1
 40
1
 40
1
 10
363.733371
 20
136.547597
 30
0.0
 10
363.767238
 20
136.581464
 30
0.0
 10
363.801114
 20
136.618162
 30
0.0
 10
363.834999
 20
136.657692
 30
0.0
  0
SPLINE
  5
114
100
AcDbEntity
  8
Layer_1
 62
3
100
AcDbSpline
 70
8
 71
3
 72
8
 73
4
 74
0
 40
0
 40
0
 40
0
 40
0
 40
1
 40
1
 40
1
 40
1
 10
363.834999
 20
136.657692
 30
0.0
 10
364.032593
 20
136.855304
 30
0.0
 10
364.258427
 20
137.007742
 30
0.0
 10
364.512502
 20
137.115005
 30
0.0
  0
SPLINE
  5
115
100
AcDbEntity
  8
Layer_1
 62
3
100
AcDbSpline
 70
8
 71
3
 72
8
 73
4
 74
0
 40
0
 40
0
 40
0
 40
0
 40
1
 40
1
 40
1
 40
1
 10
364.512502
 20
137.115005
 30
0.0
 10
364.772203
 20
137.222268
 30
0.0
 10
365.046024
 20
137.275900
 30
0.0
 10
365.333966
 20
137.275900
 30
0.0
  0
SPLINE
  5
116
100
AcDbEntity
  8
Layer_1
 62
3
100
AcDbSpline
 70
8
 71
3
 72
8
 73
4
 74
0
 40
0
 40
0
 40
0
 40
0
 40
1
 40
1
 40
1
 40
1
 10
365.333966
 20
137.275900
 30
0.0
 10
365.621908
 20
137.275900
 30
0.0
 10
365.892907
 20
137.222268
 30
0.0
 10
366.146964
 20
137.115005
 30
0.0
  0
SPLINE
  5
117
100
AcDbEntity
  8
Layer_1
 62
3
100
AcDbSpline
 70
8
 71
3
 72
8
 73
4
 74
0
 40
0
 40
0
 40
0
 40
0
 40
1
 40
1
 40
1
 40
1
 10
366.146964
 20
137.115005
 30
0.0
 10
366.406684
 20
137.007742
 30
0.0
 10
366.635340
 20
136.855304
 30
0.0
 10
366.832933
 20
136.657692
 30
0.0
  0
SPLINE
  5
118
100
AcDbEntity
  8
Layer_1
 62
3
100
AcDbSpline
 70
8
 71
3
 72
8
 73
4
 74
0
 40
0
 40
0
 40
0
 40
0
 40
1
 40
1
 40
1
 40
1
 10
366.832933
 20
136.657692
 30
0.0
 10
367.030545
 20
136.460080
 30
0.0
 10
367.182983
 20
136.234246
 30
0.0
 10
367.290246
 20
135.980189
 30
0.0
  0
SPLINE
  5
119
100
AcDbEntity
  8
Layer_1
 62
3
100
AcDbSpline
 70
8
 71
3
 72
8
 73
4
 74
0
 40
0
 40
0
 40
0
 40
0
 40
1
 40
1
 40
1
 40
1
 10
367.290246
 20
135.980189
 30
0.0
 10
367.397528
 20
135.720470
 30
0.0
 10
367.451169
 20
135.446648
 30
0.0
 10
367.451169
 20
135.158725
 30
0.0
  0
SPLINE
  5
11a
100
AcDbEntity
  8
Layer_1
 62
3
100
AcDbSpline
 70
8
 71
3
 72
8
 73
4
 74
0
 40
0
 40
0
 40
0
 40
0
 40
1
 40
1
 40
1
 40
1
 10
367.451169
 20
135.158725
 30
0.0
 10
367.451169
 20
134.870783
 30
0.0
 10
367.397528
 20
134.599775
 30
0.0
 10
367.290246
 20
134.345699
 30
0.0
  0
SPLINE
  5
11b
100
AcDbEntity
  8
Layer_1
 62
3
100
AcDbSpline
 70
8
 71
3
 72
8
 73
4
 74
0
 40
0
 40
0
 40
0
 40
0
 40
1
 40
1
 40
1
 40
1
 10
367.290246
 20
134.345699
 30
0.0
 10
367.182983
 20
134.085998
 30
0.0
 10
367.030545
 20
133.857342
 30
0.0
 10
366.832933
 20
133.659730
 30
0.0
  0
SPLINE
  5
11c
100
AcDbEntity
  8
Layer_1
 62
3
100
AcDbSpline
 70
8
 71
3
 72
8
 73
4
 74
0
 40
0
 40
0
 40
0
 40
0
 40
1
 40
1
 40
1
 40
1
 10
366.832933
 20
133.659730
 30
0.0
 10
366.635340
 20
133.462137
 30
0.0
 10
366.406684
 20
133.309699
 30
0.0
 10
366.146964
 20
133.202417
 30
0.0
  0
SPLINE
  5
11d
100
AcDbEntity
  8
Layer_1
 62
3
100
AcDbSpline
 70
8
 71
3
 72
8
 73
4
 74
0
 40
0
 40
0
 40
0
 40
0
 40
1
 40
1
 40
1
 40
1
 10
366.146964
 20
133.202417
 30
0.0
 10
365.892907
 20
133.095154
 30
0.0
 10
365.621908
 20
133.041522
 30
0.0
 10
365.333966
 20
133.041522
 30
0.0
  0
SPLINE
  5
11e
100
AcDbEntity
  8
Layer_1
 62
3
100
AcDbSpline
 70
8
 71
3
 72
8
 73
4
 74
0
 40
0
 40
0
 40
0
 40
0
 40
1
 40
1
 40
1
 40
1
 10
365.333966
 20
133.041522
 30
0.0
 10
365.046024
 20
133.041522
 30
0.0
 10
364.772203
 20
133.095154
 30
0.0
 10
364.512502
 20
133.202417
 30
0.0
  0
SPLINE
  5
11f
100
AcDbEntity
  8
Layer_1
 62
3
100
AcDbSpline
 70
8
 71
3
 72
8
 73
4
 74
0
 40
0
 40
0
 40
0
 40
0
 40
1
 40
1
 40
1
 40
1
 10
364.512502
 20
133.202417
 30
0.0
 10
364.258427
 20
133.309699
 30
0.0
 10
364.032593
 20
133.462137
 30
0.0
 10
363.834999
 20
133.659730
 30
0.0
  0
SPLINE
  5
120
100
AcDbEntity
  8
Layer_1
 62
3
100
AcDbSpline
 70
8
 71
3
 72
8
 73
4
 74
0
 40
0
 40
0
 40
0
 40
0
 40
1
 40
1
 40
1
 40
1
 10
363.834999
 20
133.659730
 30
0.0
 10
363.801114
 20
133.699260
 30
0.0
 10
363.767238
 20
133.738790
 30
0.0
 10
363.733371
 20
133.778320
 30
0.0
  0
SPLINE
  5
121
100
AcDbEntity
  8
Layer_1
 62
3
100
AcDbSpline
 70
8
 71
3
 72
8
 73
4
 74
0
 40
0
 40
0
 40
0
 40
0
 40
1
 40
1
 40
1
 40
1
 10
363.733371
 20
133.778320
 30
0.0
 10
363.699486
 20
133.812186
 30
0.0
 10
363.668432
 20
133.848875
 30
0.0
 10
363.640210
 20
133.888386
 30
0.0
  0
LINE
  5
122
100
AcDbEntity
  8
Layer_1
 62
3
100
AcDbLine
 10
363.640210
 20
133.888386
 30
0.0
 11
363.640210
 21
133.888386
 31
0.0
  0
SPLINE
  5
123
100
AcDbEntity
  8
Layer_1
 62
3
100
AcDbSpline
 70
8
 71
3
 72
8
 73
4
 74
0
 40
0
 40
0
 40
0
 40
0
 40
1
 40
1
 40
1
 40
1
 10
365.333966
 20
136.429036
 30
0.0
 10
365.158951
 20
136.429036
 30
0.0
 10
364.992393
 20
136.395159
 30
0.0
 10
364.834292
 20
136.327407
 30
0.0
  0
SPLINE
  5
124
100
AcDbEntity
  8
Layer_1
 62
3
100
AcDbSpline
 70
8
 71
3
 72
8
 73
4
 74
0
 40
0
 40
0
 40
0
 40
0
 40
1
 40
1
 40
1
 40
1
 10
364.834292
 20
136.327407
 30
0.0
 10
364.681854
 20
136.259655
 30
0.0
 10
364.549182
 20
136.169325
 30
0.0
 10
364.436274
 20
136.056418
 30
0.0
  0
SPLINE
  5
125
100
AcDbEntity
  8
Layer_1
 62
3
100
AcDbSpline
 70
8
 71
3
 72
8
 73
4
 74
0
 40
0
 40
0
 40
0
 40
0
 40
1
 40
1
 40
1
 40
1
 10
364.436274
 20
136.056418
 30
0.0
 10
364.323347
 20
135.943491
 30
0.0
 10
364.233017
 20
135.810809
 30
0.0
 10
364.165284
 20
135.658371
 30
0.0
  0
SPLINE
  5
126
100
AcDbEntity
  8
Layer_1
 62
3
100
AcDbSpline
 70
8
 71
3
 72
8
 73
4
 74
0
 40
0
 40
0
 40
0
 40
0
 40
1
 40
1
 40
1
 40
1
 10
364.165284
 20
135.658371
 30
0.0
 10
364.097532
 20
135.500289
 30
0.0
 10
364.063656
 20
135.333741
 30
0.0
 10
364.063656
 20
135.158725
 30
0.0
  0
SPLINE
  5
127
100
AcDbEntity
  8
Layer_1
 62
3
100
AcDbSpline
 70
8
 71
3
 72
8
 73
4
 74
0
 40
0
 40
0
 40
0
 40
0
 40
1
 40
1
 40
1
 40
1
 10
364.063656
 20
135.158725
 30
0.0
 10
364.063656
 20
134.983691
 30
0.0
 10
364.097532
 20
134.819955
 30
0.0
 10
364.165284
 20
134.667517
 30
0.0
  0
SPLINE
  5
128
100
AcDbEntity
  8
Layer_1
 62
3
100
AcDbSpline
 70
8
 71
3
 72
8
 73
4
 74
0
 40
0
 40
0
 40
0
 40
0
 40
1
 40
1
 40
1
 40
1
 10
364.165284
 20
134.667517
 30
0.0
 10
364.233017
 20
134.509435
 30
0.0
 10
364.323347
 20
134.373940
 30
0.0
 10
364.436274
 20
134.261033
 30
0.0
  0
SPLINE
  5
129
100
AcDbEntity
  8
Layer_1
 62
3
100
AcDbSpline
 70
8
 71
3
 72
8
 73
4
 74
0
 40
0
 40
0
 40
0
 40
0
 40
1
 40
1
 40
1
 40
1
 10
364.436274
 20
134.261033
 30
0.0
 10
364.549182
 20
134.148106
 30
0.0
 10
364.681854
 20
134.057767
 30
0.0
 10
364.834292
 20
133.990015
 30
0.0
  0
SPLINE
  5
12a
100
AcDbEntity
  8
Layer_1
 62
3
100
AcDbSpline
 70
8
 71
3
 72
8
 73
4
 74
0
 40
0
 40
0
 40
0
 40
0
 40
1
 40
1
 40
1
 40
1
 10
364.834292
 20
133.990015
 30
0.0
 10
364.992393
 20
133.922262
 30
0.0
 10
365.158951
 20
133.888386
 30
0.0
 10
365.333966
 20
133.888386
 30
0.0
  0
SPLINE
  5
12b
100
AcDbEntity
  8
Layer_1
 62
3
100
AcDbSpline
 70
8
 71
3
 72
8
 73
4
 74
0
 40
0
 40
0
 40
0
 40
0
 40
1
 40
1
 40
1
 40
1
 10
365.333966
 20
133.888386
 30
0.0
 10
365.508982
 20
133.888386
 30
0.0
 10
365.672708
 20
133.922262
 30
0.0
 10
365.825146
 20
133.990015
 30
0.0
  0
SPLINE
  5
12c
100
AcDbEntity
  8
Layer_1
 62
3
100
AcDbSpline
 70
8
 71
3
 72
8
 73
4
 74
0
 40
0
 40
0
 40
0
 40
0
 40
1
 40
1
 40
1
 40
1
 10
365.825146
 20
133.990015
 30
0.0
 10
365.983228
 20
134.057767
 30
0.0
 10
366.118732
 20
134.148106
 30
0.0
 10
366.231659
 20
134.261033
 30
0.0
  0
SPLINE
  5
12d
100
AcDbEntity
  8
Layer_1
 62
3
100
AcDbSpline
 70
8
 71
3
 72
8
 73
4
 74
0
 40
0
 40
0
 40
0
 40
0
 40
1
 40
1
 40
1
 40
1
 10
366.231659
 20
134.261033
 30
0.0
 10
366.344566
 20
134.373940
 30
0.0
 10
366.434896
 20
134.509435
 30
0.0
 10
366.502649
 20
134.667517
 30
0.0
  0
SPLINE
  5
12e
100
AcDbEntity
  8
Layer_1
 62
3
100
AcDbSpline
 70
8
 71
3
 72
8
 73
4
 74
0
 40
0
 40
0
 40
0
 40
0
 40
1
 40
1
 40
1
 40
1
 10
366.502649
 20
134.667517
 30
0.0
 10
366.570401
 20
134.819955
 30
0.0
 10
366.604277
 20
134.983691
 30
0.0
 10
366.604277
 20
135.158725
 30
0.0
  0
SPLINE
  5
12f
100
AcDbEntity
  8
Layer_1
 62
3
100
AcDbSpline
 70
8
 71
3
 72
8
 73
4
 74
0
 40
0
 40
0
 40
0
 40
0
 40
1
 40
1
 40
1
 40
1
 10
366.604277
 20
135.158725
 30
0.0
 10
366.604277
 20
135.333741
 30
0.0
 10
366.570401
 20
135.500289
 30
0.0
 10
366.502649
 20
135.658371
 30
0.0
  0
SPLINE
  5
130
100
AcDbEntity
  8
Layer_1
 62
3
100
AcDbSpline
 70
8
 71
3
 72
8
 73
4
 74
0
 40
0
 40
0
 40
0
 40
0
 40
1
 40
1
 40
1
 40
1
 10
366.502649
 20
135.658371
 30
0.0
 10
366.434896
 20
135.810809
 30
0.0
 10
366.344566
 20
135.943491
 30
0.0
 10
366.231659
 20
136.056418
 30
0.0
  0
SPLINE
  5
131
100
AcDbEntity
  8
Layer_1
 62
3
100
AcDbSpline
 70
8
 71
3
 72
8
 73
4
 74
0
 40
0
 40
0
 40
0
 40
0
 40
1
 40
1
 40
1
 40
1
 10
366.231659
 20
136.056418
 30
0.0
 10
366.118732
 20
136.169325
 30
0.0
 10
365.983228
 20
136.259655
 30
0.0
 10
365.825146
 20
136.327407
 30
0.0
  0
SPLINE
  5
132
100
AcDbEntity
  8
Layer_1
 62
3
100
AcDbSpline
 70
8
 71
3
 72
8
 73
4
 74
0
 40
0
 40
0
 40
0
 40
0
 40
1
 40
1
 40
1
 40
1
 10
365.825146
 20
136.327407
 30
0.0
 10
365.672708
 20
136.395159
 30
0.0
 10
365.508982
 20
136.429036
 30
0.0
 10
365.333966
 20
136.429036
 30
0.0
  0
LINE
  5
133
100
AcDbEntity
  8
Layer_1
 62
3
100
AcDbLine
 10
365.333966
 20
136.429036
 30
0.0
 11
365.333966
 21
136.429036
 31
0.0
  0
SPLINE
  5
134
100
AcDbEntity
  8
Layer_1
 62
3
100
AcDbSpline
 70
8
 71
3
 72
8
 73
4
 74
0
 40
0
 40
0
 40
0
 40
0
 40
1
 40
1
 40
1
 40
1
 10
361.946453
 20
133.888386
 30
0.0
 10
362.121468
 20
133.888386
 30
0.0
 10
362.285195
 20
133.922262
 30
0.0
 10
362.437632
 20
133.990015
 30
0.0
  0
SPLINE
  5
135
100
AcDbEntity
  8
Layer_1
 62
3
100
AcDbSpline
 70
8
 71
3
 72
8
 73
4
 74
0
 40
0
 40
0
 40
0
 40
0
 40
1
 40
1
 40
1
 40
1
 10
362.437632
 20
133.990015
 30
0.0
 10
362.595715
 20
134.057767
 30
0.0
 10
362.731219
 20
134.148106
 30
0.0
 10
362.844145
 20
134.261033
 30
0.0
  0
SPLINE
  5
136
100
AcDbEntity
  8
Layer_1
 62
3
100
AcDbSpline
 70
8
 71
3
 72
8
 73
4
 74
0
 40
0
 40
0
 40
0
 40
0
 40
1
 40
1
 40
1
 40
1
 10
362.844145
 20
134.261033
 30
0.0
 10
362.957053
 20
134.373940
 30
0.0
 10
363.047383
 20
134.509435
 30
0.0
 10
363.115135
 20
134.667517
 30
0.0
  0
SPLINE
  5
137
100
AcDbEntity
  8
Layer_1
 62
3
100
AcDbSpline
 70
8
 71
3
 72
8
 73
4
 74
0
 40
0
 40
0
 40
0
 40
0
 40
1
 40
1
 40
1
 40
1
 10
363.115135
 20
134.667517
 30
0.0
 10
363.182887
 20
134.819955
 30
0.0
 10
363.216763
 20
134.983691
 30
0.0
 10
363.216763
 20
135.158725
 30
0.0
  0
SPLINE
  5
138
100
AcDbEntity
  8
Layer_1
 62
3
100
AcDbSpline
 70
8
 71
3
 72
8
 73
4
 74
0
 40
0
 40
0
 40
0
 40
0
 40
1
 40
1
 40
1
 40
1
 10
363.216763
 20
135.158725
 30
0.0
 10
363.216763
 20
135.333741
 30
0.0
 10
363.182887
 20
135.500289
 30
0.0
 10
363.115135
 20
135.658371
 30
0.0
  0
SPLINE
  5
139
100
AcDbEntity
  8
Layer_1
 62
3
100
AcDbSpline
 70
8
 71
3
 72
8
 73
4
 74
0
 40
0
 40
0
 40
0
 40
0
 40
1
 40
1
 40
1
 40
1
 10
363.115135
 20
135.658371
 30
0.0
 10
363.047383
 20
135.810809
 30
0.0
 10
362.957053
 20
135.943491
 30
0.0
 10
362.844145
 20
136.056418
 30
0.0
  0
SPLINE
  5
13a
100
AcDbEntity
  8
Layer_1
 62
3
100
AcDbSpline
 70
8
 71
3
 72
8
 73
4
 74
0
 40
0
 40
0
 40
0
 40
0
 40
1
 40
1
 40
1
 40
1
 10
362.844145
 20
136.056418
 30
0.0
 10
362.731219
 20
136.169325
 30
0.0
 10
362.595715
 20
136.259655
 30
0.0
 10
362.437632
 20
136.327407
 30
0.0
  0
SPLINE
  5
13b
100
AcDbEntity
  8
Layer_1
 62
3
100
AcDbSpline
 70
8
 71
3
 72
8
 73
4
 74
0
 40
0
 40
0
 40
0
 40
0
 40
1
 40
1
 40
1
 40
1
 10
362.437632
 20
136.327407
 30
0.0
 10
362.285195
 20
136.395159
 30
0.0
 10
362.121468
 20
136.429036
 30
0.0
 10
361.946453
 20
136.429036
 30
0.0
  0
LINE
  5
13c
100
AcDbEntity
  8
Layer_1
 62
3
100
AcDbLine
 10
361.946453
 20
136.429036
 30
0.0
 11
361.099560
 21
136.429036
 31
0.0
  0
SPLINE
  5
13d
100
AcDbEntity
  8
Layer_1
 62
3
100
AcDbSpline
 70
8
 71
3
 72
8
 73
4
 74
0
 40
0
 40
0
 40
0
 40
0
 40
1
 40
1
 40
1
 40
1
 10
361.099560
 20
136.429036
 30
0.0
 10
360.924545
 20
136.429036
 30
0.0
 10
360.757996
 20
136.395159
 30
0.0
 10
360.599914
 20
136.327407
 30
0.0
  0
SPLINE
  5
13e
100
AcDbEntity
  8
Layer_1
 62
3
100
AcDbSpline
 70
8
 71
3
 72
8
 73
4
 74
0
 40
0
 40
0
 40
0
 40
0
 40
1
 40
1
 40
1
 40
1
 10
360.599914
 20
136.327407
 30
0.0
 10
360.447477
 20
136.259655
 30
0.0
 10
360.314794
 20
136.169325
 30
0.0
 10
360.201868
 20
136.056418
 30
0.0
  0
SPLINE
  5
13f
100
AcDbEntity
  8
Layer_1
 62
3
100
AcDbSpline
 70
8
 71
3
 72
8
 73
4
 74
0
 40
0
 40
0
 40
0
 40
0
 40
1
 40
1
 40
1
 40
1
 10
360.201868
 20
136.056418
 30
0.0
 10
360.088960
 20
135.943491
 30
0.0
 10
359.998630
 20
135.810809
 30
0.0
 10
359.930878
 20
135.658371
 30
0.0
  0
SPLINE
  5
140
100
AcDbEntity
  8
Layer_1
 62
3
100
AcDbSpline
 70
8
 71
3
 72
8
 73
4
 74
0
 40
0
 40
0
 40
0
 40
0
 40
1
 40
1
 40
1
 40
1
 10
359.930878
 20
135.658371
 30
0.0
 10
359.863126
 20
135.500289
 30
0.0
 10
359.829250
 20
135.333741
 30
0.0
 10
359.829250
 20
135.158725
 30
0.0
  0
SPLINE
  5
141
100
AcDbEntity
  8
Layer_1
 62
3
100
AcDbSpline
 70
8
 71
3
 72
8
 73
4
 74
0
 40
0
 40
0
 40
0
 40
0
 40
1
 40
1
 40
1
 40
1
 10
359.829250
 20
135.158725
 30
0.0
 10
359.829250
 20
134.983691
 30
0.0
 10
359.863126
 20
134.819955
 30
0.0
 10
359.930878
 20
134.667517
 30
0.0
  0
SPLINE
  5
142
100
AcDbEntity
  8
Layer_1
 62
3
100
AcDbSpline
 70
8
 71
3
 72
8
 73
4
 74
0
 40
0
 40
0
 40
0
 40
0
 40
1
 40
1
 40
1
 40
1
 10
359.930878
 20
134.667517
 30
0.0
 10
359.998630
 20
134.509435
 30
0.0
 10
360.088960
 20
134.373940
 30
0.0
 10
360.201868
 20
134.261033
 30
0.0
  0
SPLINE
  5
143
100
AcDbEntity
  8
Layer_1
 62
3
100
AcDbSpline
 70
8
 71
3
 72
8
 73
4
 74
0
 40
0
 40
0
 40
0
 40
0
 40
1
 40
1
 40
1
 40
1
 10
360.201868
 20
134.261033
 30
0.0
 10
360.314794
 20
134.148106
 30
0.0
 10
360.447477
 20
134.057767
 30
0.0
 10
360.599914
 20
133.990015
 30
0.0
  0
SPLINE
  5
144
100
AcDbEntity
  8
Layer_1
 62
3
100
AcDbSpline
 70
8
 71
3
 72
8
 73
4
 74
0
 40
0
 40
0
 40
0
 40
0
 40
1
 40
1
 40
1
 40
1
 10
360.599914
 20
133.990015
 30
0.0
 10
360.757996
 20
133.922262
 30
0.0
 10
360.924545
 20
133.888386
 30
0.0
 10
361.099560
 20
133.888386
 30
0.0
  0
LINE
  5
145
100
AcDbEntity
  8
Layer_1
 62
3
100
AcDbLine
 10
361.099560
 20
133.888386
 30
0.0
 11
361.946453
 21
133.888386
 31
0.0
  0
LINE
  5
146
100
AcDbEntity
  8
Layer_1
 62
3
100
AcDbLine
 10
361.946453
 20
133.888386
 30
0.0
 11
361.946453
 21
133.888386
 31
0.0
  0
LINE
  5
147
100
AcDbEntity
  8
Layer_1
 62
5
100
AcDbLine
 10
353.252202
 20
85.005809
 30
0.0
 11
353.930503
 21
80.386680
 31
0.0
  0
LINE
  5
148
100
AcDbEntity
  8
Layer_1
 62
5
100
AcDbLine
 10
353.930503
 20
80.386680
 30
0.0
 11
353.667139
 21
77.677336
 31
0.0
  0
LINE
  5
149
100
AcDbEntity
  8
Layer_1
 62
5
100
AcDbLine
 10
353.667139
 20
77.677336
 30
0.0
 11
350.208122
 21
70.036287
 31
0.0
  0
LINE
  5
14a
100
AcDbEntity
  8
Layer_1
 62
5
100
AcDbLine
 10
350.208122
 20
70.036287
 30
0.0
 11
345.667195
 21
70.036287
 31
0.0
  0
LINE
  5
14b
100
AcDbEntity
  8
Layer_1
 62
5
100
AcDbLine
 10
345.667195
 20
70.036287
 30
0.0
 11
342.208177
 21
77.677336
 31
0.0
  0
LINE
  5
14c
100
AcDbEntity
  8
Layer_1
 62
5
100
AcDbLine
 10
342.208177
 20
77.677336
 30
0.0
 11
341.944813
 21
80.386680
 31
0.0
  0
LINE
  5
14d
100
AcDbEntity
  8
Layer_1
 62
5
100
AcDbLine
 10
341.944813
 20
80.386680
 30
0.0
 11
342.623115
 21
85.005809
 31
0.0
  0
LINE
  5
14e
100
AcDbEntity
  8
Layer_1
 62
5
100
AcDbLine
 10
342.623115
 20
85.005809
 30
0.0
 11
334.444565
 21
87.197244
 31
0.0
  0
LINE
  5
14f
100
AcDbEntity
  8
Layer_1
 62
5
100
AcDbLine
 10
334.444565
 20
87.197244
 30
0.0
 11
332.722426
 21
82.857810
 31
0.0
  0
LINE
  5
150
100
AcDbEntity
  8
Layer_1
 62
5
100
AcDbLine
 10
332.722426
 20
82.857810
 30
0.0
 11
331.139670
 21
80.643133
 31
0.0
  0
LINE
  5
151
100
AcDbEntity
  8
Layer_1
 62
5
100
AcDbLine
 10
331.139670
 20
80.643133
 30
0.0
 11
324.323551
 21
75.755298
 31
0.0
  0
LINE
  5
152
100
AcDbEntity
  8
Layer_1
 62
5
100
AcDbLine
 10
324.323551
 20
75.755298
 30
0.0
 11
320.390994
 21
78.025761
 31
0.0
  0
LINE
  5
153
100
AcDbEntity
  8
Layer_1
 62
5
100
AcDbLine
 10
320.390994
 20
78.025761
 30
0.0
 11
321.215923
 21
86.372611
 31
0.0
  0
LINE
  5
154
100
AcDbEntity
  8
Layer_1
 62
5
100
AcDbLine
 10
321.215923
 20
86.372611
 30
0.0
 11
322.342509
 21
88.850658
 31
0.0
  0
LINE
  5
155
100
AcDbEntity
  8
Layer_1
 62
5
100
AcDbLine
 10
322.342509
 20
88.850658
 30
0.0
 11
325.239504
 21
92.511791
 31
0.0
  0
LINE
  5
156
100
AcDbEntity
  8
Layer_1
 62
5
100
AcDbLine
 10
325.239504
 20
92.511791
 30
0.0
 11
319.252390
 21
98.498904
 31
0.0
  0
LINE
  5
157
100
AcDbEntity
  8
Layer_1
 62
5
100
AcDbLine
 10
319.252390
 20
98.498904
 30
0.0
 11
315.591257
 21
95.601910
 31
0.0
  0
LINE
  5
158
100
AcDbEntity
  8
Layer_1
 62
5
100
AcDbLine
 10
315.591257
 20
95.601910
 30
0.0
 11
313.113210
 21
94.475324
 31
0.0
  0
LINE
  5
159
100
AcDbEntity
  8
Layer_1
 62
5
100
AcDbLine
 10
313.113210
 20
94.475324
 30
0.0
 11
304.766361
 21
93.650394
 31
0.0
  0
LINE
  5
15a
100
AcDbEntity
  8
Layer_1
 62
5
100
AcDbLine
 10
304.766361
 20
93.650394
 30
0.0
 11
302.495897
 21
97.582952
 31
0.0
  0
LINE
  5
15b
100
AcDbEntity
  8
Layer_1
 62
5
100
AcDbLine
 10
302.495897
 20
97.582952
 30
0.0
 11
307.383732
 21
104.399070
 31
0.0
  0
LINE
  5
15c
100
AcDbEntity
  8
Layer_1
 62
5
100
AcDbLine
 10
307.383732
 20
104.399070
 30
0.0
 11
309.598409
 21
105.981826
 31
0.0
  0
LINE
  5
15d
100
AcDbEntity
  8
Layer_1
 62
5
100
AcDbLine
 10
309.598409
 20
105.981826
 30
0.0
 11
313.937844
 21
107.703966
 31
0.0
  0
LINE
  5
15e
100
AcDbEntity
  8
Layer_1
 62
5
100
AcDbLine
 10
313.937844
 20
107.703966
 30
0.0
 11
311.746408
 21
115.882515
 31
0.0
  0
LINE
  5
15f
100
AcDbEntity
  8
Layer_1
 62
5
100
AcDbLine
 10
311.746408
 20
115.882515
 30
0.0
 11
307.127280
 21
115.204214
 31
0.0
  0
LINE
  5
160
100
AcDbEntity
  8
Layer_1
 62
5
100
AcDbLine
 10
307.127280
 20
115.204214
 30
0.0
 11
304.417935
 21
115.467578
 31
0.0
  0
LINE
  5
161
100
AcDbEntity
  8
Layer_1
 62
5
100
AcDbLine
 10
304.417935
 20
115.467578
 30
0.0
 11
296.776881
 21
118.926595
 31
0.0
  0
LINE
  5
162
100
AcDbEntity
  8
Layer_1
 62
5
100
AcDbLine
 10
296.776881
 20
118.926595
 30
0.0
 11
296.776881
 21
123.467523
 31
0.0
  0
LINE
  5
163
100
AcDbEntity
  8
Layer_1
 62
5
100
AcDbLine
 10
296.776881
 20
123.467523
 30
0.0
 11
304.417935
 21
126.926540
 31
0.0
  0
LINE
  5
164
100
AcDbEntity
  8
Layer_1
 62
5
100
AcDbLine
 10
304.417935
 20
126.926540
 30
0.0
 11
307.127280
 21
127.189904
 31
0.0
  0
LINE
  5
165
100
AcDbEntity
  8
Layer_1
 62
5
100
AcDbLine
 10
307.127280
 20
127.189904
 30
0.0
 11
311.746408
 21
126.511603
 31
0.0
  0
LINE
  5
166
100
AcDbEntity
  8
Layer_1
 62
5
100
AcDbLine
 10
311.746408
 20
126.511603
 30
0.0
 11
313.937844
 21
134.690152
 31
0.0
  0
LINE
  5
167
100
AcDbEntity
  8
Layer_1
 62
5
100
AcDbLine
 10
313.937844
 20
134.690152
 30
0.0
 11
309.598409
 21
136.412291
 31
0.0
  0
LINE
  5
168
100
AcDbEntity
  8
Layer_1
 62
5
100
AcDbLine
 10
309.598409
 20
136.412291
 30
0.0
 11
307.383732
 21
137.995047
 31
0.0
  0
LINE
  5
169
100
AcDbEntity
  8
Layer_1
 62
5
100
AcDbLine
 10
307.383732
 20
137.995047
 30
0.0
 11
302.495897
 21
144.811166
 31
0.0
  0
LINE
  5
16a
100
AcDbEntity
  8
Layer_1
 62
5
100
AcDbLine
 10
302.495897
 20
144.811166
 30
0.0
 11
304.766361
 21
148.743724
 31
0.0
  0
LINE
  5
16b
100
AcDbEntity
  8
Layer_1
 62
5
100
AcDbLine
 10
304.766361
 20
148.743724
 30
0.0
 11
313.113210
 21
147.918794
 31
0.0
  0
LINE
  5
16c
100
AcDbEntity
  8
Layer_1
 62
5
100
AcDbLine
 10
313.113210
 20
147.918794
 30
0.0
 11
315.591257
 21
146.792208
 31
0.0
  0
LINE
  5
16d
100
AcDbEntity
  8
Layer_1
 62
5
100
AcDbLine
 10
315.591257
 20
146.792208
 30
0.0
 11
319.252390
 21
143.895213
 31
0.0
  0
LINE
  5
16e
100
AcDbEntity
  8
Layer_1
 62
5
100
AcDbLine
 10
319.252390
 20
143.895213
 30
0.0
 11
325.239504
 21
149.882327
 31
0.0
  0
LINE
  5
16f
100
AcDbEntity
  8
Layer_1
 62
5
100
AcDbLine
 10
325.239504
 20
149.882327
 30
0.0
 11
322.342509
 21
153.543460
 31
0.0
  0
LINE
  5
170
100
AcDbEntity
  8
Layer_1
 62
5
100
AcDbLine
 10
322.342509
 20
153.543460
 30
0.0
 11
321.215923
 21
156.021507
 31
0.0
  0
LINE
  5
171
100
AcDbEntity
  8
Layer_1
 62
5
100
AcDbLine
 10
321.215923
 20
156.021507
 30
0.0
 11
320.390994
 21
164.368356
 31
0.0
  0
LINE
  5
172
100
AcDbEntity
  8
Layer_1
 62
5
100
AcDbLine
 10
320.390994
 20
164.368356
 30
0.0
 11
324.323551
 21
166.638820
 31
0.0
  0
LINE
  5
173
100
AcDbEntity
  8
Layer_1
 62
5
100
AcDbLine
 10
324.323551
 20
166.638820
 30
0.0
 11
331.139670
 21
161.750985
 31
0.0
  0
LINE
  5
174
100
AcDbEntity
  8
Layer_1
 62
5
100
AcDbLine
 10
331.139670
 20
161.750985
 30
0.0
 11
332.722426
 21
159.536308
 31
0.0
  0
LINE
  5
175
100
AcDbEntity
  8
Layer_1
 62
5
100
AcDbLine
 10
332.722426
 20
159.536308
 30
0.0
 11
334.444565
 21
155.196873
 31
0.0
  0
LINE
  5
176
100
AcDbEntity
  8
Layer_1
 62
5
100
AcDbLine
 10
334.444565
 20
155.196873
 30
0.0
 11
342.623115
 21
157.388309
 31
0.0
  0
LINE
  5
177
100
AcDbEntity
  8
Layer_1
 62
5
100
AcDbLine
 10
342.623115
 20
157.388309
 30
0.0
 11
341.944813
 21
162.007437
 31
0.0
  0
LINE
  5
178
100
AcDbEntity
  8
Layer_1
 62
5
100
AcDbLine
 10
341.944813
 20
162.007437
 30
0.0
 11
342.208177
 21
164.716782
 31
0.0
  0
LINE
  5
179
100
AcDbEntity
  8
Layer_1
 62
5
100
AcDbLine
 10
342.208177
 20
164.716782
 30
0.0
 11
345.667195
 21
172.357830
 31
0.0
  0
LINE
  5
17a
100
AcDbEntity
  8
Layer_1
 62
5
100
AcDbLine
 10
345.667195
 20
172.357830
 30
0.0
 11
350.208122
 21
172.357830
 31
0.0
  0
LINE
  5
17b
100
AcDbEntity
  8
Layer_1
 62
5
100
AcDbLine
 10
350.208122
 20
172.357830
 30
0.0
 11
353.667139
 21
164.716782
 31
0.0
  0
LINE
  5
17c
100
AcDbEntity
  8
Layer_1
 62
5
100
AcDbLine
 10
353.667139
 20
164.716782
 30
0.0
 11
353.930503
 21
162.007437
 31
0.0
  0
LINE
  5
17d
100
AcDbEntity
  8
Layer_1
 62
5
100
AcDbLine
 10
353.930503
 20
162.007437
 30
0.0
 11
353.252202
 21
157.388309
 31
0.0
  0
LINE
  5
17e
100
AcDbEntity
  8
Layer_1
 62
5
100
AcDbLine
 10
353.252202
 20
157.388309
 30
0.0
 11
361.430751
 21
155.196873
 31
0.0
  0
LINE
  5
17f
100
AcDbEntity
  8
Layer_1
 62
5
100
AcDbLine
 10
361.430751
 20
155.196873
 30
0.0
 11
363.152891
 21
159.536308
 31
0.0
  0
LINE
  5
180
100
AcDbEntity
  8
Layer_1
 62
5
100
AcDbLine
 10
363.152891
 20
159.536308
 30
0.0
 11
364.735647
 21
161.750985
 31
0.0
  0
LINE
  5
181
100
AcDbEntity
  8
Layer_1
 62
5
100
AcDbLine
 10
364.735647
 20
161.750985
 30
0.0
 11
371.551765
 21
166.638820
 31
0.0
  0
LINE
  5
182
100
AcDbEntity
  8
Layer_1
 62
5
100
AcDbLine
 10
371.551765
 20
166.638820
 30
0.0
 11
375.484323
 21
164.368356
 31
0.0
  0
LINE
  5
183
100
AcDbEntity
  8
Layer_1
 62
5
100
AcDbLine
 10
375.484323
 20
164.368356
 30
0.0
 11
374.659393
 21
156.021507
 31
0.0
  0
LINE
  5
184
100
AcDbEntity
  8
Layer_1
 62
5
100
AcDbLine
 10
374.659393
 20
156.021507
 30
0.0
 11
373.532807
 21
153.543460
 31
0.0
  0
LINE
  5
185
100
AcDbEntity
  8
Layer_1
 62
5
100
AcDbLine
 10
373.532807
 20
153.543460
 30
0.0
 11
370.635813
 21
149.882327
 31
0.0
  0
LINE
  5
186
100
AcDbEntity
  8
Layer_1
 62
5
100
AcDbLine
 10
370.635813
 20
149.882327
 30
0.0
 11
376.622926
 21
143.895213
 31
0.0
  0
LINE
  5
187
100
AcDbEntity
  8
Layer_1
 62
5
100
AcDbLine
 10
376.622926
 20
143.895213
 30
0.0
 11
380.284060
 21
146.792208
 31
0.0
  0
LINE
  5
188
100
AcDbEntity
  8
Layer_1
 62
5
100
AcDbLine
 10
380.284060
 20
146.792208
 30
0.0
 11
382.762106
 21
147.918794
 31
0.0
  0
LINE
  5
189
100
AcDbEntity
  8
Layer_1
 62
5
100
AcDbLine
 10
382.762106
 20
147.918794
 30
0.0
 11
391.108956
 21
148.743724
 31
0.0
  0
LINE
  5
18a
100
AcDbEntity
  8
Layer_1
 62
5
100
AcDbLine
 10
391.108956
 20
148.743724
 30
0.0
 11
393.379419
 21
144.811166
 31
0.0
  0
LINE
  5
18b
100
AcDbEntity
  8
Layer_1
 62
5
100
AcDbLine
 10
393.379419
 20
144.811166
 30
0.0
 11
388.491584
 21
137.995047
 31
0.0
  0
LINE
  5
18c
100
AcDbEntity
  8
Layer_1
 62
5
100
AcDbLine
 10
388.491584
 20
137.995047
 30
0.0
 11
386.276907
 21
136.412291
 31
0.0
  0
LINE
  5
18d
100
AcDbEntity
  8
Layer_1
 62
5
100
AcDbLine
 10
386.276907
 20
136.412291
 30
0.0
 11
381.937473
 21
134.690152
 31
0.0
  0
LINE
  5
18e
100
AcDbEntity
  8
Layer_1
 62
5
100
AcDbLine
 10
381.937473
 20
134.690152
 30
0.0
 11
384.128908
 21
126.511603
 31
0.0
  0
LINE
  5
18f
100
AcDbEntity
  8
Layer_1
 62
5
100
AcDbLine
 10
384.128908
 20
126.511603
 30
0.0
 11
388.748037
 21
127.189904
 31
0.0
  0
LINE
  5
190
100
AcDbEntity
  8
Layer_1
 62
5
100
AcDbLine
 10
388.748037
 20
127.189904
 30
0.0
 11
391.457381
 21
126.926540
 31
0.0
  0
LINE
  5
191
100
AcDbEntity
  8
Layer_1
 62
5
100
AcDbLine
 10
391.457381
 20
126.926540
 30
0.0
 11
399.098430
 21
123.467523
 31
0.0
  0
LINE
  5
192
100
AcDbEntity
  8
Layer_1
 62
5
100
AcDbLine
 10
399.098430
 20
123.467523
 30
0.0
 11
399.098430
 21
118.926595
 31
0.0
  0
LINE
  5
193
100
AcDbEntity
  8
Layer_1
 62
5
100
AcDbLine
 10
399.098430
 20
118.926595
 30
0.0
 11
391.457381
 21
115.467578
 31
0.0
  0
LINE
  5
194
100
AcDbEntity
  8
Layer_1
 62
5
100
AcDbLine
 10
391.457381
 20
115.467578
 30
0.0
 11
388.748037
 21
115.204214
 31
0.0
  0
LINE
  5
195
100
AcDbEntity
  8
Layer_1
 62
5
100
AcDbLine
 10
388.748037
 20
115.204214
 30
0.0
 11
384.128908
 21
115.882515
 31
0.0
  0
LINE
  5
196
100
AcDbEntity
  8
Layer_1
 62
5
100
AcDbLine
 10
384.128908
 20
115.882515
 30
0.0
 11
381.937473
 21
107.703966
 31
0.0
  0
LINE
  5
197
100
AcDbEntity
  8
Layer_1
 62
5
100
AcDbLine
 10
381.937473
 20
107.703966
 30
0.0
 11
386.276907
 21
105.981826
 31
0.0
  0
LINE
  5
198
100
AcDbEntity
  8
Layer_1
 62
5
100
AcDbLine
 10
386.276907
 20
105.981826
 30
0.0
 11
388.491584
 21
104.399070
 31
0.0
  0
LINE
  5
199
100
AcDbEntity
  8
Layer_1
 62
5
100
AcDbLine
 10
388.491584
 20
104.399070
 30
0.0
 11
393.379419
 21
97.582952
 31
0.0
  0
LINE
  5
19a
100
AcDbEntity
  8
Layer_1
 62
5
100
AcDbLine
 10
393.379419
 20
97.582952
 30
0.0
 11
391.108956
 21
93.650394
 31
0.0
  0
LINE
  5
19b
100
AcDbEntity
  8
Layer_1
 62
5
100
AcDbLine
 10
391.108956
 20
93.650394
 30
0.0
 11
382.762106
 21
94.475324
 31
0.0
  0
LINE
  5
19c
100
AcDbEntity
  8
Layer_1
 62
5
100
AcDbLine
 10
382.762106
 20
94.475324
 30
0.0
 11
380.284060
 21
95.601910
 31
0.0
  0
LINE
  5
19d
100
AcDbEntity
  8
Layer_1
 62
5
100
AcDbLine
 10
380.284060
 20
95.601910
 30
0.0
 11
376.622926
 21
98.498904
 31
0.0
  0
LINE
  5
19e
100
AcDbEntity
  8
Layer_1
 62
5
100
AcDbLine
 10
376.622926
 20
98.498904
 30
0.0
 11
370.635813
 21
92.511791
 31
0.0
  0
LINE
  5
19f
100
AcDbEntity
  8
Layer_1
 62
5
100
AcDbLine
 10
370.635813
 20
92.511791
 30
0.0
 11
373.532807
 21
88.850658
 31
0.0
  0
LINE
  5
1a0
100
AcDbEntity
  8
Layer_1
 62
5
100
AcDbLine
 10
373.532807
 20
88.850658
 30
0.0
 11
374.659393
 21
86.372611
 31
0.0
  0
LINE
  5
1a1
100
AcDbEntity
  8
Layer_1
 62
5
100
AcDbLine
 10
374.659393
 20
86.372611
 30
0.0
 11
375.484323
 21
78.025761
 31
0.0
  0
LINE
  5
1a2
100
AcDbEntity
  8
Layer_1
 62
5
100
AcDbLine
 10
375.484323
 20
78.025761
 30
0.0
 11
371.551765
 21
75.755298
 31
0.0
  0
LINE
  5
1a3
100
AcDbEntity
  8
Layer_1
 62
5
100
AcDbLine
 10
371.551765
 20
75.755298
 30
0.0
 11
364.735647
 21
80.643133
 31
0.0
  0
LINE
  5
1a4
100
AcDbEntity
  8
Layer_1
 62
5
100
AcDbLine
 10
364.735647
 20
80.643133
 30
0.0
 11
363.152891
 21
82.857810
 31
0.0
  0
LINE
  5
1a5
100
AcDbEntity
  8
Layer_1
 62
5
100
AcDbLine
 10
363.152891
 20
82.857810
 30
0.0
 11
361.430751
 21
87.197244
 31
0.0
  0
LINE
  5
1a6
100
AcDbEntity
  8
Layer_1
 62
5
100
AcDbLine
 10
361.430751
 20
87.197244
 30
0.0
 11
353.252202
 21
85.005809
 31
0.0
  0
LINE
  5
1a7
100
AcDbEntity
  8
Layer_1
 62
1
100
AcDbLine
 10
377.866112
 20
119.695913
 30
0.0
 11
367.866106
 21
119.695913
 31
0.0
  0
LINE
  5
1a8
100
AcDbEntity
  8
Layer_1
 62
1
100
AcDbLine
 10
367.866106
 20
119.695913
 30
0.0
 11
367.866106
 21
122.695907
 31
0.0
  0
LINE
  5
1a9
100
AcDbEntity
  8
Layer_1
 62
1
100
AcDbLine
 10
367.866106
 20
122.695907
 30
0.0
 11
377.866112
 21
122.695907
 31
0.0
  0
LINE
  5
1aa
100
AcDbEntity
  8
Layer_1
 62
1
100
AcDbLine
 10
377.866112
 20
122.695907
 30
0.0
 11
377.866112
 21
119.695913
 31
0.0
  0
LINE
  5
1ab
100
AcDbEntity
  8
Layer_1
 62
1
100
AcDbLine
 10
357.865982
 20
122.695746
 30
0.0
 11
349.436247
 21
122.695746
 31
0.0
  0
LINE
  5
1ac
100
AcDbEntity
  8
Layer_1
 62
1
100
AcDbLine
 10
349.436247
 20
122.695746
 30
0.0
 11
349.436247
 21
131.190525
 31
0.0
  0
LINE
  5
1ad
100
AcDbEntity
  8
Layer_1
 62
1
100
AcDbLine
 10
349.436247
 20
131.190525
 30
0.0
 11
346.436535
 21
131.190525
 31
0.0
  0
LINE
  5
1ae
100
AcDbEntity
  8
Layer_1
 62
1
100
AcDbLine
 10
346.436535
 20
131.190525
 30
0.0
 11
346.436535
 21
122.695746
 31
0.0
  0
LINE
  5
1af
100
AcDbEntity
  8
Layer_1
 62
1
100
AcDbLine
 10
346.436535
 20
122.695746
 30
0.0
 11
337.879467
 21
122.695746
 31
0.0
  0
LINE
  5
1b0
100
AcDbEntity
  8
Layer_1
 62
1
100
AcDbLine
 10
337.879467
 20
122.695746
 30
0.0
 11
337.879467
 21
119.696034
 31
0.0
  0
LINE
  5
1b1
100
AcDbEntity
  8
Layer_1
 62
1
100
AcDbLine
 10
337.879467
 20
119.696034
 30
0.0
 11
346.436535
 21
119.696034
 31
0.0
  0
LINE
  5
1b2
100
AcDbEntity
  8
Layer_1
 62
1
100
AcDbLine
 10
346.436535
 20
119.696034
 30
0.0
 11
346.436535
 21
111.204010
 31
0.0
  0
LINE
  5
1b3
100
AcDbEntity
  8
Layer_1
 62
1
100
AcDbLine
 10
346.436535
 20
111.204010
 30
0.0
 11
349.436247
 21
111.204010
 31
0.0
  0
LINE
  5
1b4
100
AcDbEntity
  8
Layer_1
 62
1
100
AcDbLine
 10
349.436247
 20
111.204010
 30
0.0
 11
349.436247
 21
119.696034
 31
0.0
  0
LINE
  5
1b5
100
AcDbEntity
  8
Layer_1
 62
1
100
AcDbLine
 10
349.436247
 20
119.696034
 30
0.0
 11
357.865982
 21
119.696034
 31
0.0
  0
LINE
  5
1b6
100
AcDbEntity
  8
Layer_1
 62
1
100
AcDbLine
 10
357.865982
 20
119.696034
 30
0.0
 11
357.865982
 21
122.695746
 31
0.0
  0
LINE
  5
1b7
100
AcDbEntity
  8
Layer_1
 62
1
100
AcDbLine
 10
357.865982
 20
122.695746
 30
0.0
 11
357.865982
 21
122.695746
 31
0.0
  0
SPLINE
  5
1b8
100
AcDbEntity
  8
Layer_1
 62
1
100
AcDbSpline
 70
8
 71
3
 72
8
 73
4
 74
0
 40
0
 40
0
 40
0
 40
0
 40
1
 40
1
 40
1
 40
1
 10
361.316149
 20
121.197045
 30
0.0
 10
361.316149
 20
121.608131
 30
0.0
 10
361.479452
 20
122.002380
 30
0.0
 10
361.770133
 20
122.293061
 30
0.0
  0
SPLINE
  5
1b9
100
AcDbEntity
  8
Layer_1
 62
1
100
AcDbSpline
 70
8
 71
3
 72
8
 73
4
 74
0
 40
0
 40
0
 40
0
 40
0
 40
1
 40
1
 40
1
 40
1
 10
361.770133
 20
122.293061
 30
0.0
 10
362.060815
 20
122.583743
 30
0.0
 10
362.455064
 20
122.747046
 30
0.0
 10
362.866150
 20
122.747046
 30
0.0
  0
SPLINE
  5
1ba
100
AcDbEntity
  8
Layer_1
 62
1
100
AcDbSpline
 70
8
 71
3
 72
8
 73
4
 74
0
 40
0
 40
0
 40
0
 40
0
 40
1
 40
1
 40
1
 40
1
 10
362.866150
 20
122.747046
 30
0.0
 10
363.277236
 20
122.747046
 30
0.0
 10
363.671484
 20
122.583742
 30
0.0
 10
363.962165
 20
122.293060
 30
0.0
  0
SPLINE
  5
1bb
100
AcDbEntity
  8
Layer_1
 62
1
100
AcDbSpline
 70
8
 71
3
 72
8
 73
4
 74
0
 40
0
 40
0
 40
0
 40
0
 40
1
 40
1
 40
1
 40
1
 10
363.962165
 20
122.293060
 30
0.0
 10
364.252846
 20
122.002379
 30
0.0
 10
364.416149
 20
121.608130
 30
0.0
 10
364.416149
 20
121.197045
 30
0.0
  0
SPLINE
  5
1bc
100
AcDbEntity
  8
Layer_1
 62
1
100
AcDbSpline
 70
8
 71
3
 72
8
 73
4
 74
0
 40
0
 40
0
 40
0
 40
0
 40
1
 40
1
 40
1
 40
1
 10
364.416149
 20
121.197045
 30
0.0
 10
364.416148
 20
120.341004
 30
0.0
 10
363.722190
 20
119.647047
 30
0.0
 10
362.866150
 20
119.647046
 30
0.0
  0
SPLINE
  5
1bd
100
AcDbEntity
  8
Layer_1
 62
1
100
AcDbSpline
 70
8
 71
3
 72
8
 73
4
 74
0
 40
0
 40
0
 40
0
 40
0
 40
1
 40
1
 40
1
 40
1
 10
362.866150
 20
119.647046
 30
0.0
 10
362.455065
 20
119.647046
 30
0.0
 10
362.060816
 20
119.810349
 30
0.0
 10
361.770134
 20
120.101030
 30
0.0
  0
SPLINE
  5
1be
100
AcDbEntity
  8
Layer_1
 62
1
100
AcDbSpline
 70
8
 71
3
 72
8
 73
4
 74
0
 40
0
 40
0
 40
0
 40
0
 40
1
 40
1
 40
1
 40
1
 10
361.770134
 20
120.101030
 30
0.0
 10
361.479453
 20
120.391711
 30
0.0
 10
361.316149
 20
120.785959
 30
0.0
 10
361.316149
 20
121.197045
 30
0.0
  0
LINE
  5
1bf
100
AcDbEntity
  8
Layer_1
 62
1
100
AcDbLine
 10
361.316149
 20
121.197045
 30
0.0
 11
361.316149
 21
121.197045
 31
0.0
  0
LINE
  5
1c0
100
AcDbEntity
  8
Layer_1
 62
1
100
AcDbLine
 10
327.879602
 20
119.695913
 30
0.0
 11
317.879597
 21
119.695913
 31
0.0
  0
LINE
  5
1c1
100
AcDbEntity
  8
Layer_1
 62
1
100
AcDbLine
 10
317.879597
 20
119.695913
 30
0.0
 11
317.879597
 21
122.695907
 31
0.0
  0
LINE
  5
1c2
100
AcDbEntity
  8
Layer_1
 62
1
100
AcDbLine
 10
317.879597
 20
122.695907
 30
0.0
 11
327.879602
 21
122.695907
 31
0.0
  0
LINE
  5
1c3
100
AcDbEntity
  8
Layer_1
 62
1
100
AcDbLine
 10
327.879602
 20
122.695907
 30
0.0
 11
327.879602
 21
119.695913
 31
0.0
  0
SPLINE
  5
1c4
100
AcDbEntity
  8
Layer_1
 62
1
100
AcDbSpline
 70
8
 71
3
 72
8
 73
4
 74
0
 40
0
 40
0
 40
0
 40
0
 40
1
 40
1
 40
1
 40
1
 10
331.329591
 20
121.197045
 30
0.0
 10
331.329591
 20
121.608130
 30
0.0
 10
331.492894
 20
122.002379
 30
0.0
 10
331.783575
 20
122.293060
 30
0.0
  0
SPLINE
  5
1c5
100
AcDbEntity
  8
Layer_1
 62
1
100
AcDbSpline
 70
8
 71
3
 72
8
 73
4
 74
0
 40
0
 40
0
 40
0
 40
0
 40
1
 40
1
 40
1
 40
1
 10
331.783575
 20
122.293060
 30
0.0
 10
332.074256
 20
122.583742
 30
0.0
 10
332.468504
 20
122.747046
 30
0.0
 10
332.879590
 20
122.747046
 30
0.0
  0
SPLINE
  5
1c6
100
AcDbEntity
  8
Layer_1
 62
1
100
AcDbSpline
 70
8
 71
3
 72
8
 73
4
 74
0
 40
0
 40
0
 40
0
 40
0
 40
1
 40
1
 40
1
 40
1
 10
332.879590
 20
122.747046
 30
0.0
 10
333.290675
 20
122.747046
 30
0.0
 10
333.684924
 20
122.583742
 30
0.0
 10
333.975605
 20
122.293060
 30
0.0
  0
SPLINE
  5
1c7
100
AcDbEntity
  8
Layer_1
 62
1
100
AcDbSpline
 70
8
 71
3
 72
8
 73
4
 74
0
 40
0
 40
0
 40
0
 40
0
 40
1
 40
1
 40
1
 40
1
 10
333.975605
 20
122.293060
 30
0.0
 10
334.266286
 20
122.002379
 30
0.0
 10
334.429588
 20
121.608130
 30
0.0
 10
334.429588
 20
121.197045
 30
0.0
  0
SPLINE
  5
1c8
100
AcDbEntity
  8
Layer_1
 62
1
100
AcDbSpline
 70
8
 71
3
 72
8
 73
4
 74
0
 40
0
 40
0
 40
0
 40
0
 40
1
 40
1
 40
1
 40
1
 10
334.429588
 20
121.197045
 30
0.0
 10
334.429587
 20
120.341004
 30
0.0
 10
333.735630
 20
119.647047
 30
0.0
 10
332.879590
 20
119.647046
 30
0.0
  0
SPLINE
  5
1c9
100
AcDbEntity
  8
Layer_1
 62
1
100
AcDbSpline
 70
8
 71
3
 72
8
 73
4
 74
0
 40
0
 40
0
 40
0
 40
0
 40
1
 40
1
 40
1
 40
1
 10
332.879590
 20
119.647046
 30
0.0
 10
332.023549
 20
119.647047
 30
0.0
 10
331.329592
 20
120.341004
 30
0.0
 10
331.329591
 20
121.197045
 30
0.0
  0
LINE
  5
1ca
100
AcDbEntity
  8
Layer_1
 62
1
100
AcDbLine
 10
331.329591
 20
121.197045
 30
0.0
 11
331.329591
 21
121.197045
 31
0.0
  0
LINE
  5
1cb
100
AcDbEntity
  8
Layer_1
 62
1
100
AcDbLine
 10
346.436524
 20
91.203812
 30
0.0
 11
346.436524
 21
101.203818
 31
0.0
  0
LINE
  5
1cc
100
AcDbEntity
  8
Layer_1
 62
1
100
AcDbLine
 10
346.436524
 20
101.203818
 30
0.0
 11
349.436518
 21
101.203818
 31
0.0
  0
LINE
  5
1cd
100
AcDbEntity
  8
Layer_1
 62
1
100
AcDbLine
 10
349.436518
 20
101.203818
 30
0.0
 11
349.436518
 21
91.203812
 31
0.0
  0
LINE
  5
1ce
100
AcDbEntity
  8
Layer_1
 62
1
100
AcDbLine
 10
349.436518
 20
91.203812
 30
0.0
 11
346.436524
 21
91.203812
 31
0.0
  0
SPLINE
  5
1cf
100
AcDbEntity
  8
Layer_1
 62
1
100
AcDbSpline
 70
8
 71
3
 72
8
 73
4
 74
0
 40
0
 40
0
 40
0
 40
0
 40
1
 40
1
 40
1
 40
1
 10
347.937655
 20
107.753775
 30
0.0
 10
348.348741
 20
107.753776
 30
0.0
 10
348.742991
 20
107.590473
 30
0.0
 10
349.033672
 20
107.299791
 30
0.0
  0
SPLINE
  5
1d0
100
AcDbEntity
  8
Layer_1
 62
1
100
AcDbSpline
 70
8
 71
3
 72
8
 73
4
 74
0
 40
0
 40
0
 40
0
 40
0
 40
1
 40
1
 40
1
 40
1
 10
349.033672
 20
107.299791
 30
0.0
 10
349.324354
 20
107.009109
 30
0.0
 10
349.487657
 20
106.614860
 30
0.0
 10
349.487657
 20
106.203774
 30
0.0
  0
SPLINE
  5
1d1
100
AcDbEntity
  8
Layer_1
 62
1
100
AcDbSpline
 70
8
 71
3
 72
8
 73
4
 74
0
 40
0
 40
0
 40
0
 40
0
 40
1
 40
1
 40
1
 40
1
 10
349.487657
 20
106.203774
 30
0.0
 10
349.487656
 20
105.792689
 30
0.0
 10
349.324353
 20
105.398440
 30
0.0
 10
349.033671
 20
105.107759
 30
0.0
  0
SPLINE
  5
1d2
100
AcDbEntity
  8
Layer_1
 62
1
100
AcDbSpline
 70
8
 71
3
 72
8
 73
4
 74
0
 40
0
 40
0
 40
0
 40
0
 40
1
 40
1
 40
1
 40
1
 10
349.033671
 20
105.107759
 30
0.0
 10
348.742990
 20
104.817078
 30
0.0
 10
348.348741
 20
104.653775
 30
0.0
 10
347.937655
 20
104.653776
 30
0.0
  0
SPLINE
  5
1d3
100
AcDbEntity
  8
Layer_1
 62
1
100
AcDbSpline
 70
8
 71
3
 72
8
 73
4
 74
0
 40
0
 40
0
 40
0
 40
0
 40
1
 40
1
 40
1
 40
1
 10
347.937655
 20
104.653776
 30
0.0
 10
347.081615
 20
104.653777
 30
0.0
 10
346.387658
 20
105.347734
 30
0.0
 10
346.387657
 20
106.203774
 30
0.0
  0
SPLINE
  5
1d4
100
AcDbEntity
  8
Layer_1
 62
1
100
AcDbSpline
 70
8
 71
3
 72
8
 73
4
 74
0
 40
0
 40
0
 40
0
 40
0
 40
1
 40
1
 40
1
 40
1
 10
346.387657
 20
106.203774
 30
0.0
 10
346.387657
 20
106.614860
 30
0.0
 10
346.550959
 20
107.009108
 30
0.0
 10
346.841640
 20
107.299790
 30
0.0
  0
SPLINE
  5
1d5
100
AcDbEntity
  8
Layer_1
 62
1
100
AcDbSpline
 70
8
 71
3
 72
8
 73
4
 74
0
 40
0
 40
0
 40
0
 40
0
 40
1
 40
1
 40
1
 40
1
 10
346.841640
 20
107.299790
 30
0.0
 10
347.132322
 20
107.590472
 30
0.0
 10
347.526570
 20
107.753775
 30
0.0
 10
347.937655
 20
107.753775
 30
0.0
  0
LINE
  5
1d6
100
AcDbEntity
  8
Layer_1
 62
1
100
AcDbLine
 10
347.937655
 20
107.753775
 30
0.0
 11
347.937655
 21
107.753775
 31
0.0
  0
LINE
  5
1d7
100
AcDbEntity
  8
Layer_1
 62
1
100
AcDbLine
 10
346.436524
 20
141.190322
 30
0.0
 11
346.436524
 21
151.190328
 31
0.0
  0
LINE
  5
1d8
100
AcDbEntity
  8
Layer_1
 62
1
100
AcDbLine
 10
346.436524
 20
151.190328
 30
0.0
 11
349.436518
 21
151.190328
 31
0.0
  0
LINE
  5
1d9
100
AcDbEntity
  8
Layer_1
 62
1
100
AcDbLine
 10
349.436518
 20
151.190328
 30
0.0
 11
349.436518
 21
141.190322
 31
0.0
  0
LINE
  5
1da
100
AcDbEntity
  8
Layer_1
 62
1
100
AcDbLine
 10
349.436518
 20
141.190322
 30
0.0
 11
346.436524
 21
141.190322
 31
0.0
  0
SPLINE
  5
1db
100
AcDbEntity
  8
Layer_1
 62
1
100
AcDbSpline
 70
8
 71
3
 72
8
 73
4
 74
0
 40
0
 40
0
 40
0
 40
0
 40
1
 40
1
 40
1
 40
1
 10
347.937655
 20
137.740333
 30
0.0
 10
348.348741
 20
137.740334
 30
0.0
 10
348.742990
 20
137.577031
 30
0.0
 10
349.033671
 20
137.286350
 30
0.0
  0
SPLINE
  5
1dc
100
AcDbEntity
  8
Layer_1
 62
1
100
AcDbSpline
 70
8
 71
3
 72
8
 73
4
 74
0
 40
0
 40
0
 40
0
 40
0
 40
1
 40
1
 40
1
 40
1
 10
349.033671
 20
137.286350
 30
0.0
 10
349.324353
 20
136.995669
 30
0.0
 10
349.487656
 20
136.601420
 30
0.0
 10
349.487657
 20
136.190335
 30
0.0
  0
SPLINE
  5
1dd
100
AcDbEntity
  8
Layer_1
 62
1
100
AcDbSpline
 70
8
 71
3
 72
8
 73
4
 74
0
 40
0
 40
0
 40
0
 40
0
 40
1
 40
1
 40
1
 40
1
 10
349.487657
 20
136.190335
 30
0.0
 10
349.487656
 20
135.779249
 30
0.0
 10
349.324353
 20
135.385001
 30
0.0
 10
349.033671
 20
135.094320
 30
0.0
  0
SPLINE
  5
1de
100
AcDbEntity
  8
Layer_1
 62
1
100
AcDbSpline
 70
8
 71
3
 72
8
 73
4
 74
0
 40
0
 40
0
 40
0
 40
0
 40
1
 40
1
 40
1
 40
1
 10
349.033671
 20
135.094320
 30
0.0
 10
348.742990
 20
134.803639
 30
0.0
 10
348.348741
 20
134.640336
 30
0.0
 10
347.937655
 20
134.640336
 30
0.0
  0
SPLINE
  5
1df
100
AcDbEntity
  8
Layer_1
 62
1
100
AcDbSpline
 70
8
 71
3
 72
8
 73
4
 74
0
 40
0
 40
0
 40
0
 40
0
 40
1
 40
1
 40
1
 40
1
 10
347.937655
 20
134.640336
 30
0.0
 10
347.081615
 20
134.640337
 30
0.0
 10
346.387658
 20
135.334295
 30
0.0
 10
346.387657
 20
136.190335
 30
0.0
  0
SPLINE
  5
1e0
100
AcDbEntity
  8
Layer_1
 62
1
100
AcDbSpline
 70
8
 71
3
 72
8
 73
4
 74
0
 40
0
 40
0
 40
0
 40
0
 40
1
 40
1
 40
1
 40
1
 10
346.387657
 20
136.190335
 30
0.0
 10
346.387658
 20
137.046375
 30
0.0
 10
347.081615
 20
137.740333
 30
0.0
 10
347.937655
 20
137.740333
 30
0.0
  0
LINE
  5
1e1
100
AcDbEntity
  8
Layer_1
 62
1
100
AcDbLine
 10
347.937655
 20
137.740333
 30
0.0
 11
347.937655
 21
137.740333
 31
0.0
  0
SPLINE
  5
1e2
100
AcDbEntity
  8
Layer_1
 62
3
100
AcDbSpline
 70
8
 71
3
 72
8
 73
4
 74
0
 40
0
 40
0
 40
0
 40
0
 40
1
 40
1
 40
1
 40
1
 10
325.516901
 20
240.538838
 30
0.0
 10
325.601586
 20
240.431555
 30
0.0
 10
325.629818
 20
240.312994
 30
0.0
 10
325.601596
 20
240.183153
 30
0.0
  0
LINE
  5
1e3
100
AcDbEntity
  8
Layer_1
 62
3
100
AcDbLine
 10
325.601596
 20
240.183153
 30
0.0
 11
323.907839
 21
232.561234
 31
0.0
  0
SPLINE
  5
1e4
100
AcDbEntity
  8
Layer_1
 62
3
100
AcDbSpline
 70
8
 71
3
 72
8
 73
4
 74
0
 40
0
 40
0
 40
0
 40
0
 40
1
 40
1
 40
1
 40
1
 10
323.907839
 20
232.561234
 30
0.0
 10
323.879617
 20
232.448326
 30
0.0
 10
323.814687
 20
232.357996
 30
0.0
 10
323.713049
 20
232.290244
 30
0.0
  0
SPLINE
  5
1e5
100
AcDbEntity
  8
Layer_1
 62
3
100
AcDbSpline
 70
8
 71
3
 72
8
 73
4
 74
0
 40
0
 40
0
 40
0
 40
0
 40
1
 40
1
 40
1
 40
1
 10
323.713049
 20
232.290244
 30
0.0
 10
323.617075
 20
232.228136
 30
0.0
 10
323.512634
 20
232.211193
 30
0.0
 10
323.399726
 20
232.239416
 30
0.0
  0
SPLINE
  5
1e6
100
AcDbEntity
  8
Layer_1
 62
3
100
AcDbSpline
 70
8
 71
3
 72
8
 73
4
 74
0
 40
0
 40
0
 40
0
 40
0
 40
1
 40
1
 40
1
 40
1
 10
323.399726
 20
232.239416
 30
0.0
 10
323.286800
 20
232.267657
 30
0.0
 10
323.196460
 20
232.329764
 30
0.0
 10
323.128708
 20
232.425739
 30
0.0
  0
SPLINE
  5
1e7
100
AcDbEntity
  8
Layer_1
 62
3
100
AcDbSpline
 70
8
 71
3
 72
8
 73
4
 74
0
 40
0
 40
0
 40
0
 40
0
 40
1
 40
1
 40
1
 40
1
 10
323.128708
 20
232.425739
 30
0.0
 10
323.066600
 20
232.527357
 30
0.0
 10
323.049667
 20
232.634630
 30
0.0
 10
323.077908
 20
232.747557
 30
0.0
  0
LINE
  5
1e8
100
AcDbEntity
  8
Layer_1
 62
3
100
AcDbLine
 10
323.077908
 20
232.747557
 30
0.0
 11
324.661570
 21
239.852868
 31
0.0
  0
LINE
  5
1e9
100
AcDbEntity
  8
Layer_1
 62
3
100
AcDbLine
 10
324.661570
 20
239.852868
 30
0.0
 11
322.222549
 21
239.852868
 31
0.0
  0
LINE
  5
1ea
100
AcDbEntity
  8
Layer_1
 62
3
100
AcDbLine
 10
322.222549
 20
239.852868
 30
0.0
 11
322.222549
 21
239.429422
 31
0.0
  0
SPLINE
  5
1eb
100
AcDbEntity
  8
Layer_1
 62
3
100
AcDbSpline
 70
8
 71
3
 72
8
 73
4
 74
0
 40
0
 40
0
 40
0
 40
0
 40
1
 40
1
 40
1
 40
1
 10
322.222549
 20
239.429422
 30
0.0
 10
322.222549
 20
239.310870
 30
0.0
 10
322.180206
 20
239.209242
 30
0.0
 10
322.095521
 20
239.124537
 30
0.0
  0
SPLINE
  5
1ec
100
AcDbEntity
  8
Layer_1
 62
3
100
AcDbSpline
 70
8
 71
3
 72
8
 73
4
 74
0
 40
0
 40
0
 40
0
 40
0
 40
1
 40
1
 40
1
 40
1
 10
322.095521
 20
239.124537
 30
0.0
 10
322.016480
 20
239.045496
 30
0.0
 10
321.917674
 20
239.005976
 30
0.0
 10
321.799103
 20
239.005976
 30
0.0
  0
SPLINE
  5
1ed
100
AcDbEntity
  8
Layer_1
 62
3
100
AcDbSpline
 70
8
 71
3
 72
8
 73
4
 74
0
 40
0
 40
0
 40
0
 40
0
 40
1
 40
1
 40
1
 40
1
 10
321.799103
 20
239.005976
 30
0.0
 10
321.680551
 20
239.005976
 30
0.0
 10
321.578932
 20
239.045496
 30
0.0
 10
321.494246
 20
239.124537
 30
0.0
  0
SPLINE
  5
1ee
100
AcDbEntity
  8
Layer_1
 62
3
100
AcDbSpline
 70
8
 71
3
 72
8
 73
4
 74
0
 40
0
 40
0
 40
0
 40
0
 40
1
 40
1
 40
1
 40
1
 10
321.494246
 20
239.124537
 30
0.0
 10
321.415205
 20
239.209242
 30
0.0
 10
321.375685
 20
239.310870
 30
0.0
 10
321.375685
 20
239.429422
 30
0.0
  0
LINE
  5
1ef
100
AcDbEntity
  8
Layer_1
 62
3
100
AcDbLine
 10
321.375685
 20
239.429422
 30
0.0
 11
321.375685
 21
240.276314
 31
0.0
  0
SPLINE
  5
1f0
100
AcDbEntity
  8
Layer_1
 62
3
100
AcDbSpline
 70
8
 71
3
 72
8
 73
4
 74
0
 40
0
 40
0
 40
0
 40
0
 40
1
 40
1
 40
1
 40
1
 10
321.375685
 20
240.276314
 30
0.0
 10
321.375685
 20
240.394867
 30
0.0
 10
321.415205
 20
240.493663
 30
0.0
 10
321.494246
 20
240.572704
 30
0.0
  0
SPLINE
  5
1f1
100
AcDbEntity
  8
Layer_1
 62
3
100
AcDbSpline
 70
8
 71
3
 72
8
 73
4
 74
0
 40
0
 40
0
 40
0
 40
0
 40
1
 40
1
 40
1
 40
1
 10
321.494246
 20
240.572704
 30
0.0
 10
321.578932
 20
240.657390
 30
0.0
 10
321.680551
 20
240.699732
 30
0.0
 10
321.799103
 20
240.699732
 30
0.0
  0
LINE
  5
1f2
100
AcDbEntity
  8
Layer_1
 62
3
100
AcDbLine
 10
321.799103
 20
240.699732
 30
0.0
 11
325.186616
 21
240.699732
 31
0.0
  0
SPLINE
  5
1f3
100
AcDbEntity
  8
Layer_1
 62
3
100
AcDbSpline
 70
8
 71
3
 72
8
 73
4
 74
0
 40
0
 40
0
 40
0
 40
0
 40
1
 40
1
 40
1
 40
1
 10
325.186616
 20
240.699732
 30
0.0
 10
325.316476
 20
240.699732
 30
0.0
 10
325.426571
 20
240.646101
 30
0.0
 10
325.516901
 20
240.538838
 30
0.0
  0
LINE
  5
1f4
100
AcDbEntity
  8
Layer_1
 62
3
100
AcDbLine
 10
325.516901
 20
240.538838
 30
0.0
 11
325.516901
 21
240.538838
 31
0.0
  0
LINE
  5
1f5
100
AcDbEntity
  8
Layer_1
 62
5
100
AcDbLine
 10
374.704758
 20
226.654308
 30
0.0
 11
379.458975
 21
227.352447
 31
0.0
  0
LINE
  5
1f6
100
AcDbEntity
  8
Layer_1
 62
5
100
AcDbLine
 10
379.458975
 20
227.352447
 30
0.0
 11
382.247557
 21
227.081378
 31
0.0
  0
LINE
  5
1f7
100
AcDbEntity
  8
Layer_1
 62
5
100
AcDbLine
 10
382.247557
 20
227.081378
 30
0.0
 11
390.112068
 21
223.521204
 31
0.0
  0
LINE
  5
1f8
100
AcDbEntity
  8
Layer_1
 62
5
100
AcDbLine
 10
390.112068
 20
223.521204
 30
0.0
 11
390.112068
 21
218.847474
 31
0.0
  0
LINE
  5
1f9
100
AcDbEntity
  8
Layer_1
 62
5
100
AcDbLine
 10
390.112068
 20
218.847474
 30
0.0
 11
382.247557
 21
215.287300
 31
0.0
  0
LINE
  5
1fa
100
AcDbEntity
  8
Layer_1
 62
5
100
AcDbLine
 10
382.247557
 20
215.287300
 30
0.0
 11
379.458975
 21
215.016231
 31
0.0
  0
LINE
  5
1fb
100
AcDbEntity
  8
Layer_1
 62
5
100
AcDbLine
 10
379.458975
 20
215.016231
 30
0.0
 11
374.704758
 21
215.714370
 31
0.0
  0
LINE
  5
1fc
100
AcDbEntity
  8
Layer_1
 62
5
100
AcDbLine
 10
374.704758
 20
215.714370
 30
0.0
 11
372.449233
 21
207.296640
 31
0.0
  0
LINE
  5
1fd
100
AcDbEntity
  8
Layer_1
 62
5
100
AcDbLine
 10
372.449233
 20
207.296640
 30
0.0
 11
376.915577
 21
205.524135
 31
0.0
  0
LINE
  5
1fe
100
AcDbEntity
  8
Layer_1
 62
5
100
AcDbLine
 10
376.915577
 20
205.524135
 30
0.0
 11
379.195024
 21
203.895092
 31
0.0
  0
LINE
  5
1ff
100
AcDbEntity
  8
Layer_1
 62
5
100
AcDbLine
 10
379.195024
 20
203.895092
 30
0.0
 11
384.225805
 21
196.879634
 31
0.0
  0
LINE
  5
200
100
AcDbEntity
  8
Layer_1
 62
5
100
AcDbLine
 10
384.225805
 20
196.879634
 30
0.0
 11
381.888940
 21
192.832065
 31
0.0
  0
LINE
  5
201
100
AcDbEntity
  8
Layer_1
 62
5
100
AcDbLine
 10
381.888940
 20
192.832065
 30
0.0
 11
373.297985
 21
193.681120
 31
0.0
  0
LINE
  5
202
100
AcDbEntity
  8
Layer_1
 62
5
100
AcDbLine
 10
373.297985
 20
193.681120
 30
0.0
 11
370.747466
 21
194.840658
 31
0.0
  0
LINE
  5
203
100
AcDbEntity
  8
Layer_1
 62
5
100
AcDbLine
 10
370.747466
 20
194.840658
 30
0.0
 11
366.979266
 21
197.822372
 31
0.0
  0
LINE
  5
204
100
AcDbEntity
  8
Layer_1
 62
5
100
AcDbLine
 10
366.979266
 20
197.822372
 30
0.0
 11
360.817057
 21
191.660163
 31
0.0
  0
LINE
  5
205
100
AcDbEntity
  8
Layer_1
 62
5
100
AcDbLine
 10
360.817057
 20
191.660163
 30
0.0
 11
363.798771
 21
187.891963
 31
0.0
  0
LINE
  5
206
100
AcDbEntity
  8
Layer_1
 62
5
100
AcDbLine
 10
363.798771
 20
187.891963
 30
0.0
 11
364.958310
 21
185.341444
 31
0.0
  0
LINE
  5
207
100
AcDbEntity
  8
Layer_1
 62
5
100
AcDbLine
 10
364.958310
 20
185.341444
 30
0.0
 11
365.807364
 21
176.750481
 31
0.0
  0
LINE
  5
208
100
AcDbEntity
  8
Layer_1
 62
5
100
AcDbLine
 10
365.807364
 20
176.750481
 30
0.0
 11
361.759795
 21
174.413625
 31
0.0
  0
LINE
  5
209
100
AcDbEntity
  8
Layer_1
 62
5
100
AcDbLine
 10
361.759795
 20
174.413625
 30
0.0
 11
354.744337
 21
179.444405
 31
0.0
  0
LINE
  5
20a
100
AcDbEntity
  8
Layer_1
 62
5
100
AcDbLine
 10
354.744337
 20
179.444405
 30
0.0
 11
353.115294
 21
181.723852
 31
0.0
  0
LINE
  5
20b
100
AcDbEntity
  8
Layer_1
 62
5
100
AcDbLine
 10
353.115294
 20
181.723852
 30
0.0
 11
351.342789
 21
186.190197
 31
0.0
  0
LINE
  5
20c
100
AcDbEntity
  8
Layer_1
 62
5
100
AcDbLine
 10
351.342789
 20
186.190197
 30
0.0
 11
342.925059
 21
183.934671
 31
0.0
  0
LINE
  5
20d
100
AcDbEntity
  8
Layer_1
 62
5
100
AcDbLine
 10
342.925059
 20
183.934671
 30
0.0
 11
343.623198
 21
179.180454
 31
0.0
  0
LINE
  5
20e
100
AcDbEntity
  8
Layer_1
 62
5
100
AcDbLine
 10
343.623198
 20
179.180454
 30
0.0
 11
343.352129
 21
176.391861
 31
0.0
  0
LINE
  5
20f
100
AcDbEntity
  8
Layer_1
 62
5
100
AcDbLine
 10
343.352129
 20
176.391861
 30
0.0
 11
339.791955
 21
168.527372
 31
0.0
  0
LINE
  5
210
100
AcDbEntity
  8
Layer_1
 62
5
100
AcDbLine
 10
339.791955
 20
168.527372
 30
0.0
 11
335.118225
 21
168.527372
 31
0.0
  0
LINE
  5
211
100
AcDbEntity
  8
Layer_1
 62
5
100
AcDbLine
 10
335.118225
 20
168.527372
 30
0.0
 11
331.558051
 21
176.391861
 31
0.0
  0
LINE
  5
212
100
AcDbEntity
  8
Layer_1
 62
5
100
AcDbLine
 10
331.558051
 20
176.391861
 30
0.0
 11
331.286982
 21
179.180454
 31
0.0
  0
LINE
  5
213
100
AcDbEntity
  8
Layer_1
 62
5
100
AcDbLine
 10
331.286982
 20
179.180454
 30
0.0
 11
331.985121
 21
183.934671
 31
0.0
  0
LINE
  5
214
100
AcDbEntity
  8
Layer_1
 62
5
100
AcDbLine
 10
331.985121
 20
183.934671
 30
0.0
 11
323.567391
 21
186.190197
 31
0.0
  0
LINE
  5
215
100
AcDbEntity
  8
Layer_1
 62
5
100
AcDbLine
 10
323.567391
 20
186.190197
 30
0.0
 11
321.794886
 21
181.723852
 31
0.0
  0
LINE
  5
216
100
AcDbEntity
  8
Layer_1
 62
5
100
AcDbLine
 10
321.794886
 20
181.723852
 30
0.0
 11
320.165843
 21
179.444405
 31
0.0
  0
LINE
  5
217
100
AcDbEntity
  8
Layer_1
 62
5
100
AcDbLine
 10
320.165843
 20
179.444405
 30
0.0
 11
313.150386
 21
174.413625
 31
0.0
  0
LINE
  5
218
100
AcDbEntity
  8
Layer_1
 62
5
100
AcDbLine
 10
313.150386
 20
174.413625
 30
0.0
 11
309.102816
 21
176.750481
 31
0.0
  0
LINE
  5
219
100
AcDbEntity
  8
Layer_1
 62
5
100
AcDbLine
 10
309.102816
 20
176.750481
 30
0.0
 11
309.951871
 21
185.341444
 31
0.0
  0
LINE
  5
21a
100
AcDbEntity
  8
Layer_1
 62
5
100
AcDbLine
 10
309.951871
 20
185.341444
 30
0.0
 11
311.111409
 21
187.891963
 31
0.0
  0
LINE
  5
21b
100
AcDbEntity
  8
Layer_1
 62
5
100
AcDbLine
 10
311.111409
 20
187.891963
 30
0.0
 11
314.093123
 21
191.660163
 31
0.0
  0
LINE
  5
21c
100
AcDbEntity
  8
Layer_1
 62
5
100
AcDbLine
 10
314.093123
 20
191.660163
 30
0.0
 11
307.930914
 21
197.822372
 31
0.0
  0
LINE
  5
21d
100
AcDbEntity
  8
Layer_1
 62
5
100
AcDbLine
 10
307.930914
 20
197.822372
 30
0.0
 11
304.162714
 21
194.840658
 31
0.0
  0
LINE
  5
21e
100
AcDbEntity
  8
Layer_1
 62
5
100
AcDbLine
 10
304.162714
 20
194.840658
 30
0.0
 11
301.612195
 21
193.681120
 31
0.0
  0
LINE
  5
21f
100
AcDbEntity
  8
Layer_1
 62
5
100
AcDbLine
 10
301.612195
 20
193.681120
 30
0.0
 11
293.021241
 21
192.832065
 31
0.0
  0
LINE
  5
220
100
AcDbEntity
  8
Layer_1
 62
5
100
AcDbLine
 10
293.021241
 20
192.832065
 30
0.0
 11
290.684376
 21
196.879634
 31
0.0
  0
LINE
  5
221
100
AcDbEntity
  8
Layer_1
 62
5
100
AcDbLine
 10
290.684376
 20
196.879634
 30
0.0
 11
295.715156
 21
203.895092
 31
0.0
  0
LINE
  5
222
100
AcDbEntity
  8
Layer_1
 62
5
100
AcDbLine
 10
295.715156
 20
203.895092
 30
0.0
 11
297.994603
 21
205.524135
 31
0.0
  0
LINE
  5
223
100
AcDbEntity
  8
Layer_1
 62
5
100
AcDbLine
 10
297.994603
 20
205.524135
 30
0.0
 11
302.460948
 21
207.296640
 31
0.0
  0
LINE
  5
224
100
AcDbEntity
  8
Layer_1
 62
5
100
AcDbLine
 10
302.460948
 20
207.296640
 30
0.0
 11
300.205422
 21
215.714370
 31
0.0
  0
LINE
  5
225
100
AcDbEntity
  8
Layer_1
 62
5
100
AcDbLine
 10
300.205422
 20
215.714370
 30
0.0
 11
295.451205
 21
215.016231
 31
0.0
  0
LINE
  5
226
100
AcDbEntity
  8
Layer_1
 62
5
100
AcDbLine
 10
295.451205
 20
215.016231
 30
0.0
 11
292.662624
 21
215.287300
 31
0.0
  0
LINE
  5
227
100
AcDbEntity
  8
Layer_1
 62
5
100
AcDbLine
 10
292.662624
 20
215.287300
 30
0.0
 11
284.798112
 21
218.847474
 31
0.0
  0
LINE
  5
228
100
AcDbEntity
  8
Layer_1
 62
5
100
AcDbLine
 10
284.798112
 20
218.847474
 30
0.0
 11
284.798112
 21
223.521204
 31
0.0
  0
LINE
  5
229
100
AcDbEntity
  8
Layer_1
 62
5
100
AcDbLine
 10
284.798112
 20
223.521204
 30
0.0
 11
292.662624
 21
227.081378
 31
0.0
  0
LINE
  5
22a
100
AcDbEntity
  8
Layer_1
 62
5
100
AcDbLine
 10
292.662624
 20
227.081378
 30
0.0
 11
295.451205
 21
227.352447
 31
0.0
  0
LINE
  5
22b
100
AcDbEntity
  8
Layer_1
 62
5
100
AcDbLine
 10
295.451205
 20
227.352447
 30
0.0
 11
300.205422
 21
226.654308
 31
0.0
  0
LINE
  5
22c
100
AcDbEntity
  8
Layer_1
 62
5
100
AcDbLine
 10
300.205422
 20
226.654308
 30
0.0
 11
302.460948
 21
235.072038
 31
0.0
  0
LINE
  5
22d
100
AcDbEntity
  8
Layer_1
 62
5
100
AcDbLine
 10
302.460948
 20
235.072038
 30
0.0
 11
297.994603
 21
236.844543
 31
0.0
  0
LINE
  5
22e
100
AcDbEntity
  8
Layer_1
 62
5
100
AcDbLine
 10
297.994603
 20
236.844543
 30
0.0
 11
295.715156
 21
238.473586
 31
0.0
  0
LINE
  5
22f
100
AcDbEntity
  8
Layer_1
 62
5
100
AcDbLine
 10
295.715156
 20
238.473586
 30
0.0
 11
290.684376
 21
245.489044
 31
0.0
  0
LINE
  5
230
100
AcDbEntity
  8
Layer_1
 62
5
100
AcDbLine
 10
290.684376
 20
245.489044
 30
0.0
 11
293.021241
 21
249.536613
 31
0.0
  0
LINE
  5
231
100
AcDbEntity
  8
Layer_1
 62
5
100
AcDbLine
 10
293.021241
 20
249.536613
 30
0.0
 11
301.612195
 21
248.687558
 31
0.0
  0
LINE
  5
232
100
AcDbEntity
  8
Layer_1
 62
5
100
AcDbLine
 10
301.612195
 20
248.687558
 30
0.0
 11
304.162714
 21
247.528020
 31
0.0
  0
LINE
  5
233
100
AcDbEntity
  8
Layer_1
 62
5
100
AcDbLine
 10
304.162714
 20
247.528020
 30
0.0
 11
307.930914
 21
244.546306
 31
0.0
  0
LINE
  5
234
100
AcDbEntity
  8
Layer_1
 62
5
100
AcDbLine
 10
307.930914
 20
244.546306
 30
0.0
 11
314.093123
 21
250.708515
 31
0.0
  0
LINE
  5
235
100
AcDbEntity
  8
Layer_1
 62
5
100
AcDbLine
 10
314.093123
 20
250.708515
 30
0.0
 11
311.111409
 21
254.476715
 31
0.0
  0
LINE
  5
236
100
AcDbEntity
  8
Layer_1
 62
5
100
AcDbLine
 10
311.111409
 20
254.476715
 30
0.0
 11
309.951871
 21
257.027234
 31
0.0
  0
LINE
  5
237
100
AcDbEntity
  8
Layer_1
 62
5
100
AcDbLine
 10
309.951871
 20
257.027234
 30
0.0
 11
309.102816
 21
265.618189
 31
0.0
  0
LINE
  5
238
100
AcDbEntity
  8
Layer_1
 62
5
100
AcDbLine
 10
309.102816
 20
265.618189
 30
0.0
 11
313.150386
 21
267.955054
 31
0.0
  0
LINE
  5
239
100
AcDbEntity
  8
Layer_1
 62
5
100
AcDbLine
 10
313.150386
 20
267.955054
 30
0.0
 11
320.165843
 21
262.924273
 31
0.0
  0
LINE
  5
23a
100
AcDbEntity
  8
Layer_1
 62
5
100
AcDbLine
 10
320.165843
 20
262.924273
 30
0.0
 11
321.794886
 21
260.644826
 31
0.0
  0
LINE
  5
23b
100
AcDbEntity
  8
Layer_1
 62
5
100
AcDbLine
 10
321.794886
 20
260.644826
 30
0.0
 11
323.567391
 21
256.178482
 31
0.0
  0
LINE
  5
23c
100
AcDbEntity
  8
Layer_1
 62
5
100
AcDbLine
 10
323.567391
 20
256.178482
 30
0.0
 11
331.985121
 21
258.434007
 31
0.0
  0
LINE
  5
23d
100
AcDbEntity
  8
Layer_1
 62
5
100
AcDbLine
 10
331.985121
 20
258.434007
 30
0.0
 11
331.286982
 21
263.188224
 31
0.0
  0
LINE
  5
23e
100
AcDbEntity
  8
Layer_1
 62
5
100
AcDbLine
 10
331.286982
 20
263.188224
 30
0.0
 11
331.558051
 21
265.976805
 31
0.0
  0
LINE
  5
23f
100
AcDbEntity
  8
Layer_1
 62
5
100
AcDbLine
 10
331.558051
 20
265.976805
 30
0.0
 11
335.118225
 21
273.841317
 31
0.0
  0
LINE
  5
240
100
AcDbEntity
  8
Layer_1
 62
5
100
AcDbLine
 10
335.118225
 20
273.841317
 30
0.0
 11
339.791955
 21
273.841317
 31
0.0
  0
LINE
  5
241
100
AcDbEntity
  8
Layer_1
 62
5
100
AcDbLine
 10
339.791955
 20
273.841317
 30
0.0
 11
343.352129
 21
265.976805
 31
0.0
  0
LINE
  5
242
100
AcDbEntity
  8
Layer_1
 62
5
100
AcDbLine
 10
343.352129
 20
265.976805
 30
0.0
 11
343.623198
 21
263.188224
 31
0.0
  0
LINE
  5
243
100
AcDbEntity
  8
Layer_1
 62
5
100
AcDbLine
 10
343.623198
 20
263.188224
 30
0.0
 11
342.925059
 21
258.434007
 31
0.0
  0
LINE
  5
244
100
AcDbEntity
  8
Layer_1
 62
5
100
AcDbLine
 10
342.925059
 20
258.434007
 30
0.0
 11
351.342789
 21
256.178482
 31
0.0
  0
LINE
  5
245
100
AcDbEntity
  8
Layer_1
 62
5
100
AcDbLine
 10
351.342789
 20
256.178482
 30
0.0
 11
353.115294
 21
260.644826
 31
0.0
  0
LINE
  5
246
100
AcDbEntity
  8
Layer_1
 62
5
100
AcDbLine
 10
353.115294
 20
260.644826
 30
0.0
 11
354.744337
 21
262.924273
 31
0.0
  0
LINE
  5
247
100
AcDbEntity
  8
Layer_1
 62
5
100
AcDbLine
 10
354.744337
 20
262.924273
 30
0.0
 11
361.759795
 21
267.955054
 31
0.0
  0
LINE
  5
248
100
AcDbEntity
  8
Layer_1
 62
5
100
AcDbLine
 10
361.759795
 20
267.955054
 30
0.0
 11
365.807364
 21
265.618189
 31
0.0
  0
LINE
  5
249
100
AcDbEntity
  8
Layer_1
 62
5
100
AcDbLine
 10
365.807364
 20
265.618189
 30
0.0
 11
364.958310
 21
257.027234
 31
0.0
  0
LINE
  5
24a
100
AcDbEntity
  8
Layer_1
 62
5
100
AcDbLine
 10
364.958310
 20
257.027234
 30
0.0
 11
363.798771
 21
254.476715
 31
0.0
  0
LINE
  5
24b
100
AcDbEntity
  8
Layer_1
 62
5
100
AcDbLine
 10
363.798771
 20
254.476715
 30
0.0
 11
360.817057
 21
250.708515
 31
0.0
  0
LINE
  5
24c
100
AcDbEntity
  8
Layer_1
 62
5
100
AcDbLine
 10
360.817057
 20
250.708515
 30
0.0
 11
366.979266
 21
244.546306
 31
0.0
  0
LINE
  5
24d
100
AcDbEntity
  8
Layer_1
 62
5
100
AcDbLine
 10
366.979266
 20
244.546306
 30
0.0
 11
370.747466
 21
247.528020
 31
0.0
  0
LINE
  5
24e
100
AcDbEntity
  8
Layer_1
 62
5
100
AcDbLine
 10
370.747466
 20
247.528020
 30
0.0
 11
373.297985
 21
248.687558
 31
0.0
  0
LINE
  5
24f
100
AcDbEntity
  8
Layer_1
 62
5
100
AcDbLine
 10
373.297985
 20
248.687558
 30
0.0
 11
381.888940
 21
249.536613
 31
0.0
  0
LINE
  5
250
100
AcDbEntity
  8
Layer_1
 62
5
100
AcDbLine
 10
381.888940
 20
249.536613
 30
0.0
 11
384.225805
 21
245.489044
 31
0.0
  0
LINE
  5
251
100
AcDbEntity
  8
Layer_1
 62
5
100
AcDbLine
 10
384.225805
 20
245.489044
 30
0.0
 11
379.195024
 21
238.473586
 31
0.0
  0
LINE
  5
252
100
AcDbEntity
  8
Layer_1
 62
5
100
AcDbLine
 10
379.195024
 20
238.473586
 30
0.0
 11
376.915577
 21
236.844543
 31
0.0
  0
LINE
  5
253
100
AcDbEntity
  8
Layer_1
 62
5
100
AcDbLine
 10
376.915577
 20
236.844543
 30
0.0
 11
372.449233
 21
235.072038
 31
0.0
  0
LINE
  5
254
100
AcDbEntity
  8
Layer_1
 62
5
100
AcDbLine
 10
372.449233
 20
235.072038
 30
0.0
 11
374.704758
 21
226.654308
 31
0.0
  0
LINE
  5
255
100
AcDbEntity
  8
Layer_1
 62
1
100
AcDbLine
 10
338.956236
 20
251.112793
 30
0.0
 11
338.956236
 21
241.112787
 31
0.0
  0
LINE
  5
256
100
AcDbEntity
  8
Layer_1
 62
1
100
AcDbLine
 10
338.956236
 20
241.112787
 30
0.0
 11
335.956242
 21
241.112787
 31
0.0
  0
LINE
  5
257
100
AcDbEntity
  8
Layer_1
 62
1
100
AcDbLine
 10
335.956242
 20
241.112787
 30
0.0
 11
335.956242
 21
251.112793
 31
0.0
  0
LINE
  5
258
100
AcDbEntity
  8
Layer_1
 62
1
100
AcDbLine
 10
335.956242
 20
251.112793
 30
0.0
 11
338.956236
 21
251.112793
 31
0.0
  0
LINE
  5
259
100
AcDbEntity
  8
Layer_1
 62
1
100
AcDbLine
 10
335.956403
 20
231.112663
 30
0.0
 11
335.956403
 21
222.682928
 31
0.0
  0
LINE
  5
25a
100
AcDbEntity
  8
Layer_1
 62
1
100
AcDbLine
 10
335.956403
 20
222.682928
 30
0.0
 11
327.461624
 21
222.682928
 31
0.0
  0
LINE
  5
25b
100
AcDbEntity
  8
Layer_1
 62
1
100
AcDbLine
 10
327.461624
 20
222.682928
 30
0.0
 11
327.461624
 21
219.683216
 31
0.0
  0
LINE
  5
25c
100
AcDbEntity
  8
Layer_1
 62
1
100
AcDbLine
 10
327.461624
 20
219.683216
 30
0.0
 11
335.956403
 21
219.683216
 31
0.0
  0
LINE
  5
25d
100
AcDbEntity
  8
Layer_1
 62
1
100
AcDbLine
 10
335.956403
 20
219.683216
 30
0.0
 11
335.956403
 21
211.126148
 31
0.0
  0
LINE
  5
25e
100
AcDbEntity
  8
Layer_1
 62
1
100
AcDbLine
 10
335.956403
 20
211.126148
 30
0.0
 11
338.956114
 21
211.126148
 31
0.0
  0
LINE
  5
25f
100
AcDbEntity
  8
Layer_1
 62
1
100
AcDbLine
 10
338.956114
 20
211.126148
 30
0.0
 11
338.956114
 21
219.683216
 31
0.0
  0
LINE
  5
260
100
AcDbEntity
  8
Layer_1
 62
1
100
AcDbLine
 10
338.956114
 20
219.683216
 30
0.0
 11
347.448139
 21
219.683216
 31
0.0
  0
LINE
  5
261
100
AcDbEntity
  8
Layer_1
 62
1
100
AcDbLine
 10
347.448139
 20
219.683216
 30
0.0
 11
347.448139
 21
222.682928
 31
0.0
  0
LINE
  5
262
100
AcDbEntity
  8
Layer_1
 62
1
100
AcDbLine
 10
347.448139
 20
222.682928
 30
0.0
 11
338.956114
 21
222.682928
 31
0.0
  0
LINE
  5
263
100
AcDbEntity
  8
Layer_1
 62
1
100
AcDbLine
 10
338.956114
 20
222.682928
 30
0.0
 11
338.956114
 21
231.112663
 31
0.0
  0
LINE
  5
264
100
AcDbEntity
  8
Layer_1
 62
1
100
AcDbLine
 10
338.956114
 20
231.112663
 30
0.0
 11
335.956403
 21
231.112663
 31
0.0
  0
LINE
  5
265
100
AcDbEntity
  8
Layer_1
 62
1
100
AcDbLine
 10
335.956403
 20
231.112663
 30
0.0
 11
335.956403
 21
231.112663
 31
0.0
  0
SPLINE
  5
266
100
AcDbEntity
  8
Layer_1
 62
1
100
AcDbSpline
 70
8
 71
3
 72
8
 73
4
 74
0
 40
0
 40
0
 40
0
 40
0
 40
1
 40
1
 40
1
 40
1
 10
337.455104
 20
234.562830
 30
0.0
 10
337.044018
 20
234.562829
 30
0.0
 10
336.649769
 20
234.726132
 30
0.0
 10
336.359087
 20
235.016814
 30
0.0
  0
SPLINE
  5
267
100
AcDbEntity
  8
Layer_1
 62
1
100
AcDbSpline
 70
8
 71
3
 72
8
 73
4
 74
0
 40
0
 40
0
 40
0
 40
0
 40
1
 40
1
 40
1
 40
1
 10
336.359087
 20
235.016814
 30
0.0
 10
336.068406
 20
235.307496
 30
0.0
 10
335.905103
 20
235.701745
 30
0.0
 10
335.905103
 20
236.112831
 30
0.0
  0
SPLINE
  5
268
100
AcDbEntity
  8
Layer_1
 62
1
100
AcDbSpline
 70
8
 71
3
 72
8
 73
4
 74
0
 40
0
 40
0
 40
0
 40
0
 40
1
 40
1
 40
1
 40
1
 10
335.905103
 20
236.112831
 30
0.0
 10
335.905103
 20
236.523916
 30
0.0
 10
336.068407
 20
236.918165
 30
0.0
 10
336.359088
 20
237.208846
 30
0.0
  0
SPLINE
  5
269
100
AcDbEntity
  8
Layer_1
 62
1
100
AcDbSpline
 70
8
 71
3
 72
8
 73
4
 74
0
 40
0
 40
0
 40
0
 40
0
 40
1
 40
1
 40
1
 40
1
 10
336.359088
 20
237.208846
 30
0.0
 10
336.649770
 20
237.499527
 30
0.0
 10
337.044019
 20
237.662830
 30
0.0
 10
337.455104
 20
237.662829
 30
0.0
  0
SPLINE
  5
26a
100
AcDbEntity
  8
Layer_1
 62
1
100
AcDbSpline
 70
8
 71
3
 72
8
 73
4
 74
0
 40
0
 40
0
 40
0
 40
0
 40
1
 40
1
 40
1
 40
1
 10
337.455104
 20
237.662829
 30
0.0
 10
338.311144
 20
237.662829
 30
0.0
 10
339.005102
 20
236.968871
 30
0.0
 10
339.005103
 20
236.112831
 30
0.0
  0
SPLINE
  5
26b
100
AcDbEntity
  8
Layer_1
 62
1
100
AcDbSpline
 70
8
 71
3
 72
8
 73
4
 74
0
 40
0
 40
0
 40
0
 40
0
 40
1
 40
1
 40
1
 40
1
 10
339.005103
 20
236.112831
 30
0.0
 10
339.005103
 20
235.701745
 30
0.0
 10
338.841800
 20
235.307497
 30
0.0
 10
338.551119
 20
235.016815
 30
0.0
  0
SPLINE
  5
26c
100
AcDbEntity
  8
Layer_1
 62
1
100
AcDbSpline
 70
8
 71
3
 72
8
 73
4
 74
0
 40
0
 40
0
 40
0
 40
0
 40
1
 40
1
 40
1
 40
1
 10
338.551119
 20
235.016815
 30
0.0
 10
338.260438
 20
234.726134
 30
0.0
 10
337.866190
 20
234.562830
 30
0.0
 10
337.455104
 20
234.562830
 30
0.0
  0
LINE
  5
26d
100
AcDbEntity
  8
Layer_1
 62
1
100
AcDbLine
 10
337.455104
 20
234.562830
 30
0.0
 11
337.455104
 21
234.562830
 31
0.0
  0
LINE
  5
26e
100
AcDbEntity
  8
Layer_1
 62
1
100
AcDbLine
 10
338.956236
 20
201.126283
 30
0.0
 11
338.956236
 21
191.126277
 31
0.0
  0
LINE
  5
26f
100
AcDbEntity
  8
Layer_1
 62
1
100
AcDbLine
 10
338.956236
 20
191.126277
 30
0.0
 11
335.956242
 21
191.126277
 31
0.0
  0
LINE
  5
270
100
AcDbEntity
  8
Layer_1
 62
1
100
AcDbLine
 10
335.956242
 20
191.126277
 30
0.0
 11
335.956242
 21
201.126283
 31
0.0
  0
LINE
  5
271
100
AcDbEntity
  8
Layer_1
 62
1
100
AcDbLine
 10
335.956242
 20
201.126283
 30
0.0
 11
338.956236
 21
201.126283
 31
0.0
  0
SPLINE
  5
272
100
AcDbEntity
  8
Layer_1
 62
1
100
AcDbSpline
 70
8
 71
3
 72
8
 73
4
 74
0
 40
0
 40
0
 40
0
 40
0
 40
1
 40
1
 40
1
 40
1
 10
337.455104
 20
204.576272
 30
0.0
 10
337.044019
 20
204.576272
 30
0.0
 10
336.649770
 20
204.739574
 30
0.0
 10
336.359088
 20
205.030255
 30
0.0
  0
SPLINE
  5
273
100
AcDbEntity
  8
Layer_1
 62
1
100
AcDbSpline
 70
8
 71
3
 72
8
 73
4
 74
0
 40
0
 40
0
 40
0
 40
0
 40
1
 40
1
 40
1
 40
1
 10
336.359088
 20
205.030255
 30
0.0
 10
336.068407
 20
205.320936
 30
0.0
 10
335.905103
 20
205.715185
 30
0.0
 10
335.905103
 20
206.126270
 30
0.0
  0
SPLINE
  5
274
100
AcDbEntity
  8
Layer_1
 62
1
100
AcDbSpline
 70
8
 71
3
 72
8
 73
4
 74
0
 40
0
 40
0
 40
0
 40
0
 40
1
 40
1
 40
1
 40
1
 10
335.905103
 20
206.126270
 30
0.0
 10
335.905103
 20
206.537356
 30
0.0
 10
336.068407
 20
206.931604
 30
0.0
 10
336.359088
 20
207.222285
 30
0.0
  0
SPLINE
  5
275
100
AcDbEntity
  8
Layer_1
 62
1
100
AcDbSpline
 70
8
 71
3
 72
8
 73
4
 74
0
 40
0
 40
0
 40
0
 40
0
 40
1
 40
1
 40
1
 40
1
 10
336.359088
 20
207.222285
 30
0.0
 10
336.649770
 20
207.512966
 30
0.0
 10
337.044019
 20
207.676269
 30
0.0
 10
337.455104
 20
207.676269
 30
0.0
  0
SPLINE
  5
276
100
AcDbEntity
  8
Layer_1
 62
1
100
AcDbSpline
 70
8
 71
3
 72
8
 73
4
 74
0
 40
0
 40
0
 40
0
 40
0
 40
1
 40
1
 40
1
 40
1
 10
337.455104
 20
207.676269
 30
0.0
 10
338.311144
 20
207.676268
 30
0.0
 10
339.005102
 20
206.982311
 30
0.0
 10
339.005103
 20
206.126270
 30
0.0
  0
SPLINE
  5
277
100
AcDbEntity
  8
Layer_1
 62
1
100
AcDbSpline
 70
8
 71
3
 72
8
 73
4
 74
0
 40
0
 40
0
 40
0
 40
0
 40
1
 40
1
 40
1
 40
1
 10
339.005103
 20
206.126270
 30
0.0
 10
339.005102
 20
205.270230
 30
0.0
 10
338.311144
 20
204.576273
 30
0.0
 10
337.455104
 20
204.576272
 30
0.0
  0
LINE
  5
278
100
AcDbEntity
  8
Layer_1
 62
1
100
AcDbLine
 10
337.455104
 20
204.576272
 30
0.0
 11
337.455104
 21
204.576272
 31
0.0
  0
LINE
  5
279
100
AcDbEntity
  8
Layer_1
 62
1
100
AcDbLine
 10
367.448337
 20
219.683205
 30
0.0
 11
357.448331
 21
219.683205
 31
0.0
  0
LINE
  5
27a
100
AcDbEntity
  8
Layer_1
 62
1
100
AcDbLine
 10
357.448331
 20
219.683205
 30
0.0
 11
357.448331
 21
222.683199
 31
0.0
  0
LINE
  5
27b
100
AcDbEntity
  8
Layer_1
 62
1
100
AcDbLine
 10
357.448331
 20
222.683199
 30
0.0
 11
367.448337
 21
222.683199
 31
0.0
  0
LINE
  5
27c
100
AcDbEntity
  8
Layer_1
 62
1
100
AcDbLine
 10
367.448337
 20
222.683199
 30
0.0
 11
367.448337
 21
219.683205
 31
0.0
  0
SPLINE
  5
27d
100
AcDbEntity
  8
Layer_1
 62
1
100
AcDbSpline
 70
8
 71
3
 72
8
 73
4
 74
0
 40
0
 40
0
 40
0
 40
0
 40
1
 40
1
 40
1
 40
1
 10
350.898373
 20
221.184336
 30
0.0
 10
350.898373
 20
221.595422
 30
0.0
 10
351.061676
 20
221.989671
 30
0.0
 10
351.352358
 20
222.280353
 30
0.0
  0
SPLINE
  5
27e
100
AcDbEntity
  8
Layer_1
 62
1
100
AcDbSpline
 70
8
 71
3
 72
8
 73
4
 74
0
 40
0
 40
0
 40
0
 40
0
 40
1
 40
1
 40
1
 40
1
 10
351.352358
 20
222.280353
 30
0.0
 10
351.643040
 20
222.571035
 30
0.0
 10
352.037289
 20
222.734338
 30
0.0
 10
352.448375
 20
222.734337
 30
0.0
  0
SPLINE
  5
27f
100
AcDbEntity
  8
Layer_1
 62
1
100
AcDbSpline
 70
8
 71
3
 72
8
 73
4
 74
0
 40
0
 40
0
 40
0
 40
0
 40
1
 40
1
 40
1
 40
1
 10
352.448375
 20
222.734337
 30
0.0
 10
352.859460
 20
222.734337
 30
0.0
 10
353.253709
 20
222.571034
 30
0.0
 10
353.544390
 20
222.280352
 30
0.0
  0
SPLINE
  5
280
100
AcDbEntity
  8
Layer_1
 62
1
100
AcDbSpline
 70
8
 71
3
 72
8
 73
4
 74
0
 40
0
 40
0
 40
0
 40
0
 40
1
 40
1
 40
1
 40
1
 10
353.544390
 20
222.280352
 30
0.0
 10
353.835071
 20
221.989670
 30
0.0
 10
353.998373
 20
221.595422
 30
0.0
 10
353.998373
 20
221.184336
 30
0.0
  0
SPLINE
  5
281
100
AcDbEntity
  8
Layer_1
 62
1
100
AcDbSpline
 70
8
 71
3
 72
8
 73
4
 74
0
 40
0
 40
0
 40
0
 40
0
 40
1
 40
1
 40
1
 40
1
 10
353.998373
 20
221.184336
 30
0.0
 10
353.998372
 20
220.328296
 30
0.0
 10
353.304415
 20
219.634338
 30
0.0
 10
352.448375
 20
219.634338
 30
0.0
  0
SPLINE
  5
282
100
AcDbEntity
  8
Layer_1
 62
1
100
AcDbSpline
 70
8
 71
3
 72
8
 73
4
 74
0
 40
0
 40
0
 40
0
 40
0
 40
1
 40
1
 40
1
 40
1
 10
352.448375
 20
219.634338
 30
0.0
 10
352.037289
 20
219.634337
 30
0.0
 10
351.643040
 20
219.797640
 30
0.0
 10
351.352359
 20
220.088321
 30
0.0
  0
SPLINE
  5
283
100
AcDbEntity
  8
Layer_1
 62
1
100
AcDbSpline
 70
8
 71
3
 72
8
 73
4
 74
0
 40
0
 40
0
 40
0
 40
0
 40
1
 40
1
 40
1
 40
1
 10
351.352359
 20
220.088321
 30
0.0
 10
351.061677
 20
220.379002
 30
0.0
 10
350.898374
 20
220.773251
 30
0.0
 10
350.898373
 20
221.184336
 30
0.0
  0
LINE
  5
284
100
AcDbEntity
  8
Layer_1
 62
1
100
AcDbLine
 10
350.898373
 20
221.184336
 30
0.0
 11
350.898373
 21
221.184336
 31
0.0
  0
LINE
  5
285
100
AcDbEntity
  8
Layer_1
 62
1
100
AcDbLine
 10
317.461827
 20
219.683205
 30
0.0
 11
307.461821
 21
219.683205
 31
0.0
  0
LINE
  5
286
100
AcDbEntity
  8
Layer_1
 62
1
100
AcDbLine
 10
307.461821
 20
219.683205
 30
0.0
 11
307.461821
 21
222.683199
 31
0.0
  0
LINE
  5
287
100
AcDbEntity
  8
Layer_1
 62
1
100
AcDbLine
 10
307.461821
 20
222.683199
 30
0.0
 11
317.461827
 21
222.683199
 31
0.0
  0
LINE
  5
288
100
AcDbEntity
  8
Layer_1
 62
1
100
AcDbLine
 10
317.461827
 20
222.683199
 30
0.0
 11
317.461827
 21
219.683205
 31
0.0
  0
SPLINE
  5
289
100
AcDbEntity
  8
Layer_1
 62
1
100
AcDbSpline
 70
8
 71
3
 72
8
 73
4
 74
0
 40
0
 40
0
 40
0
 40
0
 40
1
 40
1
 40
1
 40
1
 10
320.911816
 20
221.184336
 30
0.0
 10
320.911815
 20
221.595422
 30
0.0
 10
321.075118
 20
221.989670
 30
0.0
 10
321.365799
 20
222.280352
 30
0.0
  0
SPLINE
  5
28a
100
AcDbEntity
  8
Layer_1
 62
1
100
AcDbSpline
 70
8
 71
3
 72
8
 73
4
 74
0
 40
0
 40
0
 40
0
 40
0
 40
1
 40
1
 40
1
 40
1
 10
321.365799
 20
222.280352
 30
0.0
 10
321.656480
 20
222.571034
 30
0.0
 10
322.050729
 20
222.734337
 30
0.0
 10
322.461814
 20
222.734337
 30
0.0
  0
SPLINE
  5
28b
100
AcDbEntity
  8
Layer_1
 62
1
100
AcDbSpline
 70
8
 71
3
 72
8
 73
4
 74
0
 40
0
 40
0
 40
0
 40
0
 40
1
 40
1
 40
1
 40
1
 10
322.461814
 20
222.734337
 30
0.0
 10
322.872900
 20
222.734337
 30
0.0
 10
323.267148
 20
222.571034
 30
0.0
 10
323.557829
 20
222.280352
 30
0.0
  0
SPLINE
  5
28c
100
AcDbEntity
  8
Layer_1
 62
1
100
AcDbSpline
 70
8
 71
3
 72
8
 73
4
 74
0
 40
0
 40
0
 40
0
 40
0
 40
1
 40
1
 40
1
 40
1
 10
323.557829
 20
222.280352
 30
0.0
 10
323.848510
 20
221.989670
 30
0.0
 10
324.011813
 20
221.595422
 30
0.0
 10
324.011812
 20
221.184336
 30
0.0
  0
SPLINE
  5
28d
100
AcDbEntity
  8
Layer_1
 62
1
100
AcDbSpline
 70
8
 71
3
 72
8
 73
4
 74
0
 40
0
 40
0
 40
0
 40
0
 40
1
 40
1
 40
1
 40
1
 10
324.011812
 20
221.184336
 30
0.0
 10
324.011812
 20
220.328296
 30
0.0
 10
323.317854
 20
219.634338
 30
0.0
 10
322.461814
 20
219.634338
 30
0.0
  0
SPLINE
  5
28e
100
AcDbEntity
  8
Layer_1
 62
1
100
AcDbSpline
 70
8
 71
3
 72
8
 73
4
 74
0
 40
0
 40
0
 40
0
 40
0
 40
1
 40
1
 40
1
 40
1
 10
322.461814
 20
219.634338
 30
0.0
 10
321.605774
 20
219.634338
 30
0.0
 10
320.911816
 20
220.328296
 30
0.0
 10
320.911816
 20
221.184336
 30
0.0
  0
LINE
  5
28f
100
AcDbEntity
  8
Layer_1
 62
1
100
AcDbLine
 10
320.911816
 20
221.184336
 30
0.0
 11
320.911816
 21
221.184336
 31
0.0
  0
SPLINE
  5
290
100
AcDbEntity
  8
Layer_1
 62
3
100
AcDbSpline
 70
8
 71
3
 72
8
 73
4
 74
0
 40
0
 40
0
 40
0
 40
0
 40
1
 40
1
 40
1
 40
1
 10
90.508596
 20
143.862620
 30
0.0
 10
90.508596
 20
143.744049
 30
0.0
 10
90.466251
 20
143.645243
 30
0.0
 10
90.381562
 20
143.566202
 30
0.0
  0
SPLINE
  5
291
100
AcDbEntity
  8
Layer_1
 62
3
100
AcDbSpline
 70
8
 71
3
 72
8
 73
4
 74
0
 40
0
 40
0
 40
0
 40
0
 40
1
 40
1
 40
1
 40
1
 10
90.381562
 20
143.566202
 30
0.0
 10
90.302521
 20
143.481516
 30
0.0
 10
90.203718
 20
143.439173
 30
0.0
 10
90.085155
 20
143.439173
 30
0.0
  0
SPLINE
  5
292
100
AcDbEntity
  8
Layer_1
 62
3
100
AcDbSpline
 70
8
 71
3
 72
8
 73
4
 74
0
 40
0
 40
0
 40
0
 40
0
 40
1
 40
1
 40
1
 40
1
 10
90.085155
 20
143.439173
 30
0.0
 10
89.966591
 20
143.439173
 30
0.0
 10
89.864966
 20
143.481516
 30
0.0
 10
89.780279
 20
143.566202
 30
0.0
  0
SPLINE
  5
293
100
AcDbEntity
  8
Layer_1
 62
3
100
AcDbSpline
 70
8
 71
3
 72
8
 73
4
 74
0
 40
0
 40
0
 40
0
 40
0
 40
1
 40
1
 40
1
 40
1
 10
89.780279
 20
143.566202
 30
0.0
 10
89.701238
 20
143.645243
 30
0.0
 10
89.661717
 20
143.744049
 30
0.0
 10
89.661717
 20
143.862620
 30
0.0
  0
LINE
  5
294
100
AcDbEntity
  8
Layer_1
 62
3
100
AcDbLine
 10
89.661717
 20
143.862620
 30
0.0
 11
89.661717
 21
147.250133
 31
0.0
  0
SPLINE
  5
295
100
AcDbEntity
  8
Layer_1
 62
3
100
AcDbSpline
 70
8
 71
3
 72
8
 73
4
 74
0
 40
0
 40
0
 40
0
 40
0
 40
1
 40
1
 40
1
 40
1
 10
89.661717
 20
147.250133
 30
0.0
 10
89.661717
 20
147.413859
 30
0.0
 10
89.735113
 20
147.538065
 30
0.0
 10
89.881904
 20
147.622751
 30
0.0
  0
SPLINE
  5
296
100
AcDbEntity
  8
Layer_1
 62
3
100
AcDbSpline
 70
8
 71
3
 72
8
 73
4
 74
0
 40
0
 40
0
 40
0
 40
0
 40
1
 40
1
 40
1
 40
1
 10
89.881904
 20
147.622751
 30
0.0
 10
89.949654
 20
147.662262
 30
0.0
 10
90.020228
 20
147.682018
 30
0.0
 10
90.093624
 20
147.682018
 30
0.0
  0
SPLINE
  5
297
100
AcDbEntity
  8
Layer_1
 62
3
100
AcDbSpline
 70
8
 71
3
 72
8
 73
4
 74
0
 40
0
 40
0
 40
0
 40
0
 40
1
 40
1
 40
1
 40
1
 10
90.093624
 20
147.682018
 30
0.0
 10
90.172665
 20
147.676373
 30
0.0
 10
90.243239
 20
147.653795
 30
0.0
 10
90.305345
 20
147.614284
 30
0.0
  0
LINE
  5
298
100
AcDbEntity
  8
Layer_1
 62
3
100
AcDbLine
 10
90.305345
 20
147.614284
 30
0.0
 11
95.335801
 21
144.480827
 31
0.0
  0
SPLINE
  5
299
100
AcDbEntity
  8
Layer_1
 62
3
100
AcDbSpline
 70
8
 71
3
 72
8
 73
4
 74
0
 40
0
 40
0
 40
0
 40
0
 40
1
 40
1
 40
1
 40
1
 10
95.335801
 20
144.480827
 30
0.0
 10
95.544698
 20
144.350967
 30
0.0
 10
95.770532
 20
144.286038
 30
0.0
 10
96.013303
 20
144.286038
 30
0.0
  0
SPLINE
  5
29a
100
AcDbEntity
  8
Layer_1
 62
3
100
AcDbSpline
 70
8
 71
3
 72
8
 73
4
 74
0
 40
0
 40
0
 40
0
 40
0
 40
1
 40
1
 40
1
 40
1
 10
96.013303
 20
144.286038
 30
0.0
 10
96.182680
 20
144.286038
 30
0.0
 10
96.343587
 20
144.319914
 30
0.0
 10
96.496025
 20
144.387666
 30
0.0
  0
SPLINE
  5
29b
100
AcDbEntity
  8
Layer_1
 62
3
100
AcDbSpline
 70
8
 71
3
 72
8
 73
4
 74
0
 40
0
 40
0
 40
0
 40
0
 40
1
 40
1
 40
1
 40
1
 10
96.496025
 20
144.387666
 30
0.0
 10
96.654109
 20
144.449773
 30
0.0
 10
96.792432
 20
144.540113
 30
0.0
 10
96.910996
 20
144.658684
 30
0.0
  0
SPLINE
  5
29c
100
AcDbEntity
  8
Layer_1
 62
3
100
AcDbSpline
 70
8
 71
3
 72
8
 73
4
 74
0
 40
0
 40
0
 40
0
 40
0
 40
1
 40
1
 40
1
 40
1
 10
96.910996
 20
144.658684
 30
0.0
 10
97.159414
 20
144.907096
 30
0.0
 10
97.283622
 20
145.206327
 30
0.0
 10
97.283622
 20
145.556376
 30
0.0
  0
SPLINE
  5
29d
100
AcDbEntity
  8
Layer_1
 62
3
100
AcDbSpline
 70
8
 71
3
 72
8
 73
4
 74
0
 40
0
 40
0
 40
0
 40
0
 40
1
 40
1
 40
1
 40
1
 10
97.283622
 20
145.556376
 30
0.0
 10
97.283622
 20
145.849963
 30
0.0
 10
97.196112
 20
146.109673
 30
0.0
 10
97.021091
 20
146.335507
 30
0.0
  0
SPLINE
  5
29e
100
AcDbEntity
  8
Layer_1
 62
3
100
AcDbSpline
 70
8
 71
3
 72
8
 73
4
 74
0
 40
0
 40
0
 40
0
 40
0
 40
1
 40
1
 40
1
 40
1
 10
97.021091
 20
146.335507
 30
0.0
 10
96.846068
 20
146.561341
 30
0.0
 10
96.614587
 20
146.710957
 30
0.0
 10
96.326649
 20
146.784353
 30
0.0
  0
SPLINE
  5
29f
100
AcDbEntity
  8
Layer_1
 62
3
100
AcDbSpline
 70
8
 71
3
 72
8
 73
4
 74
0
 40
0
 40
0
 40
0
 40
0
 40
1
 40
1
 40
1
 40
1
 10
96.326649
 20
146.784353
 30
0.0
 10
96.213732
 20
146.812576
 30
0.0
 10
96.129045
 20
146.877496
 30
0.0
 10
96.072587
 20
146.979115
 30
0.0
  0
SPLINE
  5
2a0
100
AcDbEntity
  8
Layer_1
 62
3
100
AcDbSpline
 70
8
 71
3
 72
8
 73
4
 74
0
 40
0
 40
0
 40
0
 40
0
 40
1
 40
1
 40
1
 40
1
 10
96.072587
 20
146.979115
 30
0.0
 10
96.016127
 20
147.080753
 30
0.0
 10
96.002013
 20
147.188025
 30
0.0
 10
96.030242
 20
147.300933
 30
0.0
  0
SPLINE
  5
2a1
100
AcDbEntity
  8
Layer_1
 62
3
100
AcDbSpline
 70
8
 71
3
 72
8
 73
4
 74
0
 40
0
 40
0
 40
0
 40
0
 40
1
 40
1
 40
1
 40
1
 10
96.030242
 20
147.300933
 30
0.0
 10
96.058472
 20
147.413859
 30
0.0
 10
96.120576
 20
147.501367
 30
0.0
 10
96.216554
 20
147.563456
 30
0.0
  0
SPLINE
  5
2a2
100
AcDbEntity
  8
Layer_1
 62
3
100
AcDbSpline
 70
8
 71
3
 72
8
 73
4
 74
0
 40
0
 40
0
 40
0
 40
0
 40
1
 40
1
 40
1
 40
1
 10
96.216554
 20
147.563456
 30
0.0
 10
96.318181
 20
147.619919
 30
0.0
 10
96.425452
 20
147.634040
 30
0.0
 10
96.538369
 20
147.605818
 30
0.0
  0
SPLINE
  5
2a3
100
AcDbEntity
  8
Layer_1
 62
3
100
AcDbSpline
 70
8
 71
3
 72
8
 73
4
 74
0
 40
0
 40
0
 40
0
 40
0
 40
1
 40
1
 40
1
 40
1
 10
96.538369
 20
147.605818
 30
0.0
 10
96.775494
 20
147.549354
 30
0.0
 10
96.990037
 20
147.456193
 30
0.0
 10
97.181997
 20
147.326333
 30
0.0
  0
SPLINE
  5
2a4
100
AcDbEntity
  8
Layer_1
 62
3
100
AcDbSpline
 70
8
 71
3
 72
8
 73
4
 74
0
 40
0
 40
0
 40
0
 40
0
 40
1
 40
1
 40
1
 40
1
 10
97.181997
 20
147.326333
 30
0.0
 10
97.379601
 20
147.190847
 30
0.0
 10
97.546154
 20
147.032765
 30
0.0
 10
97.681654
 20
146.852087
 30
0.0
  0
SPLINE
  5
2a5
100
AcDbEntity
  8
Layer_1
 62
3
100
AcDbSpline
 70
8
 71
3
 72
8
 73
4
 74
0
 40
0
 40
0
 40
0
 40
0
 40
1
 40
1
 40
1
 40
1
 10
97.681654
 20
146.852087
 30
0.0
 10
97.822801
 20
146.671427
 30
0.0
 10
97.932895
 20
146.471002
 30
0.0
 10
98.011936
 20
146.250812
 30
0.0
  0
SPLINE
  5
2a6
100
AcDbEntity
  8
Layer_1
 62
3
100
AcDbSpline
 70
8
 71
3
 72
8
 73
4
 74
0
 40
0
 40
0
 40
0
 40
0
 40
1
 40
1
 40
1
 40
1
 10
98.011936
 20
146.250812
 30
0.0
 10
98.090979
 20
146.030622
 30
0.0
 10
98.130501
 20
145.799144
 30
0.0
 10
98.130501
 20
145.556376
 30
0.0
  0
SPLINE
  5
2a7
100
AcDbEntity
  8
Layer_1
 62
3
100
AcDbSpline
 70
8
 71
3
 72
8
 73
4
 74
0
 40
0
 40
0
 40
0
 40
0
 40
1
 40
1
 40
1
 40
1
 10
98.130501
 20
145.556376
 30
0.0
 10
98.130501
 20
145.268434
 30
0.0
 10
98.076865
 20
144.997426
 30
0.0
 10
97.969595
 20
144.743350
 30
0.0
  0
SPLINE
  5
2a8
100
AcDbEntity
  8
Layer_1
 62
3
100
AcDbSpline
 70
8
 71
3
 72
8
 73
4
 74
0
 40
0
 40
0
 40
0
 40
0
 40
1
 40
1
 40
1
 40
1
 10
97.969595
 20
144.743350
 30
0.0
 10
97.862322
 20
144.483650
 30
0.0
 10
97.709883
 20
144.254993
 30
0.0
 10
97.512279
 20
144.057381
 30
0.0
  0
SPLINE
  5
2a9
100
AcDbEntity
  8
Layer_1
 62
3
100
AcDbSpline
 70
8
 71
3
 72
8
 73
4
 74
0
 40
0
 40
0
 40
0
 40
0
 40
1
 40
1
 40
1
 40
1
 10
97.512279
 20
144.057381
 30
0.0
 10
97.314674
 20
143.859788
 30
0.0
 10
97.086017
 20
143.707350
 30
0.0
 10
96.826307
 20
143.600068
 30
0.0
  0
SPLINE
  5
2aa
100
AcDbEntity
  8
Layer_1
 62
3
100
AcDbSpline
 70
8
 71
3
 72
8
 73
4
 74
0
 40
0
 40
0
 40
0
 40
0
 40
1
 40
1
 40
1
 40
1
 10
96.826307
 20
143.600068
 30
0.0
 10
96.572245
 20
143.492805
 30
0.0
 10
96.301243
 20
143.439173
 30
0.0
 10
96.013303
 20
143.439173
 30
0.0
  0
SPLINE
  5
2ab
100
AcDbEntity
  8
Layer_1
 62
3
100
AcDbSpline
 70
8
 71
3
 72
8
 73
4
 74
0
 40
0
 40
0
 40
0
 40
0
 40
1
 40
1
 40
1
 40
1
 10
96.013303
 20
143.439173
 30
0.0
 10
95.606802
 20
143.439173
 30
0.0
 10
95.231352
 20
143.546446
 30
0.0
 10
94.886954
 20
143.760991
 30
0.0
  0
LINE
  5
2ac
100
AcDbEntity
  8
Layer_1
 62
3
100
AcDbLine
 10
94.886954
 20
143.760991
 30
0.0
 11
90.508596
 21
146.487935
 31
0.0
  0
LINE
  5
2ad
100
AcDbEntity
  8
Layer_1
 62
3
100
AcDbLine
 10
90.508596
 20
146.487935
 30
0.0
 11
90.508596
 21
143.862620
 31
0.0
  0
LINE
  5
2ae
100
AcDbEntity
  8
Layer_1
 62
3
100
AcDbLine
 10
90.508596
 20
143.862620
 30
0.0
 11
90.508596
 21
143.862620
 31
0.0
  0
LINE
  5
2af
100
AcDbEntity
  8
Layer_1
 62
3
100
AcDbLine
 10
90.508596
 20
143.862620
 30
0.0
 11
90.508596
 21
143.862620
 31
0.0
  0
LINE
  5
2b0
100
AcDbEntity
  8
Layer_1
 62
5
100
AcDbLine
 10
84.864092
 20
89.057160
 30
0.0
 11
85.661415
 21
83.627514
 31
0.0
  0
LINE
  5
2b1
100
AcDbEntity
  8
Layer_1
 62
5
100
AcDbLine
 10
85.661415
 20
83.627514
 30
0.0
 11
85.351837
 21
80.442749
 31
0.0
  0
LINE
  5
2b2
100
AcDbEntity
  8
Layer_1
 62
5
100
AcDbLine
 10
85.351837
 20
80.442749
 30
0.0
 11
81.285864
 21
71.460942
 31
0.0
  0
LINE
  5
2b3
100
AcDbEntity
  8
Layer_1
 62
5
100
AcDbLine
 10
81.285864
 20
71.460942
 30
0.0
 11
75.948133
 21
71.460942
 31
0.0
  0
LINE
  5
2b4
100
AcDbEntity
  8
Layer_1
 62
5
100
AcDbLine
 10
75.948133
 20
71.460942
 30
0.0
 11
71.882160
 21
80.442749
 31
0.0
  0
LINE
  5
2b5
100
AcDbEntity
  8
Layer_1
 62
5
100
AcDbLine
 10
71.882160
 20
80.442749
 30
0.0
 11
71.572582
 21
83.627514
 31
0.0
  0
LINE
  5
2b6
100
AcDbEntity
  8
Layer_1
 62
5
100
AcDbLine
 10
71.572582
 20
83.627514
 30
0.0
 11
72.369905
 21
89.057160
 31
0.0
  0
LINE
  5
2b7
100
AcDbEntity
  8
Layer_1
 62
5
100
AcDbLine
 10
72.369905
 20
89.057160
 30
0.0
 11
62.756258
 21
91.633143
 31
0.0
  0
LINE
  5
2b8
100
AcDbEntity
  8
Layer_1
 62
5
100
AcDbLine
 10
62.756258
 20
91.633143
 30
0.0
 11
60.731932
 21
86.532258
 31
0.0
  0
LINE
  5
2b9
100
AcDbEntity
  8
Layer_1
 62
5
100
AcDbLine
 10
60.731932
 20
86.532258
 30
0.0
 11
58.871450
 21
83.928956
 31
0.0
  0
LINE
  5
2ba
100
AcDbEntity
  8
Layer_1
 62
5
100
AcDbLine
 10
58.871450
 20
83.928956
 30
0.0
 11
50.859299
 21
78.183447
 31
0.0
  0
LINE
  5
2bb
100
AcDbEntity
  8
Layer_1
 62
5
100
AcDbLine
 10
50.859299
 20
78.183447
 30
0.0
 11
46.236691
 21
80.852338
 31
0.0
  0
LINE
  5
2bc
100
AcDbEntity
  8
Layer_1
 62
5
100
AcDbLine
 10
46.236691
 20
80.852338
 30
0.0
 11
47.206370
 21
90.663794
 31
0.0
  0
LINE
  5
2bd
100
AcDbEntity
  8
Layer_1
 62
5
100
AcDbLine
 10
47.206370
 20
90.663794
 30
0.0
 11
48.530641
 21
93.576666
 31
0.0
  0
LINE
  5
2be
100
AcDbEntity
  8
Layer_1
 62
5
100
AcDbLine
 10
48.530641
 20
93.576666
 30
0.0
 11
51.935974
 21
97.880234
 31
0.0
  0
LINE
  5
2bf
100
AcDbEntity
  8
Layer_1
 62
5
100
AcDbLine
 10
51.935974
 20
97.880234
 30
0.0
 11
44.898294
 21
104.917913
 31
0.0
  0
LINE
  5
2c0
100
AcDbEntity
  8
Layer_1
 62
5
100
AcDbLine
 10
44.898294
 20
104.917913
 30
0.0
 11
40.594741
 21
101.512580
 31
0.0
  0
LINE
  5
2c1
100
AcDbEntity
  8
Layer_1
 62
5
100
AcDbLine
 10
40.594741
 20
101.512580
 30
0.0
 11
37.681869
 21
100.188309
 31
0.0
  0
LINE
  5
2c2
100
AcDbEntity
  8
Layer_1
 62
5
100
AcDbLine
 10
37.681869
 20
100.188309
 30
0.0
 11
27.870388
 21
99.218630
 31
0.0
  0
LINE
  5
2c3
100
AcDbEntity
  8
Layer_1
 62
5
100
AcDbLine
 10
27.870388
 20
99.218630
 30
0.0
 11
25.201522
 21
103.841238
 31
0.0
  0
LINE
  5
2c4
100
AcDbEntity
  8
Layer_1
 62
5
100
AcDbLine
 10
25.201522
 20
103.841238
 30
0.0
 11
30.947031
 21
111.853389
 31
0.0
  0
LINE
  5
2c5
100
AcDbEntity
  8
Layer_1
 62
5
100
AcDbLine
 10
30.947031
 20
111.853389
 30
0.0
 11
33.550319
 21
113.713871
 31
0.0
  0
LINE
  5
2c6
100
AcDbEntity
  8
Layer_1
 62
5
100
AcDbLine
 10
33.550319
 20
113.713871
 30
0.0
 11
38.651201
 21
115.738198
 31
0.0
  0
LINE
  5
2c7
100
AcDbEntity
  8
Layer_1
 62
5
100
AcDbLine
 10
38.651201
 20
115.738198
 30
0.0
 11
36.075231
 21
125.351844
 31
0.0
  0
LINE
  5
2c8
100
AcDbEntity
  8
Layer_1
 62
5
100
AcDbLine
 10
36.075231
 20
125.351844
 30
0.0
 11
30.645578
 21
124.554521
 31
0.0
  0
LINE
  5
2c9
100
AcDbEntity
  8
Layer_1
 62
5
100
AcDbLine
 10
30.645578
 20
124.554521
 30
0.0
 11
27.460821
 21
124.864099
 31
0.0
  0
LINE
  5
2ca
100
AcDbEntity
  8
Layer_1
 62
5
100
AcDbLine
 10
27.460821
 20
124.864099
 30
0.0
 11
18.478989
 21
128.930072
 31
0.0
  0
LINE
  5
2cb
100
AcDbEntity
  8
Layer_1
 62
5
100
AcDbLine
 10
18.478989
 20
128.930072
 30
0.0
 11
18.478989
 21
134.267803
 31
0.0
  0
LINE
  5
2cc
100
AcDbEntity
  8
Layer_1
 62
5
100
AcDbLine
 10
18.478989
 20
134.267803
 30
0.0
 11
27.460821
 21
138.333776
 31
0.0
  0
LINE
  5
2cd
100
AcDbEntity
  8
Layer_1
 62
5
100
AcDbLine
 10
27.460821
 20
138.333776
 30
0.0
 11
30.645578
 21
138.643354
 31
0.0
  0
LINE
  5
2ce
100
AcDbEntity
  8
Layer_1
 62
5
100
AcDbLine
 10
30.645578
 20
138.643354
 30
0.0
 11
36.075231
 21
137.846031
 31
0.0
  0
LINE
  5
2cf
100
AcDbEntity
  8
Layer_1
 62
5
100
AcDbLine
 10
36.075231
 20
137.846031
 30
0.0
 11
38.651201
 21
147.459677
 31
0.0
  0
LINE
  5
2d0
100
AcDbEntity
  8
Layer_1
 62
5
100
AcDbLine
 10
38.651201
 20
147.459677
 30
0.0
 11
33.550319
 21
149.484004
 31
0.0
  0
LINE
  5
2d1
100
AcDbEntity
  8
Layer_1
 62
5
100
AcDbLine
 10
33.550319
 20
149.484004
 30
0.0
 11
30.947031
 21
151.344486
 31
0.0
  0
LINE
  5
2d2
100
AcDbEntity
  8
Layer_1
 62
5
100
AcDbLine
 10
30.947031
 20
151.344486
 30
0.0
 11
25.201522
 21
159.356637
 31
0.0
  0
LINE
  5
2d3
100
AcDbEntity
  8
Layer_1
 62
5
100
AcDbLine
 10
25.201522
 20
159.356637
 30
0.0
 11
27.870388
 21
163.979245
 31
0.0
  0
LINE
  5
2d4
100
AcDbEntity
  8
Layer_1
 62
5
100
AcDbLine
 10
27.870388
 20
163.979245
 30
0.0
 11
37.681869
 21
163.009566
 31
0.0
  0
LINE
  5
2d5
100
AcDbEntity
  8
Layer_1
 62
5
100
AcDbLine
 10
37.681869
 20
163.009566
 30
0.0
 11
40.594741
 21
161.685295
 31
0.0
  0
LINE
  5
2d6
100
AcDbEntity
  8
Layer_1
 62
5
100
AcDbLine
 10
40.594741
 20
161.685295
 30
0.0
 11
44.898294
 21
158.279962
 31
0.0
  0
LINE
  5
2d7
100
AcDbEntity
  8
Layer_1
 62
5
100
AcDbLine
 10
44.898294
 20
158.279962
 30
0.0
 11
51.935974
 21
165.317642
 31
0.0
  0
LINE
  5
2d8
100
AcDbEntity
  8
Layer_1
 62
5
100
AcDbLine
 10
51.935974
 20
165.317642
 30
0.0
 11
48.530641
 21
169.621195
 31
0.0
  0
LINE
  5
2d9
100
AcDbEntity
  8
Layer_1
 62
5
100
AcDbLine
 10
48.530641
 20
169.621195
 30
0.0
 11
47.206370
 21
172.534067
 31
0.0
  0
LINE
  5
2da
100
AcDbEntity
  8
Layer_1
 62
5
100
AcDbLine
 10
47.206370
 20
172.534067
 30
0.0
 11
46.236691
 21
182.345548
 31
0.0
  0
LINE
  5
2db
100
AcDbEntity
  8
Layer_1
 62
5
100
AcDbLine
 10
46.236691
 20
182.345548
 30
0.0
 11
50.859299
 21
185.014414
 31
0.0
  0
LINE
  5
2dc
100
AcDbEntity
  8
Layer_1
 62
5
100
AcDbLine
 10
50.859299
 20
185.014414
 30
0.0
 11
58.871450
 21
179.268905
 31
0.0
  0
LINE
  5
2dd
100
AcDbEntity
  8
Layer_1
 62
5
100
AcDbLine
 10
58.871450
 20
179.268905
 30
0.0
 11
60.731932
 21
176.665617
 31
0.0
  0
LINE
  5
2de
100
AcDbEntity
  8
Layer_1
 62
5
100
AcDbLine
 10
60.731932
 20
176.665617
 30
0.0
 11
62.756258
 21
171.564735
 31
0.0
  0
LINE
  5
2df
100
AcDbEntity
  8
Layer_1
 62
5
100
AcDbLine
 10
62.756258
 20
171.564735
 30
0.0
 11
72.369905
 21
174.140704
 31
0.0
  0
LINE
  5
2e0
100
AcDbEntity
  8
Layer_1
 62
5
100
AcDbLine
 10
72.369905
 20
174.140704
 30
0.0
 11
71.572582
 21
179.570358
 31
0.0
  0
LINE
  5
2e1
100
AcDbEntity
  8
Layer_1
 62
5
100
AcDbLine
 10
71.572582
 20
179.570358
 30
0.0
 11
71.882160
 21
182.755115
 31
0.0
  0
LINE
  5
2e2
100
AcDbEntity
  8
Layer_1
 62
5
100
AcDbLine
 10
71.882160
 20
182.755115
 30
0.0
 11
75.948133
 21
191.736947
 31
0.0
  0
LINE
  5
2e3
100
AcDbEntity
  8
Layer_1
 62
5
100
AcDbLine
 10
75.948133
 20
191.736947
 30
0.0
 11
81.285864
 21
191.736947
 31
0.0
  0
LINE
  5
2e4
100
AcDbEntity
  8
Layer_1
 62
5
100
AcDbLine
 10
81.285864
 20
191.736947
 30
0.0
 11
85.351837
 21
182.755115
 31
0.0
  0
LINE
  5
2e5
100
AcDbEntity
  8
Layer_1
 62
5
100
AcDbLine
 10
85.351837
 20
182.755115
 30
0.0
 11
85.661415
 21
179.570358
 31
0.0
  0
LINE
  5
2e6
100
AcDbEntity
  8
Layer_1
 62
5
100
AcDbLine
 10
85.661415
 20
179.570358
 30
0.0
 11
84.864092
 21
174.140704
 31
0.0
  0
LINE
  5
2e7
100
AcDbEntity
  8
Layer_1
 62
5
100
AcDbLine
 10
84.864092
 20
174.140704
 30
0.0
 11
94.477738
 21
171.564735
 31
0.0
  0
LINE
  5
2e8
100
AcDbEntity
  8
Layer_1
 62
5
100
AcDbLine
 10
94.477738
 20
171.564735
 30
0.0
 11
96.502064
 21
176.665617
 31
0.0
  0
LINE
  5
2e9
100
AcDbEntity
  8
Layer_1
 62
5
100
AcDbLine
 10
96.502064
 20
176.665617
 30
0.0
 11
98.362547
 21
179.268905
 31
0.0
  0
LINE
  5
2ea
100
AcDbEntity
  8
Layer_1
 62
5
100
AcDbLine
 10
98.362547
 20
179.268905
 30
0.0
 11
106.374697
 21
185.014414
 31
0.0
  0
LINE
  5
2eb
100
AcDbEntity
  8
Layer_1
 62
5
100
AcDbLine
 10
106.374697
 20
185.014414
 30
0.0
 11
110.997306
 21
182.345548
 31
0.0
  0
LINE
  5
2ec
100
AcDbEntity
  8
Layer_1
 62
5
100
AcDbLine
 10
110.997306
 20
182.345548
 30
0.0
 11
110.027627
 21
172.534067
 31
0.0
  0
LINE
  5
2ed
100
AcDbEntity
  8
Layer_1
 62
5
100
AcDbLine
 10
110.027627
 20
172.534067
 30
0.0
 11
108.703355
 21
169.621195
 31
0.0
  0
LINE
  5
2ee
100
AcDbEntity
  8
Layer_1
 62
5
100
AcDbLine
 10
108.703355
 20
169.621195
 30
0.0
 11
105.298022
 21
165.317642
 31
0.0
  0
LINE
  5
2ef
100
AcDbEntity
  8
Layer_1
 62
5
100
AcDbLine
 10
105.298022
 20
165.317642
 30
0.0
 11
112.335702
 21
158.279962
 31
0.0
  0
LINE
  5
2f0
100
AcDbEntity
  8
Layer_1
 62
5
100
AcDbLine
 10
112.335702
 20
158.279962
 30
0.0
 11
116.639255
 21
161.685295
 31
0.0
  0
LINE
  5
2f1
100
AcDbEntity
  8
Layer_1
 62
5
100
AcDbLine
 10
116.639255
 20
161.685295
 30
0.0
 11
119.552127
 21
163.009566
 31
0.0
  0
LINE
  5
2f2
100
AcDbEntity
  8
Layer_1
 62
5
100
AcDbLine
 10
119.552127
 20
163.009566
 30
0.0
 11
129.363609
 21
163.979245
 31
0.0
  0
LINE
  5
2f3
100
AcDbEntity
  8
Layer_1
 62
5
100
AcDbLine
 10
129.363609
 20
163.979245
 30
0.0
 11
132.032474
 21
159.356637
 31
0.0
  0
LINE
  5
2f4
100
AcDbEntity
  8
Layer_1
 62
5
100
AcDbLine
 10
132.032474
 20
159.356637
 30
0.0
 11
126.286966
 21
151.344486
 31
0.0
  0
LINE
  5
2f5
100
AcDbEntity
  8
Layer_1
 62
5
100
AcDbLine
 10
126.286966
 20
151.344486
 30
0.0
 11
123.683677
 21
149.484004
 31
0.0
  0
LINE
  5
2f6
100
AcDbEntity
  8
Layer_1
 62
5
100
AcDbLine
 10
123.683677
 20
149.484004
 30
0.0
 11
118.582796
 21
147.459677
 31
0.0
  0
LINE
  5
2f7
100
AcDbEntity
  8
Layer_1
 62
5
100
AcDbLine
 10
118.582796
 20
147.459677
 30
0.0
 11
121.158765
 21
137.846031
 31
0.0
  0
LINE
  5
2f8
100
AcDbEntity
  8
Layer_1
 62
5
100
AcDbLine
 10
121.158765
 20
137.846031
 30
0.0
 11
126.588419
 21
138.643354
 31
0.0
  0
LINE
  5
2f9
100
AcDbEntity
  8
Layer_1
 62
5
100
AcDbLine
 10
126.588419
 20
138.643354
 30
0.0
 11
129.773175
 21
138.333776
 31
0.0
  0
LINE
  5
2fa
100
AcDbEntity
  8
Layer_1
 62
5
100
AcDbLine
 10
129.773175
 20
138.333776
 30
0.0
 11
138.755008
 21
134.267803
 31
0.0
  0
LINE
  5
2fb
100
AcDbEntity
  8
Layer_1
 62
5
100
AcDbLine
 10
138.755008
 20
134.267803
 30
0.0
 11
138.755008
 21
128.930072
 31
0.0
  0
LINE
  5
2fc
100
AcDbEntity
  8
Layer_1
 62
5
100
AcDbLine
 10
138.755008
 20
128.930072
 30
0.0
 11
129.773175
 21
124.864099
 31
0.0
  0
LINE
  5
2fd
100
AcDbEntity
  8
Layer_1
 62
5
100
AcDbLine
 10
129.773175
 20
124.864099
 30
0.0
 11
126.588419
 21
124.554521
 31
0.0
  0
LINE
  5
2fe
100
AcDbEntity
  8
Layer_1
 62
5
100
AcDbLine
 10
126.588419
 20
124.554521
 30
0.0
 11
121.158765
 21
125.351844
 31
0.0
  0
LINE
  5
2ff
100
AcDbEntity
  8
Layer_1
 62
5
100
AcDbLine
 10
121.158765
 20
125.351844
 30
0.0
 11
118.582796
 21
115.738198
 31
0.0
  0
LINE
  5
300
100
AcDbEntity
  8
Layer_1
 62
5
100
AcDbLine
 10
118.582796
 20
115.738198
 30
0.0
 11
123.683677
 21
113.713871
 31
0.0
  0
LINE
  5
301
100
AcDbEntity
  8
Layer_1
 62
5
100
AcDbLine
 10
123.683677
 20
113.713871
 30
0.0
 11
126.286966
 21
111.853389
 31
0.0
  0
LINE
  5
302
100
AcDbEntity
  8
Layer_1
 62
5
100
AcDbLine
 10
126.286966
 20
111.853389
 30
0.0
 11
132.032474
 21
103.841238
 31
0.0
  0
LINE
  5
303
100
AcDbEntity
  8
Layer_1
 62
5
100
AcDbLine
 10
132.032474
 20
103.841238
 30
0.0
 11
129.363609
 21
99.218630
 31
0.0
  0
LINE
  5
304
100
AcDbEntity
  8
Layer_1
 62
5
100
AcDbLine
 10
129.363609
 20
99.218630
 30
0.0
 11
119.552127
 21
100.188309
 31
0.0
  0
LINE
  5
305
100
AcDbEntity
  8
Layer_1
 62
5
100
AcDbLine
 10
119.552127
 20
100.188309
 30
0.0
 11
116.639255
 21
101.512580
 31
0.0
  0
LINE
  5
306
100
AcDbEntity
  8
Layer_1
 62
5
100
AcDbLine
 10
116.639255
 20
101.512580
 30
0.0
 11
112.335702
 21
104.917913
 31
0.0
  0
LINE
  5
307
100
AcDbEntity
  8
Layer_1
 62
5
100
AcDbLine
 10
112.335702
 20
104.917913
 30
0.0
 11
105.298022
 21
97.880234
 31
0.0
  0
LINE
  5
308
100
AcDbEntity
  8
Layer_1
 62
5
100
AcDbLine
 10
105.298022
 20
97.880234
 30
0.0
 11
108.703355
 21
93.576666
 31
0.0
  0
LINE
  5
309
100
AcDbEntity
  8
Layer_1
 62
5
100
AcDbLine
 10
108.703355
 20
93.576666
 30
0.0
 11
110.027627
 21
90.663794
 31
0.0
  0
LINE
  5
30a
100
AcDbEntity
  8
Layer_1
 62
5
100
AcDbLine
 10
110.027627
 20
90.663794
 30
0.0
 11
110.997306
 21
80.852338
 31
0.0
  0
LINE
  5
30b
100
AcDbEntity
  8
Layer_1
 62
5
100
AcDbLine
 10
110.997306
 20
80.852338
 30
0.0
 11
106.374697
 21
78.183447
 31
0.0
  0
LINE
  5
30c
100
AcDbEntity
  8
Layer_1
 62
5
100
AcDbLine
 10
106.374697
 20
78.183447
 30
0.0
 11
98.362547
 21
83.928956
 31
0.0
  0
LINE
  5
30d
100
AcDbEntity
  8
Layer_1
 62
5
100
AcDbLine
 10
98.362547
 20
83.928956
 30
0.0
 11
96.502064
 21
86.532258
 31
0.0
  0
LINE
  5
30e
100
AcDbEntity
  8
Layer_1
 62
5
100
AcDbLine
 10
96.502064
 20
86.532258
 30
0.0
 11
94.477738
 21
91.633143
 31
0.0
  0
LINE
  5
30f
100
AcDbEntity
  8
Layer_1
 62
5
100
AcDbLine
 10
94.477738
 20
91.633143
 30
0.0
 11
84.864092
 21
89.057160
 31
0.0
  0
LINE
  5
310
100
AcDbEntity
  8
Layer_1
 62
1
100
AcDbLine
 10
108.545452
 20
130.097778
 30
0.0
 11
98.545446
 21
130.097778
 31
0.0
  0
LINE
  5
311
100
AcDbEntity
  8
Layer_1
 62
1
100
AcDbLine
 10
98.545446
 20
130.097778
 30
0.0
 11
98.545446
 21
133.097772
 31
0.0
  0
LINE
  5
312
100
AcDbEntity
  8
Layer_1
 62
1
100
AcDbLine
 10
98.545446
 20
133.097772
 30
0.0
 11
108.545452
 21
133.097772
 31
0.0
  0
LINE
  5
313
100
AcDbEntity
  8
Layer_1
 62
1
100
AcDbLine
 10
108.545452
 20
133.097772
 30
0.0
 11
108.545452
 21
130.097778
 31
0.0
  0
LINE
  5
314
100
AcDbEntity
  8
Layer_1
 62
1
100
AcDbLine
 10
88.545322
 20
133.097611
 30
0.0
 11
80.115587
 21
133.097611
 31
0.0
  0
LINE
  5
315
100
AcDbEntity
  8
Layer_1
 62
1
100
AcDbLine
 10
80.115587
 20
133.097611
 30
0.0
 11
80.115587
 21
141.592390
 31
0.0
  0
LINE
  5
316
100
AcDbEntity
  8
Layer_1
 62
1
100
AcDbLine
 10
80.115587
 20
141.592390
 30
0.0
 11
77.115875
 21
141.592390
 31
0.0
  0
LINE
  5
317
100
AcDbEntity
  8
Layer_1
 62
1
100
AcDbLine
 10
77.115875
 20
141.592390
 30
0.0
 11
77.115875
 21
133.097611
 31
0.0
  0
LINE
  5
318
100
AcDbEntity
  8
Layer_1
 62
1
100
AcDbLine
 10
77.115875
 20
133.097611
 30
0.0
 11
68.558807
 21
133.097611
 31
0.0
  0
LINE
  5
319
100
AcDbEntity
  8
Layer_1
 62
1
100
AcDbLine
 10
68.558807
 20
133.097611
 30
0.0
 11
68.558807
 21
130.097899
 31
0.0
  0
LINE
  5
31a
100
AcDbEntity
  8
Layer_1
 62
1
100
AcDbLine
 10
68.558807
 20
130.097899
 30
0.0
 11
77.115875
 21
130.097899
 31
0.0
  0
LINE
  5
31b
100
AcDbEntity
  8
Layer_1
 62
1
100
AcDbLine
 10
77.115875
 20
130.097899
 30
0.0
 11
77.115875
 21
121.605875
 31
0.0
  0
LINE
  5
31c
100
AcDbEntity
  8
Layer_1
 62
1
100
AcDbLine
 10
77.115875
 20
121.605875
 30
0.0
 11
80.115587
 21
121.605875
 31
0.0
  0
LINE
  5
31d
100
AcDbEntity
  8
Layer_1
 62
1
100
AcDbLine
 10
80.115587
 20
121.605875
 30
0.0
 11
80.115587
 21
130.097899
 31
0.0
  0
LINE
  5
31e
100
AcDbEntity
  8
Layer_1
 62
1
100
AcDbLine
 10
80.115587
 20
130.097899
 30
0.0
 11
88.545322
 21
130.097899
 31
0.0
  0
LINE
  5
31f
100
AcDbEntity
  8
Layer_1
 62
1
100
AcDbLine
 10
88.545322
 20
130.097899
 30
0.0
 11
88.545322
 21
133.097611
 31
0.0
  0
LINE
  5
320
100
AcDbEntity
  8
Layer_1
 62
1
100
AcDbLine
 10
88.545322
 20
133.097611
 30
0.0
 11
88.545322
 21
133.097611
 31
0.0
  0
SPLINE
  5
321
100
AcDbEntity
  8
Layer_1
 62
1
100
AcDbSpline
 70
8
 71
3
 72
8
 73
4
 74
0
 40
0
 40
0
 40
0
 40
0
 40
1
 40
1
 40
1
 40
1
 10
91.995489
 20
131.598909
 30
0.0
 10
91.995489
 20
132.009995
 30
0.0
 10
92.158792
 20
132.404244
 30
0.0
 10
92.449473
 20
132.694926
 30
0.0
  0
SPLINE
  5
322
100
AcDbEntity
  8
Layer_1
 62
1
100
AcDbSpline
 70
8
 71
3
 72
8
 73
4
 74
0
 40
0
 40
0
 40
0
 40
0
 40
1
 40
1
 40
1
 40
1
 10
92.449473
 20
132.694926
 30
0.0
 10
92.740155
 20
132.985608
 30
0.0
 10
93.134404
 20
133.148911
 30
0.0
 10
93.545490
 20
133.148911
 30
0.0
  0
SPLINE
  5
323
100
AcDbEntity
  8
Layer_1
 62
1
100
AcDbSpline
 70
8
 71
3
 72
8
 73
4
 74
0
 40
0
 40
0
 40
0
 40
0
 40
1
 40
1
 40
1
 40
1
 10
93.545490
 20
133.148911
 30
0.0
 10
93.956576
 20
133.148910
 30
0.0
 10
94.350824
 20
132.985607
 30
0.0
 10
94.641505
 20
132.694925
 30
0.0
  0
SPLINE
  5
324
100
AcDbEntity
  8
Layer_1
 62
1
100
AcDbSpline
 70
8
 71
3
 72
8
 73
4
 74
0
 40
0
 40
0
 40
0
 40
0
 40
1
 40
1
 40
1
 40
1
 10
94.641505
 20
132.694925
 30
0.0
 10
94.932186
 20
132.404244
 30
0.0
 10
95.095489
 20
132.009995
 30
0.0
 10
95.095488
 20
131.598909
 30
0.0
  0
SPLINE
  5
325
100
AcDbEntity
  8
Layer_1
 62
1
100
AcDbSpline
 70
8
 71
3
 72
8
 73
4
 74
0
 40
0
 40
0
 40
0
 40
0
 40
1
 40
1
 40
1
 40
1
 10
95.095488
 20
131.598909
 30
0.0
 10
95.095488
 20
130.742869
 30
0.0
 10
94.401530
 20
130.048912
 30
0.0
 10
93.545490
 20
130.048911
 30
0.0
  0
SPLINE
  5
326
100
AcDbEntity
  8
Layer_1
 62
1
100
AcDbSpline
 70
8
 71
3
 72
8
 73
4
 74
0
 40
0
 40
0
 40
0
 40
0
 40
1
 40
1
 40
1
 40
1
 10
93.545490
 20
130.048911
 30
0.0
 10
93.134405
 20
130.048911
 30
0.0
 10
92.740156
 20
130.212213
 30
0.0
 10
92.449474
 20
130.502894
 30
0.0
  0
SPLINE
  5
327
100
AcDbEntity
  8
Layer_1
 62
1
100
AcDbSpline
 70
8
 71
3
 72
8
 73
4
 74
0
 40
0
 40
0
 40
0
 40
0
 40
1
 40
1
 40
1
 40
1
 10
92.449474
 20
130.502894
 30
0.0
 10
92.158793
 20
130.793575
 30
0.0
 10
91.995489
 20
131.187824
 30
0.0
 10
91.995489
 20
131.598909
 30
0.0
  0
LINE
  5
328
100
AcDbEntity
  8
Layer_1
 62
1
100
AcDbLine
 10
91.995489
 20
131.598909
 30
0.0
 11
91.995489
 21
131.598909
 31
0.0
  0
LINE
  5
329
100
AcDbEntity
  8
Layer_1
 62
1
100
AcDbLine
 10
58.558942
 20
130.097778
 30
0.0
 11
48.558937
 21
130.097778
 31
0.0
  0
LINE
  5
32a
100
AcDbEntity
  8
Layer_1
 62
1
100
AcDbLine
 10
48.558937
 20
130.097778
 30
0.0
 11
48.558937
 21
133.097772
 31
0.0
  0
LINE
  5
32b
100
AcDbEntity
  8
Layer_1
 62
1
100
AcDbLine
 10
48.558937
 20
133.097772
 30
0.0
 11
58.558942
 21
133.097772
 31
0.0
  0
LINE
  5
32c
100
AcDbEntity
  8
Layer_1
 62
1
100
AcDbLine
 10
58.558942
 20
133.097772
 30
0.0
 11
58.558942
 21
130.097778
 31
0.0
  0
SPLINE
  5
32d
100
AcDbEntity
  8
Layer_1
 62
1
100
AcDbSpline
 70
8
 71
3
 72
8
 73
4
 74
0
 40
0
 40
0
 40
0
 40
0
 40
1
 40
1
 40
1
 40
1
 10
62.008931
 20
131.598909
 30
0.0
 10
62.008931
 20
132.009995
 30
0.0
 10
62.172233
 20
132.404244
 30
0.0
 10
62.462915
 20
132.694925
 30
0.0
  0
SPLINE
  5
32e
100
AcDbEntity
  8
Layer_1
 62
1
100
AcDbSpline
 70
8
 71
3
 72
8
 73
4
 74
0
 40
0
 40
0
 40
0
 40
0
 40
1
 40
1
 40
1
 40
1
 10
62.462915
 20
132.694925
 30
0.0
 10
62.753596
 20
132.985607
 30
0.0
 10
63.147844
 20
133.148910
 30
0.0
 10
63.558930
 20
133.148911
 30
0.0
  0
SPLINE
  5
32f
100
AcDbEntity
  8
Layer_1
 62
1
100
AcDbSpline
 70
8
 71
3
 72
8
 73
4
 74
0
 40
0
 40
0
 40
0
 40
0
 40
1
 40
1
 40
1
 40
1
 10
63.558930
 20
133.148911
 30
0.0
 10
63.970015
 20
133.148910
 30
0.0
 10
64.364263
 20
132.985607
 30
0.0
 10
64.654945
 20
132.694925
 30
0.0
  0
SPLINE
  5
330
100
AcDbEntity
  8
Layer_1
 62
1
100
AcDbSpline
 70
8
 71
3
 72
8
 73
4
 74
0
 40
0
 40
0
 40
0
 40
0
 40
1
 40
1
 40
1
 40
1
 10
64.654945
 20
132.694925
 30
0.0
 10
64.945626
 20
132.404244
 30
0.0
 10
65.108928
 20
132.009995
 30
0.0
 10
65.108928
 20
131.598909
 30
0.0
  0
SPLINE
  5
331
100
AcDbEntity
  8
Layer_1
 62
1
100
AcDbSpline
 70
8
 71
3
 72
8
 73
4
 74
0
 40
0
 40
0
 40
0
 40
0
 40
1
 40
1
 40
1
 40
1
 10
65.108928
 20
131.598909
 30
0.0
 10
65.108927
 20
130.742869
 30
0.0
 10
64.414970
 20
130.048912
 30
0.0
 10
63.558930
 20
130.048911
 30
0.0
  0
SPLINE
  5
332
100
AcDbEntity
  8
Layer_1
 62
1
100
AcDbSpline
 70
8
 71
3
 72
8
 73
4
 74
0
 40
0
 40
0
 40
0
 40
0
 40
1
 40
1
 40
1
 40
1
 10
63.558930
 20
130.048911
 30
0.0
 10
62.702889
 20
130.048912
 30
0.0
 10
62.008932
 20
130.742869
 30
0.0
 10
62.008931
 20
131.598909
 30
0.0
  0
LINE
  5
333
100
AcDbEntity
  8
Layer_1
 62
1
100
AcDbLine
 10
62.008931
 20
131.598909
 30
0.0
 11
62.008931
 21
131.598909
 31
0.0
  0
LINE
  5
334
100
AcDbEntity
  8
Layer_1
 62
1
100
AcDbLine
 10
77.115864
 20
101.605677
 30
0.0
 11
77.115864
 21
111.605683
 31
0.0
  0
LINE
  5
335
100
AcDbEntity
  8
Layer_1
 62
1
100
AcDbLine
 10
77.115864
 20
111.605683
 30
0.0
 11
80.115858
 21
111.605683
 31
0.0
  0
LINE
  5
336
100
AcDbEntity
  8
Layer_1
 62
1
100
AcDbLine
 10
80.115858
 20
111.605683
 30
0.0
 11
80.115858
 21
101.605677
 31
0.0
  0
LINE
  5
337
100
AcDbEntity
  8
Layer_1
 62
1
100
AcDbLine
 10
80.115858
 20
101.605677
 30
0.0
 11
77.115864
 21
101.605677
 31
0.0
  0
SPLINE
  5
338
100
AcDbEntity
  8
Layer_1
 62
1
100
AcDbSpline
 70
8
 71
3
 72
8
 73
4
 74
0
 40
0
 40
0
 40
0
 40
0
 40
1
 40
1
 40
1
 40
1
 10
78.616995
 20
118.155640
 30
0.0
 10
79.028081
 20
118.155641
 30
0.0
 10
79.422330
 20
117.992337
 30
0.0
 10
79.713012
 20
117.701656
 30
0.0
  0
SPLINE
  5
339
100
AcDbEntity
  8
Layer_1
 62
1
100
AcDbSpline
 70
8
 71
3
 72
8
 73
4
 74
0
 40
0
 40
0
 40
0
 40
0
 40
1
 40
1
 40
1
 40
1
 10
79.713012
 20
117.701656
 30
0.0
 10
80.003694
 20
117.410974
 30
0.0
 10
80.166997
 20
117.016725
 30
0.0
 10
80.166997
 20
116.605639
 30
0.0
  0
SPLINE
  5
33a
100
AcDbEntity
  8
Layer_1
 62
1
100
AcDbSpline
 70
8
 71
3
 72
8
 73
4
 74
0
 40
0
 40
0
 40
0
 40
0
 40
1
 40
1
 40
1
 40
1
 10
80.166997
 20
116.605639
 30
0.0
 10
80.166996
 20
116.194553
 30
0.0
 10
80.003693
 20
115.800305
 30
0.0
 10
79.713011
 20
115.509624
 30
0.0
  0
SPLINE
  5
33b
100
AcDbEntity
  8
Layer_1
 62
1
100
AcDbSpline
 70
8
 71
3
 72
8
 73
4
 74
0
 40
0
 40
0
 40
0
 40
0
 40
1
 40
1
 40
1
 40
1
 10
79.713011
 20
115.509624
 30
0.0
 10
79.422330
 20
115.218943
 30
0.0
 10
79.028081
 20
115.055640
 30
0.0
 10
78.616995
 20
115.055641
 30
0.0
  0
SPLINE
  5
33c
100
AcDbEntity
  8
Layer_1
 62
1
100
AcDbSpline
 70
8
 71
3
 72
8
 73
4
 74
0
 40
0
 40
0
 40
0
 40
0
 40
1
 40
1
 40
1
 40
1
 10
78.616995
 20
115.055641
 30
0.0
 10
77.760955
 20
115.055641
 30
0.0
 10
77.066998
 20
115.749599
 30
0.0
 10
77.066997
 20
116.605639
 30
0.0
  0
SPLINE
  5
33d
100
AcDbEntity
  8
Layer_1
 62
1
100
AcDbSpline
 70
8
 71
3
 72
8
 73
4
 74
0
 40
0
 40
0
 40
0
 40
0
 40
1
 40
1
 40
1
 40
1
 10
77.066997
 20
116.605639
 30
0.0
 10
77.066997
 20
117.016724
 30
0.0
 10
77.230299
 20
117.410973
 30
0.0
 10
77.520980
 20
117.701655
 30
0.0
  0
SPLINE
  5
33e
100
AcDbEntity
  8
Layer_1
 62
1
100
AcDbSpline
 70
8
 71
3
 72
8
 73
4
 74
0
 40
0
 40
0
 40
0
 40
0
 40
1
 40
1
 40
1
 40
1
 10
77.520980
 20
117.701655
 30
0.0
 10
77.811661
 20
117.992336
 30
0.0
 10
78.205910
 20
118.155640
 30
0.0
 10
78.616995
 20
118.155640
 30
0.0
  0
LINE
  5
33f
100
AcDbEntity
  8
Layer_1
 62
1
100
AcDbLine
 10
78.616995
 20
118.155640
 30
0.0
 11
78.616995
 21
118.155640
 31
0.0
  0
LINE
  5
340
100
AcDbEntity
  8
Layer_1
 62
1
100
AcDbLine
 10
77.115864
 20
151.592187
 30
0.0
 11
77.115864
 21
161.592192
 31
0.0
  0
LINE
  5
341
100
AcDbEntity
  8
Layer_1
 62
1
100
AcDbLine
 10
77.115864
 20
161.592192
 30
0.0
 11
80.115858
 21
161.592192
 31
0.0
  0
LINE
  5
342
100
AcDbEntity
  8
Layer_1
 62
1
100
AcDbLine
 10
80.115858
 20
161.592192
 30
0.0
 11
80.115858
 21
151.592187
 31
0.0
  0
LINE
  5
343
100
AcDbEntity
  8
Layer_1
 62
1
100
AcDbLine
 10
80.115858
 20
151.592187
 30
0.0
 11
77.115864
 21
151.592187
 31
0.0
  0
SPLINE
  5
344
100
AcDbEntity
  8
Layer_1
 62
1
100
AcDbSpline
 70
8
 71
3
 72
8
 73
4
 74
0
 40
0
 40
0
 40
0
 40
0
 40
1
 40
1
 40
1
 40
1
 10
78.616995
 20
148.142198
 30
0.0
 10
79.028081
 20
148.142198
 30
0.0
 10
79.422330
 20
147.978896
 30
0.0
 10
79.713011
 20
147.688215
 30
0.0
  0
SPLINE
  5
345
100
AcDbEntity
  8
Layer_1
 62
1
100
AcDbSpline
 70
8
 71
3
 72
8
 73
4
 74
0
 40
0
 40
0
 40
0
 40
0
 40
1
 40
1
 40
1
 40
1
 10
79.713011
 20
147.688215
 30
0.0
 10
80.003693
 20
147.397533
 30
0.0
 10
80.166996
 20
147.003285
 30
0.0
 10
80.166997
 20
146.592200
 30
0.0
  0
SPLINE
  5
346
100
AcDbEntity
  8
Layer_1
 62
1
100
AcDbSpline
 70
8
 71
3
 72
8
 73
4
 74
0
 40
0
 40
0
 40
0
 40
0
 40
1
 40
1
 40
1
 40
1
 10
80.166997
 20
146.592200
 30
0.0
 10
80.166996
 20
146.181114
 30
0.0
 10
80.003693
 20
145.786866
 30
0.0
 10
79.713011
 20
145.496185
 30
0.0
  0
SPLINE
  5
347
100
AcDbEntity
  8
Layer_1
 62
1
100
AcDbSpline
 70
8
 71
3
 72
8
 73
4
 74
0
 40
0
 40
0
 40
0
 40
0
 40
1
 40
1
 40
1
 40
1
 10
79.713011
 20
145.496185
 30
0.0
 10
79.422330
 20
145.205503
 30
0.0
 10
79.028081
 20
145.042201
 30
0.0
 10
78.616995
 20
145.042201
 30
0.0
  0
SPLINE
  5
348
100
AcDbEntity
  8
Layer_1
 62
1
100
AcDbSpline
 70
8
 71
3
 72
8
 73
4
 74
0
 40
0
 40
0
 40
0
 40
0
 40
1
 40
1
 40
1
 40
1
 10
78.616995
 20
145.042201
 30
0.0
 10
77.760955
 20
145.042202
 30
0.0
 10
77.066998
 20
145.736159
 30
0.0
 10
77.066997
 20
146.592200
 30
0.0
  0
SPLINE
  5
349
100
AcDbEntity
  8
Layer_1
 62
1
100
AcDbSpline
 70
8
 71
3
 72
8
 73
4
 74
0
 40
0
 40
0
 40
0
 40
0
 40
1
 40
1
 40
1
 40
1
 10
77.066997
 20
146.592200
 30
0.0
 10
77.066998
 20
147.448240
 30
0.0
 10
77.760955
 20
148.142197
 30
0.0
 10
78.616995
 20
148.142198
 30
0.0
  0
LINE
  5
34a
100
AcDbEntity
  8
Layer_1
 62
1
100
AcDbLine
 10
78.616995
 20
148.142198
 30
0.0
 11
78.616995
 21
148.142198
 31
0.0
  0
SPLINE
  5
34b
100
AcDbEntity
  8
Layer_1
 62
3
100
AcDbSpline
 70
8
 71
3
 72
8
 73
4
 74
0
 40
0
 40
0
 40
0
 40
0
 40
1
 40
1
 40
1
 40
1
 10
50.342467
 20
260.016426
 30
0.0
 10
50.421526
 20
259.982550
 30
0.0
 10
50.483634
 20
259.928915
 30
0.0
 10
50.528790
 20
259.855520
 30
0.0
  0
SPLINE
  5
34c
100
AcDbEntity
  8
Layer_1
 62
3
100
AcDbSpline
 70
8
 71
3
 72
8
 73
4
 74
0
 40
0
 40
0
 40
0
 40
0
 40
1
 40
1
 40
1
 40
1
 10
50.528790
 20
259.855520
 30
0.0
 10
50.579609
 20
259.787770
 30
0.0
 10
50.605018
 20
259.711550
 30
0.0
 10
50.605018
 20
259.626861
 30
0.0
  0
LINE
  5
34d
100
AcDbEntity
  8
Layer_1
 62
3
100
AcDbLine
 10
50.605018
 20
259.626861
 30
0.0
 11
50.605018
 21
252.004955
 31
0.0
  0
SPLINE
  5
34e
100
AcDbEntity
  8
Layer_1
 62
3
100
AcDbSpline
 70
8
 71
3
 72
8
 73
4
 74
0
 40
0
 40
0
 40
0
 40
0
 40
1
 40
1
 40
1
 40
1
 10
50.605018
 20
252.004955
 30
0.0
 10
50.605018
 20
251.886392
 30
0.0
 10
50.562675
 20
251.784767
 30
0.0
 10
50.477990
 20
251.700079
 30
0.0
  0
SPLINE
  5
34f
100
AcDbEntity
  8
Layer_1
 62
3
100
AcDbSpline
 70
8
 71
3
 72
8
 73
4
 74
0
 40
0
 40
0
 40
0
 40
0
 40
1
 40
1
 40
1
 40
1
 10
50.477990
 20
251.700079
 30
0.0
 10
50.398949
 20
251.621038
 30
0.0
 10
50.300143
 20
251.581518
 30
0.0
 10
50.181572
 20
251.581518
 30
0.0
  0
SPLINE
  5
350
100
AcDbEntity
  8
Layer_1
 62
3
100
AcDbSpline
 70
8
 71
3
 72
8
 73
4
 74
0
 40
0
 40
0
 40
0
 40
0
 40
1
 40
1
 40
1
 40
1
 10
50.181572
 20
251.581518
 30
0.0
 10
50.063001
 20
251.581518
 30
0.0
 10
49.961373
 20
251.621038
 30
0.0
 10
49.876687
 20
251.700079
 30
0.0
  0
SPLINE
  5
351
100
AcDbEntity
  8
Layer_1
 62
3
100
AcDbSpline
 70
8
 71
3
 72
8
 73
4
 74
0
 40
0
 40
0
 40
0
 40
0
 40
1
 40
1
 40
1
 40
1
 10
49.876687
 20
251.700079
 30
0.0
 10
49.797646
 20
251.784767
 30
0.0
 10
49.758125
 20
251.886392
 30
0.0
 10
49.758125
 20
252.004955
 30
0.0
  0
LINE
  5
352
100
AcDbEntity
  8
Layer_1
 62
3
100
AcDbLine
 10
49.758125
 20
252.004955
 30
0.0
 11
49.758125
 21
258.602140
 31
0.0
  0
LINE
  5
353
100
AcDbEntity
  8
Layer_1
 62
3
100
AcDbLine
 10
49.758125
 20
258.602140
 30
0.0
 11
48.784233
 21
257.636697
 31
0.0
  0
SPLINE
  5
354
100
AcDbEntity
  8
Layer_1
 62
3
100
AcDbSpline
 70
8
 71
3
 72
8
 73
4
 74
0
 40
0
 40
0
 40
0
 40
0
 40
1
 40
1
 40
1
 40
1
 10
48.784233
 20
257.636697
 30
0.0
 10
48.705192
 20
257.552010
 30
0.0
 10
48.606386
 20
257.509666
 30
0.0
 10
48.487815
 20
257.509666
 30
0.0
  0
SPLINE
  5
355
100
AcDbEntity
  8
Layer_1
 62
3
100
AcDbSpline
 70
8
 71
3
 72
8
 73
4
 74
0
 40
0
 40
0
 40
0
 40
0
 40
1
 40
1
 40
1
 40
1
 10
48.487815
 20
257.509666
 30
0.0
 10
48.369244
 20
257.509666
 30
0.0
 10
48.270438
 20
257.552010
 30
0.0
 10
48.191397
 20
257.636697
 30
0.0
  0
SPLINE
  5
356
100
AcDbEntity
  8
Layer_1
 62
3
100
AcDbSpline
 70
8
 71
3
 72
8
 73
4
 74
0
 40
0
 40
0
 40
0
 40
0
 40
1
 40
1
 40
1
 40
1
 10
48.191397
 20
257.636697
 30
0.0
 10
48.106712
 20
257.715740
 30
0.0
 10
48.064369
 20
257.814542
 30
0.0
 10
48.064369
 20
257.933104
 30
0.0
  0
SPLINE
  5
357
100
AcDbEntity
  8
Layer_1
 62
3
100
AcDbSpline
 70
8
 71
3
 72
8
 73
4
 74
0
 40
0
 40
0
 40
0
 40
0
 40
1
 40
1
 40
1
 40
1
 10
48.064369
 20
257.933104
 30
0.0
 10
48.064369
 20
258.051667
 30
0.0
 10
48.106712
 20
258.150470
 30
0.0
 10
48.191397
 20
258.229513
 30
0.0
  0
LINE
  5
358
100
AcDbEntity
  8
Layer_1
 62
3
100
AcDbLine
 10
48.191397
 20
258.229513
 30
0.0
 11
49.885154
 21
259.923270
 31
0.0
  0
SPLINE
  5
359
100
AcDbEntity
  8
Layer_1
 62
3
100
AcDbSpline
 70
8
 71
3
 72
8
 73
4
 74
0
 40
0
 40
0
 40
0
 40
0
 40
1
 40
1
 40
1
 40
1
 10
49.885154
 20
259.923270
 30
0.0
 10
50.015014
 20
260.058771
 30
0.0
 10
50.167451
 20
260.089823
 30
0.0
 10
50.342467
 20
260.016426
 30
0.0
  0
LINE
  5
35a
100
AcDbEntity
  8
Layer_1
 62
3
100
AcDbLine
 10
50.342467
 20
260.016426
 30
0.0
 11
50.342467
 21
260.016426
 31
0.0
  0
LINE
  5
35b
100
AcDbEntity
  8
Layer_1
 62
5
100
AcDbLine
 10
106.896539
 20
246.939261
 30
0.0
 11
112.461256
 21
247.756421
 31
0.0
  0
LINE
  5
35c
100
AcDbEntity
  8
Layer_1
 62
5
100
AcDbLine
 10
112.461256
 20
247.756421
 30
0.0
 11
115.725269
 21
247.439142
 31
0.0
  0
LINE
  5
35d
100
AcDbEntity
  8
Layer_1
 62
5
100
AcDbLine
 10
115.725269
 20
247.439142
 30
0.0
 11
124.930567
 21
243.272006
 31
0.0
  0
LINE
  5
35e
100
AcDbEntity
  8
Layer_1
 62
5
100
AcDbLine
 10
124.930567
 20
243.272006
 30
0.0
 11
124.930567
 21
237.801478
 31
0.0
  0
LINE
  5
35f
100
AcDbEntity
  8
Layer_1
 62
5
100
AcDbLine
 10
124.930567
 20
237.801478
 30
0.0
 11
115.725269
 21
233.634343
 31
0.0
  0
LINE
  5
360
100
AcDbEntity
  8
Layer_1
 62
5
100
AcDbLine
 10
115.725269
 20
233.634343
 30
0.0
 11
112.461256
 21
233.317063
 31
0.0
  0
LINE
  5
361
100
AcDbEntity
  8
Layer_1
 62
5
100
AcDbLine
 10
112.461256
 20
233.317063
 30
0.0
 11
106.896539
 21
234.134223
 31
0.0
  0
LINE
  5
362
100
AcDbEntity
  8
Layer_1
 62
5
100
AcDbLine
 10
106.896539
 20
234.134223
 30
0.0
 11
104.256466
 21
224.281394
 31
0.0
  0
LINE
  5
363
100
AcDbEntity
  8
Layer_1
 62
5
100
AcDbLine
 10
104.256466
 20
224.281394
 30
0.0
 11
109.484263
 21
222.206705
 31
0.0
  0
LINE
  5
364
100
AcDbEntity
  8
Layer_1
 62
5
100
AcDbLine
 10
109.484263
 20
222.206705
 30
0.0
 11
112.152307
 21
220.299932
 31
0.0
  0
LINE
  5
365
100
AcDbEntity
  8
Layer_1
 62
5
100
AcDbLine
 10
112.152307
 20
220.299932
 30
0.0
 11
118.040761
 21
212.088442
 31
0.0
  0
LINE
  5
366
100
AcDbEntity
  8
Layer_1
 62
5
100
AcDbLine
 10
118.040761
 20
212.088442
 30
0.0
 11
115.305491
 21
207.350826
 31
0.0
  0
LINE
  5
367
100
AcDbEntity
  8
Layer_1
 62
5
100
AcDbLine
 10
115.305491
 20
207.350826
 30
0.0
 11
105.249913
 21
208.344632
 31
0.0
  0
LINE
  5
368
100
AcDbEntity
  8
Layer_1
 62
5
100
AcDbLine
 10
105.249913
 20
208.344632
 30
0.0
 11
102.264572
 21
209.701850
 31
0.0
  0
LINE
  5
369
100
AcDbEntity
  8
Layer_1
 62
5
100
AcDbLine
 10
102.264572
 20
209.701850
 30
0.0
 11
97.853950
 21
213.191906
 31
0.0
  0
LINE
  5
36a
100
AcDbEntity
  8
Layer_1
 62
5
100
AcDbLine
 10
97.853950
 20
213.191906
 30
0.0
 11
90.641173
 21
205.979130
 31
0.0
  0
LINE
  5
36b
100
AcDbEntity
  8
Layer_1
 62
5
100
AcDbLine
 10
90.641173
 20
205.979130
 30
0.0
 11
94.131229
 21
201.568507
 31
0.0
  0
LINE
  5
36c
100
AcDbEntity
  8
Layer_1
 62
5
100
AcDbLine
 10
94.131229
 20
201.568507
 30
0.0
 11
95.488447
 21
198.583163
 31
0.0
  0
LINE
  5
36d
100
AcDbEntity
  8
Layer_1
 62
5
100
AcDbLine
 10
95.488447
 20
198.583163
 30
0.0
 11
96.482254
 21
188.527577
 31
0.0
  0
LINE
  5
36e
100
AcDbEntity
  8
Layer_1
 62
5
100
AcDbLine
 10
96.482254
 20
188.527577
 30
0.0
 11
91.744637
 21
185.792313
 31
0.0
  0
LINE
  5
36f
100
AcDbEntity
  8
Layer_1
 62
5
100
AcDbLine
 10
91.744637
 20
185.792313
 30
0.0
 11
83.533147
 21
191.680764
 31
0.0
  0
LINE
  5
370
100
AcDbEntity
  8
Layer_1
 62
5
100
AcDbLine
 10
83.533147
 20
191.680764
 30
0.0
 11
81.626375
 21
194.348825
 31
0.0
  0
LINE
  5
371
100
AcDbEntity
  8
Layer_1
 62
5
100
AcDbLine
 10
81.626375
 20
194.348825
 30
0.0
 11
79.551686
 21
199.576614
 31
0.0
  0
LINE
  5
372
100
AcDbEntity
  8
Layer_1
 62
5
100
AcDbLine
 10
79.551686
 20
199.576614
 30
0.0
 11
69.698856
 21
196.936555
 31
0.0
  0
LINE
  5
373
100
AcDbEntity
  8
Layer_1
 62
5
100
AcDbLine
 10
69.698856
 20
196.936555
 30
0.0
 11
70.516016
 21
191.371815
 31
0.0
  0
LINE
  5
374
100
AcDbEntity
  8
Layer_1
 62
5
100
AcDbLine
 10
70.516016
 20
191.371815
 30
0.0
 11
70.198736
 21
188.107822
 31
0.0
  0
LINE
  5
375
100
AcDbEntity
  8
Layer_1
 62
5
100
AcDbLine
 10
70.198736
 20
188.107822
 30
0.0
 11
66.031601
 21
178.902526
 31
0.0
  0
LINE
  5
376
100
AcDbEntity
  8
Layer_1
 62
5
100
AcDbLine
 10
66.031601
 20
178.902526
 30
0.0
 11
60.561073
 21
178.902526
 31
0.0
  0
LINE
  5
377
100
AcDbEntity
  8
Layer_1
 62
5
100
AcDbLine
 10
60.561073
 20
178.902526
 30
0.0
 11
56.393938
 21
188.107822
 31
0.0
  0
LINE
  5
378
100
AcDbEntity
  8
Layer_1
 62
5
100
AcDbLine
 10
56.393938
 20
188.107822
 30
0.0
 11
56.076658
 21
191.371815
 31
0.0
  0
LINE
  5
379
100
AcDbEntity
  8
Layer_1
 62
5
100
AcDbLine
 10
56.076658
 20
191.371815
 30
0.0
 11
56.893818
 21
196.936555
 31
0.0
  0
LINE
  5
37a
100
AcDbEntity
  8
Layer_1
 62
5
100
AcDbLine
 10
56.893818
 20
196.936555
 30
0.0
 11
47.040989
 21
199.576614
 31
0.0
  0
LINE
  5
37b
100
AcDbEntity
  8
Layer_1
 62
5
100
AcDbLine
 10
47.040989
 20
199.576614
 30
0.0
 11
44.966300
 21
194.348825
 31
0.0
  0
LINE
  5
37c
100
AcDbEntity
  8
Layer_1
 62
5
100
AcDbLine
 10
44.966300
 20
194.348825
 30
0.0
 11
43.059527
 21
191.680764
 31
0.0
  0
LINE
  5
37d
100
AcDbEntity
  8
Layer_1
 62
5
100
AcDbLine
 10
43.059527
 20
191.680764
 30
0.0
 11
34.848037
 21
185.792313
 31
0.0
  0
LINE
  5
37e
100
AcDbEntity
  8
Layer_1
 62
5
100
AcDbLine
 10
34.848037
 20
185.792313
 30
0.0
 11
30.110421
 21
188.527577
 31
0.0
  0
LINE
  5
37f
100
AcDbEntity
  8
Layer_1
 62
5
100
AcDbLine
 10
30.110421
 20
188.527577
 30
0.0
 11
31.104227
 21
198.583163
 31
0.0
  0
LINE
  5
380
100
AcDbEntity
  8
Layer_1
 62
5
100
AcDbLine
 10
31.104227
 20
198.583163
 30
0.0
 11
32.461445
 21
201.568507
 31
0.0
  0
LINE
  5
381
100
AcDbEntity
  8
Layer_1
 62
5
100
AcDbLine
 10
32.461445
 20
201.568507
 30
0.0
 11
35.951501
 21
205.979130
 31
0.0
  0
LINE
  5
382
100
AcDbEntity
  8
Layer_1
 62
5
100
AcDbLine
 10
35.951501
 20
205.979130
 30
0.0
 11
28.738725
 21
213.191906
 31
0.0
  0
LINE
  5
383
100
AcDbEntity
  8
Layer_1
 62
5
100
AcDbLine
 10
28.738725
 20
213.191906
 30
0.0
 11
24.328102
 21
209.701850
 31
0.0
  0
LINE
  5
384
100
AcDbEntity
  8
Layer_1
 62
5
100
AcDbLine
 10
24.328102
 20
209.701850
 30
0.0
 11
21.342758
 21
208.344632
 31
0.0
  0
LINE
  5
385
100
AcDbEntity
  8
Layer_1
 62
5
100
AcDbLine
 10
21.342758
 20
208.344632
 30
0.0
 11
11.287172
 21
207.350826
 31
0.0
  0
LINE
  5
386
100
AcDbEntity
  8
Layer_1
 62
5
100
AcDbLine
 10
11.287172
 20
207.350826
 30
0.0
 11
8.551908
 21
212.088442
 31
0.0
  0
LINE
  5
387
100
AcDbEntity
  8
Layer_1
 62
5
100
AcDbLine
 10
8.551908
 20
212.088442
 30
0.0
 11
14.440359
 21
220.299932
 31
0.0
  0
LINE
  5
388
100
AcDbEntity
  8
Layer_1
 62
5
100
AcDbLine
 10
14.440359
 20
220.299932
 30
0.0
 11
17.108420
 21
222.206705
 31
0.0
  0
LINE
  5
389
100
AcDbEntity
  8
Layer_1
 62
5
100
AcDbLine
 10
17.108420
 20
222.206705
 30
0.0
 11
22.336209
 21
224.281394
 31
0.0
  0
LINE
  5
38a
100
AcDbEntity
  8
Layer_1
 62
5
100
AcDbLine
 10
22.336209
 20
224.281394
 30
0.0
 11
19.696149
 21
234.134223
 31
0.0
  0
LINE
  5
38b
100
AcDbEntity
  8
Layer_1
 62
5
100
AcDbLine
 10
19.696149
 20
234.134223
 30
0.0
 11
14.131410
 21
233.317063
 31
0.0
  0
LINE
  5
38c
100
AcDbEntity
  8
Layer_1
 62
5
100
AcDbLine
 10
14.131410
 20
233.317063
 30
0.0
 11
10.867417
 21
233.634343
 31
0.0
  0
LINE
  5
38d
100
AcDbEntity
  8
Layer_1
 62
5
100
AcDbLine
 10
10.867417
 20
233.634343
 30
0.0
 11
1.662121
 21
237.801478
 31
0.0
  0
LINE
  5
38e
100
AcDbEntity
  8
Layer_1
 62
5
100
AcDbLine
 10
1.662121
 20
237.801478
 30
0.0
 11
1.662121
 21
243.272006
 31
0.0
  0
LINE
  5
38f
100
AcDbEntity
  8
Layer_1
 62
5
100
AcDbLine
 10
1.662121
 20
243.272006
 30
0.0
 11
10.867417
 21
247.439142
 31
0.0
  0
LINE
  5
390
100
AcDbEntity
  8
Layer_1
 62
5
100
AcDbLine
 10
10.867417
 20
247.439142
 30
0.0
 11
14.131410
 21
247.756421
 31
0.0
  0
LINE
  5
391
100
AcDbEntity
  8
Layer_1
 62
5
100
AcDbLine
 10
14.131410
 20
247.756421
 30
0.0
 11
19.696149
 21
246.939261
 31
0.0
  0
LINE
  5
392
100
AcDbEntity
  8
Layer_1
 62
5
100
AcDbLine
 10
19.696149
 20
246.939261
 30
0.0
 11
22.336209
 21
256.792091
 31
0.0
  0
LINE
  5
393
100
AcDbEntity
  8
Layer_1
 62
5
100
AcDbLine
 10
22.336209
 20
256.792091
 30
0.0
 11
17.108420
 21
258.866780
 31
0.0
  0
LINE
  5
394
100
AcDbEntity
  8
Layer_1
 62
5
100
AcDbLine
 10
17.108420
 20
258.866780
 30
0.0
 11
14.440359
 21
260.773552
 31
0.0
  0
LINE
  5
395
100
AcDbEntity
  8
Layer_1
 62
5
100
AcDbLine
 10
14.440359
 20
260.773552
 30
0.0
 11
8.551908
 21
268.985042
 31
0.0
  0
LINE
  5
396
100
AcDbEntity
  8
Layer_1
 62
5
100
AcDbLine
 10
8.551908
 20
268.985042
 30
0.0
 11
11.287172
 21
273.722659
 31
0.0
  0
LINE
  5
397
100
AcDbEntity
  8
Layer_1
 62
5
100
AcDbLine
 10
11.287172
 20
273.722659
 30
0.0
 11
21.342758
 21
272.728853
 31
0.0
  0
LINE
  5
398
100
AcDbEntity
  8
Layer_1
 62
5
100
AcDbLine
 10
21.342758
 20
272.728853
 30
0.0
 11
24.328102
 21
271.371635
 31
0.0
  0
LINE
  5
399
100
AcDbEntity
  8
Layer_1
 62
5
100
AcDbLine
 10
24.328102
 20
271.371635
 30
0.0
 11
28.738725
 21
267.881579
 31
0.0
  0
LINE
  5
39a
100
AcDbEntity
  8
Layer_1
 62
5
100
AcDbLine
 10
28.738725
 20
267.881579
 30
0.0
 11
35.951501
 21
275.094355
 31
0.0
  0
LINE
  5
39b
100
AcDbEntity
  8
Layer_1
 62
5
100
AcDbLine
 10
35.951501
 20
275.094355
 30
0.0
 11
32.461445
 21
279.504977
 31
0.0
  0
LINE
  5
39c
100
AcDbEntity
  8
Layer_1
 62
5
100
AcDbLine
 10
32.461445
 20
279.504977
 30
0.0
 11
31.104227
 21
282.490321
 31
0.0
  0
LINE
  5
39d
100
AcDbEntity
  8
Layer_1
 62
5
100
AcDbLine
 10
31.104227
 20
282.490321
 30
0.0
 11
30.110421
 21
292.545908
 31
0.0
  0
LINE
  5
39e
100
AcDbEntity
  8
Layer_1
 62
5
100
AcDbLine
 10
30.110421
 20
292.545908
 30
0.0
 11
34.848037
 21
295.281172
 31
0.0
  0
LINE
  5
39f
100
AcDbEntity
  8
Layer_1
 62
5
100
AcDbLine
 10
34.848037
 20
295.281172
 30
0.0
 11
43.059527
 21
289.392721
 31
0.0
  0
LINE
  5
3a0
100
AcDbEntity
  8
Layer_1
 62
5
100
AcDbLine
 10
43.059527
 20
289.392721
 30
0.0
 11
44.966300
 21
286.724659
 31
0.0
  0
LINE
  5
3a1
100
AcDbEntity
  8
Layer_1
 62
5
100
AcDbLine
 10
44.966300
 20
286.724659
 30
0.0
 11
47.040989
 21
281.496871
 31
0.0
  0
LINE
  5
3a2
100
AcDbEntity
  8
Layer_1
 62
5
100
AcDbLine
 10
47.040989
 20
281.496871
 30
0.0
 11
56.893818
 21
284.136930
 31
0.0
  0
LINE
  5
3a3
100
AcDbEntity
  8
Layer_1
 62
5
100
AcDbLine
 10
56.893818
 20
284.136930
 30
0.0
 11
56.076658
 21
289.701669
 31
0.0
  0
LINE
  5
3a4
100
AcDbEntity
  8
Layer_1
 62
5
100
AcDbLine
 10
56.076658
 20
289.701669
 30
0.0
 11
56.393938
 21
292.965662
 31
0.0
  0
LINE
  5
3a5
100
AcDbEntity
  8
Layer_1
 62
5
100
AcDbLine
 10
56.393938
 20
292.965662
 30
0.0
 11
60.561073
 21
302.170959
 31
0.0
  0
LINE
  5
3a6
100
AcDbEntity
  8
Layer_1
 62
5
100
AcDbLine
 10
60.561073
 20
302.170959
 30
0.0
 11
66.031601
 21
302.170959
 31
0.0
  0
LINE
  5
3a7
100
AcDbEntity
  8
Layer_1
 62
5
100
AcDbLine
 10
66.031601
 20
302.170959
 30
0.0
 11
70.198736
 21
292.965662
 31
0.0
  0
LINE
  5
3a8
100
AcDbEntity
  8
Layer_1
 62
5
100
AcDbLine
 10
70.198736
 20
292.965662
 30
0.0
 11
70.516016
 21
289.701669
 31
0.0
  0
LINE
  5
3a9
100
AcDbEntity
  8
Layer_1
 62
5
100
AcDbLine
 10
70.516016
 20
289.701669
 30
0.0
 11
69.698856
 21
284.136930
 31
0.0
  0
LINE
  5
3aa
100
AcDbEntity
  8
Layer_1
 62
5
100
AcDbLine
 10
69.698856
 20
284.136930
 30
0.0
 11
79.551686
 21
281.496871
 31
0.0
  0
LINE
  5
3ab
100
AcDbEntity
  8
Layer_1
 62
5
100
AcDbLine
 10
79.551686
 20
281.496871
 30
0.0
 11
81.626375
 21
286.724659
 31
0.0
  0
LINE
  5
3ac
100
AcDbEntity
  8
Layer_1
 62
5
100
AcDbLine
 10
81.626375
 20
286.724659
 30
0.0
 11
83.533147
 21
289.392721
 31
0.0
  0
LINE
  5
3ad
100
AcDbEntity
  8
Layer_1
 62
5
100
AcDbLine
 10
83.533147
 20
289.392721
 30
0.0
 11
91.744637
 21
295.281172
 31
0.0
  0
LINE
  5
3ae
100
AcDbEntity
  8
Layer_1
 62
5
100
AcDbLine
 10
91.744637
 20
295.281172
 30
0.0
 11
96.482254
 21
292.545908
 31
0.0
  0
LINE
  5
3af
100
AcDbEntity
  8
Layer_1
 62
5
100
AcDbLine
 10
96.482254
 20
292.545908
 30
0.0
 11
95.488447
 21
282.490321
 31
0.0
  0
LINE
  5
3b0
100
AcDbEntity
  8
Layer_1
 62
5
100
AcDbLine
 10
95.488447
 20
282.490321
 30
0.0
 11
94.131229
 21
279.504977
 31
0.0
  0
LINE
  5
3b1
100
AcDbEntity
  8
Layer_1
 62
5
100
AcDbLine
 10
94.131229
 20
279.504977
 30
0.0
 11
90.641173
 21
275.094355
 31
0.0
  0
LINE
  5
3b2
100
AcDbEntity
  8
Layer_1
 62
5
100
AcDbLine
 10
90.641173
 20
275.094355
 30
0.0
 11
97.853950
 21
267.881579
 31
0.0
  0
LINE
  5
3b3
100
AcDbEntity
  8
Layer_1
 62
5
100
AcDbLine
 10
97.853950
 20
267.881579
 30
0.0
 11
102.264572
 21
271.371635
 31
0.0
  0
LINE
  5
3b4
100
AcDbEntity
  8
Layer_1
 62
5
100
AcDbLine
 10
102.264572
 20
271.371635
 30
0.0
 11
105.249913
 21
272.728853
 31
0.0
  0
LINE
  5
3b5
100
AcDbEntity
  8
Layer_1
 62
5
100
AcDbLine
 10
105.249913
 20
272.728853
 30
0.0
 11
115.305491
 21
273.722659
 31
0.0
  0
LINE
  5
3b6
100
AcDbEntity
  8
Layer_1
 62
5
100
AcDbLine
 10
115.305491
 20
273.722659
 30
0.0
 11
118.040761
 21
268.985042
 31
0.0
  0
LINE
  5
3b7
100
AcDbEntity
  8
Layer_1
 62
5
100
AcDbLine
 10
118.040761
 20
268.985042
 30
0.0
 11
112.152307
 21
260.773552
 31
0.0
  0
LINE
  5
3b8
100
AcDbEntity
  8
Layer_1
 62
5
100
AcDbLine
 10
112.152307
 20
260.773552
 30
0.0
 11
109.484263
 21
258.866780
 31
0.0
  0
LINE
  5
3b9
100
AcDbEntity
  8
Layer_1
 62
5
100
AcDbLine
 10
109.484263
 20
258.866780
 30
0.0
 11
104.256466
 21
256.792091
 31
0.0
  0
LINE
  5
3ba
100
AcDbEntity
  8
Layer_1
 62
5
100
AcDbLine
 10
104.256466
 20
256.792091
 30
0.0
 11
106.896539
 21
246.939261
 31
0.0
  0
LINE
  5
3bb
100
AcDbEntity
  8
Layer_1
 62
1
100
AcDbLine
 10
64.797474
 20
270.465196
 30
0.0
 11
64.797474
 21
260.465190
 31
0.0
  0
LINE
  5
3bc
100
AcDbEntity
  8
Layer_1
 62
1
100
AcDbLine
 10
64.797474
 20
260.465190
 30
0.0
 11
61.797480
 21
260.465190
 31
0.0
  0
LINE
  5
3bd
100
AcDbEntity
  8
Layer_1
 62
1
100
AcDbLine
 10
61.797480
 20
260.465190
 30
0.0
 11
61.797480
 21
270.465196
 31
0.0
  0
LINE
  5
3be
100
AcDbEntity
  8
Layer_1
 62
1
100
AcDbLine
 10
61.797480
 20
270.465196
 30
0.0
 11
64.797474
 21
270.465196
 31
0.0
  0
LINE
  5
3bf
100
AcDbEntity
  8
Layer_1
 62
1
100
AcDbLine
 10
61.797641
 20
250.465066
 30
0.0
 11
61.797641
 21
242.035331
 31
0.0
  0
LINE
  5
3c0
100
AcDbEntity
  8
Layer_1
 62
1
100
AcDbLine
 10
61.797641
 20
242.035331
 30
0.0
 11
53.302862
 21
242.035331
 31
0.0
  0
LINE
  5
3c1
100
AcDbEntity
  8
Layer_1
 62
1
100
AcDbLine
 10
53.302862
 20
242.035331
 30
0.0
 11
53.302862
 21
239.035619
 31
0.0
  0
LINE
  5
3c2
100
AcDbEntity
  8
Layer_1
 62
1
100
AcDbLine
 10
53.302862
 20
239.035619
 30
0.0
 11
61.797641
 21
239.035619
 31
0.0
  0
LINE
  5
3c3
100
AcDbEntity
  8
Layer_1
 62
1
100
AcDbLine
 10
61.797641
 20
239.035619
 30
0.0
 11
61.797641
 21
230.478551
 31
0.0
  0
LINE
  5
3c4
100
AcDbEntity
  8
Layer_1
 62
1
100
AcDbLine
 10
61.797641
 20
230.478551
 30
0.0
 11
64.797353
 21
230.478551
 31
0.0
  0
LINE
  5
3c5
100
AcDbEntity
  8
Layer_1
 62
1
100
AcDbLine
 10
64.797353
 20
230.478551
 30
0.0
 11
64.797353
 21
239.035619
 31
0.0
  0
LINE
  5
3c6
100
AcDbEntity
  8
Layer_1
 62
1
100
AcDbLine
 10
64.797353
 20
239.035619
 30
0.0
 11
73.289377
 21
239.035619
 31
0.0
  0
LINE
  5
3c7
100
AcDbEntity
  8
Layer_1
 62
1
100
AcDbLine
 10
73.289377
 20
239.035619
 30
0.0
 11
73.289377
 21
242.035331
 31
0.0
  0
LINE
  5
3c8
100
AcDbEntity
  8
Layer_1
 62
1
100
AcDbLine
 10
73.289377
 20
242.035331
 30
0.0
 11
64.797353
 21
242.035331
 31
0.0
  0
LINE
  5
3c9
100
AcDbEntity
  8
Layer_1
 62
1
100
AcDbLine
 10
64.797353
 20
242.035331
 30
0.0
 11
64.797353
 21
250.465066
 31
0.0
  0
LINE
  5
3ca
100
AcDbEntity
  8
Layer_1
 62
1
100
AcDbLine
 10
64.797353
 20
250.465066
 30
0.0
 11
61.797641
 21
250.465066
 31
0.0
  0
LINE
  5
3cb
100
AcDbEntity
  8
Layer_1
 62
1
100
AcDbLine
 10
61.797641
 20
250.465066
 30
0.0
 11
61.797641
 21
250.465066
 31
0.0
  0
SPLINE
  5
3cc
100
AcDbEntity
  8
Layer_1
 62
1
100
AcDbSpline
 70
8
 71
3
 72
8
 73
4
 74
0
 40
0
 40
0
 40
0
 40
0
 40
1
 40
1
 40
1
 40
1
 10
63.296343
 20
253.915233
 30
0.0
 10
62.885257
 20
253.915233
 30
0.0
 10
62.491008
 20
254.078536
 30
0.0
 10
62.200326
 20
254.369217
 30
0.0
  0
SPLINE
  5
3cd
100
AcDbEntity
  8
Layer_1
 62
1
100
AcDbSpline
 70
8
 71
3
 72
8
 73
4
 74
0
 40
0
 40
0
 40
0
 40
0
 40
1
 40
1
 40
1
 40
1
 10
62.200326
 20
254.369217
 30
0.0
 10
61.909644
 20
254.659899
 30
0.0
 10
61.746341
 20
255.054148
 30
0.0
 10
61.746342
 20
255.465234
 30
0.0
  0
SPLINE
  5
3ce
100
AcDbEntity
  8
Layer_1
 62
1
100
AcDbSpline
 70
8
 71
3
 72
8
 73
4
 74
0
 40
0
 40
0
 40
0
 40
0
 40
1
 40
1
 40
1
 40
1
 10
61.746342
 20
255.465234
 30
0.0
 10
61.746342
 20
255.876320
 30
0.0
 10
61.909645
 20
256.270568
 30
0.0
 10
62.200327
 20
256.561249
 30
0.0
  0
SPLINE
  5
3cf
100
AcDbEntity
  8
Layer_1
 62
1
100
AcDbSpline
 70
8
 71
3
 72
8
 73
4
 74
0
 40
0
 40
0
 40
0
 40
0
 40
1
 40
1
 40
1
 40
1
 10
62.200327
 20
256.561249
 30
0.0
 10
62.491009
 20
256.851930
 30
0.0
 10
62.885257
 20
257.015233
 30
0.0
 10
63.296343
 20
257.015233
 30
0.0
  0
SPLINE
  5
3d0
100
AcDbEntity
  8
Layer_1
 62
1
100
AcDbSpline
 70
8
 71
3
 72
8
 73
4
 74
0
 40
0
 40
0
 40
0
 40
0
 40
1
 40
1
 40
1
 40
1
 10
63.296343
 20
257.015233
 30
0.0
 10
64.152383
 20
257.015232
 30
0.0
 10
64.846340
 20
256.321274
 30
0.0
 10
64.846341
 20
255.465234
 30
0.0
  0
SPLINE
  5
3d1
100
AcDbEntity
  8
Layer_1
 62
1
100
AcDbSpline
 70
8
 71
3
 72
8
 73
4
 74
0
 40
0
 40
0
 40
0
 40
0
 40
1
 40
1
 40
1
 40
1
 10
64.846341
 20
255.465234
 30
0.0
 10
64.846342
 20
255.054149
 30
0.0
 10
64.683039
 20
254.659900
 30
0.0
 10
64.392358
 20
254.369218
 30
0.0
  0
SPLINE
  5
3d2
100
AcDbEntity
  8
Layer_1
 62
1
100
AcDbSpline
 70
8
 71
3
 72
8
 73
4
 74
0
 40
0
 40
0
 40
0
 40
0
 40
1
 40
1
 40
1
 40
1
 10
64.392358
 20
254.369218
 30
0.0
 10
64.101677
 20
254.078537
 30
0.0
 10
63.707428
 20
253.915233
 30
0.0
 10
63.296343
 20
253.915233
 30
0.0
  0
LINE
  5
3d3
100
AcDbEntity
  8
Layer_1
 62
1
100
AcDbLine
 10
63.296343
 20
253.915233
 30
0.0
 11
63.296343
 21
253.915233
 31
0.0
  0
LINE
  5
3d4
100
AcDbEntity
  8
Layer_1
 62
1
100
AcDbLine
 10
64.797474
 20
220.478686
 30
0.0
 11
64.797474
 21
210.478681
 31
0.0
  0
LINE
  5
3d5
100
AcDbEntity
  8
Layer_1
 62
1
100
AcDbLine
 10
64.797474
 20
210.478681
 30
0.0
 11
61.797480
 21
210.478681
 31
0.0
  0
LINE
  5
3d6
100
AcDbEntity
  8
Layer_1
 62
1
100
AcDbLine
 10
61.797480
 20
210.478681
 30
0.0
 11
61.797480
 21
220.478686
 31
0.0
  0
LINE
  5
3d7
100
AcDbEntity
  8
Layer_1
 62
1
100
AcDbLine
 10
61.797480
 20
220.478686
 30
0.0
 11
64.797474
 21
220.478686
 31
0.0
  0
SPLINE
  5
3d8
100
AcDbEntity
  8
Layer_1
 62
1
100
AcDbSpline
 70
8
 71
3
 72
8
 73
4
 74
0
 40
0
 40
0
 40
0
 40
0
 40
1
 40
1
 40
1
 40
1
 10
63.296343
 20
223.928675
 30
0.0
 10
62.885257
 20
223.928675
 30
0.0
 10
62.491009
 20
224.091977
 30
0.0
 10
62.200327
 20
224.382659
 30
0.0
  0
SPLINE
  5
3d9
100
AcDbEntity
  8
Layer_1
 62
1
100
AcDbSpline
 70
8
 71
3
 72
8
 73
4
 74
0
 40
0
 40
0
 40
0
 40
0
 40
1
 40
1
 40
1
 40
1
 10
62.200327
 20
224.382659
 30
0.0
 10
61.909645
 20
224.673340
 30
0.0
 10
61.746342
 20
225.067588
 30
0.0
 10
61.746342
 20
225.478674
 30
0.0
  0
SPLINE
  5
3da
100
AcDbEntity
  8
Layer_1
 62
1
100
AcDbSpline
 70
8
 71
3
 72
8
 73
4
 74
0
 40
0
 40
0
 40
0
 40
0
 40
1
 40
1
 40
1
 40
1
 10
61.746342
 20
225.478674
 30
0.0
 10
61.746342
 20
225.889759
 30
0.0
 10
61.909645
 20
226.284007
 30
0.0
 10
62.200327
 20
226.574689
 30
0.0
  0
SPLINE
  5
3db
100
AcDbEntity
  8
Layer_1
 62
1
100
AcDbSpline
 70
8
 71
3
 72
8
 73
4
 74
0
 40
0
 40
0
 40
0
 40
0
 40
1
 40
1
 40
1
 40
1
 10
62.200327
 20
226.574689
 30
0.0
 10
62.491009
 20
226.865370
 30
0.0
 10
62.885257
 20
227.028672
 30
0.0
 10
63.296343
 20
227.028672
 30
0.0
  0
SPLINE
  5
3dc
100
AcDbEntity
  8
Layer_1
 62
1
100
AcDbSpline
 70
8
 71
3
 72
8
 73
4
 74
0
 40
0
 40
0
 40
0
 40
0
 40
1
 40
1
 40
1
 40
1
 10
63.296343
 20
227.028672
 30
0.0
 10
64.152383
 20
227.028671
 30
0.0
 10
64.846340
 20
226.334714
 30
0.0
 10
64.846341
 20
225.478674
 30
0.0
  0
SPLINE
  5
3dd
100
AcDbEntity
  8
Layer_1
 62
1
100
AcDbSpline
 70
8
 71
3
 72
8
 73
4
 74
0
 40
0
 40
0
 40
0
 40
0
 40
1
 40
1
 40
1
 40
1
 10
64.846341
 20
225.478674
 30
0.0
 10
64.846340
 20
224.622633
 30
0.0
 10
64.152383
 20
223.928676
 30
0.0
 10
63.296343
 20
223.928675
 30
0.0
  0
LINE
  5
3de
100
AcDbEntity
  8
Layer_1
 62
1
100
AcDbLine
 10
63.296343
 20
223.928675
 30
0.0
 11
63.296343
 21
223.928675
 31
0.0
  0
LINE
  5
3df
100
AcDbEntity
  8
Layer_1
 62
1
100
AcDbLine
 10
93.289575
 20
239.035608
 30
0.0
 11
83.289569
 21
239.035608
 31
0.0
  0
LINE
  5
3e0
100
AcDbEntity
  8
Layer_1
 62
1
100
AcDbLine
 10
83.289569
 20
239.035608
 30
0.0
 11
83.289569
 21
242.035602
 31
0.0
  0
LINE
  5
3e1
100
AcDbEntity
  8
Layer_1
 62
1
100
AcDbLine
 10
83.289569
 20
242.035602
 30
0.0
 11
93.289575
 21
242.035602
 31
0.0
  0
LINE
  5
3e2
100
AcDbEntity
  8
Layer_1
 62
1
100
AcDbLine
 10
93.289575
 20
242.035602
 30
0.0
 11
93.289575
 21
239.035608
 31
0.0
  0
SPLINE
  5
3e3
100
AcDbEntity
  8
Layer_1
 62
1
100
AcDbSpline
 70
8
 71
3
 72
8
 73
4
 74
0
 40
0
 40
0
 40
0
 40
0
 40
1
 40
1
 40
1
 40
1
 10
76.739612
 20
240.536739
 30
0.0
 10
76.739612
 20
240.947825
 30
0.0
 10
76.902915
 20
241.342075
 30
0.0
 10
77.193596
 20
241.632756
 30
0.0
  0
SPLINE
  5
3e4
100
AcDbEntity
  8
Layer_1
 62
1
100
AcDbSpline
 70
8
 71
3
 72
8
 73
4
 74
0
 40
0
 40
0
 40
0
 40
0
 40
1
 40
1
 40
1
 40
1
 10
77.193596
 20
241.632756
 30
0.0
 10
77.484278
 20
241.923438
 30
0.0
 10
77.878527
 20
242.086741
 30
0.0
 10
78.289613
 20
242.086741
 30
0.0
  0
SPLINE
  5
3e5
100
AcDbEntity
  8
Layer_1
 62
1
100
AcDbSpline
 70
8
 71
3
 72
8
 73
4
 74
0
 40
0
 40
0
 40
0
 40
0
 40
1
 40
1
 40
1
 40
1
 10
78.289613
 20
242.086741
 30
0.0
 10
78.700699
 20
242.086740
 30
0.0
 10
79.094947
 20
241.923437
 30
0.0
 10
79.385628
 20
241.632755
 30
0.0
  0
SPLINE
  5
3e6
100
AcDbEntity
  8
Layer_1
 62
1
100
AcDbSpline
 70
8
 71
3
 72
8
 73
4
 74
0
 40
0
 40
0
 40
0
 40
0
 40
1
 40
1
 40
1
 40
1
 10
79.385628
 20
241.632755
 30
0.0
 10
79.676309
 20
241.342074
 30
0.0
 10
79.839612
 20
240.947825
 30
0.0
 10
79.839612
 20
240.536739
 30
0.0
  0
SPLINE
  5
3e7
100
AcDbEntity
  8
Layer_1
 62
1
100
AcDbSpline
 70
8
 71
3
 72
8
 73
4
 74
0
 40
0
 40
0
 40
0
 40
0
 40
1
 40
1
 40
1
 40
1
 10
79.839612
 20
240.536739
 30
0.0
 10
79.839611
 20
239.680699
 30
0.0
 10
79.145653
 20
238.986742
 30
0.0
 10
78.289613
 20
238.986741
 30
0.0
  0
SPLINE
  5
3e8
100
AcDbEntity
  8
Layer_1
 62
1
100
AcDbSpline
 70
8
 71
3
 72
8
 73
4
 74
0
 40
0
 40
0
 40
0
 40
0
 40
1
 40
1
 40
1
 40
1
 10
78.289613
 20
238.986741
 30
0.0
 10
77.878528
 20
238.986741
 30
0.0
 10
77.484279
 20
239.150043
 30
0.0
 10
77.193597
 20
239.440724
 30
0.0
  0
SPLINE
  5
3e9
100
AcDbEntity
  8
Layer_1
 62
1
100
AcDbSpline
 70
8
 71
3
 72
8
 73
4
 74
0
 40
0
 40
0
 40
0
 40
0
 40
1
 40
1
 40
1
 40
1
 10
77.193597
 20
239.440724
 30
0.0
 10
76.902916
 20
239.731405
 30
0.0
 10
76.739612
 20
240.125654
 30
0.0
 10
76.739612
 20
240.536739
 30
0.0
  0
LINE
  5
3ea
100
AcDbEntity
  8
Layer_1
 62
1
100
AcDbLine
 10
76.739612
 20
240.536739
 30
0.0
 11
76.739612
 21
240.536739
 31
0.0
  0
LINE
  5
3eb
100
AcDbEntity
  8
Layer_1
 62
1
100
AcDbLine
 10
43.303065
 20
239.035608
 30
0.0
 11
33.303060
 21
239.035608
 31
0.0
  0
LINE
  5
3ec
100
AcDbEntity
  8
Layer_1
 62
1
100
AcDbLine
 10
33.303060
 20
239.035608
 30
0.0
 11
33.303060
 21
242.035602
 31
0.0
  0
LINE
  5
3ed
100
AcDbEntity
  8
Layer_1
 62
1
100
AcDbLine
 10
33.303060
 20
242.035602
 30
0.0
 11
43.303065
 21
242.035602
 31
0.0
  0
LINE
  5
3ee
100
AcDbEntity
  8
Layer_1
 62
1
100
AcDbLine
 10
43.303065
 20
242.035602
 30
0.0
 11
43.303065
 21
239.035608
 31
0.0
  0
SPLINE
  5
3ef
100
AcDbEntity
  8
Layer_1
 62
1
100
AcDbSpline
 70
8
 71
3
 72
8
 73
4
 74
0
 40
0
 40
0
 40
0
 40
0
 40
1
 40
1
 40
1
 40
1
 10
46.753054
 20
240.536739
 30
0.0
 10
46.753054
 20
240.947825
 30
0.0
 10
46.916356
 20
241.342074
 30
0.0
 10
47.207038
 20
241.632755
 30
0.0
  0
SPLINE
  5
3f0
100
AcDbEntity
  8
Layer_1
 62
1
100
AcDbSpline
 70
8
 71
3
 72
8
 73
4
 74
0
 40
0
 40
0
 40
0
 40
0
 40
1
 40
1
 40
1
 40
1
 10
47.207038
 20
241.632755
 30
0.0
 10
47.497719
 20
241.923437
 30
0.0
 10
47.891967
 20
242.086740
 30
0.0
 10
48.303053
 20
242.086741
 30
0.0
  0
SPLINE
  5
3f1
100
AcDbEntity
  8
Layer_1
 62
1
100
AcDbSpline
 70
8
 71
3
 72
8
 73
4
 74
0
 40
0
 40
0
 40
0
 40
0
 40
1
 40
1
 40
1
 40
1
 10
48.303053
 20
242.086741
 30
0.0
 10
48.714138
 20
242.086740
 30
0.0
 10
49.108386
 20
241.923437
 30
0.0
 10
49.399068
 20
241.632755
 30
0.0
  0
SPLINE
  5
3f2
100
AcDbEntity
  8
Layer_1
 62
1
100
AcDbSpline
 70
8
 71
3
 72
8
 73
4
 74
0
 40
0
 40
0
 40
0
 40
0
 40
1
 40
1
 40
1
 40
1
 10
49.399068
 20
241.632755
 30
0.0
 10
49.689749
 20
241.342074
 30
0.0
 10
49.853051
 20
240.947825
 30
0.0
 10
49.853051
 20
240.536739
 30
0.0
  0
SPLINE
  5
3f3
100
AcDbEntity
  8
Layer_1
 62
1
100
AcDbSpline
 70
8
 71
3
 72
8
 73
4
 74
0
 40
0
 40
0
 40
0
 40
0
 40
1
 40
1
 40
1
 40
1
 10
49.853051
 20
240.536739
 30
0.0
 10
49.853050
 20
239.680699
 30
0.0
 10
49.159093
 20
238.986742
 30
0.0
 10
48.303053
 20
238.986741
 30
0.0
  0
SPLINE
  5
3f4
100
AcDbEntity
  8
Layer_1
 62
1
100
AcDbSpline
 70
8
 71
3
 72
8
 73
4
 74
0
 40
0
 40
0
 40
0
 40
0
 40
1
 40
1
 40
1
 40
1
 10
48.303053
 20
238.986741
 30
0.0
 10
47.447012
 20
238.986742
 30
0.0
 10
46.753055
 20
239.680699
 30
0.0
 10
46.753054
 20
240.536739
 30
0.0
  0
LINE
  5
3f5
100
AcDbEntity
  8
Layer_1
 62
1
100
AcDbLine
 10
46.753054
 20
240.536739
 30
0.0
 11
46.753054
 21
240.536739
 31
0.0
  0
SPLINE
  5
3f6
100
AcDbEntity
  8
Layer_1
 62
3
100
AcDbSpline
 70
8
 71
3
 72
8
 73
4
 74
0
 40
0
 40
0
 40
0
 40
0
 40
1
 40
1
 40
1
 40
1
 10
152.205039
 20
212.696432
 30
0.0
 10
152.244550
 20
212.668202
 30
0.0
 10
152.281248
 20
212.637150
 30
0.0
 10
152.315134
 20
212.603276
 30
0.0
  0
SPLINE
  5
3f7
100
AcDbEntity
  8
Layer_1
 62
3
100
AcDbSpline
 70
8
 71
3
 72
8
 73
4
 74
0
 40
0
 40
0
 40
0
 40
0
 40
1
 40
1
 40
1
 40
1
 10
152.315134
 20
212.603276
 30
0.0
 10
152.354645
 20
212.569400
 30
0.0
 10
152.394165
 20
212.535524
 30
0.0
 10
152.433695
 20
212.501650
 30
0.0
  0
SPLINE
  5
3f8
100
AcDbEntity
  8
Layer_1
 62
3
100
AcDbSpline
 70
8
 71
3
 72
8
 73
4
 74
0
 40
0
 40
0
 40
0
 40
0
 40
1
 40
1
 40
1
 40
1
 10
152.433695
 20
212.501650
 30
0.0
 10
152.631289
 20
212.304046
 30
0.0
 10
152.783726
 20
212.075388
 30
0.0
 10
152.891008
 20
211.815678
 30
0.0
  0
SPLINE
  5
3f9
100
AcDbEntity
  8
Layer_1
 62
3
100
AcDbSpline
 70
8
 71
3
 72
8
 73
4
 74
0
 40
0
 40
0
 40
0
 40
0
 40
1
 40
1
 40
1
 40
1
 10
152.891008
 20
211.815678
 30
0.0
 10
152.998272
 20
211.561614
 30
0.0
 10
153.051903
 20
211.290613
 30
0.0
 10
153.051903
 20
211.002675
 30
0.0
  0
LINE
  5
3fa
100
AcDbEntity
  8
Layer_1
 62
3
100
AcDbLine
 10
153.051903
 20
211.002675
 30
0.0
 11
153.051903
 21
210.155796
 31
0.0
  0
SPLINE
  5
3fb
100
AcDbEntity
  8
Layer_1
 62
3
100
AcDbSpline
 70
8
 71
3
 72
8
 73
4
 74
0
 40
0
 40
0
 40
0
 40
0
 40
1
 40
1
 40
1
 40
1
 10
153.051903
 20
210.155796
 30
0.0
 10
153.051903
 20
209.867858
 30
0.0
 10
152.998272
 20
209.594034
 30
0.0
 10
152.891008
 20
209.334324
 30
0.0
  0
SPLINE
  5
3fc
100
AcDbEntity
  8
Layer_1
 62
3
100
AcDbSpline
 70
8
 71
3
 72
8
 73
4
 74
0
 40
0
 40
0
 40
0
 40
0
 40
1
 40
1
 40
1
 40
1
 10
152.891008
 20
209.334324
 30
0.0
 10
152.783726
 20
209.080262
 30
0.0
 10
152.631289
 20
208.854427
 30
0.0
 10
152.433695
 20
208.656821
 30
0.0
  0
SPLINE
  5
3fd
100
AcDbEntity
  8
Layer_1
 62
3
100
AcDbSpline
 70
8
 71
3
 72
8
 73
4
 74
0
 40
0
 40
0
 40
0
 40
0
 40
1
 40
1
 40
1
 40
1
 10
152.433695
 20
208.656821
 30
0.0
 10
152.236083
 20
208.459217
 30
0.0
 10
152.007427
 20
208.306779
 30
0.0
 10
151.747726
 20
208.199508
 30
0.0
  0
SPLINE
  5
3fe
100
AcDbEntity
  8
Layer_1
 62
3
100
AcDbSpline
 70
8
 71
3
 72
8
 73
4
 74
0
 40
0
 40
0
 40
0
 40
0
 40
1
 40
1
 40
1
 40
1
 10
151.747726
 20
208.199508
 30
0.0
 10
151.493651
 20
208.092237
 30
0.0
 10
151.222642
 20
208.038602
 30
0.0
 10
150.934700
 20
208.038602
 30
0.0
  0
LINE
  5
3ff
100
AcDbEntity
  8
Layer_1
 62
3
100
AcDbLine
 10
150.934700
 20
208.038602
 30
0.0
 11
149.240944
 21
208.038602
 31
0.0
  0
SPLINE
  5
400
100
AcDbEntity
  8
Layer_1
 62
3
100
AcDbSpline
 70
8
 71
3
 72
8
 73
4
 74
0
 40
0
 40
0
 40
0
 40
0
 40
1
 40
1
 40
1
 40
1
 10
149.240944
 20
208.038602
 30
0.0
 10
149.122391
 20
208.038602
 30
0.0
 10
149.020773
 20
208.078123
 30
0.0
 10
148.936087
 20
208.157164
 30
0.0
  0
SPLINE
  5
401
100
AcDbEntity
  8
Layer_1
 62
3
100
AcDbSpline
 70
8
 71
3
 72
8
 73
4
 74
0
 40
0
 40
0
 40
0
 40
0
 40
1
 40
1
 40
1
 40
1
 10
148.936087
 20
208.157164
 30
0.0
 10
148.857046
 20
208.241851
 30
0.0
 10
148.817526
 20
208.343476
 30
0.0
 10
148.817526
 20
208.462040
 30
0.0
  0
SPLINE
  5
402
100
AcDbEntity
  8
Layer_1
 62
3
100
AcDbSpline
 70
8
 71
3
 72
8
 73
4
 74
0
 40
0
 40
0
 40
0
 40
0
 40
1
 40
1
 40
1
 40
1
 10
148.817526
 20
208.462040
 30
0.0
 10
148.817526
 20
208.580603
 30
0.0
 10
148.857046
 20
208.679405
 30
0.0
 10
148.936087
 20
208.758446
 30
0.0
  0
SPLINE
  5
403
100
AcDbEntity
  8
Layer_1
 62
3
100
AcDbSpline
 70
8
 71
3
 72
8
 73
4
 74
0
 40
0
 40
0
 40
0
 40
0
 40
1
 40
1
 40
1
 40
1
 10
148.936087
 20
208.758446
 30
0.0
 10
149.020773
 20
208.843136
 30
0.0
 10
149.122391
 20
208.885480
 30
0.0
 10
149.240944
 20
208.885480
 30
0.0
  0
LINE
  5
404
100
AcDbEntity
  8
Layer_1
 62
3
100
AcDbLine
 10
149.240944
 20
208.885480
 30
0.0
 11
150.934700
 21
208.885480
 31
0.0
  0
SPLINE
  5
405
100
AcDbEntity
  8
Layer_1
 62
3
100
AcDbSpline
 70
8
 71
3
 72
8
 73
4
 74
0
 40
0
 40
0
 40
0
 40
0
 40
1
 40
1
 40
1
 40
1
 10
150.934700
 20
208.885480
 30
0.0
 10
151.109734
 20
208.885480
 30
0.0
 10
151.273470
 20
208.919355
 30
0.0
 10
151.425908
 20
208.987106
 30
0.0
  0
SPLINE
  5
406
100
AcDbEntity
  8
Layer_1
 62
3
100
AcDbSpline
 70
8
 71
3
 72
8
 73
4
 74
0
 40
0
 40
0
 40
0
 40
0
 40
1
 40
1
 40
1
 40
1
 10
151.425908
 20
208.987106
 30
0.0
 10
151.583990
 20
209.054856
 30
0.0
 10
151.719485
 20
209.145190
 30
0.0
 10
151.832393
 20
209.258107
 30
0.0
  0
SPLINE
  5
407
100
AcDbEntity
  8
Layer_1
 62
3
100
AcDbSpline
 70
8
 71
3
 72
8
 73
4
 74
0
 40
0
 40
0
 40
0
 40
0
 40
1
 40
1
 40
1
 40
1
 10
151.832393
 20
209.258107
 30
0.0
 10
151.945319
 20
209.371024
 30
0.0
 10
152.035659
 20
209.503701
 30
0.0
 10
152.103411
 20
209.656139
 30
0.0
  0
SPLINE
  5
408
100
AcDbEntity
  8
Layer_1
 62
3
100
AcDbSpline
 70
8
 71
3
 72
8
 73
4
 74
0
 40
0
 40
0
 40
0
 40
0
 40
1
 40
1
 40
1
 40
1
 10
152.103411
 20
209.656139
 30
0.0
 10
152.171163
 20
209.814223
 30
0.0
 10
152.205039
 20
209.980775
 30
0.0
 10
152.205039
 20
210.155796
 30
0.0
  0
LINE
  5
409
100
AcDbEntity
  8
Layer_1
 62
3
100
AcDbLine
 10
152.205039
 20
210.155796
 30
0.0
 11
152.205039
 21
211.002675
 31
0.0
  0
SPLINE
  5
40a
100
AcDbEntity
  8
Layer_1
 62
3
100
AcDbSpline
 70
8
 71
3
 72
8
 73
4
 74
0
 40
0
 40
0
 40
0
 40
0
 40
1
 40
1
 40
1
 40
1
 10
152.205039
 20
211.002675
 30
0.0
 10
152.205039
 20
211.177696
 30
0.0
 10
152.171163
 20
211.341426
 30
0.0
 10
152.103411
 20
211.493866
 30
0.0
  0
SPLINE
  5
40b
100
AcDbEntity
  8
Layer_1
 62
3
100
AcDbSpline
 70
8
 71
3
 72
8
 73
4
 74
0
 40
0
 40
0
 40
0
 40
0
 40
1
 40
1
 40
1
 40
1
 10
152.103411
 20
211.493866
 30
0.0
 10
152.035659
 20
211.651950
 30
0.0
 10
151.945319
 20
211.787450
 30
0.0
 10
151.832393
 20
211.900367
 30
0.0
  0
SPLINE
  5
40c
100
AcDbEntity
  8
Layer_1
 62
3
100
AcDbSpline
 70
8
 71
3
 72
8
 73
4
 74
0
 40
0
 40
0
 40
0
 40
0
 40
1
 40
1
 40
1
 40
1
 10
151.832393
 20
211.900367
 30
0.0
 10
151.719485
 20
212.013284
 30
0.0
 10
151.583990
 20
212.103618
 30
0.0
 10
151.425908
 20
212.171368
 30
0.0
  0
SPLINE
  5
40d
100
AcDbEntity
  8
Layer_1
 62
3
100
AcDbSpline
 70
8
 71
3
 72
8
 73
4
 74
0
 40
0
 40
0
 40
0
 40
0
 40
1
 40
1
 40
1
 40
1
 10
151.425908
 20
212.171368
 30
0.0
 10
151.273470
 20
212.239119
 30
0.0
 10
151.109734
 20
212.272994
 30
0.0
 10
150.934700
 20
212.272994
 30
0.0
  0
LINE
  5
40e
100
AcDbEntity
  8
Layer_1
 62
3
100
AcDbLine
 10
150.934700
 20
212.272994
 30
0.0
 11
150.087836
 21
212.272994
 31
0.0
  0
SPLINE
  5
40f
100
AcDbEntity
  8
Layer_1
 62
3
100
AcDbSpline
 70
8
 71
3
 72
8
 73
4
 74
0
 40
0
 40
0
 40
0
 40
0
 40
1
 40
1
 40
1
 40
1
 10
150.087836
 20
212.272994
 30
0.0
 10
149.969265
 20
212.272994
 30
0.0
 10
149.867637
 20
212.312514
 30
0.0
 10
149.782951
 20
212.391555
 30
0.0
  0
SPLINE
  5
410
100
AcDbEntity
  8
Layer_1
 62
3
100
AcDbSpline
 70
8
 71
3
 72
8
 73
4
 74
0
 40
0
 40
0
 40
0
 40
0
 40
1
 40
1
 40
1
 40
1
 10
149.782951
 20
212.391555
 30
0.0
 10
149.703910
 20
212.476243
 30
0.0
 10
149.664390
 20
212.577868
 30
0.0
 10
149.664390
 20
212.696432
 30
0.0
  0
SPLINE
  5
411
100
AcDbEntity
  8
Layer_1
 62
3
100
AcDbSpline
 70
8
 71
3
 72
8
 73
4
 74
0
 40
0
 40
0
 40
0
 40
0
 40
1
 40
1
 40
1
 40
1
 10
149.664390
 20
212.696432
 30
0.0
 10
149.664390
 20
212.814995
 30
0.0
 10
149.703910
 20
212.913797
 30
0.0
 10
149.782951
 20
212.992838
 30
0.0
  0
SPLINE
  5
412
100
AcDbEntity
  8
Layer_1
 62
3
100
AcDbSpline
 70
8
 71
3
 72
8
 73
4
 74
0
 40
0
 40
0
 40
0
 40
0
 40
1
 40
1
 40
1
 40
1
 10
149.782951
 20
212.992838
 30
0.0
 10
149.867637
 20
213.077528
 30
0.0
 10
149.969265
 20
213.119872
 30
0.0
 10
150.087836
 20
213.119872
 30
0.0
  0
LINE
  5
413
100
AcDbEntity
  8
Layer_1
 62
3
100
AcDbLine
 10
150.087836
 20
213.119872
 30
0.0
 11
150.934700
 21
213.119872
 31
0.0
  0
SPLINE
  5
414
100
AcDbEntity
  8
Layer_1
 62
3
100
AcDbSpline
 70
8
 71
3
 72
8
 73
4
 74
0
 40
0
 40
0
 40
0
 40
0
 40
1
 40
1
 40
1
 40
1
 10
150.934700
 20
213.119872
 30
0.0
 10
151.109734
 20
213.119872
 30
0.0
 10
151.273470
 20
213.153747
 30
0.0
 10
151.425908
 20
213.221498
 30
0.0
  0
SPLINE
  5
415
100
AcDbEntity
  8
Layer_1
 62
3
100
AcDbSpline
 70
8
 71
3
 72
8
 73
4
 74
0
 40
0
 40
0
 40
0
 40
0
 40
1
 40
1
 40
1
 40
1
 10
151.425908
 20
213.221498
 30
0.0
 10
151.583990
 20
213.289248
 30
0.0
 10
151.719485
 20
213.379581
 30
0.0
 10
151.832393
 20
213.492499
 30
0.0
  0
SPLINE
  5
416
100
AcDbEntity
  8
Layer_1
 62
3
100
AcDbSpline
 70
8
 71
3
 72
8
 73
4
 74
0
 40
0
 40
0
 40
0
 40
0
 40
1
 40
1
 40
1
 40
1
 10
151.832393
 20
213.492499
 30
0.0
 10
151.945319
 20
213.605416
 30
0.0
 10
152.035659
 20
213.738093
 30
0.0
 10
152.103411
 20
213.890531
 30
0.0
  0
SPLINE
  5
417
100
AcDbEntity
  8
Layer_1
 62
3
100
AcDbSpline
 70
8
 71
3
 72
8
 73
4
 74
0
 40
0
 40
0
 40
0
 40
0
 40
1
 40
1
 40
1
 40
1
 10
152.103411
 20
213.890531
 30
0.0
 10
152.171163
 20
214.048615
 30
0.0
 10
152.205039
 20
214.215167
 30
0.0
 10
152.205039
 20
214.390188
 30
0.0
  0
SPLINE
  5
418
100
AcDbEntity
  8
Layer_1
 62
3
100
AcDbSpline
 70
8
 71
3
 72
8
 73
4
 74
0
 40
0
 40
0
 40
0
 40
0
 40
1
 40
1
 40
1
 40
1
 10
152.205039
 20
214.390188
 30
0.0
 10
152.205039
 20
214.565211
 30
0.0
 10
152.171163
 20
214.728941
 30
0.0
 10
152.103411
 20
214.881379
 30
0.0
  0
SPLINE
  5
419
100
AcDbEntity
  8
Layer_1
 62
3
100
AcDbSpline
 70
8
 71
3
 72
8
 73
4
 74
0
 40
0
 40
0
 40
0
 40
0
 40
1
 40
1
 40
1
 40
1
 10
152.103411
 20
214.881379
 30
0.0
 10
152.035659
 20
215.039463
 30
0.0
 10
151.945319
 20
215.174964
 30
0.0
 10
151.832393
 20
215.287881
 30
0.0
  0
SPLINE
  5
41a
100
AcDbEntity
  8
Layer_1
 62
3
100
AcDbSpline
 70
8
 71
3
 72
8
 73
4
 74
0
 40
0
 40
0
 40
0
 40
0
 40
1
 40
1
 40
1
 40
1
 10
151.832393
 20
215.287881
 30
0.0
 10
151.719485
 20
215.400798
 30
0.0
 10
151.583990
 20
215.491132
 30
0.0
 10
151.425908
 20
215.558882
 30
0.0
  0
SPLINE
  5
41b
100
AcDbEntity
  8
Layer_1
 62
3
100
AcDbSpline
 70
8
 71
3
 72
8
 73
4
 74
0
 40
0
 40
0
 40
0
 40
0
 40
1
 40
1
 40
1
 40
1
 10
151.425908
 20
215.558882
 30
0.0
 10
151.273470
 20
215.626632
 30
0.0
 10
151.109734
 20
215.660507
 30
0.0
 10
150.934700
 20
215.660507
 30
0.0
  0
LINE
  5
41c
100
AcDbEntity
  8
Layer_1
 62
3
100
AcDbLine
 10
150.934700
 20
215.660507
 30
0.0
 11
149.240944
 21
215.660507
 31
0.0
  0
SPLINE
  5
41d
100
AcDbEntity
  8
Layer_1
 62
3
100
AcDbSpline
 70
8
 71
3
 72
8
 73
4
 74
0
 40
0
 40
0
 40
0
 40
0
 40
1
 40
1
 40
1
 40
1
 10
149.240944
 20
215.660507
 30
0.0
 10
149.122391
 20
215.660507
 30
0.0
 10
149.020773
 20
215.700028
 30
0.0
 10
148.936087
 20
215.779069
 30
0.0
  0
SPLINE
  5
41e
100
AcDbEntity
  8
Layer_1
 62
3
100
AcDbSpline
 70
8
 71
3
 72
8
 73
4
 74
0
 40
0
 40
0
 40
0
 40
0
 40
1
 40
1
 40
1
 40
1
 10
148.936087
 20
215.779069
 30
0.0
 10
148.857046
 20
215.863758
 30
0.0
 10
148.817526
 20
215.965383
 30
0.0
 10
148.817526
 20
216.083945
 30
0.0
  0
SPLINE
  5
41f
100
AcDbEntity
  8
Layer_1
 62
3
100
AcDbSpline
 70
8
 71
3
 72
8
 73
4
 74
0
 40
0
 40
0
 40
0
 40
0
 40
1
 40
1
 40
1
 40
1
 10
148.817526
 20
216.083945
 30
0.0
 10
148.817526
 20
216.202508
 30
0.0
 10
148.857046
 20
216.301312
 30
0.0
 10
148.936087
 20
216.380354
 30
0.0
  0
SPLINE
  5
420
100
AcDbEntity
  8
Layer_1
 62
3
100
AcDbSpline
 70
8
 71
3
 72
8
 73
4
 74
0
 40
0
 40
0
 40
0
 40
0
 40
1
 40
1
 40
1
 40
1
 10
148.936087
 20
216.380354
 30
0.0
 10
149.020773
 20
216.465042
 30
0.0
 10
149.122391
 20
216.507386
 30
0.0
 10
149.240944
 20
216.507386
 30
0.0
  0
LINE
  5
421
100
AcDbEntity
  8
Layer_1
 62
3
100
AcDbLine
 10
149.240944
 20
216.507386
 30
0.0
 11
150.934700
 21
216.507386
 31
0.0
  0
SPLINE
  5
422
100
AcDbEntity
  8
Layer_1
 62
3
100
AcDbSpline
 70
8
 71
3
 72
8
 73
4
 74
0
 40
0
 40
0
 40
0
 40
0
 40
1
 40
1
 40
1
 40
1
 10
150.934700
 20
216.507386
 30
0.0
 10
151.222642
 20
216.507386
 30
0.0
 10
151.493651
 20
216.453750
 30
0.0
 10
151.747726
 20
216.346479
 30
0.0
  0
SPLINE
  5
423
100
AcDbEntity
  8
Layer_1
 62
3
100
AcDbSpline
 70
8
 71
3
 72
8
 73
4
 74
0
 40
0
 40
0
 40
0
 40
0
 40
1
 40
1
 40
1
 40
1
 10
151.747726
 20
216.346479
 30
0.0
 10
152.007427
 20
216.239207
 30
0.0
 10
152.236083
 20
216.086768
 30
0.0
 10
152.433695
 20
215.889164
 30
0.0
  0
SPLINE
  5
424
100
AcDbEntity
  8
Layer_1
 62
3
100
AcDbSpline
 70
8
 71
3
 72
8
 73
4
 74
0
 40
0
 40
0
 40
0
 40
0
 40
1
 40
1
 40
1
 40
1
 10
152.433695
 20
215.889164
 30
0.0
 10
152.631289
 20
215.691559
 30
0.0
 10
152.783726
 20
215.462902
 30
0.0
 10
152.891008
 20
215.203191
 30
0.0
  0
SPLINE
  5
425
100
AcDbEntity
  8
Layer_1
 62
3
100
AcDbSpline
 70
8
 71
3
 72
8
 73
4
 74
0
 40
0
 40
0
 40
0
 40
0
 40
1
 40
1
 40
1
 40
1
 10
152.891008
 20
215.203191
 30
0.0
 10
152.998272
 20
214.949129
 30
0.0
 10
153.051903
 20
214.678128
 30
0.0
 10
153.051903
 20
214.390188
 30
0.0
  0
SPLINE
  5
426
100
AcDbEntity
  8
Layer_1
 62
3
100
AcDbSpline
 70
8
 71
3
 72
8
 73
4
 74
0
 40
0
 40
0
 40
0
 40
0
 40
1
 40
1
 40
1
 40
1
 10
153.051903
 20
214.390188
 30
0.0
 10
153.051903
 20
214.102250
 30
0.0
 10
152.998272
 20
213.828427
 30
0.0
 10
152.891008
 20
213.568718
 30
0.0
  0
SPLINE
  5
427
100
AcDbEntity
  8
Layer_1
 62
3
100
AcDbSpline
 70
8
 71
3
 72
8
 73
4
 74
0
 40
0
 40
0
 40
0
 40
0
 40
1
 40
1
 40
1
 40
1
 10
152.891008
 20
213.568718
 30
0.0
 10
152.783726
 20
213.314654
 30
0.0
 10
152.631289
 20
213.088819
 30
0.0
 10
152.433695
 20
212.891213
 30
0.0
  0
SPLINE
  5
428
100
AcDbEntity
  8
Layer_1
 62
3
100
AcDbSpline
 70
8
 71
3
 72
8
 73
4
 74
0
 40
0
 40
0
 40
0
 40
0
 40
1
 40
1
 40
1
 40
1
 10
152.433695
 20
212.891213
 30
0.0
 10
152.394165
 20
212.857339
 30
0.0
 10
152.354645
 20
212.823464
 30
0.0
 10
152.315134
 20
212.789587
 30
0.0
  0
SPLINE
  5
429
100
AcDbEntity
  8
Layer_1
 62
3
100
AcDbSpline
 70
8
 71
3
 72
8
 73
4
 74
0
 40
0
 40
0
 40
0
 40
0
 40
1
 40
1
 40
1
 40
1
 10
152.315134
 20
212.789587
 30
0.0
 10
152.281248
 20
212.755713
 30
0.0
 10
152.244550
 20
212.724661
 30
0.0
 10
152.205039
 20
212.696432
 30
0.0
  0
LINE
  5
42a
100
AcDbEntity
  8
Layer_1
 62
3
100
AcDbLine
 10
152.205039
 20
212.696432
 30
0.0
 11
152.205039
 21
212.696432
 31
0.0
  0
LINE
  5
42b
100
AcDbEntity
  8
Layer_1
 62
5
100
AcDbLine
 10
206.379710
 20
203.085551
 30
0.0
 11
211.674278
 21
203.863037
 31
0.0
  0
LINE
  5
42c
100
AcDbEntity
  8
Layer_1
 62
5
100
AcDbLine
 10
211.674278
 20
203.863037
 30
0.0
 11
214.779795
 21
203.561160
 31
0.0
  0
LINE
  5
42d
100
AcDbEntity
  8
Layer_1
 62
5
100
AcDbLine
 10
214.779795
 20
203.561160
 30
0.0
 11
223.538166
 21
199.596347
 31
0.0
  0
LINE
  5
42e
100
AcDbEntity
  8
Layer_1
 62
5
100
AcDbLine
 10
223.538166
 20
199.596347
 30
0.0
 11
223.538166
 21
194.391419
 31
0.0
  0
LINE
  5
42f
100
AcDbEntity
  8
Layer_1
 62
5
100
AcDbLine
 10
223.538166
 20
194.391419
 30
0.0
 11
214.779795
 21
190.426606
 31
0.0
  0
LINE
  5
430
100
AcDbEntity
  8
Layer_1
 62
5
100
AcDbLine
 10
214.779795
 20
190.426606
 30
0.0
 11
211.674278
 21
190.124729
 31
0.0
  0
LINE
  5
431
100
AcDbEntity
  8
Layer_1
 62
5
100
AcDbLine
 10
211.674278
 20
190.124729
 30
0.0
 11
206.379710
 21
190.902215
 31
0.0
  0
LINE
  5
432
100
AcDbEntity
  8
Layer_1
 62
5
100
AcDbLine
 10
206.379710
 20
190.902215
 30
0.0
 11
203.867830
 21
181.527752
 31
0.0
  0
LINE
  5
433
100
AcDbEntity
  8
Layer_1
 62
5
100
AcDbLine
 10
203.867830
 20
181.527752
 30
0.0
 11
208.841811
 21
179.553791
 31
0.0
  0
LINE
  5
434
100
AcDbEntity
  8
Layer_1
 62
5
100
AcDbLine
 10
208.841811
 20
179.553791
 30
0.0
 11
211.380315
 21
177.739596
 31
0.0
  0
LINE
  5
435
100
AcDbEntity
  8
Layer_1
 62
5
100
AcDbLine
 10
211.380315
 20
177.739596
 30
0.0
 11
216.982878
 21
169.926782
 31
0.0
  0
LINE
  5
436
100
AcDbEntity
  8
Layer_1
 62
5
100
AcDbLine
 10
216.982878
 20
169.926782
 30
0.0
 11
214.380422
 21
165.419182
 31
0.0
  0
LINE
  5
437
100
AcDbEntity
  8
Layer_1
 62
5
100
AcDbLine
 10
214.380422
 20
165.419182
 30
0.0
 11
204.813046
 21
166.364739
 31
0.0
  0
LINE
  5
438
100
AcDbEntity
  8
Layer_1
 62
5
100
AcDbLine
 10
204.813046
 20
166.364739
 30
0.0
 11
201.972646
 21
167.656061
 31
0.0
  0
LINE
  5
439
100
AcDbEntity
  8
Layer_1
 62
5
100
AcDbLine
 10
201.972646
 20
167.656061
 30
0.0
 11
197.776162
 21
170.976671
 31
0.0
  0
LINE
  5
43a
100
AcDbEntity
  8
Layer_1
 62
5
100
AcDbLine
 10
197.776162
 20
170.976671
 30
0.0
 11
190.913576
 21
164.114085
 31
0.0
  0
LINE
  5
43b
100
AcDbEntity
  8
Layer_1
 62
5
100
AcDbLine
 10
190.913576
 20
164.114085
 30
0.0
 11
194.234186
 21
159.917601
 31
0.0
  0
LINE
  5
43c
100
AcDbEntity
  8
Layer_1
 62
5
100
AcDbLine
 10
194.234186
 20
159.917601
 30
0.0
 11
195.525508
 21
157.077201
 31
0.0
  0
LINE
  5
43d
100
AcDbEntity
  8
Layer_1
 62
5
100
AcDbLine
 10
195.525508
 20
157.077201
 30
0.0
 11
196.471065
 21
147.509825
 31
0.0
  0
LINE
  5
43e
100
AcDbEntity
  8
Layer_1
 62
5
100
AcDbLine
 10
196.471065
 20
147.509825
 30
0.0
 11
191.963465
 21
144.907360
 31
0.0
  0
LINE
  5
43f
100
AcDbEntity
  8
Layer_1
 62
5
100
AcDbLine
 10
191.963465
 20
144.907360
 30
0.0
 11
184.150651
 21
150.509923
 31
0.0
  0
LINE
  5
440
100
AcDbEntity
  8
Layer_1
 62
5
100
AcDbLine
 10
184.150651
 20
150.509923
 30
0.0
 11
182.336456
 21
153.048445
 31
0.0
  0
LINE
  5
441
100
AcDbEntity
  8
Layer_1
 62
5
100
AcDbLine
 10
182.336456
 20
153.048445
 30
0.0
 11
180.362495
 21
158.022417
 31
0.0
  0
LINE
  5
442
100
AcDbEntity
  8
Layer_1
 62
5
100
AcDbLine
 10
180.362495
 20
158.022417
 30
0.0
 11
170.988032
 21
155.510537
 31
0.0
  0
LINE
  5
443
100
AcDbEntity
  8
Layer_1
 62
5
100
AcDbLine
 10
170.988032
 20
155.510537
 30
0.0
 11
171.765517
 21
150.215972
 31
0.0
  0
LINE
  5
444
100
AcDbEntity
  8
Layer_1
 62
5
100
AcDbLine
 10
171.765517
 20
150.215972
 30
0.0
 11
171.463641
 21
147.110449
 31
0.0
  0
LINE
  5
445
100
AcDbEntity
  8
Layer_1
 62
5
100
AcDbLine
 10
171.463641
 20
147.110449
 30
0.0
 11
167.498828
 21
138.352083
 31
0.0
  0
LINE
  5
446
100
AcDbEntity
  8
Layer_1
 62
5
100
AcDbLine
 10
167.498828
 20
138.352083
 30
0.0
 11
162.293899
 21
138.352083
 31
0.0
  0
LINE
  5
447
100
AcDbEntity
  8
Layer_1
 62
5
100
AcDbLine
 10
162.293899
 20
138.352083
 30
0.0
 11
158.329086
 21
147.110449
 31
0.0
  0
LINE
  5
448
100
AcDbEntity
  8
Layer_1
 62
5
100
AcDbLine
 10
158.329086
 20
147.110449
 30
0.0
 11
158.027210
 21
150.215972
 31
0.0
  0
LINE
  5
449
100
AcDbEntity
  8
Layer_1
 62
5
100
AcDbLine
 10
158.027210
 20
150.215972
 30
0.0
 11
158.804696
 21
155.510537
 31
0.0
  0
LINE
  5
44a
100
AcDbEntity
  8
Layer_1
 62
5
100
AcDbLine
 10
158.804696
 20
155.510537
 30
0.0
 11
149.430233
 21
158.022417
 31
0.0
  0
LINE
  5
44b
100
AcDbEntity
  8
Layer_1
 62
5
100
AcDbLine
 10
149.430233
 20
158.022417
 30
0.0
 11
147.456272
 21
153.048445
 31
0.0
  0
LINE
  5
44c
100
AcDbEntity
  8
Layer_1
 62
5
100
AcDbLine
 10
147.456272
 20
153.048445
 30
0.0
 11
145.642077
 21
150.509923
 31
0.0
  0
LINE
  5
44d
100
AcDbEntity
  8
Layer_1
 62
5
100
AcDbLine
 10
145.642077
 20
150.509923
 30
0.0
 11
137.829262
 21
144.907360
 31
0.0
  0
LINE
  5
44e
100
AcDbEntity
  8
Layer_1
 62
5
100
AcDbLine
 10
137.829262
 20
144.907360
 30
0.0
 11
133.321663
 21
147.509825
 31
0.0
  0
LINE
  5
44f
100
AcDbEntity
  8
Layer_1
 62
5
100
AcDbLine
 10
133.321663
 20
147.509825
 30
0.0
 11
134.267220
 21
157.077201
 31
0.0
  0
LINE
  5
450
100
AcDbEntity
  8
Layer_1
 62
5
100
AcDbLine
 10
134.267220
 20
157.077201
 30
0.0
 11
135.558542
 21
159.917601
 31
0.0
  0
LINE
  5
451
100
AcDbEntity
  8
Layer_1
 62
5
100
AcDbLine
 10
135.558542
 20
159.917601
 30
0.0
 11
138.879152
 21
164.114085
 31
0.0
  0
LINE
  5
452
100
AcDbEntity
  8
Layer_1
 62
5
100
AcDbLine
 10
138.879152
 20
164.114085
 30
0.0
 11
132.016565
 21
170.976671
 31
0.0
  0
LINE
  5
453
100
AcDbEntity
  8
Layer_1
 62
5
100
AcDbLine
 10
132.016565
 20
170.976671
 30
0.0
 11
127.820082
 21
167.656061
 31
0.0
  0
LINE
  5
454
100
AcDbEntity
  8
Layer_1
 62
5
100
AcDbLine
 10
127.820082
 20
167.656061
 30
0.0
 11
124.979681
 21
166.364739
 31
0.0
  0
LINE
  5
455
100
AcDbEntity
  8
Layer_1
 62
5
100
AcDbLine
 10
124.979681
 20
166.364739
 30
0.0
 11
115.412306
 21
165.419182
 31
0.0
  0
LINE
  5
456
100
AcDbEntity
  8
Layer_1
 62
5
100
AcDbLine
 10
115.412306
 20
165.419182
 30
0.0
 11
112.809841
 21
169.926782
 31
0.0
  0
LINE
  5
457
100
AcDbEntity
  8
Layer_1
 62
5
100
AcDbLine
 10
112.809841
 20
169.926782
 30
0.0
 11
118.412404
 21
177.739596
 31
0.0
  0
LINE
  5
458
100
AcDbEntity
  8
Layer_1
 62
5
100
AcDbLine
 10
118.412404
 20
177.739596
 30
0.0
 11
120.950925
 21
179.553791
 31
0.0
  0
LINE
  5
459
100
AcDbEntity
  8
Layer_1
 62
5
100
AcDbLine
 10
120.950925
 20
179.553791
 30
0.0
 11
125.924897
 21
181.527752
 31
0.0
  0
LINE
  5
45a
100
AcDbEntity
  8
Layer_1
 62
5
100
AcDbLine
 10
125.924897
 20
181.527752
 30
0.0
 11
123.413018
 21
190.902215
 31
0.0
  0
LINE
  5
45b
100
AcDbEntity
  8
Layer_1
 62
5
100
AcDbLine
 10
123.413018
 20
190.902215
 30
0.0
 11
118.118453
 21
190.124729
 31
0.0
  0
LINE
  5
45c
100
AcDbEntity
  8
Layer_1
 62
5
100
AcDbLine
 10
118.118453
 20
190.124729
 30
0.0
 11
115.012930
 21
190.426606
 31
0.0
  0
LINE
  5
45d
100
AcDbEntity
  8
Layer_1
 62
5
100
AcDbLine
 10
115.012930
 20
190.426606
 30
0.0
 11
106.254564
 21
194.391419
 31
0.0
  0
LINE
  5
45e
100
AcDbEntity
  8
Layer_1
 62
5
100
AcDbLine
 10
106.254564
 20
194.391419
 30
0.0
 11
106.254564
 21
199.596347
 31
0.0
  0
LINE
  5
45f
100
AcDbEntity
  8
Layer_1
 62
5
100
AcDbLine
 10
106.254564
 20
199.596347
 30
0.0
 11
115.012930
 21
203.561160
 31
0.0
  0
LINE
  5
460
100
AcDbEntity
  8
Layer_1
 62
5
100
AcDbLine
 10
115.012930
 20
203.561160
 30
0.0
 11
118.118453
 21
203.863037
 31
0.0
  0
LINE
  5
461
100
AcDbEntity
  8
Layer_1
 62
5
100
AcDbLine
 10
118.118453
 20
203.863037
 30
0.0
 11
123.413018
 21
203.085551
 31
0.0
  0
LINE
  5
462
100
AcDbEntity
  8
Layer_1
 62
5
100
AcDbLine
 10
123.413018
 20
203.085551
 30
0.0
 11
125.924897
 21
212.460014
 31
0.0
  0
LINE
  5
463
100
AcDbEntity
  8
Layer_1
 62
5
100
AcDbLine
 10
125.924897
 20
212.460014
 30
0.0
 11
120.950925
 21
214.433975
 31
0.0
  0
LINE
  5
464
100
AcDbEntity
  8
Layer_1
 62
5
100
AcDbLine
 10
120.950925
 20
214.433975
 30
0.0
 11
118.412404
 21
216.248170
 31
0.0
  0
LINE
  5
465
100
AcDbEntity
  8
Layer_1
 62
5
100
AcDbLine
 10
118.412404
 20
216.248170
 30
0.0
 11
112.809841
 21
224.060984
 31
0.0
  0
LINE
  5
466
100
AcDbEntity
  8
Layer_1
 62
5
100
AcDbLine
 10
112.809841
 20
224.060984
 30
0.0
 11
115.412306
 21
228.568584
 31
0.0
  0
LINE
  5
467
100
AcDbEntity
  8
Layer_1
 62
5
100
AcDbLine
 10
115.412306
 20
228.568584
 30
0.0
 11
124.979681
 21
227.623027
 31
0.0
  0
LINE
  5
468
100
AcDbEntity
  8
Layer_1
 62
5
100
AcDbLine
 10
124.979681
 20
227.623027
 30
0.0
 11
127.820082
 21
226.331705
 31
0.0
  0
LINE
  5
469
100
AcDbEntity
  8
Layer_1
 62
5
100
AcDbLine
 10
127.820082
 20
226.331705
 30
0.0
 11
132.016565
 21
223.011095
 31
0.0
  0
LINE
  5
46a
100
AcDbEntity
  8
Layer_1
 62
5
100
AcDbLine
 10
132.016565
 20
223.011095
 30
0.0
 11
138.879152
 21
229.873681
 31
0.0
  0
LINE
  5
46b
100
AcDbEntity
  8
Layer_1
 62
5
100
AcDbLine
 10
138.879152
 20
229.873681
 30
0.0
 11
135.558542
 21
234.070165
 31
0.0
  0
LINE
  5
46c
100
AcDbEntity
  8
Layer_1
 62
5
100
AcDbLine
 10
135.558542
 20
234.070165
 30
0.0
 11
134.267220
 21
236.910565
 31
0.0
  0
LINE
  5
46d
100
AcDbEntity
  8
Layer_1
 62
5
100
AcDbLine
 10
134.267220
 20
236.910565
 30
0.0
 11
133.321663
 21
246.477941
 31
0.0
  0
LINE
  5
46e
100
AcDbEntity
  8
Layer_1
 62
5
100
AcDbLine
 10
133.321663
 20
246.477941
 30
0.0
 11
137.829262
 21
249.080406
 31
0.0
  0
LINE
  5
46f
100
AcDbEntity
  8
Layer_1
 62
5
100
AcDbLine
 10
137.829262
 20
249.080406
 30
0.0
 11
145.642077
 21
243.477843
 31
0.0
  0
LINE
  5
470
100
AcDbEntity
  8
Layer_1
 62
5
100
AcDbLine
 10
145.642077
 20
243.477843
 30
0.0
 11
147.456272
 21
240.939322
 31
0.0
  0
LINE
  5
471
100
AcDbEntity
  8
Layer_1
 62
5
100
AcDbLine
 10
147.456272
 20
240.939322
 30
0.0
 11
149.430233
 21
235.965350
 31
0.0
  0
LINE
  5
472
100
AcDbEntity
  8
Layer_1
 62
5
100
AcDbLine
 10
149.430233
 20
235.965350
 30
0.0
 11
158.804696
 21
238.477229
 31
0.0
  0
LINE
  5
473
100
AcDbEntity
  8
Layer_1
 62
5
100
AcDbLine
 10
158.804696
 20
238.477229
 30
0.0
 11
158.027210
 21
243.771794
 31
0.0
  0
LINE
  5
474
100
AcDbEntity
  8
Layer_1
 62
5
100
AcDbLine
 10
158.027210
 20
243.771794
 30
0.0
 11
158.329086
 21
246.877317
 31
0.0
  0
LINE
  5
475
100
AcDbEntity
  8
Layer_1
 62
5
100
AcDbLine
 10
158.329086
 20
246.877317
 30
0.0
 11
162.293899
 21
255.635683
 31
0.0
  0
LINE
  5
476
100
AcDbEntity
  8
Layer_1
 62
5
100
AcDbLine
 10
162.293899
 20
255.635683
 30
0.0
 11
167.498828
 21
255.635683
 31
0.0
  0
LINE
  5
477
100
AcDbEntity
  8
Layer_1
 62
5
100
AcDbLine
 10
167.498828
 20
255.635683
 30
0.0
 11
171.463641
 21
246.877317
 31
0.0
  0
LINE
  5
478
100
AcDbEntity
  8
Layer_1
 62
5
100
AcDbLine
 10
171.463641
 20
246.877317
 30
0.0
 11
171.765517
 21
243.771794
 31
0.0
  0
LINE
  5
479
100
AcDbEntity
  8
Layer_1
 62
5
100
AcDbLine
 10
171.765517
 20
243.771794
 30
0.0
 11
170.988032
 21
238.477229
 31
0.0
  0
LINE
  5
47a
100
AcDbEntity
  8
Layer_1
 62
5
100
AcDbLine
 10
170.988032
 20
238.477229
 30
0.0
 11
180.362495
 21
235.965350
 31
0.0
  0
LINE
  5
47b
100
AcDbEntity
  8
Layer_1
 62
5
100
AcDbLine
 10
180.362495
 20
235.965350
 30
0.0
 11
182.336456
 21
240.939322
 31
0.0
  0
LINE
  5
47c
100
AcDbEntity
  8
Layer_1
 62
5
100
AcDbLine
 10
182.336456
 20
240.939322
 30
0.0
 11
184.150651
 21
243.477843
 31
0.0
  0
LINE
  5
47d
100
AcDbEntity
  8
Layer_1
 62
5
100
AcDbLine
 10
184.150651
 20
243.477843
 30
0.0
 11
191.963465
 21
249.080406
 31
0.0
  0
LINE
  5
47e
100
AcDbEntity
  8
Layer_1
 62
5
100
AcDbLine
 10
191.963465
 20
249.080406
 30
0.0
 11
196.471065
 21
246.477941
 31
0.0
  0
LINE
  5
47f
100
AcDbEntity
  8
Layer_1
 62
5
100
AcDbLine
 10
196.471065
 20
246.477941
 30
0.0
 11
195.525508
 21
236.910565
 31
0.0
  0
LINE
  5
480
100
AcDbEntity
  8
Layer_1
 62
5
100
AcDbLine
 10
195.525508
 20
236.910565
 30
0.0
 11
194.234186
 21
234.070165
 31
0.0
  0
LINE
  5
481
100
AcDbEntity
  8
Layer_1
 62
5
100
AcDbLine
 10
194.234186
 20
234.070165
 30
0.0
 11
190.913576
 21
229.873681
 31
0.0
  0
LINE
  5
482
100
AcDbEntity
  8
Layer_1
 62
5
100
AcDbLine
 10
190.913576
 20
229.873681
 30
0.0
 11
197.776162
 21
223.011095
 31
0.0
  0
LINE
  5
483
100
AcDbEntity
  8
Layer_1
 62
5
100
AcDbLine
 10
197.776162
 20
223.011095
 30
0.0
 11
201.972646
 21
226.331705
 31
0.0
  0
LINE
  5
484
100
AcDbEntity
  8
Layer_1
 62
5
100
AcDbLine
 10
201.972646
 20
226.331705
 30
0.0
 11
204.813046
 21
227.623027
 31
0.0
  0
LINE
  5
485
100
AcDbEntity
  8
Layer_1
 62
5
100
AcDbLine
 10
204.813046
 20
227.623027
 30
0.0
 11
214.380422
 21
228.568584
 31
0.0
  0
LINE
  5
486
100
AcDbEntity
  8
Layer_1
 62
5
100
AcDbLine
 10
214.380422
 20
228.568584
 30
0.0
 11
216.982878
 21
224.060984
 31
0.0
  0
LINE
  5
487
100
AcDbEntity
  8
Layer_1
 62
5
100
AcDbLine
 10
216.982878
 20
224.060984
 30
0.0
 11
211.380315
 21
216.248170
 31
0.0
  0
LINE
  5
488
100
AcDbEntity
  8
Layer_1
 62
5
100
AcDbLine
 10
211.380315
 20
216.248170
 30
0.0
 11
208.841811
 21
214.433975
 31
0.0
  0
LINE
  5
489
100
AcDbEntity
  8
Layer_1
 62
5
100
AcDbLine
 10
208.841811
 20
214.433975
 30
0.0
 11
203.867830
 21
212.460014
 31
0.0
  0
LINE
  5
48a
100
AcDbEntity
  8
Layer_1
 62
5
100
AcDbLine
 10
203.867830
 20
212.460014
 30
0.0
 11
206.379710
 21
203.085551
 31
0.0
  0
LINE
  5
48b
100
AcDbEntity
  8
Layer_1
 62
1
100
AcDbLine
 10
166.397512
 20
226.922337
 30
0.0
 11
166.397512
 21
216.922331
 31
0.0
  0
LINE
  5
48c
100
AcDbEntity
  8
Layer_1
 62
1
100
AcDbLine
 10
166.397512
 20
216.922331
 30
0.0
 11
163.397518
 21
216.922331
 31
0.0
  0
LINE
  5
48d
100
AcDbEntity
  8
Layer_1
 62
1
100
AcDbLine
 10
163.397518
 20
216.922331
 30
0.0
 11
163.397518
 21
226.922337
 31
0.0
  0
LINE
  5
48e
100
AcDbEntity
  8
Layer_1
 62
1
100
AcDbLine
 10
163.397518
 20
226.922337
 30
0.0
 11
166.397512
 21
226.922337
 31
0.0
  0
LINE
  5
48f
100
AcDbEntity
  8
Layer_1
 62
1
100
AcDbLine
 10
163.397679
 20
206.922207
 30
0.0
 11
163.397679
 21
198.492472
 31
0.0
  0
LINE
  5
490
100
AcDbEntity
  8
Layer_1
 62
1
100
AcDbLine
 10
163.397679
 20
198.492472
 30
0.0
 11
154.902900
 21
198.492472
 31
0.0
  0
LINE
  5
491
100
AcDbEntity
  8
Layer_1
 62
1
100
AcDbLine
 10
154.902900
 20
198.492472
 30
0.0
 11
154.902900
 21
195.492760
 31
0.0
  0
LINE
  5
492
100
AcDbEntity
  8
Layer_1
 62
1
100
AcDbLine
 10
154.902900
 20
195.492760
 30
0.0
 11
163.397679
 21
195.492760
 31
0.0
  0
LINE
  5
493
100
AcDbEntity
  8
Layer_1
 62
1
100
AcDbLine
 10
163.397679
 20
195.492760
 30
0.0
 11
163.397679
 21
186.935692
 31
0.0
  0
LINE
  5
494
100
AcDbEntity
  8
Layer_1
 62
1
100
AcDbLine
 10
163.397679
 20
186.935692
 30
0.0
 11
166.397391
 21
186.935692
 31
0.0
  0
LINE
  5
495
100
AcDbEntity
  8
Layer_1
 62
1
100
AcDbLine
 10
166.397391
 20
186.935692
 30
0.0
 11
166.397391
 21
195.492760
 31
0.0
  0
LINE
  5
496
100
AcDbEntity
  8
Layer_1
 62
1
100
AcDbLine
 10
166.397391
 20
195.492760
 30
0.0
 11
174.889415
 21
195.492760
 31
0.0
  0
LINE
  5
497
100
AcDbEntity
  8
Layer_1
 62
1
100
AcDbLine
 10
174.889415
 20
195.492760
 30
0.0
 11
174.889415
 21
198.492472
 31
0.0
  0
LINE
  5
498
100
AcDbEntity
  8
Layer_1
 62
1
100
AcDbLine
 10
174.889415
 20
198.492472
 30
0.0
 11
166.397391
 21
198.492472
 31
0.0
  0
LINE
  5
499
100
AcDbEntity
  8
Layer_1
 62
1
100
AcDbLine
 10
166.397391
 20
198.492472
 30
0.0
 11
166.397391
 21
206.922207
 31
0.0
  0
LINE
  5
49a
100
AcDbEntity
  8
Layer_1
 62
1
100
AcDbLine
 10
166.397391
 20
206.922207
 30
0.0
 11
163.397679
 21
206.922207
 31
0.0
  0
LINE
  5
49b
100
AcDbEntity
  8
Layer_1
 62
1
100
AcDbLine
 10
163.397679
 20
206.922207
 30
0.0
 11
163.397679
 21
206.922207
 31
0.0
  0
SPLINE
  5
49c
100
AcDbEntity
  8
Layer_1
 62
1
100
AcDbSpline
 70
8
 71
3
 72
8
 73
4
 74
0
 40
0
 40
0
 40
0
 40
0
 40
1
 40
1
 40
1
 40
1
 10
164.896381
 20
210.372374
 30
0.0
 10
164.485295
 20
210.372373
 30
0.0
 10
164.091046
 20
210.535676
 30
0.0
 10
163.800364
 20
210.826358
 30
0.0
  0
SPLINE
  5
49d
100
AcDbEntity
  8
Layer_1
 62
1
100
AcDbSpline
 70
8
 71
3
 72
8
 73
4
 74
0
 40
0
 40
0
 40
0
 40
0
 40
1
 40
1
 40
1
 40
1
 10
163.800364
 20
210.826358
 30
0.0
 10
163.509682
 20
211.117040
 30
0.0
 10
163.346379
 20
211.511289
 30
0.0
 10
163.346380
 20
211.922375
 30
0.0
  0
SPLINE
  5
49e
100
AcDbEntity
  8
Layer_1
 62
1
100
AcDbSpline
 70
8
 71
3
 72
8
 73
4
 74
0
 40
0
 40
0
 40
0
 40
0
 40
1
 40
1
 40
1
 40
1
 10
163.346380
 20
211.922375
 30
0.0
 10
163.346380
 20
212.333461
 30
0.0
 10
163.509683
 20
212.727709
 30
0.0
 10
163.800365
 20
213.018390
 30
0.0
  0
SPLINE
  5
49f
100
AcDbEntity
  8
Layer_1
 62
1
100
AcDbSpline
 70
8
 71
3
 72
8
 73
4
 74
0
 40
0
 40
0
 40
0
 40
0
 40
1
 40
1
 40
1
 40
1
 10
163.800365
 20
213.018390
 30
0.0
 10
164.091046
 20
213.309071
 30
0.0
 10
164.485295
 20
213.472374
 30
0.0
 10
164.896381
 20
213.472373
 30
0.0
  0
SPLINE
  5
4a0
100
AcDbEntity
  8
Layer_1
 62
1
100
AcDbSpline
 70
8
 71
3
 72
8
 73
4
 74
0
 40
0
 40
0
 40
0
 40
0
 40
1
 40
1
 40
1
 40
1
 10
164.896381
 20
213.472373
 30
0.0
 10
165.752421
 20
213.472373
 30
0.0
 10
166.446378
 20
212.778415
 30
0.0
 10
166.446379
 20
211.922375
 30
0.0
  0
SPLINE
  5
4a1
100
AcDbEntity
  8
Layer_1
 62
1
100
AcDbSpline
 70
8
 71
3
 72
8
 73
4
 74
0
 40
0
 40
0
 40
0
 40
0
 40
1
 40
1
 40
1
 40
1
 10
166.446379
 20
211.922375
 30
0.0
 10
166.446379
 20
211.511289
 30
0.0
 10
166.283077
 20
211.117041
 30
0.0
 10
165.992396
 20
210.826359
 30
0.0
  0
SPLINE
  5
4a2
100
AcDbEntity
  8
Layer_1
 62
1
100
AcDbSpline
 70
8
 71
3
 72
8
 73
4
 74
0
 40
0
 40
0
 40
0
 40
0
 40
1
 40
1
 40
1
 40
1
 10
165.992396
 20
210.826359
 30
0.0
 10
165.701715
 20
210.535678
 30
0.0
 10
165.307466
 20
210.372374
 30
0.0
 10
164.896381
 20
210.372374
 30
0.0
  0
LINE
  5
4a3
100
AcDbEntity
  8
Layer_1
 62
1
100
AcDbLine
 10
164.896381
 20
210.372374
 30
0.0
 11
164.896381
 21
210.372374
 31
0.0
  0
LINE
  5
4a4
100
AcDbEntity
  8
Layer_1
 62
1
100
AcDbLine
 10
166.397512
 20
176.935827
 30
0.0
 11
166.397512
 21
166.935821
 31
0.0
  0
LINE
  5
4a5
100
AcDbEntity
  8
Layer_1
 62
1
100
AcDbLine
 10
166.397512
 20
166.935821
 30
0.0
 11
163.397518
 21
166.935821
 31
0.0
  0
LINE
  5
4a6
100
AcDbEntity
  8
Layer_1
 62
1
100
AcDbLine
 10
163.397518
 20
166.935821
 30
0.0
 11
163.397518
 21
176.935827
 31
0.0
  0
LINE
  5
4a7
100
AcDbEntity
  8
Layer_1
 62
1
100
AcDbLine
 10
163.397518
 20
176.935827
 30
0.0
 11
166.397512
 21
176.935827
 31
0.0
  0
SPLINE
  5
4a8
100
AcDbEntity
  8
Layer_1
 62
1
100
AcDbSpline
 70
8
 71
3
 72
8
 73
4
 74
0
 40
0
 40
0
 40
0
 40
0
 40
1
 40
1
 40
1
 40
1
 10
164.896381
 20
180.385816
 30
0.0
 10
164.485295
 20
180.385816
 30
0.0
 10
164.091046
 20
180.549118
 30
0.0
 10
163.800365
 20
180.839799
 30
0.0
  0
SPLINE
  5
4a9
100
AcDbEntity
  8
Layer_1
 62
1
100
AcDbSpline
 70
8
 71
3
 72
8
 73
4
 74
0
 40
0
 40
0
 40
0
 40
0
 40
1
 40
1
 40
1
 40
1
 10
163.800365
 20
180.839799
 30
0.0
 10
163.509683
 20
181.130480
 30
0.0
 10
163.346380
 20
181.524729
 30
0.0
 10
163.346380
 20
181.935814
 30
0.0
  0
SPLINE
  5
4aa
100
AcDbEntity
  8
Layer_1
 62
1
100
AcDbSpline
 70
8
 71
3
 72
8
 73
4
 74
0
 40
0
 40
0
 40
0
 40
0
 40
1
 40
1
 40
1
 40
1
 10
163.346380
 20
181.935814
 30
0.0
 10
163.346380
 20
182.346900
 30
0.0
 10
163.509683
 20
182.741148
 30
0.0
 10
163.800365
 20
183.031829
 30
0.0
  0
SPLINE
  5
4ab
100
AcDbEntity
  8
Layer_1
 62
1
100
AcDbSpline
 70
8
 71
3
 72
8
 73
4
 74
0
 40
0
 40
0
 40
0
 40
0
 40
1
 40
1
 40
1
 40
1
 10
163.800365
 20
183.031829
 30
0.0
 10
164.091046
 20
183.322511
 30
0.0
 10
164.485295
 20
183.485813
 30
0.0
 10
164.896381
 20
183.485813
 30
0.0
  0
SPLINE
  5
4ac
100
AcDbEntity
  8
Layer_1
 62
1
100
AcDbSpline
 70
8
 71
3
 72
8
 73
4
 74
0
 40
0
 40
0
 40
0
 40
0
 40
1
 40
1
 40
1
 40
1
 10
164.896381
 20
183.485813
 30
0.0
 10
165.752421
 20
183.485812
 30
0.0
 10
166.446378
 20
182.791855
 30
0.0
 10
166.446379
 20
181.935814
 30
0.0
  0
SPLINE
  5
4ad
100
AcDbEntity
  8
Layer_1
 62
1
100
AcDbSpline
 70
8
 71
3
 72
8
 73
4
 74
0
 40
0
 40
0
 40
0
 40
0
 40
1
 40
1
 40
1
 40
1
 10
166.446379
 20
181.935814
 30
0.0
 10
166.446378
 20
181.079774
 30
0.0
 10
165.752421
 20
180.385817
 30
0.0
 10
164.896381
 20
180.385816
 30
0.0
  0
LINE
  5
4ae
100
AcDbEntity
  8
Layer_1
 62
1
100
AcDbLine
 10
164.896381
 20
180.385816
 30
0.0
 11
164.896381
 21
180.385816
 31
0.0
  0
LINE
  5
4af
100
AcDbEntity
  8
Layer_1
 62
1
100
AcDbLine
 10
194.889613
 20
195.492749
 30
0.0
 11
184.889607
 21
195.492749
 31
0.0
  0
LINE
  5
4b0
100
AcDbEntity
  8
Layer_1
 62
1
100
AcDbLine
 10
184.889607
 20
195.492749
 30
0.0
 11
184.889607
 21
198.492743
 31
0.0
  0
LINE
  5
4b1
100
AcDbEntity
  8
Layer_1
 62
1
100
AcDbLine
 10
184.889607
 20
198.492743
 30
0.0
 11
194.889613
 21
198.492743
 31
0.0
  0
LINE
  5
4b2
100
AcDbEntity
  8
Layer_1
 62
1
100
AcDbLine
 10
194.889613
 20
198.492743
 30
0.0
 11
194.889613
 21
195.492749
 31
0.0
  0
SPLINE
  5
4b3
100
AcDbEntity
  8
Layer_1
 62
1
100
AcDbSpline
 70
8
 71
3
 72
8
 73
4
 74
0
 40
0
 40
0
 40
0
 40
0
 40
1
 40
1
 40
1
 40
1
 10
178.339650
 20
196.993880
 30
0.0
 10
178.339649
 20
197.404966
 30
0.0
 10
178.502953
 20
197.799215
 30
0.0
 10
178.793634
 20
198.089897
 30
0.0
  0
SPLINE
  5
4b4
100
AcDbEntity
  8
Layer_1
 62
1
100
AcDbSpline
 70
8
 71
3
 72
8
 73
4
 74
0
 40
0
 40
0
 40
0
 40
0
 40
1
 40
1
 40
1
 40
1
 10
178.793634
 20
198.089897
 30
0.0
 10
179.084316
 20
198.380579
 30
0.0
 10
179.478565
 20
198.543882
 30
0.0
 10
179.889651
 20
198.543881
 30
0.0
  0
SPLINE
  5
4b5
100
AcDbEntity
  8
Layer_1
 62
1
100
AcDbSpline
 70
8
 71
3
 72
8
 73
4
 74
0
 40
0
 40
0
 40
0
 40
0
 40
1
 40
1
 40
1
 40
1
 10
179.889651
 20
198.543881
 30
0.0
 10
180.300737
 20
198.543881
 30
0.0
 10
180.694985
 20
198.380578
 30
0.0
 10
180.985666
 20
198.089896
 30
0.0
  0
SPLINE
  5
4b6
100
AcDbEntity
  8
Layer_1
 62
1
100
AcDbSpline
 70
8
 71
3
 72
8
 73
4
 74
0
 40
0
 40
0
 40
0
 40
0
 40
1
 40
1
 40
1
 40
1
 10
180.985666
 20
198.089896
 30
0.0
 10
181.276347
 20
197.799214
 30
0.0
 10
181.439650
 20
197.404966
 30
0.0
 10
181.439649
 20
196.993880
 30
0.0
  0
SPLINE
  5
4b7
100
AcDbEntity
  8
Layer_1
 62
1
100
AcDbSpline
 70
8
 71
3
 72
8
 73
4
 74
0
 40
0
 40
0
 40
0
 40
0
 40
1
 40
1
 40
1
 40
1
 10
181.439649
 20
196.993880
 30
0.0
 10
181.439649
 20
196.137840
 30
0.0
 10
180.745691
 20
195.443883
 30
0.0
 10
179.889651
 20
195.443882
 30
0.0
  0
SPLINE
  5
4b8
100
AcDbEntity
  8
Layer_1
 62
1
100
AcDbSpline
 70
8
 71
3
 72
8
 73
4
 74
0
 40
0
 40
0
 40
0
 40
0
 40
1
 40
1
 40
1
 40
1
 10
179.889651
 20
195.443882
 30
0.0
 10
179.478566
 20
195.443881
 30
0.0
 10
179.084317
 20
195.607184
 30
0.0
 10
178.793635
 20
195.897865
 30
0.0
  0
SPLINE
  5
4b9
100
AcDbEntity
  8
Layer_1
 62
1
100
AcDbSpline
 70
8
 71
3
 72
8
 73
4
 74
0
 40
0
 40
0
 40
0
 40
0
 40
1
 40
1
 40
1
 40
1
 10
178.793635
 20
195.897865
 30
0.0
 10
178.502954
 20
196.188546
 30
0.0
 10
178.339650
 20
196.582795
 30
0.0
 10
178.339650
 20
196.993880
 30
0.0
  0
LINE
  5
4ba
100
AcDbEntity
  8
Layer_1
 62
1
100
AcDbLine
 10
178.339650
 20
196.993880
 30
0.0
 11
178.339650
 21
196.993880
 31
0.0
  0
LINE
  5
4bb
100
AcDbEntity
  8
Layer_1
 62
1
100
AcDbLine
 10
144.903103
 20
195.492749
 30
0.0
 11
134.903098
 21
195.492749
 31
0.0
  0
LINE
  5
4bc
100
AcDbEntity
  8
Layer_1
 62
1
100
AcDbLine
 10
134.903098
 20
195.492749
 30
0.0
 11
134.903098
 21
198.492743
 31
0.0
  0
LINE
  5
4bd
100
AcDbEntity
  8
Layer_1
 62
1
100
AcDbLine
 10
134.903098
 20
198.492743
 30
0.0
 11
144.903103
 21
198.492743
 31
0.0
  0
LINE
  5
4be
100
AcDbEntity
  8
Layer_1
 62
1
100
AcDbLine
 10
144.903103
 20
198.492743
 30
0.0
 11
144.903103
 21
195.492749
 31
0.0
  0
SPLINE
  5
4bf
100
AcDbEntity
  8
Layer_1
 62
1
100
AcDbSpline
 70
8
 71
3
 72
8
 73
4
 74
0
 40
0
 40
0
 40
0
 40
0
 40
1
 40
1
 40
1
 40
1
 10
148.353092
 20
196.993880
 30
0.0
 10
148.353092
 20
197.404966
 30
0.0
 10
148.516394
 20
197.799214
 30
0.0
 10
148.807076
 20
198.089896
 30
0.0
  0
SPLINE
  5
4c0
100
AcDbEntity
  8
Layer_1
 62
1
100
AcDbSpline
 70
8
 71
3
 72
8
 73
4
 74
0
 40
0
 40
0
 40
0
 40
0
 40
1
 40
1
 40
1
 40
1
 10
148.807076
 20
198.089896
 30
0.0
 10
149.097757
 20
198.380578
 30
0.0
 10
149.492005
 20
198.543881
 30
0.0
 10
149.903091
 20
198.543881
 30
0.0
  0
SPLINE
  5
4c1
100
AcDbEntity
  8
Layer_1
 62
1
100
AcDbSpline
 70
8
 71
3
 72
8
 73
4
 74
0
 40
0
 40
0
 40
0
 40
0
 40
1
 40
1
 40
1
 40
1
 10
149.903091
 20
198.543881
 30
0.0
 10
150.314176
 20
198.543881
 30
0.0
 10
150.708424
 20
198.380578
 30
0.0
 10
150.999106
 20
198.089896
 30
0.0
  0
SPLINE
  5
4c2
100
AcDbEntity
  8
Layer_1
 62
1
100
AcDbSpline
 70
8
 71
3
 72
8
 73
4
 74
0
 40
0
 40
0
 40
0
 40
0
 40
1
 40
1
 40
1
 40
1
 10
150.999106
 20
198.089896
 30
0.0
 10
151.289787
 20
197.799214
 30
0.0
 10
151.453089
 20
197.404966
 30
0.0
 10
151.453089
 20
196.993880
 30
0.0
  0
SPLINE
  5
4c3
100
AcDbEntity
  8
Layer_1
 62
1
100
AcDbSpline
 70
8
 71
3
 72
8
 73
4
 74
0
 40
0
 40
0
 40
0
 40
0
 40
1
 40
1
 40
1
 40
1
 10
151.453089
 20
196.993880
 30
0.0
 10
151.453088
 20
196.137840
 30
0.0
 10
150.759131
 20
195.443883
 30
0.0
 10
149.903091
 20
195.443882
 30
0.0
  0
SPLINE
  5
4c4
100
AcDbEntity
  8
Layer_1
 62
1
100
AcDbSpline
 70
8
 71
3
 72
8
 73
4
 74
0
 40
0
 40
0
 40
0
 40
0
 40
1
 40
1
 40
1
 40
1
 10
149.903091
 20
195.443882
 30
0.0
 10
149.047050
 20
195.443883
 30
0.0
 10
148.353093
 20
196.137840
 30
0.0
 10
148.353092
 20
196.993880
 30
0.0
  0
LINE
  5
4c5
100
AcDbEntity
  8
Layer_1
 62
1
100
AcDbLine
 10
148.353092
 20
196.993880
 30
0.0
 11
148.353092
 21
196.993880
 31
0.0
  0
SPLINE
  5
4c6
100
AcDbEntity
  8
Layer_1
 62
3
100
AcDbSpline
 70
8
 71
3
 72
8
 73
4
 74
0
 40
0
 40
0
 40
0
 40
0
 40
1
 40
1
 40
1
 40
1
 10
190.576380
 20
103.206490
 30
0.0
 10
190.576380
 20
103.087919
 30
0.0
 10
190.534035
 20
102.989113
 30
0.0
 10
190.449346
 20
102.910072
 30
0.0
  0
SPLINE
  5
4c7
100
AcDbEntity
  8
Layer_1
 62
3
100
AcDbSpline
 70
8
 71
3
 72
8
 73
4
 74
0
 40
0
 40
0
 40
0
 40
0
 40
1
 40
1
 40
1
 40
1
 10
190.449346
 20
102.910072
 30
0.0
 10
190.370305
 20
102.825386
 30
0.0
 10
190.271503
 20
102.783043
 30
0.0
 10
190.152939
 20
102.783043
 30
0.0
  0
SPLINE
  5
4c8
100
AcDbEntity
  8
Layer_1
 62
3
100
AcDbSpline
 70
8
 71
3
 72
8
 73
4
 74
0
 40
0
 40
0
 40
0
 40
0
 40
1
 40
1
 40
1
 40
1
 10
190.152939
 20
102.783043
 30
0.0
 10
190.034376
 20
102.783043
 30
0.0
 10
189.932750
 20
102.825386
 30
0.0
 10
189.848063
 20
102.910072
 30
0.0
  0
SPLINE
  5
4c9
100
AcDbEntity
  8
Layer_1
 62
3
100
AcDbSpline
 70
8
 71
3
 72
8
 73
4
 74
0
 40
0
 40
0
 40
0
 40
0
 40
1
 40
1
 40
1
 40
1
 10
189.848063
 20
102.910072
 30
0.0
 10
189.769022
 20
102.989113
 30
0.0
 10
189.729502
 20
103.087919
 30
0.0
 10
189.729502
 20
103.206490
 30
0.0
  0
LINE
  5
4ca
100
AcDbEntity
  8
Layer_1
 62
3
100
AcDbLine
 10
189.729502
 20
103.206490
 30
0.0
 11
189.729502
 21
104.053382
 31
0.0
  0
LINE
  5
4cb
100
AcDbEntity
  8
Layer_1
 62
3
100
AcDbLine
 10
189.729502
 20
104.053382
 30
0.0
 11
188.459183
 21
104.053382
 31
0.0
  0
SPLINE
  5
4cc
100
AcDbEntity
  8
Layer_1
 62
3
100
AcDbSpline
 70
8
 71
3
 72
8
 73
4
 74
0
 40
0
 40
0
 40
0
 40
0
 40
1
 40
1
 40
1
 40
1
 10
188.459183
 20
104.053382
 30
0.0
 10
188.340619
 20
104.053382
 30
0.0
 10
188.238994
 20
104.095725
 30
0.0
 10
188.154306
 20
104.180410
 30
0.0
  0
SPLINE
  5
4cd
100
AcDbEntity
  8
Layer_1
 62
3
100
AcDbSpline
 70
8
 71
3
 72
8
 73
4
 74
0
 40
0
 40
0
 40
0
 40
0
 40
1
 40
1
 40
1
 40
1
 10
188.154306
 20
104.180410
 30
0.0
 10
188.075265
 20
104.259451
 30
0.0
 10
188.035745
 20
104.358248
 30
0.0
 10
188.035745
 20
104.476800
 30
0.0
  0
SPLINE
  5
4ce
100
AcDbEntity
  8
Layer_1
 62
3
100
AcDbSpline
 70
8
 71
3
 72
8
 73
4
 74
0
 40
0
 40
0
 40
0
 40
0
 40
1
 40
1
 40
1
 40
1
 10
188.035745
 20
104.476800
 30
0.0
 10
188.035745
 20
104.595371
 30
0.0
 10
188.075265
 20
104.696999
 30
0.0
 10
188.154306
 20
104.781685
 30
0.0
  0
SPLINE
  5
4cf
100
AcDbEntity
  8
Layer_1
 62
3
100
AcDbSpline
 70
8
 71
3
 72
8
 73
4
 74
0
 40
0
 40
0
 40
0
 40
0
 40
1
 40
1
 40
1
 40
1
 10
188.154306
 20
104.781685
 30
0.0
 10
188.238994
 20
104.860726
 30
0.0
 10
188.340619
 20
104.900246
 30
0.0
 10
188.459183
 20
104.900246
 30
0.0
  0
LINE
  5
4d0
100
AcDbEntity
  8
Layer_1
 62
3
100
AcDbLine
 10
188.459183
 20
104.900246
 30
0.0
 11
189.729502
 21
104.900246
 31
0.0
  0
LINE
  5
4d1
100
AcDbEntity
  8
Layer_1
 62
3
100
AcDbLine
 10
189.729502
 20
104.900246
 30
0.0
 11
189.729502
 21
107.440895
 31
0.0
  0
SPLINE
  5
4d2
100
AcDbEntity
  8
Layer_1
 62
3
100
AcDbSpline
 70
8
 71
3
 72
8
 73
4
 74
0
 40
0
 40
0
 40
0
 40
0
 40
1
 40
1
 40
1
 40
1
 10
189.729502
 20
107.440895
 30
0.0
 10
189.729502
 20
107.587689
 30
0.0
 10
189.785960
 20
107.700606
 30
0.0
 10
189.898877
 20
107.779647
 30
0.0
  0
SPLINE
  5
4d3
100
AcDbEntity
  8
Layer_1
 62
3
100
AcDbSpline
 70
8
 71
3
 72
8
 73
4
 74
0
 40
0
 40
0
 40
0
 40
0
 40
1
 40
1
 40
1
 40
1
 10
189.898877
 20
107.779647
 30
0.0
 10
190.006148
 20
107.864332
 30
0.0
 10
190.130357
 20
107.886910
 30
0.0
 10
190.271504
 20
107.847380
 30
0.0
  0
LINE
  5
4d4
100
AcDbEntity
  8
Layer_1
 62
3
100
AcDbLine
 10
190.271504
 20
107.847380
 30
0.0
 11
196.199652
 21
106.153623
 31
0.0
  0
SPLINE
  5
4d5
100
AcDbEntity
  8
Layer_1
 62
3
100
AcDbSpline
 70
8
 71
3
 72
8
 73
4
 74
0
 40
0
 40
0
 40
0
 40
0
 40
1
 40
1
 40
1
 40
1
 10
196.199652
 20
106.153623
 30
0.0
 10
196.312569
 20
106.125401
 30
0.0
 10
196.397257
 20
106.060481
 30
0.0
 10
196.453714
 20
105.958862
 30
0.0
  0
SPLINE
  5
4d6
100
AcDbEntity
  8
Layer_1
 62
3
100
AcDbSpline
 70
8
 71
3
 72
8
 73
4
 74
0
 40
0
 40
0
 40
0
 40
0
 40
1
 40
1
 40
1
 40
1
 10
196.453714
 20
105.958862
 30
0.0
 10
196.510174
 20
105.851580
 30
0.0
 10
196.521465
 20
105.741485
 30
0.0
 10
196.487589
 20
105.628577
 30
0.0
  0
SPLINE
  5
4d7
100
AcDbEntity
  8
Layer_1
 62
3
100
AcDbSpline
 70
8
 71
3
 72
8
 73
4
 74
0
 40
0
 40
0
 40
0
 40
0
 40
1
 40
1
 40
1
 40
1
 10
196.487589
 20
105.628577
 30
0.0
 10
196.453715
 20
105.515651
 30
0.0
 10
196.385965
 20
105.430956
 30
0.0
 10
196.284339
 20
105.374492
 30
0.0
  0
SPLINE
  5
4d8
100
AcDbEntity
  8
Layer_1
 62
3
100
AcDbSpline
 70
8
 71
3
 72
8
 73
4
 74
0
 40
0
 40
0
 40
0
 40
0
 40
1
 40
1
 40
1
 40
1
 10
196.284339
 20
105.374492
 30
0.0
 10
196.182714
 20
105.318048
 30
0.0
 10
196.075443
 20
105.306759
 30
0.0
 10
195.962526
 20
105.340626
 30
0.0
  0
LINE
  5
4d9
100
AcDbEntity
  8
Layer_1
 62
3
100
AcDbLine
 10
195.962526
 20
105.340626
 30
0.0
 11
190.576380
 21
106.881954
 31
0.0
  0
LINE
  5
4da
100
AcDbEntity
  8
Layer_1
 62
3
100
AcDbLine
 10
190.576380
 20
106.881954
 30
0.0
 11
190.576380
 21
104.900246
 31
0.0
  0
LINE
  5
4db
100
AcDbEntity
  8
Layer_1
 62
3
100
AcDbLine
 10
190.576380
 20
104.900246
 30
0.0
 11
191.846696
 21
104.900246
 31
0.0
  0
SPLINE
  5
4dc
100
AcDbEntity
  8
Layer_1
 62
3
100
AcDbSpline
 70
8
 71
3
 72
8
 73
4
 74
0
 40
0
 40
0
 40
0
 40
0
 40
1
 40
1
 40
1
 40
1
 10
191.846696
 20
104.900246
 30
0.0
 10
191.965259
 20
104.900246
 30
0.0
 10
192.064062
 20
104.860726
 30
0.0
 10
192.143103
 20
104.781685
 30
0.0
  0
SPLINE
  5
4dd
100
AcDbEntity
  8
Layer_1
 62
3
100
AcDbSpline
 70
8
 71
3
 72
8
 73
4
 74
0
 40
0
 40
0
 40
0
 40
0
 40
1
 40
1
 40
1
 40
1
 10
192.143103
 20
104.781685
 30
0.0
 10
192.227792
 20
104.696999
 30
0.0
 10
192.270137
 20
104.595371
 30
0.0
 10
192.270137
 20
104.476800
 30
0.0
  0
SPLINE
  5
4de
100
AcDbEntity
  8
Layer_1
 62
3
100
AcDbSpline
 70
8
 71
3
 72
8
 73
4
 74
0
 40
0
 40
0
 40
0
 40
0
 40
1
 40
1
 40
1
 40
1
 10
192.270137
 20
104.476800
 30
0.0
 10
192.270137
 20
104.358248
 30
0.0
 10
192.227792
 20
104.259451
 30
0.0
 10
192.143103
 20
104.180410
 30
0.0
  0
SPLINE
  5
4df
100
AcDbEntity
  8
Layer_1
 62
3
100
AcDbSpline
 70
8
 71
3
 72
8
 73
4
 74
0
 40
0
 40
0
 40
0
 40
0
 40
1
 40
1
 40
1
 40
1
 10
192.143103
 20
104.180410
 30
0.0
 10
192.064062
 20
104.095725
 30
0.0
 10
191.965259
 20
104.053382
 30
0.0
 10
191.846696
 20
104.053382
 30
0.0
  0
LINE
  5
4e0
100
AcDbEntity
  8
Layer_1
 62
3
100
AcDbLine
 10
191.846696
 20
104.053382
 30
0.0
 11
190.576380
 21
104.053382
 31
0.0
  0
LINE
  5
4e1
100
AcDbEntity
  8
Layer_1
 62
3
100
AcDbLine
 10
190.576380
 20
104.053382
 30
0.0
 11
190.576380
 21
103.206490
 31
0.0
  0
LINE
  5
4e2
100
AcDbEntity
  8
Layer_1
 62
3
100
AcDbLine
 10
190.576380
 20
103.206490
 30
0.0
 11
190.576380
 21
103.206490
 31
0.0
  0
LINE
  5
4e3
100
AcDbEntity
  8
Layer_1
 62
3
100
AcDbLine
 10
190.576380
 20
103.206490
 30
0.0
 11
190.576380
 21
103.206490
 31
0.0
  0
LINE
  5
4e4
100
AcDbEntity
  8
Layer_1
 62
5
100
AcDbLine
 10
182.927833
 20
50.937197
 30
0.0
 11
183.685484
 21
45.777723
 31
0.0
  0
LINE
  5
4e5
100
AcDbEntity
  8
Layer_1
 62
5
100
AcDbLine
 10
183.685484
 20
45.777723
 30
0.0
 11
183.391310
 21
42.751454
 31
0.0
  0
LINE
  5
4e6
100
AcDbEntity
  8
Layer_1
 62
5
100
AcDbLine
 10
183.391310
 20
42.751454
 30
0.0
 11
179.527656
 21
34.216546
 31
0.0
  0
LINE
  5
4e7
100
AcDbEntity
  8
Layer_1
 62
5
100
AcDbLine
 10
179.527656
 20
34.216546
 30
0.0
 11
174.455524
 21
34.216546
 31
0.0
  0
LINE
  5
4e8
100
AcDbEntity
  8
Layer_1
 62
5
100
AcDbLine
 10
174.455524
 20
34.216546
 30
0.0
 11
170.591871
 21
42.751454
 31
0.0
  0
LINE
  5
4e9
100
AcDbEntity
  8
Layer_1
 62
5
100
AcDbLine
 10
170.591871
 20
42.751454
 30
0.0
 11
170.297697
 21
45.777723
 31
0.0
  0
LINE
  5
4ea
100
AcDbEntity
  8
Layer_1
 62
5
100
AcDbLine
 10
170.297697
 20
45.777723
 30
0.0
 11
171.055348
 21
50.937197
 31
0.0
  0
LINE
  5
4eb
100
AcDbEntity
  8
Layer_1
 62
5
100
AcDbLine
 10
171.055348
 20
50.937197
 30
0.0
 11
161.920065
 21
53.384998
 31
0.0
  0
LINE
  5
4ec
100
AcDbEntity
  8
Layer_1
 62
5
100
AcDbLine
 10
161.920065
 20
53.384998
 30
0.0
 11
159.996470
 21
48.537941
 31
0.0
  0
LINE
  5
4ed
100
AcDbEntity
  8
Layer_1
 62
5
100
AcDbLine
 10
159.996470
 20
48.537941
 30
0.0
 11
158.228562
 21
46.064179
 31
0.0
  0
LINE
  5
4ee
100
AcDbEntity
  8
Layer_1
 62
5
100
AcDbLine
 10
158.228562
 20
46.064179
 30
0.0
 11
150.615087
 21
40.604561
 31
0.0
  0
LINE
  5
4ef
100
AcDbEntity
  8
Layer_1
 62
5
100
AcDbLine
 10
150.615087
 20
40.604561
 30
0.0
 11
146.222495
 21
43.140639
 31
0.0
  0
LINE
  5
4f0
100
AcDbEntity
  8
Layer_1
 62
5
100
AcDbLine
 10
146.222495
 20
43.140639
 30
0.0
 11
147.143925
 21
52.463906
 31
0.0
  0
LINE
  5
4f1
100
AcDbEntity
  8
Layer_1
 62
5
100
AcDbLine
 10
147.143925
 20
52.463906
 30
0.0
 11
148.402304
 21
55.231829
 31
0.0
  0
LINE
  5
4f2
100
AcDbEntity
  8
Layer_1
 62
5
100
AcDbLine
 10
148.402304
 20
55.231829
 30
0.0
 11
151.638187
 21
59.321243
 31
0.0
  0
LINE
  5
4f3
100
AcDbEntity
  8
Layer_1
 62
5
100
AcDbLine
 10
151.638187
 20
59.321243
 30
0.0
 11
144.950697
 21
66.008733
 31
0.0
  0
LINE
  5
4f4
100
AcDbEntity
  8
Layer_1
 62
5
100
AcDbLine
 10
144.950697
 20
66.008733
 30
0.0
 11
140.861283
 21
62.772849
 31
0.0
  0
LINE
  5
4f5
100
AcDbEntity
  8
Layer_1
 62
5
100
AcDbLine
 10
140.861283
 20
62.772849
 30
0.0
 11
138.093355
 21
61.514471
 31
0.0
  0
LINE
  5
4f6
100
AcDbEntity
  8
Layer_1
 62
5
100
AcDbLine
 10
138.093355
 20
61.514471
 30
0.0
 11
128.770081
 21
60.593041
 31
0.0
  0
LINE
  5
4f7
100
AcDbEntity
  8
Layer_1
 62
5
100
AcDbLine
 10
128.770081
 20
60.593041
 30
0.0
 11
126.234018
 21
64.985633
 31
0.0
  0
LINE
  5
4f8
100
AcDbEntity
  8
Layer_1
 62
5
100
AcDbLine
 10
126.234018
 20
64.985633
 30
0.0
 11
131.693636
 21
72.599108
 31
0.0
  0
LINE
  5
4f9
100
AcDbEntity
  8
Layer_1
 62
5
100
AcDbLine
 10
131.693636
 20
72.599108
 30
0.0
 11
134.167387
 21
74.367016
 31
0.0
  0
LINE
  5
4fa
100
AcDbEntity
  8
Layer_1
 62
5
100
AcDbLine
 10
134.167387
 20
74.367016
 30
0.0
 11
139.014452
 21
76.290611
 31
0.0
  0
LINE
  5
4fb
100
AcDbEntity
  8
Layer_1
 62
5
100
AcDbLine
 10
139.014452
 20
76.290611
 30
0.0
 11
136.566662
 21
85.425894
 31
0.0
  0
LINE
  5
4fc
100
AcDbEntity
  8
Layer_1
 62
5
100
AcDbLine
 10
136.566662
 20
85.425894
 30
0.0
 11
131.407183
 21
84.668243
 31
0.0
  0
LINE
  5
4fd
100
AcDbEntity
  8
Layer_1
 62
5
100
AcDbLine
 10
131.407183
 20
84.668243
 30
0.0
 11
128.380897
 21
84.962417
 31
0.0
  0
LINE
  5
4fe
100
AcDbEntity
  8
Layer_1
 62
5
100
AcDbLine
 10
128.380897
 20
84.962417
 30
0.0
 11
119.845992
 21
88.826070
 31
0.0
  0
LINE
  5
4ff
100
AcDbEntity
  8
Layer_1
 62
5
100
AcDbLine
 10
119.845992
 20
88.826070
 30
0.0
 11
119.845992
 21
93.898202
 31
0.0
  0
LINE
  5
500
100
AcDbEntity
  8
Layer_1
 62
5
100
AcDbLine
 10
119.845992
 20
93.898202
 30
0.0
 11
128.380897
 21
97.761855
 31
0.0
  0
LINE
  5
501
100
AcDbEntity
  8
Layer_1
 62
5
100
AcDbLine
 10
128.380897
 20
97.761855
 30
0.0
 11
131.407183
 21
98.056030
 31
0.0
  0
LINE
  5
502
100
AcDbEntity
  8
Layer_1
 62
5
100
AcDbLine
 10
131.407183
 20
98.056030
 30
0.0
 11
136.566662
 21
97.298379
 31
0.0
  0
LINE
  5
503
100
AcDbEntity
  8
Layer_1
 62
5
100
AcDbLine
 10
136.566662
 20
97.298379
 30
0.0
 11
139.014452
 21
106.433661
 31
0.0
  0
LINE
  5
504
100
AcDbEntity
  8
Layer_1
 62
5
100
AcDbLine
 10
139.014452
 20
106.433661
 30
0.0
 11
134.167387
 21
108.357257
 31
0.0
  0
LINE
  5
505
100
AcDbEntity
  8
Layer_1
 62
5
100
AcDbLine
 10
134.167387
 20
108.357257
 30
0.0
 11
131.693636
 21
110.125165
 31
0.0
  0
LINE
  5
506
100
AcDbEntity
  8
Layer_1
 62
5
100
AcDbLine
 10
131.693636
 20
110.125165
 30
0.0
 11
126.234018
 21
117.738640
 31
0.0
  0
LINE
  5
507
100
AcDbEntity
  8
Layer_1
 62
5
100
AcDbLine
 10
126.234018
 20
117.738640
 30
0.0
 11
128.770081
 21
122.131231
 31
0.0
  0
LINE
  5
508
100
AcDbEntity
  8
Layer_1
 62
5
100
AcDbLine
 10
128.770081
 20
122.131231
 30
0.0
 11
138.093355
 21
121.209801
 31
0.0
  0
LINE
  5
509
100
AcDbEntity
  8
Layer_1
 62
5
100
AcDbLine
 10
138.093355
 20
121.209801
 30
0.0
 11
140.861283
 21
119.951423
 31
0.0
  0
LINE
  5
50a
100
AcDbEntity
  8
Layer_1
 62
5
100
AcDbLine
 10
140.861283
 20
119.951423
 30
0.0
 11
144.950697
 21
116.715539
 31
0.0
  0
LINE
  5
50b
100
AcDbEntity
  8
Layer_1
 62
5
100
AcDbLine
 10
144.950697
 20
116.715539
 30
0.0
 11
151.638187
 21
123.403029
 31
0.0
  0
LINE
  5
50c
100
AcDbEntity
  8
Layer_1
 62
5
100
AcDbLine
 10
151.638187
 20
123.403029
 30
0.0
 11
148.402304
 21
127.492443
 31
0.0
  0
LINE
  5
50d
100
AcDbEntity
  8
Layer_1
 62
5
100
AcDbLine
 10
148.402304
 20
127.492443
 30
0.0
 11
147.143925
 21
130.260372
 31
0.0
  0
LINE
  5
50e
100
AcDbEntity
  8
Layer_1
 62
5
100
AcDbLine
 10
147.143925
 20
130.260372
 30
0.0
 11
146.222495
 21
139.583645
 31
0.0
  0
LINE
  5
50f
100
AcDbEntity
  8
Layer_1
 62
5
100
AcDbLine
 10
146.222495
 20
139.583645
 30
0.0
 11
150.615087
 21
142.119708
 31
0.0
  0
LINE
  5
510
100
AcDbEntity
  8
Layer_1
 62
5
100
AcDbLine
 10
150.615087
 20
142.119708
 30
0.0
 11
158.228562
 21
136.660091
 31
0.0
  0
LINE
  5
511
100
AcDbEntity
  8
Layer_1
 62
5
100
AcDbLine
 10
158.228562
 20
136.660091
 30
0.0
 11
159.996470
 21
134.186340
 31
0.0
  0
LINE
  5
512
100
AcDbEntity
  8
Layer_1
 62
5
100
AcDbLine
 10
159.996470
 20
134.186340
 30
0.0
 11
161.920065
 21
129.339275
 31
0.0
  0
LINE
  5
513
100
AcDbEntity
  8
Layer_1
 62
5
100
AcDbLine
 10
161.920065
 20
129.339275
 30
0.0
 11
171.055348
 21
131.787064
 31
0.0
  0
LINE
  5
514
100
AcDbEntity
  8
Layer_1
 62
5
100
AcDbLine
 10
171.055348
 20
131.787064
 30
0.0
 11
170.297697
 21
136.946544
 31
0.0
  0
LINE
  5
515
100
AcDbEntity
  8
Layer_1
 62
5
100
AcDbLine
 10
170.297697
 20
136.946544
 30
0.0
 11
170.591871
 21
139.972830
 31
0.0
  0
LINE
  5
516
100
AcDbEntity
  8
Layer_1
 62
5
100
AcDbLine
 10
170.591871
 20
139.972830
 30
0.0
 11
174.455524
 21
148.507735
 31
0.0
  0
LINE
  5
517
100
AcDbEntity
  8
Layer_1
 62
5
100
AcDbLine
 10
174.455524
 20
148.507735
 30
0.0
 11
179.527656
 21
148.507735
 31
0.0
  0
LINE
  5
518
100
AcDbEntity
  8
Layer_1
 62
5
100
AcDbLine
 10
179.527656
 20
148.507735
 30
0.0
 11
183.391310
 21
139.972830
 31
0.0
  0
LINE
  5
519
100
AcDbEntity
  8
Layer_1
 62
5
100
AcDbLine
 10
183.391310
 20
139.972830
 30
0.0
 11
183.685484
 21
136.946544
 31
0.0
  0
LINE
  5
51a
100
AcDbEntity
  8
Layer_1
 62
5
100
AcDbLine
 10
183.685484
 20
136.946544
 30
0.0
 11
182.927833
 21
131.787064
 31
0.0
  0
LINE
  5
51b
100
AcDbEntity
  8
Layer_1
 62
5
100
AcDbLine
 10
182.927833
 20
131.787064
 30
0.0
 11
192.063115
 21
129.339275
 31
0.0
  0
LINE
  5
51c
100
AcDbEntity
  8
Layer_1
 62
5
100
AcDbLine
 10
192.063115
 20
129.339275
 30
0.0
 11
193.986711
 21
134.186340
 31
0.0
  0
LINE
  5
51d
100
AcDbEntity
  8
Layer_1
 62
5
100
AcDbLine
 10
193.986711
 20
134.186340
 30
0.0
 11
195.754619
 21
136.660091
 31
0.0
  0
LINE
  5
51e
100
AcDbEntity
  8
Layer_1
 62
5
100
AcDbLine
 10
195.754619
 20
136.660091
 30
0.0
 11
203.368094
 21
142.119708
 31
0.0
  0
LINE
  5
51f
100
AcDbEntity
  8
Layer_1
 62
5
100
AcDbLine
 10
203.368094
 20
142.119708
 30
0.0
 11
207.760685
 21
139.583645
 31
0.0
  0
LINE
  5
520
100
AcDbEntity
  8
Layer_1
 62
5
100
AcDbLine
 10
207.760685
 20
139.583645
 30
0.0
 11
206.839255
 21
130.260372
 31
0.0
  0
LINE
  5
521
100
AcDbEntity
  8
Layer_1
 62
5
100
AcDbLine
 10
206.839255
 20
130.260372
 30
0.0
 11
205.580877
 21
127.492443
 31
0.0
  0
LINE
  5
522
100
AcDbEntity
  8
Layer_1
 62
5
100
AcDbLine
 10
205.580877
 20
127.492443
 30
0.0
 11
202.344993
 21
123.403029
 31
0.0
  0
LINE
  5
523
100
AcDbEntity
  8
Layer_1
 62
5
100
AcDbLine
 10
202.344993
 20
123.403029
 30
0.0
 11
209.032483
 21
116.715539
 31
0.0
  0
LINE
  5
524
100
AcDbEntity
  8
Layer_1
 62
5
100
AcDbLine
 10
209.032483
 20
116.715539
 30
0.0
 11
213.121897
 21
119.951423
 31
0.0
  0
LINE
  5
525
100
AcDbEntity
  8
Layer_1
 62
5
100
AcDbLine
 10
213.121897
 20
119.951423
 30
0.0
 11
215.889826
 21
121.209801
 31
0.0
  0
LINE
  5
526
100
AcDbEntity
  8
Layer_1
 62
5
100
AcDbLine
 10
215.889826
 20
121.209801
 30
0.0
 11
225.213099
 21
122.131231
 31
0.0
  0
LINE
  5
527
100
AcDbEntity
  8
Layer_1
 62
5
100
AcDbLine
 10
225.213099
 20
122.131231
 30
0.0
 11
227.749162
 21
117.738640
 31
0.0
  0
LINE
  5
528
100
AcDbEntity
  8
Layer_1
 62
5
100
AcDbLine
 10
227.749162
 20
117.738640
 30
0.0
 11
222.289545
 21
110.125165
 31
0.0
  0
LINE
  5
529
100
AcDbEntity
  8
Layer_1
 62
5
100
AcDbLine
 10
222.289545
 20
110.125165
 30
0.0
 11
219.815794
 21
108.357257
 31
0.0
  0
LINE
  5
52a
100
AcDbEntity
  8
Layer_1
 62
5
100
AcDbLine
 10
219.815794
 20
108.357257
 30
0.0
 11
214.968729
 21
106.433661
 31
0.0
  0
LINE
  5
52b
100
AcDbEntity
  8
Layer_1
 62
5
100
AcDbLine
 10
214.968729
 20
106.433661
 30
0.0
 11
217.416518
 21
97.298379
 31
0.0
  0
LINE
  5
52c
100
AcDbEntity
  8
Layer_1
 62
5
100
AcDbLine
 10
217.416518
 20
97.298379
 30
0.0
 11
222.575998
 21
98.056030
 31
0.0
  0
LINE
  5
52d
100
AcDbEntity
  8
Layer_1
 62
5
100
AcDbLine
 10
222.575998
 20
98.056030
 30
0.0
 11
225.602284
 21
97.761855
 31
0.0
  0
LINE
  5
52e
100
AcDbEntity
  8
Layer_1
 62
5
100
AcDbLine
 10
225.602284
 20
97.761855
 30
0.0
 11
234.137189
 21
93.898202
 31
0.0
  0
LINE
  5
52f
100
AcDbEntity
  8
Layer_1
 62
5
100
AcDbLine
 10
234.137189
 20
93.898202
 30
0.0
 11
234.137189
 21
88.826070
 31
0.0
  0
LINE
  5
530
100
AcDbEntity
  8
Layer_1
 62
5
100
AcDbLine
 10
234.137189
 20
88.826070
 30
0.0
 11
225.602284
 21
84.962417
 31
0.0
  0
LINE
  5
531
100
AcDbEntity
  8
Layer_1
 62
5
100
AcDbLine
 10
225.602284
 20
84.962417
 30
0.0
 11
222.575998
 21
84.668243
 31
0.0
  0
LINE
  5
532
100
AcDbEntity
  8
Layer_1
 62
5
100
AcDbLine
 10
222.575998
 20
84.668243
 30
0.0
 11
217.416518
 21
85.425894
 31
0.0
  0
LINE
  5
533
100
AcDbEntity
  8
Layer_1
 62
5
100
AcDbLine
 10
217.416518
 20
85.425894
 30
0.0
 11
214.968729
 21
76.290611
 31
0.0
  0
LINE
  5
534
100
AcDbEntity
  8
Layer_1
 62
5
100
AcDbLine
 10
214.968729
 20
76.290611
 30
0.0
 11
219.815794
 21
74.367016
 31
0.0
  0
LINE
  5
535
100
AcDbEntity
  8
Layer_1
 62
5
100
AcDbLine
 10
219.815794
 20
74.367016
 30
0.0
 11
222.289545
 21
72.599108
 31
0.0
  0
LINE
  5
536
100
AcDbEntity
  8
Layer_1
 62
5
100
AcDbLine
 10
222.289545
 20
72.599108
 30
0.0
 11
227.749162
 21
64.985633
 31
0.0
  0
LINE
  5
537
100
AcDbEntity
  8
Layer_1
 62
5
100
AcDbLine
 10
227.749162
 20
64.985633
 30
0.0
 11
225.213099
 21
60.593041
 31
0.0
  0
LINE
  5
538
100
AcDbEntity
  8
Layer_1
 62
5
100
AcDbLine
 10
225.213099
 20
60.593041
 30
0.0
 11
215.889826
 21
61.514471
 31
0.0
  0
LINE
  5
539
100
AcDbEntity
  8
Layer_1
 62
5
100
AcDbLine
 10
215.889826
 20
61.514471
 30
0.0
 11
213.121897
 21
62.772849
 31
0.0
  0
LINE
  5
53a
100
AcDbEntity
  8
Layer_1
 62
5
100
AcDbLine
 10
213.121897
 20
62.772849
 30
0.0
 11
209.032483
 21
66.008733
 31
0.0
  0
LINE
  5
53b
100
AcDbEntity
  8
Layer_1
 62
5
100
AcDbLine
 10
209.032483
 20
66.008733
 30
0.0
 11
202.344993
 21
59.321243
 31
0.0
  0
LINE
  5
53c
100
AcDbEntity
  8
Layer_1
 62
5
100
AcDbLine
 10
202.344993
 20
59.321243
 30
0.0
 11
205.580877
 21
55.231829
 31
0.0
  0
LINE
  5
53d
100
AcDbEntity
  8
Layer_1
 62
5
100
AcDbLine
 10
205.580877
 20
55.231829
 30
0.0
 11
206.839255
 21
52.463906
 31
0.0
  0
LINE
  5
53e
100
AcDbEntity
  8
Layer_1
 62
5
100
AcDbLine
 10
206.839255
 20
52.463906
 30
0.0
 11
207.760685
 21
43.140639
 31
0.0
  0
LINE
  5
53f
100
AcDbEntity
  8
Layer_1
 62
5
100
AcDbLine
 10
207.760685
 20
43.140639
 30
0.0
 11
203.368094
 21
40.604561
 31
0.0
  0
LINE
  5
540
100
AcDbEntity
  8
Layer_1
 62
5
100
AcDbLine
 10
203.368094
 20
40.604561
 30
0.0
 11
195.754619
 21
46.064179
 31
0.0
  0
LINE
  5
541
100
AcDbEntity
  8
Layer_1
 62
5
100
AcDbLine
 10
195.754619
 20
46.064179
 30
0.0
 11
193.986711
 21
48.537941
 31
0.0
  0
LINE
  5
542
100
AcDbEntity
  8
Layer_1
 62
5
100
AcDbLine
 10
193.986711
 20
48.537941
 30
0.0
 11
192.063115
 21
53.384998
 31
0.0
  0
LINE
  5
543
100
AcDbEntity
  8
Layer_1
 62
5
100
AcDbLine
 10
192.063115
 20
53.384998
 30
0.0
 11
182.927833
 21
50.937197
 31
0.0
  0
LINE
  5
544
100
AcDbEntity
  8
Layer_1
 62
1
100
AcDbLine
 10
206.984848
 20
89.860979
 30
0.0
 11
196.984842
 21
89.860979
 31
0.0
  0
LINE
  5
545
100
AcDbEntity
  8
Layer_1
 62
1
100
AcDbLine
 10
196.984842
 20
89.860979
 30
0.0
 11
196.984842
 21
92.860973
 31
0.0
  0
LINE
  5
546
100
AcDbEntity
  8
Layer_1
 62
1
100
AcDbLine
 10
196.984842
 20
92.860973
 30
0.0
 11
206.984848
 21
92.860973
 31
0.0
  0
LINE
  5
547
100
AcDbEntity
  8
Layer_1
 62
1
100
AcDbLine
 10
206.984848
 20
92.860973
 30
0.0
 11
206.984848
 21
89.860979
 31
0.0
  0
LINE
  5
548
100
AcDbEntity
  8
Layer_1
 62
1
100
AcDbLine
 10
186.984718
 20
92.860812
 30
0.0
 11
178.554983
 21
92.860812
 31
0.0
  0
LINE
  5
549
100
AcDbEntity
  8
Layer_1
 62
1
100
AcDbLine
 10
178.554983
 20
92.860812
 30
0.0
 11
178.554983
 21
101.355591
 31
0.0
  0
LINE
  5
54a
100
AcDbEntity
  8
Layer_1
 62
1
100
AcDbLine
 10
178.554983
 20
101.355591
 30
0.0
 11
175.555271
 21
101.355591
 31
0.0
  0
LINE
  5
54b
100
AcDbEntity
  8
Layer_1
 62
1
100
AcDbLine
 10
175.555271
 20
101.355591
 30
0.0
 11
175.555271
 21
92.860812
 31
0.0
  0
LINE
  5
54c
100
AcDbEntity
  8
Layer_1
 62
1
100
AcDbLine
 10
175.555271
 20
92.860812
 30
0.0
 11
166.998203
 21
92.860812
 31
0.0
  0
LINE
  5
54d
100
AcDbEntity
  8
Layer_1
 62
1
100
AcDbLine
 10
166.998203
 20
92.860812
 30
0.0
 11
166.998203
 21
89.861101
 31
0.0
  0
LINE
  5
54e
100
AcDbEntity
  8
Layer_1
 62
1
100
AcDbLine
 10
166.998203
 20
89.861101
 30
0.0
 11
175.555271
 21
89.861101
 31
0.0
  0
LINE
  5
54f
100
AcDbEntity
  8
Layer_1
 62
1
100
AcDbLine
 10
175.555271
 20
89.861101
 30
0.0
 11
175.555271
 21
81.369076
 31
0.0
  0
LINE
  5
550
100
AcDbEntity
  8
Layer_1
 62
1
100
AcDbLine
 10
175.555271
 20
81.369076
 30
0.0
 11
178.554983
 21
81.369076
 31
0.0
  0
LINE
  5
551
100
AcDbEntity
  8
Layer_1
 62
1
100
AcDbLine
 10
178.554983
 20
81.369076
 30
0.0
 11
178.554983
 21
89.861101
 31
0.0
  0
LINE
  5
552
100
AcDbEntity
  8
Layer_1
 62
1
100
AcDbLine
 10
178.554983
 20
89.861101
 30
0.0
 11
186.984718
 21
89.861101
 31
0.0
  0
LINE
  5
553
100
AcDbEntity
  8
Layer_1
 62
1
100
AcDbLine
 10
186.984718
 20
89.861101
 30
0.0
 11
186.984718
 21
92.860812
 31
0.0
  0
LINE
  5
554
100
AcDbEntity
  8
Layer_1
 62
1
100
AcDbLine
 10
186.984718
 20
92.860812
 30
0.0
 11
186.984718
 21
92.860812
 31
0.0
  0
SPLINE
  5
555
100
AcDbEntity
  8
Layer_1
 62
1
100
AcDbSpline
 70
8
 71
3
 72
8
 73
4
 74
0
 40
0
 40
0
 40
0
 40
0
 40
1
 40
1
 40
1
 40
1
 10
190.434885
 20
91.362111
 30
0.0
 10
190.434885
 20
91.773197
 30
0.0
 10
190.598188
 20
92.167446
 30
0.0
 10
190.888869
 20
92.458128
 30
0.0
  0
SPLINE
  5
556
100
AcDbEntity
  8
Layer_1
 62
1
100
AcDbSpline
 70
8
 71
3
 72
8
 73
4
 74
0
 40
0
 40
0
 40
0
 40
0
 40
1
 40
1
 40
1
 40
1
 10
190.888869
 20
92.458128
 30
0.0
 10
191.179551
 20
92.748809
 30
0.0
 10
191.573800
 20
92.912112
 30
0.0
 10
191.984886
 20
92.912112
 30
0.0
  0
SPLINE
  5
557
100
AcDbEntity
  8
Layer_1
 62
1
100
AcDbSpline
 70
8
 71
3
 72
8
 73
4
 74
0
 40
0
 40
0
 40
0
 40
0
 40
1
 40
1
 40
1
 40
1
 10
191.984886
 20
92.912112
 30
0.0
 10
192.395972
 20
92.912112
 30
0.0
 10
192.790220
 20
92.748808
 30
0.0
 10
193.080901
 20
92.458127
 30
0.0
  0
SPLINE
  5
558
100
AcDbEntity
  8
Layer_1
 62
1
100
AcDbSpline
 70
8
 71
3
 72
8
 73
4
 74
0
 40
0
 40
0
 40
0
 40
0
 40
1
 40
1
 40
1
 40
1
 10
193.080901
 20
92.458127
 30
0.0
 10
193.371582
 20
92.167445
 30
0.0
 10
193.534885
 20
91.773196
 30
0.0
 10
193.534885
 20
91.362111
 30
0.0
  0
SPLINE
  5
559
100
AcDbEntity
  8
Layer_1
 62
1
100
AcDbSpline
 70
8
 71
3
 72
8
 73
4
 74
0
 40
0
 40
0
 40
0
 40
0
 40
1
 40
1
 40
1
 40
1
 10
193.534885
 20
91.362111
 30
0.0
 10
193.534884
 20
90.506071
 30
0.0
 10
192.840926
 20
89.812113
 30
0.0
 10
191.984886
 20
89.812112
 30
0.0
  0
SPLINE
  5
55a
100
AcDbEntity
  8
Layer_1
 62
1
100
AcDbSpline
 70
8
 71
3
 72
8
 73
4
 74
0
 40
0
 40
0
 40
0
 40
0
 40
1
 40
1
 40
1
 40
1
 10
191.984886
 20
89.812112
 30
0.0
 10
191.573801
 20
89.812112
 30
0.0
 10
191.179552
 20
89.975415
 30
0.0
 10
190.888870
 20
90.266096
 30
0.0
  0
SPLINE
  5
55b
100
AcDbEntity
  8
Layer_1
 62
1
100
AcDbSpline
 70
8
 71
3
 72
8
 73
4
 74
0
 40
0
 40
0
 40
0
 40
0
 40
1
 40
1
 40
1
 40
1
 10
190.888870
 20
90.266096
 30
0.0
 10
190.598189
 20
90.556777
 30
0.0
 10
190.434885
 20
90.951025
 30
0.0
 10
190.434885
 20
91.362111
 30
0.0
  0
LINE
  5
55c
100
AcDbEntity
  8
Layer_1
 62
1
100
AcDbLine
 10
190.434885
 20
91.362111
 30
0.0
 11
190.434885
 21
91.362111
 31
0.0
  0
LINE
  5
55d
100
AcDbEntity
  8
Layer_1
 62
1
100
AcDbLine
 10
156.998338
 20
89.860979
 30
0.0
 11
146.998333
 21
89.860979
 31
0.0
  0
LINE
  5
55e
100
AcDbEntity
  8
Layer_1
 62
1
100
AcDbLine
 10
146.998333
 20
89.860979
 30
0.0
 11
146.998333
 21
92.860973
 31
0.0
  0
LINE
  5
55f
100
AcDbEntity
  8
Layer_1
 62
1
100
AcDbLine
 10
146.998333
 20
92.860973
 30
0.0
 11
156.998338
 21
92.860973
 31
0.0
  0
LINE
  5
560
100
AcDbEntity
  8
Layer_1
 62
1
100
AcDbLine
 10
156.998338
 20
92.860973
 30
0.0
 11
156.998338
 21
89.860979
 31
0.0
  0
SPLINE
  5
561
100
AcDbEntity
  8
Layer_1
 62
1
100
AcDbSpline
 70
8
 71
3
 72
8
 73
4
 74
0
 40
0
 40
0
 40
0
 40
0
 40
1
 40
1
 40
1
 40
1
 10
160.448327
 20
91.362111
 30
0.0
 10
160.448327
 20
91.773196
 30
0.0
 10
160.611629
 20
92.167445
 30
0.0
 10
160.902311
 20
92.458127
 30
0.0
  0
SPLINE
  5
562
100
AcDbEntity
  8
Layer_1
 62
1
100
AcDbSpline
 70
8
 71
3
 72
8
 73
4
 74
0
 40
0
 40
0
 40
0
 40
0
 40
1
 40
1
 40
1
 40
1
 10
160.902311
 20
92.458127
 30
0.0
 10
161.192992
 20
92.748808
 30
0.0
 10
161.587240
 20
92.912112
 30
0.0
 10
161.998326
 20
92.912112
 30
0.0
  0
SPLINE
  5
563
100
AcDbEntity
  8
Layer_1
 62
1
100
AcDbSpline
 70
8
 71
3
 72
8
 73
4
 74
0
 40
0
 40
0
 40
0
 40
0
 40
1
 40
1
 40
1
 40
1
 10
161.998326
 20
92.912112
 30
0.0
 10
162.409411
 20
92.912112
 30
0.0
 10
162.803659
 20
92.748808
 30
0.0
 10
163.094341
 20
92.458127
 30
0.0
  0
SPLINE
  5
564
100
AcDbEntity
  8
Layer_1
 62
1
100
AcDbSpline
 70
8
 71
3
 72
8
 73
4
 74
0
 40
0
 40
0
 40
0
 40
0
 40
1
 40
1
 40
1
 40
1
 10
163.094341
 20
92.458127
 30
0.0
 10
163.385022
 20
92.167445
 30
0.0
 10
163.548324
 20
91.773196
 30
0.0
 10
163.548324
 20
91.362111
 30
0.0
  0
SPLINE
  5
565
100
AcDbEntity
  8
Layer_1
 62
1
100
AcDbSpline
 70
8
 71
3
 72
8
 73
4
 74
0
 40
0
 40
0
 40
0
 40
0
 40
1
 40
1
 40
1
 40
1
 10
163.548324
 20
91.362111
 30
0.0
 10
163.548323
 20
90.506071
 30
0.0
 10
162.854366
 20
89.812113
 30
0.0
 10
161.998326
 20
89.812112
 30
0.0
  0
SPLINE
  5
566
100
AcDbEntity
  8
Layer_1
 62
1
100
AcDbSpline
 70
8
 71
3
 72
8
 73
4
 74
0
 40
0
 40
0
 40
0
 40
0
 40
1
 40
1
 40
1
 40
1
 10
161.998326
 20
89.812112
 30
0.0
 10
161.142285
 20
89.812113
 30
0.0
 10
160.448328
 20
90.506071
 30
0.0
 10
160.448327
 20
91.362111
 30
0.0
  0
LINE
  5
567
100
AcDbEntity
  8
Layer_1
 62
1
100
AcDbLine
 10
160.448327
 20
91.362111
 30
0.0
 11
160.448327
 21
91.362111
 31
0.0
  0
LINE
  5
568
100
AcDbEntity
  8
Layer_1
 62
1
100
AcDbLine
 10
175.555260
 20
61.368878
 30
0.0
 11
175.555260
 21
71.368884
 31
0.0
  0
LINE
  5
569
100
AcDbEntity
  8
Layer_1
 62
1
100
AcDbLine
 10
175.555260
 20
71.368884
 30
0.0
 11
178.555254
 21
71.368884
 31
0.0
  0
LINE
  5
56a
100
AcDbEntity
  8
Layer_1
 62
1
100
AcDbLine
 10
178.555254
 20
71.368884
 30
0.0
 11
178.555254
 21
61.368878
 31
0.0
  0
LINE
  5
56b
100
AcDbEntity
  8
Layer_1
 62
1
100
AcDbLine
 10
178.555254
 20
61.368878
 30
0.0
 11
175.555260
 21
61.368878
 31
0.0
  0
SPLINE
  5
56c
100
AcDbEntity
  8
Layer_1
 62
1
100
AcDbSpline
 70
8
 71
3
 72
8
 73
4
 74
0
 40
0
 40
0
 40
0
 40
0
 40
1
 40
1
 40
1
 40
1
 10
177.056391
 20
77.918842
 30
0.0
 10
177.467477
 20
77.918842
 30
0.0
 10
177.861727
 20
77.755539
 30
0.0
 10
178.152408
 20
77.464857
 30
0.0
  0
SPLINE
  5
56d
100
AcDbEntity
  8
Layer_1
 62
1
100
AcDbSpline
 70
8
 71
3
 72
8
 73
4
 74
0
 40
0
 40
0
 40
0
 40
0
 40
1
 40
1
 40
1
 40
1
 10
178.152408
 20
77.464857
 30
0.0
 10
178.443090
 20
77.174176
 30
0.0
 10
178.606393
 20
76.779926
 30
0.0
 10
178.606393
 20
76.368840
 30
0.0
  0
SPLINE
  5
56e
100
AcDbEntity
  8
Layer_1
 62
1
100
AcDbSpline
 70
8
 71
3
 72
8
 73
4
 74
0
 40
0
 40
0
 40
0
 40
0
 40
1
 40
1
 40
1
 40
1
 10
178.606393
 20
76.368840
 30
0.0
 10
178.606392
 20
75.957755
 30
0.0
 10
178.443089
 20
75.563506
 30
0.0
 10
178.152407
 20
75.272825
 30
0.0
  0
SPLINE
  5
56f
100
AcDbEntity
  8
Layer_1
 62
1
100
AcDbSpline
 70
8
 71
3
 72
8
 73
4
 74
0
 40
0
 40
0
 40
0
 40
0
 40
1
 40
1
 40
1
 40
1
 10
178.152407
 20
75.272825
 30
0.0
 10
177.861726
 20
74.982144
 30
0.0
 10
177.467477
 20
74.818842
 30
0.0
 10
177.056391
 20
74.818842
 30
0.0
  0
SPLINE
  5
570
100
AcDbEntity
  8
Layer_1
 62
1
100
AcDbSpline
 70
8
 71
3
 72
8
 73
4
 74
0
 40
0
 40
0
 40
0
 40
0
 40
1
 40
1
 40
1
 40
1
 10
177.056391
 20
74.818842
 30
0.0
 10
176.200351
 20
74.818843
 30
0.0
 10
175.506394
 20
75.512800
 30
0.0
 10
175.506393
 20
76.368840
 30
0.0
  0
SPLINE
  5
571
100
AcDbEntity
  8
Layer_1
 62
1
100
AcDbSpline
 70
8
 71
3
 72
8
 73
4
 74
0
 40
0
 40
0
 40
0
 40
0
 40
1
 40
1
 40
1
 40
1
 10
175.506393
 20
76.368840
 30
0.0
 10
175.506393
 20
76.779926
 30
0.0
 10
175.669695
 20
77.174175
 30
0.0
 10
175.960376
 20
77.464856
 30
0.0
  0
SPLINE
  5
572
100
AcDbEntity
  8
Layer_1
 62
1
100
AcDbSpline
 70
8
 71
3
 72
8
 73
4
 74
0
 40
0
 40
0
 40
0
 40
0
 40
1
 40
1
 40
1
 40
1
 10
175.960376
 20
77.464856
 30
0.0
 10
176.251057
 20
77.755538
 30
0.0
 10
176.645306
 20
77.918841
 30
0.0
 10
177.056391
 20
77.918842
 30
0.0
  0
LINE
  5
573
100
AcDbEntity
  8
Layer_1
 62
1
100
AcDbLine
 10
177.056391
 20
77.918842
 30
0.0
 11
177.056391
 21
77.918842
 31
0.0
  0
LINE
  5
574
100
AcDbEntity
  8
Layer_1
 62
1
100
AcDbLine
 10
175.555260
 20
111.355388
 30
0.0
 11
175.555260
 21
121.355394
 31
0.0
  0
LINE
  5
575
100
AcDbEntity
  8
Layer_1
 62
1
100
AcDbLine
 10
175.555260
 20
121.355394
 30
0.0
 11
178.555254
 21
121.355394
 31
0.0
  0
LINE
  5
576
100
AcDbEntity
  8
Layer_1
 62
1
100
AcDbLine
 10
178.555254
 20
121.355394
 30
0.0
 11
178.555254
 21
111.355388
 31
0.0
  0
LINE
  5
577
100
AcDbEntity
  8
Layer_1
 62
1
100
AcDbLine
 10
178.555254
 20
111.355388
 30
0.0
 11
175.555260
 21
111.355388
 31
0.0
  0
SPLINE
  5
578
100
AcDbEntity
  8
Layer_1
 62
1
100
AcDbSpline
 70
8
 71
3
 72
8
 73
4
 74
0
 40
0
 40
0
 40
0
 40
0
 40
1
 40
1
 40
1
 40
1
 10
177.056391
 20
107.905399
 30
0.0
 10
177.467477
 20
107.905400
 30
0.0
 10
177.861726
 20
107.742097
 30
0.0
 10
178.152407
 20
107.451416
 30
0.0
  0
SPLINE
  5
579
100
AcDbEntity
  8
Layer_1
 62
1
100
AcDbSpline
 70
8
 71
3
 72
8
 73
4
 74
0
 40
0
 40
0
 40
0
 40
0
 40
1
 40
1
 40
1
 40
1
 10
178.152407
 20
107.451416
 30
0.0
 10
178.443089
 20
107.160735
 30
0.0
 10
178.606392
 20
106.766486
 30
0.0
 10
178.606393
 20
106.355401
 30
0.0
  0
SPLINE
  5
57a
100
AcDbEntity
  8
Layer_1
 62
1
100
AcDbSpline
 70
8
 71
3
 72
8
 73
4
 74
0
 40
0
 40
0
 40
0
 40
0
 40
1
 40
1
 40
1
 40
1
 10
178.606393
 20
106.355401
 30
0.0
 10
178.606392
 20
105.944315
 30
0.0
 10
178.443089
 20
105.550067
 30
0.0
 10
178.152407
 20
105.259386
 30
0.0
  0
SPLINE
  5
57b
100
AcDbEntity
  8
Layer_1
 62
1
100
AcDbSpline
 70
8
 71
3
 72
8
 73
4
 74
0
 40
0
 40
0
 40
0
 40
0
 40
1
 40
1
 40
1
 40
1
 10
178.152407
 20
105.259386
 30
0.0
 10
177.861726
 20
104.968705
 30
0.0
 10
177.467477
 20
104.805402
 30
0.0
 10
177.056391
 20
104.805403
 30
0.0
  0
SPLINE
  5
57c
100
AcDbEntity
  8
Layer_1
 62
1
100
AcDbSpline
 70
8
 71
3
 72
8
 73
4
 74
0
 40
0
 40
0
 40
0
 40
0
 40
1
 40
1
 40
1
 40
1
 10
177.056391
 20
104.805403
 30
0.0
 10
176.200351
 20
104.805403
 30
0.0
 10
175.506394
 20
105.499361
 30
0.0
 10
175.506393
 20
106.355401
 30
0.0
  0
SPLINE
  5
57d
100
AcDbEntity
  8
Layer_1
 62
1
100
AcDbSpline
 70
8
 71
3
 72
8
 73
4
 74
0
 40
0
 40
0
 40
0
 40
0
 40
1
 40
1
 40
1
 40
1
 10
175.506393
 20
106.355401
 30
0.0
 10
175.506394
 20
107.211441
 30
0.0
 10
176.200351
 20
107.905399
 30
0.0
 10
177.056391
 20
107.905399
 30
0.0
  0
LINE
  5
57e
100
AcDbEntity
  8
Layer_1
 62
1
100
AcDbLine
 10
177.056391
 20
107.905399
 30
0.0
 11
177.056391
 21
107.905399
 31
0.0
  0
SPLINE
  5
57f
100
AcDbEntity
  8
Layer_1
 62
3
100
AcDbSpline
 70
8
 71
3
 72
8
 73
4
 74
0
 40
0
 40
0
 40
0
 40
0
 40
1
 40
1
 40
1
 40
1
 10
233.182310
 20
276.015117
 30
0.0
 10
233.470252
 20
276.015117
 30
0.0
 10
233.741251
 20
275.961481
 30
0.0
 10
233.995307
 20
275.854208
 30
0.0
  0
SPLINE
  5
580
100
AcDbEntity
  8
Layer_1
 62
3
100
AcDbSpline
 70
8
 71
3
 72
8
 73
4
 74
0
 40
0
 40
0
 40
0
 40
0
 40
1
 40
1
 40
1
 40
1
 10
233.995307
 20
275.854208
 30
0.0
 10
234.255027
 20
275.746937
 30
0.0
 10
234.483693
 20
275.594500
 30
0.0
 10
234.681305
 20
275.396895
 30
0.0
  0
SPLINE
  5
581
100
AcDbEntity
  8
Layer_1
 62
3
100
AcDbSpline
 70
8
 71
3
 72
8
 73
4
 74
0
 40
0
 40
0
 40
0
 40
0
 40
1
 40
1
 40
1
 40
1
 10
234.681305
 20
275.396895
 30
0.0
 10
234.878898
 20
275.199291
 30
0.0
 10
235.031336
 20
274.970633
 30
0.0
 10
235.138618
 20
274.710923
 30
0.0
  0
SPLINE
  5
582
100
AcDbEntity
  8
Layer_1
 62
3
100
AcDbSpline
 70
8
 71
3
 72
8
 73
4
 74
0
 40
0
 40
0
 40
0
 40
0
 40
1
 40
1
 40
1
 40
1
 10
235.138618
 20
274.710923
 30
0.0
 10
235.245881
 20
274.456853
 30
0.0
 10
235.299513
 20
274.185857
 30
0.0
 10
235.299513
 20
273.897934
 30
0.0
  0
LINE
  5
583
100
AcDbEntity
  8
Layer_1
 62
3
100
AcDbLine
 10
235.299513
 20
273.897934
 30
0.0
 11
235.299513
 21
273.051042
 31
0.0
  0
SPLINE
  5
584
100
AcDbEntity
  8
Layer_1
 62
3
100
AcDbSpline
 70
8
 71
3
 72
8
 73
4
 74
0
 40
0
 40
0
 40
0
 40
0
 40
1
 40
1
 40
1
 40
1
 10
235.299513
 20
273.051042
 30
0.0
 10
235.299513
 20
272.763100
 30
0.0
 10
235.245881
 20
272.489278
 30
0.0
 10
235.138618
 20
272.229577
 30
0.0
  0
SPLINE
  5
585
100
AcDbEntity
  8
Layer_1
 62
3
100
AcDbSpline
 70
8
 71
3
 72
8
 73
4
 74
0
 40
0
 40
0
 40
0
 40
0
 40
1
 40
1
 40
1
 40
1
 10
235.138618
 20
272.229577
 30
0.0
 10
235.031336
 20
271.975502
 30
0.0
 10
234.878898
 20
271.749668
 30
0.0
 10
234.681305
 20
271.552075
 30
0.0
  0
SPLINE
  5
586
100
AcDbEntity
  8
Layer_1
 62
3
100
AcDbSpline
 70
8
 71
3
 72
8
 73
4
 74
0
 40
0
 40
0
 40
0
 40
0
 40
1
 40
1
 40
1
 40
1
 10
234.681305
 20
271.552075
 30
0.0
 10
234.483693
 20
271.354463
 30
0.0
 10
234.255027
 20
271.202025
 30
0.0
 10
233.995307
 20
271.094762
 30
0.0
  0
SPLINE
  5
587
100
AcDbEntity
  8
Layer_1
 62
3
100
AcDbSpline
 70
8
 71
3
 72
8
 73
4
 74
0
 40
0
 40
0
 40
0
 40
0
 40
1
 40
1
 40
1
 40
1
 10
233.995307
 20
271.094762
 30
0.0
 10
233.741251
 20
270.987480
 30
0.0
 10
233.470252
 20
270.933839
 30
0.0
 10
233.182310
 20
270.933839
 30
0.0
  0
LINE
  5
588
100
AcDbEntity
  8
Layer_1
 62
3
100
AcDbLine
 10
233.182310
 20
270.933839
 30
0.0
 11
231.488553
 21
270.933839
 31
0.0
  0
SPLINE
  5
589
100
AcDbEntity
  8
Layer_1
 62
3
100
AcDbSpline
 70
8
 71
3
 72
8
 73
4
 74
0
 40
0
 40
0
 40
0
 40
0
 40
1
 40
1
 40
1
 40
1
 10
231.488553
 20
270.933839
 30
0.0
 10
231.370001
 20
270.933839
 30
0.0
 10
231.268382
 20
270.973359
 30
0.0
 10
231.183696
 20
271.052400
 30
0.0
  0
SPLINE
  5
58a
100
AcDbEntity
  8
Layer_1
 62
3
100
AcDbSpline
 70
8
 71
3
 72
8
 73
4
 74
0
 40
0
 40
0
 40
0
 40
0
 40
1
 40
1
 40
1
 40
1
 10
231.183696
 20
271.052400
 30
0.0
 10
231.104655
 20
271.137086
 30
0.0
 10
231.065135
 20
271.238714
 30
0.0
 10
231.065135
 20
271.357285
 30
0.0
  0
SPLINE
  5
58b
100
AcDbEntity
  8
Layer_1
 62
3
100
AcDbSpline
 70
8
 71
3
 72
8
 73
4
 74
0
 40
0
 40
0
 40
0
 40
0
 40
1
 40
1
 40
1
 40
1
 10
231.065135
 20
271.357285
 30
0.0
 10
231.065135
 20
271.475856
 30
0.0
 10
231.104655
 20
271.574662
 30
0.0
 10
231.183696
 20
271.653703
 30
0.0
  0
SPLINE
  5
58c
100
AcDbEntity
  8
Layer_1
 62
3
100
AcDbSpline
 70
8
 71
3
 72
8
 73
4
 74
0
 40
0
 40
0
 40
0
 40
0
 40
1
 40
1
 40
1
 40
1
 10
231.183696
 20
271.653703
 30
0.0
 10
231.268382
 20
271.738388
 30
0.0
 10
231.370001
 20
271.780731
 30
0.0
 10
231.488553
 20
271.780731
 30
0.0
  0
LINE
  5
58d
100
AcDbEntity
  8
Layer_1
 62
3
100
AcDbLine
 10
231.488553
 20
271.780731
 30
0.0
 11
233.182310
 21
271.780731
 31
0.0
  0
SPLINE
  5
58e
100
AcDbEntity
  8
Layer_1
 62
3
100
AcDbSpline
 70
8
 71
3
 72
8
 73
4
 74
0
 40
0
 40
0
 40
0
 40
0
 40
1
 40
1
 40
1
 40
1
 10
233.182310
 20
271.780731
 30
0.0
 10
233.357344
 20
271.780731
 30
0.0
 10
233.521080
 20
271.814607
 30
0.0
 10
233.673517
 20
271.882359
 30
0.0
  0
SPLINE
  5
58f
100
AcDbEntity
  8
Layer_1
 62
3
100
AcDbSpline
 70
8
 71
3
 72
8
 73
4
 74
0
 40
0
 40
0
 40
0
 40
0
 40
1
 40
1
 40
1
 40
1
 10
233.673517
 20
271.882359
 30
0.0
 10
233.831600
 20
271.950111
 30
0.0
 10
233.967094
 20
272.040441
 30
0.0
 10
234.080002
 20
272.153349
 30
0.0
  0
SPLINE
  5
590
100
AcDbEntity
  8
Layer_1
 62
3
100
AcDbSpline
 70
8
 71
3
 72
8
 73
4
 74
0
 40
0
 40
0
 40
0
 40
0
 40
1
 40
1
 40
1
 40
1
 10
234.080002
 20
272.153349
 30
0.0
 10
234.192929
 20
272.266276
 30
0.0
 10
234.283268
 20
272.398958
 30
0.0
 10
234.351020
 20
272.551395
 30
0.0
  0
SPLINE
  5
591
100
AcDbEntity
  8
Layer_1
 62
3
100
AcDbSpline
 70
8
 71
3
 72
8
 73
4
 74
0
 40
0
 40
0
 40
0
 40
0
 40
1
 40
1
 40
1
 40
1
 10
234.351020
 20
272.551395
 30
0.0
 10
234.418753
 20
272.709477
 30
0.0
 10
234.452620
 20
272.876026
 30
0.0
 10
234.452620
 20
273.051042
 30
0.0
  0
LINE
  5
592
100
AcDbEntity
  8
Layer_1
 62
3
100
AcDbLine
 10
234.452620
 20
273.051042
 30
0.0
 11
234.452620
 21
273.897934
 31
0.0
  0
SPLINE
  5
593
100
AcDbEntity
  8
Layer_1
 62
3
100
AcDbSpline
 70
8
 71
3
 72
8
 73
4
 74
0
 40
0
 40
0
 40
0
 40
0
 40
1
 40
1
 40
1
 40
1
 10
234.452620
 20
273.897934
 30
0.0
 10
234.452620
 20
274.072949
 30
0.0
 10
234.418753
 20
274.236676
 30
0.0
 10
234.351020
 20
274.389114
 30
0.0
  0
SPLINE
  5
594
100
AcDbEntity
  8
Layer_1
 62
3
100
AcDbSpline
 70
8
 71
3
 72
8
 73
4
 74
0
 40
0
 40
0
 40
0
 40
0
 40
1
 40
1
 40
1
 40
1
 10
234.351020
 20
274.389114
 30
0.0
 10
234.283268
 20
274.547196
 30
0.0
 10
234.192929
 20
274.682695
 30
0.0
 10
234.080002
 20
274.795612
 30
0.0
  0
SPLINE
  5
595
100
AcDbEntity
  8
Layer_1
 62
3
100
AcDbSpline
 70
8
 71
3
 72
8
 73
4
 74
0
 40
0
 40
0
 40
0
 40
0
 40
1
 40
1
 40
1
 40
1
 10
234.080002
 20
274.795612
 30
0.0
 10
233.967094
 20
274.908529
 30
0.0
 10
233.831600
 20
274.998863
 30
0.0
 10
233.673517
 20
275.066613
 30
0.0
  0
SPLINE
  5
596
100
AcDbEntity
  8
Layer_1
 62
3
100
AcDbSpline
 70
8
 71
3
 72
8
 73
4
 74
0
 40
0
 40
0
 40
0
 40
0
 40
1
 40
1
 40
1
 40
1
 10
233.673517
 20
275.066613
 30
0.0
 10
233.521080
 20
275.134364
 30
0.0
 10
233.357344
 20
275.168239
 30
0.0
 10
233.182310
 20
275.168239
 30
0.0
  0
LINE
  5
597
100
AcDbEntity
  8
Layer_1
 62
3
100
AcDbLine
 10
233.182310
 20
275.168239
 30
0.0
 11
231.488553
 21
275.168239
 31
0.0
  0
SPLINE
  5
598
100
AcDbEntity
  8
Layer_1
 62
3
100
AcDbSpline
 70
8
 71
3
 72
8
 73
4
 74
0
 40
0
 40
0
 40
0
 40
0
 40
1
 40
1
 40
1
 40
1
 10
231.488553
 20
275.168239
 30
0.0
 10
231.370001
 20
275.168239
 30
0.0
 10
231.268382
 20
275.207759
 30
0.0
 10
231.183696
 20
275.286800
 30
0.0
  0
SPLINE
  5
599
100
AcDbEntity
  8
Layer_1
 62
3
100
AcDbSpline
 70
8
 71
3
 72
8
 73
4
 74
0
 40
0
 40
0
 40
0
 40
0
 40
1
 40
1
 40
1
 40
1
 10
231.183696
 20
275.286800
 30
0.0
 10
231.104655
 20
275.371488
 30
0.0
 10
231.065135
 20
275.473113
 30
0.0
 10
231.065135
 20
275.591677
 30
0.0
  0
LINE
  5
59a
100
AcDbEntity
  8
Layer_1
 62
3
100
AcDbLine
 10
231.065135
 20
275.591677
 30
0.0
 11
231.065135
 21
278.979190
 31
0.0
  0
SPLINE
  5
59b
100
AcDbEntity
  8
Layer_1
 62
3
100
AcDbSpline
 70
8
 71
3
 72
8
 73
4
 74
0
 40
0
 40
0
 40
0
 40
0
 40
1
 40
1
 40
1
 40
1
 10
231.065135
 20
278.979190
 30
0.0
 10
231.065135
 20
279.097753
 30
0.0
 10
231.104655
 20
279.196557
 30
0.0
 10
231.183696
 20
279.275600
 30
0.0
  0
SPLINE
  5
59c
100
AcDbEntity
  8
Layer_1
 62
3
100
AcDbSpline
 70
8
 71
3
 72
8
 73
4
 74
0
 40
0
 40
0
 40
0
 40
0
 40
1
 40
1
 40
1
 40
1
 10
231.183696
 20
279.275600
 30
0.0
 10
231.268382
 20
279.360287
 30
0.0
 10
231.370001
 20
279.402631
 30
0.0
 10
231.488553
 20
279.402631
 30
0.0
  0
LINE
  5
59d
100
AcDbEntity
  8
Layer_1
 62
3
100
AcDbLine
 10
231.488553
 20
279.402631
 30
0.0
 11
234.876066
 21
279.402631
 31
0.0
  0
SPLINE
  5
59e
100
AcDbEntity
  8
Layer_1
 62
3
100
AcDbSpline
 70
8
 71
3
 72
8
 73
4
 74
0
 40
0
 40
0
 40
0
 40
0
 40
1
 40
1
 40
1
 40
1
 10
234.876066
 20
279.402631
 30
0.0
 10
234.994637
 20
279.402631
 30
0.0
 10
235.093443
 20
279.360287
 30
0.0
 10
235.172484
 20
279.275600
 30
0.0
  0
SPLINE
  5
59f
100
AcDbEntity
  8
Layer_1
 62
3
100
AcDbSpline
 70
8
 71
3
 72
8
 73
4
 74
0
 40
0
 40
0
 40
0
 40
0
 40
1
 40
1
 40
1
 40
1
 10
235.172484
 20
279.275600
 30
0.0
 10
235.257170
 20
279.196557
 30
0.0
 10
235.299513
 20
279.097753
 30
0.0
 10
235.299513
 20
278.979190
 30
0.0
  0
SPLINE
  5
5a0
100
AcDbEntity
  8
Layer_1
 62
3
100
AcDbSpline
 70
8
 71
3
 72
8
 73
4
 74
0
 40
0
 40
0
 40
0
 40
0
 40
1
 40
1
 40
1
 40
1
 10
235.299513
 20
278.979190
 30
0.0
 10
235.299513
 20
278.860628
 30
0.0
 10
235.257170
 20
278.759003
 30
0.0
 10
235.172484
 20
278.674314
 30
0.0
  0
SPLINE
  5
5a1
100
AcDbEntity
  8
Layer_1
 62
3
100
AcDbSpline
 70
8
 71
3
 72
8
 73
4
 74
0
 40
0
 40
0
 40
0
 40
0
 40
1
 40
1
 40
1
 40
1
 10
235.172484
 20
278.674314
 30
0.0
 10
235.093443
 20
278.595273
 30
0.0
 10
234.994637
 20
278.555752
 30
0.0
 10
234.876066
 20
278.555752
 30
0.0
  0
LINE
  5
5a2
100
AcDbEntity
  8
Layer_1
 62
3
100
AcDbLine
 10
234.876066
 20
278.555752
 30
0.0
 11
231.911999
 21
278.555752
 31
0.0
  0
LINE
  5
5a3
100
AcDbEntity
  8
Layer_1
 62
3
100
AcDbLine
 10
231.911999
 20
278.555752
 30
0.0
 11
231.911999
 21
276.015117
 31
0.0
  0
LINE
  5
5a4
100
AcDbEntity
  8
Layer_1
 62
3
100
AcDbLine
 10
231.911999
 20
276.015117
 30
0.0
 11
233.182310
 21
276.015117
 31
0.0
  0
LINE
  5
5a5
100
AcDbEntity
  8
Layer_1
 62
3
100
AcDbLine
 10
233.182310
 20
276.015117
 30
0.0
 11
233.182310
 21
276.015117
 31
0.0
  0
LINE
  5
5a6
100
AcDbEntity
  8
Layer_1
 62
3
100
AcDbLine
 10
233.182310
 20
276.015117
 30
0.0
 11
233.182310
 21
276.015117
 31
0.0
  0
LINE
  5
5a7
100
AcDbEntity
  8
Layer_1
 62
5
100
AcDbLine
 10
286.510531
 20
265.669954
 30
0.0
 11
291.534928
 21
266.407767
 31
0.0
  0
LINE
  5
5a8
100
AcDbEntity
  8
Layer_1
 62
5
100
AcDbLine
 10
291.534928
 20
266.407767
 30
0.0
 11
294.481983
 21
266.121295
 31
0.0
  0
LINE
  5
5a9
100
AcDbEntity
  8
Layer_1
 62
5
100
AcDbLine
 10
294.481983
 20
266.121295
 30
0.0
 11
302.793433
 21
262.358796
 31
0.0
  0
LINE
  5
5aa
100
AcDbEntity
  8
Layer_1
 62
5
100
AcDbLine
 10
302.793433
 20
262.358796
 30
0.0
 11
302.793433
 21
257.419461
 31
0.0
  0
LINE
  5
5ab
100
AcDbEntity
  8
Layer_1
 62
5
100
AcDbLine
 10
302.793433
 20
257.419461
 30
0.0
 11
294.481983
 21
253.656961
 31
0.0
  0
LINE
  5
5ac
100
AcDbEntity
  8
Layer_1
 62
5
100
AcDbLine
 10
294.481983
 20
253.656961
 30
0.0
 11
291.534928
 21
253.370489
 31
0.0
  0
LINE
  5
5ad
100
AcDbEntity
  8
Layer_1
 62
5
100
AcDbLine
 10
291.534928
 20
253.370489
 30
0.0
 11
286.510531
 21
254.108302
 31
0.0
  0
LINE
  5
5ae
100
AcDbEntity
  8
Layer_1
 62
5
100
AcDbLine
 10
286.510531
 20
254.108302
 30
0.0
 11
284.126826
 21
245.212195
 31
0.0
  0
LINE
  5
5af
100
AcDbEntity
  8
Layer_1
 62
5
100
AcDbLine
 10
284.126826
 20
245.212195
 30
0.0
 11
288.846990
 21
243.338959
 31
0.0
  0
LINE
  5
5b0
100
AcDbEntity
  8
Layer_1
 62
5
100
AcDbLine
 10
288.846990
 20
243.338959
 30
0.0
 11
291.255976
 21
241.617338
 31
0.0
  0
LINE
  5
5b1
100
AcDbEntity
  8
Layer_1
 62
5
100
AcDbLine
 10
291.255976
 20
241.617338
 30
0.0
 11
296.572654
 21
234.203194
 31
0.0
  0
LINE
  5
5b2
100
AcDbEntity
  8
Layer_1
 62
5
100
AcDbLine
 10
296.572654
 20
234.203194
 30
0.0
 11
294.102986
 21
229.925605
 31
0.0
  0
LINE
  5
5b3
100
AcDbEntity
  8
Layer_1
 62
5
100
AcDbLine
 10
294.102986
 20
229.925605
 30
0.0
 11
285.023810
 21
230.822911
 31
0.0
  0
LINE
  5
5b4
100
AcDbEntity
  8
Layer_1
 62
5
100
AcDbLine
 10
285.023810
 20
230.822911
 30
0.0
 11
282.328348
 21
232.048343
 31
0.0
  0
LINE
  5
5b5
100
AcDbEntity
  8
Layer_1
 62
5
100
AcDbLine
 10
282.328348
 20
232.048343
 30
0.0
 11
278.346000
 21
235.199509
 31
0.0
  0
LINE
  5
5b6
100
AcDbEntity
  8
Layer_1
 62
5
100
AcDbLine
 10
278.346000
 20
235.199509
 30
0.0
 11
271.833595
 21
228.687104
 31
0.0
  0
LINE
  5
5b7
100
AcDbEntity
  8
Layer_1
 62
5
100
AcDbLine
 10
271.833595
 20
228.687104
 30
0.0
 11
274.984761
 21
224.704757
 31
0.0
  0
LINE
  5
5b8
100
AcDbEntity
  8
Layer_1
 62
5
100
AcDbLine
 10
274.984761
 20
224.704757
 30
0.0
 11
276.210193
 21
222.009294
 31
0.0
  0
LINE
  5
5b9
100
AcDbEntity
  8
Layer_1
 62
5
100
AcDbLine
 10
276.210193
 20
222.009294
 30
0.0
 11
277.107499
 21
212.930132
 31
0.0
  0
LINE
  5
5ba
100
AcDbEntity
  8
Layer_1
 62
5
100
AcDbLine
 10
277.107499
 20
212.930132
 30
0.0
 11
272.829910
 21
210.460462
 31
0.0
  0
LINE
  5
5bb
100
AcDbEntity
  8
Layer_1
 62
5
100
AcDbLine
 10
272.829910
 20
210.460462
 30
0.0
 11
265.415766
 21
215.777133
 31
0.0
  0
LINE
  5
5bc
100
AcDbEntity
  8
Layer_1
 62
5
100
AcDbLine
 10
265.415766
 20
215.777133
 30
0.0
 11
263.694145
 21
218.186114
 31
0.0
  0
LINE
  5
5bd
100
AcDbEntity
  8
Layer_1
 62
5
100
AcDbLine
 10
263.694145
 20
218.186114
 30
0.0
 11
261.820909
 21
222.906278
 31
0.0
  0
LINE
  5
5be
100
AcDbEntity
  8
Layer_1
 62
5
100
AcDbLine
 10
261.820909
 20
222.906278
 30
0.0
 11
252.924802
 21
220.522573
 31
0.0
  0
LINE
  5
5bf
100
AcDbEntity
  8
Layer_1
 62
5
100
AcDbLine
 10
252.924802
 20
220.522573
 30
0.0
 11
253.662615
 21
215.498185
 31
0.0
  0
LINE
  5
5c0
100
AcDbEntity
  8
Layer_1
 62
5
100
AcDbLine
 10
253.662615
 20
215.498185
 30
0.0
 11
253.376143
 21
212.551107
 31
0.0
  0
LINE
  5
5c1
100
AcDbEntity
  8
Layer_1
 62
5
100
AcDbLine
 10
253.376143
 20
212.551107
 30
0.0
 11
249.613643
 21
204.239663
 31
0.0
  0
LINE
  5
5c2
100
AcDbEntity
  8
Layer_1
 62
5
100
AcDbLine
 10
249.613643
 20
204.239663
 30
0.0
 11
244.674308
 21
204.239663
 31
0.0
  0
LINE
  5
5c3
100
AcDbEntity
  8
Layer_1
 62
5
100
AcDbLine
 10
244.674308
 20
204.239663
 30
0.0
 11
240.911809
 21
212.551107
 31
0.0
  0
LINE
  5
5c4
100
AcDbEntity
  8
Layer_1
 62
5
100
AcDbLine
 10
240.911809
 20
212.551107
 30
0.0
 11
240.625337
 21
215.498185
 31
0.0
  0
LINE
  5
5c5
100
AcDbEntity
  8
Layer_1
 62
5
100
AcDbLine
 10
240.625337
 20
215.498185
 30
0.0
 11
241.363150
 21
220.522573
 31
0.0
  0
LINE
  5
5c6
100
AcDbEntity
  8
Layer_1
 62
5
100
AcDbLine
 10
241.363150
 20
220.522573
 30
0.0
 11
232.467043
 21
222.906278
 31
0.0
  0
LINE
  5
5c7
100
AcDbEntity
  8
Layer_1
 62
5
100
AcDbLine
 10
232.467043
 20
222.906278
 30
0.0
 11
230.593807
 21
218.186114
 31
0.0
  0
LINE
  5
5c8
100
AcDbEntity
  8
Layer_1
 62
5
100
AcDbLine
 10
230.593807
 20
218.186114
 30
0.0
 11
228.872186
 21
215.777133
 31
0.0
  0
LINE
  5
5c9
100
AcDbEntity
  8
Layer_1
 62
5
100
AcDbLine
 10
228.872186
 20
215.777133
 30
0.0
 11
221.458042
 21
210.460462
 31
0.0
  0
LINE
  5
5ca
100
AcDbEntity
  8
Layer_1
 62
5
100
AcDbLine
 10
221.458042
 20
210.460462
 30
0.0
 11
217.180453
 21
212.930132
 31
0.0
  0
LINE
  5
5cb
100
AcDbEntity
  8
Layer_1
 62
5
100
AcDbLine
 10
217.180453
 20
212.930132
 30
0.0
 11
218.077759
 21
222.009294
 31
0.0
  0
LINE
  5
5cc
100
AcDbEntity
  8
Layer_1
 62
5
100
AcDbLine
 10
218.077759
 20
222.009294
 30
0.0
 11
219.303190
 21
224.704757
 31
0.0
  0
LINE
  5
5cd
100
AcDbEntity
  8
Layer_1
 62
5
100
AcDbLine
 10
219.303190
 20
224.704757
 30
0.0
 11
222.454357
 21
228.687104
 31
0.0
  0
LINE
  5
5ce
100
AcDbEntity
  8
Layer_1
 62
5
100
AcDbLine
 10
222.454357
 20
228.687104
 30
0.0
 11
215.941952
 21
235.199509
 31
0.0
  0
LINE
  5
5cf
100
AcDbEntity
  8
Layer_1
 62
5
100
AcDbLine
 10
215.941952
 20
235.199509
 30
0.0
 11
211.959604
 21
232.048343
 31
0.0
  0
LINE
  5
5d0
100
AcDbEntity
  8
Layer_1
 62
5
100
AcDbLine
 10
211.959604
 20
232.048343
 30
0.0
 11
209.264142
 21
230.822911
 31
0.0
  0
LINE
  5
5d1
100
AcDbEntity
  8
Layer_1
 62
5
100
AcDbLine
 10
209.264142
 20
230.822911
 30
0.0
 11
200.184966
 21
229.925605
 31
0.0
  0
LINE
  5
5d2
100
AcDbEntity
  8
Layer_1
 62
5
100
AcDbLine
 10
200.184966
 20
229.925605
 30
0.0
 11
197.715298
 21
234.203194
 31
0.0
  0
LINE
  5
5d3
100
AcDbEntity
  8
Layer_1
 62
5
100
AcDbLine
 10
197.715298
 20
234.203194
 30
0.0
 11
203.031976
 21
241.617338
 31
0.0
  0
LINE
  5
5d4
100
AcDbEntity
  8
Layer_1
 62
5
100
AcDbLine
 10
203.031976
 20
241.617338
 30
0.0
 11
205.440962
 21
243.338959
 31
0.0
  0
LINE
  5
5d5
100
AcDbEntity
  8
Layer_1
 62
5
100
AcDbLine
 10
205.440962
 20
243.338959
 30
0.0
 11
210.161126
 21
245.212195
 31
0.0
  0
LINE
  5
5d6
100
AcDbEntity
  8
Layer_1
 62
5
100
AcDbLine
 10
210.161126
 20
245.212195
 30
0.0
 11
207.777421
 21
254.108302
 31
0.0
  0
LINE
  5
5d7
100
AcDbEntity
  8
Layer_1
 62
5
100
AcDbLine
 10
207.777421
 20
254.108302
 30
0.0
 11
202.753024
 21
253.370489
 31
0.0
  0
LINE
  5
5d8
100
AcDbEntity
  8
Layer_1
 62
5
100
AcDbLine
 10
202.753024
 20
253.370489
 30
0.0
 11
199.805969
 21
253.656961
 31
0.0
  0
LINE
  5
5d9
100
AcDbEntity
  8
Layer_1
 62
5
100
AcDbLine
 10
199.805969
 20
253.656961
 30
0.0
 11
191.494519
 21
257.419461
 31
0.0
  0
LINE
  5
5da
100
AcDbEntity
  8
Layer_1
 62
5
100
AcDbLine
 10
191.494519
 20
257.419461
 30
0.0
 11
191.494519
 21
262.358796
 31
0.0
  0
LINE
  5
5db
100
AcDbEntity
  8
Layer_1
 62
5
100
AcDbLine
 10
191.494519
 20
262.358796
 30
0.0
 11
199.805969
 21
266.121295
 31
0.0
  0
LINE
  5
5dc
100
AcDbEntity
  8
Layer_1
 62
5
100
AcDbLine
 10
199.805969
 20
266.121295
 30
0.0
 11
202.753024
 21
266.407767
 31
0.0
  0
LINE
  5
5dd
100
AcDbEntity
  8
Layer_1
 62
5
100
AcDbLine
 10
202.753024
 20
266.407767
 30
0.0
 11
207.777421
 21
265.669954
 31
0.0
  0
LINE
  5
5de
100
AcDbEntity
  8
Layer_1
 62
5
100
AcDbLine
 10
207.777421
 20
265.669954
 30
0.0
 11
210.161126
 21
274.566061
 31
0.0
  0
LINE
  5
5df
100
AcDbEntity
  8
Layer_1
 62
5
100
AcDbLine
 10
210.161126
 20
274.566061
 30
0.0
 11
205.440962
 21
276.439297
 31
0.0
  0
LINE
  5
5e0
100
AcDbEntity
  8
Layer_1
 62
5
100
AcDbLine
 10
205.440962
 20
276.439297
 30
0.0
 11
203.031976
 21
278.160918
 31
0.0
  0
LINE
  5
5e1
100
AcDbEntity
  8
Layer_1
 62
5
100
AcDbLine
 10
203.031976
 20
278.160918
 30
0.0
 11
197.715298
 21
285.575062
 31
0.0
  0
LINE
  5
5e2
100
AcDbEntity
  8
Layer_1
 62
5
100
AcDbLine
 10
197.715298
 20
285.575062
 30
0.0
 11
200.184966
 21
289.852651
 31
0.0
  0
LINE
  5
5e3
100
AcDbEntity
  8
Layer_1
 62
5
100
AcDbLine
 10
200.184966
 20
289.852651
 30
0.0
 11
209.264142
 21
288.955345
 31
0.0
  0
LINE
  5
5e4
100
AcDbEntity
  8
Layer_1
 62
5
100
AcDbLine
 10
209.264142
 20
288.955345
 30
0.0
 11
211.959604
 21
287.729914
 31
0.0
  0
LINE
  5
5e5
100
AcDbEntity
  8
Layer_1
 62
5
100
AcDbLine
 10
211.959604
 20
287.729914
 30
0.0
 11
215.941952
 21
284.578747
 31
0.0
  0
LINE
  5
5e6
100
AcDbEntity
  8
Layer_1
 62
5
100
AcDbLine
 10
215.941952
 20
284.578747
 30
0.0
 11
222.454357
 21
291.091152
 31
0.0
  0
LINE
  5
5e7
100
AcDbEntity
  8
Layer_1
 62
5
100
AcDbLine
 10
222.454357
 20
291.091152
 30
0.0
 11
219.303190
 21
295.073500
 31
0.0
  0
LINE
  5
5e8
100
AcDbEntity
  8
Layer_1
 62
5
100
AcDbLine
 10
219.303190
 20
295.073500
 30
0.0
 11
218.077759
 21
297.768962
 31
0.0
  0
LINE
  5
5e9
100
AcDbEntity
  8
Layer_1
 62
5
100
AcDbLine
 10
218.077759
 20
297.768962
 30
0.0
 11
217.180453
 21
306.848138
 31
0.0
  0
LINE
  5
5ea
100
AcDbEntity
  8
Layer_1
 62
5
100
AcDbLine
 10
217.180453
 20
306.848138
 30
0.0
 11
221.458042
 21
309.317806
 31
0.0
  0
LINE
  5
5eb
100
AcDbEntity
  8
Layer_1
 62
5
100
AcDbLine
 10
221.458042
 20
309.317806
 30
0.0
 11
228.872186
 21
304.001129
 31
0.0
  0
LINE
  5
5ec
100
AcDbEntity
  8
Layer_1
 62
5
100
AcDbLine
 10
228.872186
 20
304.001129
 30
0.0
 11
230.593807
 21
301.592142
 31
0.0
  0
LINE
  5
5ed
100
AcDbEntity
  8
Layer_1
 62
5
100
AcDbLine
 10
230.593807
 20
301.592142
 30
0.0
 11
232.467043
 21
296.871978
 31
0.0
  0
LINE
  5
5ee
100
AcDbEntity
  8
Layer_1
 62
5
100
AcDbLine
 10
232.467043
 20
296.871978
 30
0.0
 11
241.363150
 21
299.255683
 31
0.0
  0
LINE
  5
5ef
100
AcDbEntity
  8
Layer_1
 62
5
100
AcDbLine
 10
241.363150
 20
299.255683
 30
0.0
 11
240.625337
 21
304.280080
 31
0.0
  0
LINE
  5
5f0
100
AcDbEntity
  8
Layer_1
 62
5
100
AcDbLine
 10
240.625337
 20
304.280080
 30
0.0
 11
240.911809
 21
307.227135
 31
0.0
  0
LINE
  5
5f1
100
AcDbEntity
  8
Layer_1
 62
5
100
AcDbLine
 10
240.911809
 20
307.227135
 30
0.0
 11
244.674308
 21
315.538585
 31
0.0
  0
LINE
  5
5f2
100
AcDbEntity
  8
Layer_1
 62
5
100
AcDbLine
 10
244.674308
 20
315.538585
 30
0.0
 11
249.613643
 21
315.538585
 31
0.0
  0
LINE
  5
5f3
100
AcDbEntity
  8
Layer_1
 62
5
100
AcDbLine
 10
249.613643
 20
315.538585
 30
0.0
 11
253.376143
 21
307.227135
 31
0.0
  0
LINE
  5
5f4
100
AcDbEntity
  8
Layer_1
 62
5
100
AcDbLine
 10
253.376143
 20
307.227135
 30
0.0
 11
253.662615
 21
304.280080
 31
0.0
  0
LINE
  5
5f5
100
AcDbEntity
  8
Layer_1
 62
5
100
AcDbLine
 10
253.662615
 20
304.280080
 30
0.0
 11
252.924802
 21
299.255683
 31
0.0
  0
LINE
  5
5f6
100
AcDbEntity
  8
Layer_1
 62
5
100
AcDbLine
 10
252.924802
 20
299.255683
 30
0.0
 11
261.820909
 21
296.871978
 31
0.0
  0
LINE
  5
5f7
100
AcDbEntity
  8
Layer_1
 62
5
100
AcDbLine
 10
261.820909
 20
296.871978
 30
0.0
 11
263.694145
 21
301.592142
 31
0.0
  0
LINE
  5
5f8
100
AcDbEntity
  8
Layer_1
 62
5
100
AcDbLine
 10
263.694145
 20
301.592142
 30
0.0
 11
265.415766
 21
304.001129
 31
0.0
  0
LINE
  5
5f9
100
AcDbEntity
  8
Layer_1
 62
5
100
AcDbLine
 10
265.415766
 20
304.001129
 30
0.0
 11
272.829910
 21
309.317806
 31
0.0
  0
LINE
  5
5fa
100
AcDbEntity
  8
Layer_1
 62
5
100
AcDbLine
 10
272.829910
 20
309.317806
 30
0.0
 11
277.107499
 21
306.848138
 31
0.0
  0
LINE
  5
5fb
100
AcDbEntity
  8
Layer_1
 62
5
100
AcDbLine
 10
277.107499
 20
306.848138
 30
0.0
 11
276.210193
 21
297.768962
 31
0.0
  0
LINE
  5
5fc
100
AcDbEntity
  8
Layer_1
 62
5
100
AcDbLine
 10
276.210193
 20
297.768962
 30
0.0
 11
274.984761
 21
295.073500
 31
0.0
  0
LINE
  5
5fd
100
AcDbEntity
  8
Layer_1
 62
5
100
AcDbLine
 10
274.984761
 20
295.073500
 30
0.0
 11
271.833595
 21
291.091152
 31
0.0
  0
LINE
  5
5fe
100
AcDbEntity
  8
Layer_1
 62
5
100
AcDbLine
 10
271.833595
 20
291.091152
 30
0.0
 11
278.346000
 21
284.578747
 31
0.0
  0
LINE
  5
5ff
100
AcDbEntity
  8
Layer_1
 62
5
100
AcDbLine
 10
278.346000
 20
284.578747
 30
0.0
 11
282.328348
 21
287.729914
 31
0.0
  0
LINE
  5
600
100
AcDbEntity
  8
Layer_1
 62
5
100
AcDbLine
 10
282.328348
 20
287.729914
 30
0.0
 11
285.023810
 21
288.955345
 31
0.0
  0
LINE
  5
601
100
AcDbEntity
  8
Layer_1
 62
5
100
AcDbLine
 10
285.023810
 20
288.955345
 30
0.0
 11
294.102986
 21
289.852651
 31
0.0
  0
LINE
  5
602
100
AcDbEntity
  8
Layer_1
 62
5
100
AcDbLine
 10
294.102986
 20
289.852651
 30
0.0
 11
296.572654
 21
285.575062
 31
0.0
  0
LINE
  5
603
100
AcDbEntity
  8
Layer_1
 62
5
100
AcDbLine
 10
296.572654
 20
285.575062
 30
0.0
 11
291.255976
 21
278.160918
 31
0.0
  0
LINE
  5
604
100
AcDbEntity
  8
Layer_1
 62
5
100
AcDbLine
 10
291.255976
 20
278.160918
 30
0.0
 11
288.846990
 21
276.439297
 31
0.0
  0
LINE
  5
605
100
AcDbEntity
  8
Layer_1
 62
5
100
AcDbLine
 10
288.846990
 20
276.439297
 30
0.0
 11
284.126826
 21
274.566061
 31
0.0
  0
LINE
  5
606
100
AcDbEntity
  8
Layer_1
 62
5
100
AcDbLine
 10
284.126826
 20
274.566061
 30
0.0
 11
286.510531
 21
265.669954
 31
0.0
  0
LINE
  5
607
100
AcDbEntity
  8
Layer_1
 62
1
100
AcDbLine
 10
248.645133
 20
289.882386
 30
0.0
 11
248.645133
 21
279.882380
 31
0.0
  0
LINE
  5
608
100
AcDbEntity
  8
Layer_1
 62
1
100
AcDbLine
 10
248.645133
 20
279.882380
 30
0.0
 11
245.645139
 21
279.882380
 31
0.0
  0
LINE
  5
609
100
AcDbEntity
  8
Layer_1
 62
1
100
AcDbLine
 10
245.645139
 20
279.882380
 30
0.0
 11
245.645139
 21
289.882386
 31
0.0
  0
LINE
  5
60a
100
AcDbEntity
  8
Layer_1
 62
1
100
AcDbLine
 10
245.645139
 20
289.882386
 30
0.0
 11
248.645133
 21
289.882386
 31
0.0
  0
LINE
  5
60b
100
AcDbEntity
  8
Layer_1
 62
1
100
AcDbLine
 10
245.645300
 20
269.882256
 30
0.0
 11
245.645300
 21
261.452521
 31
0.0
  0
LINE
  5
60c
100
AcDbEntity
  8
Layer_1
 62
1
100
AcDbLine
 10
245.645300
 20
261.452521
 30
0.0
 11
237.150521
 21
261.452521
 31
0.0
  0
LINE
  5
60d
100
AcDbEntity
  8
Layer_1
 62
1
100
AcDbLine
 10
237.150521
 20
261.452521
 30
0.0
 11
237.150521
 21
258.452809
 31
0.0
  0
LINE
  5
60e
100
AcDbEntity
  8
Layer_1
 62
1
100
AcDbLine
 10
237.150521
 20
258.452809
 30
0.0
 11
245.645300
 21
258.452809
 31
0.0
  0
LINE
  5
60f
100
AcDbEntity
  8
Layer_1
 62
1
100
AcDbLine
 10
245.645300
 20
258.452809
 30
0.0
 11
245.645300
 21
249.895741
 31
0.0
  0
LINE
  5
610
100
AcDbEntity
  8
Layer_1
 62
1
100
AcDbLine
 10
245.645300
 20
249.895741
 30
0.0
 11
248.645012
 21
249.895741
 31
0.0
  0
LINE
  5
611
100
AcDbEntity
  8
Layer_1
 62
1
100
AcDbLine
 10
248.645012
 20
249.895741
 30
0.0
 11
248.645012
 21
258.452809
 31
0.0
  0
LINE
  5
612
100
AcDbEntity
  8
Layer_1
 62
1
100
AcDbLine
 10
248.645012
 20
258.452809
 30
0.0
 11
257.137036
 21
258.452809
 31
0.0
  0
LINE
  5
613
100
AcDbEntity
  8
Layer_1
 62
1
100
AcDbLine
 10
257.137036
 20
258.452809
 30
0.0
 11
257.137036
 21
261.452521
 31
0.0
  0
LINE
  5
614
100
AcDbEntity
  8
Layer_1
 62
1
100
AcDbLine
 10
257.137036
 20
261.452521
 30
0.0
 11
248.645012
 21
261.452521
 31
0.0
  0
LINE
  5
615
100
AcDbEntity
  8
Layer_1
 62
1
100
AcDbLine
 10
248.645012
 20
261.452521
 30
0.0
 11
248.645012
 21
269.882256
 31
0.0
  0
LINE
  5
616
100
AcDbEntity
  8
Layer_1
 62
1
100
AcDbLine
 10
248.645012
 20
269.882256
 30
0.0
 11
245.645300
 21
269.882256
 31
0.0
  0
LINE
  5
617
100
AcDbEntity
  8
Layer_1
 62
1
100
AcDbLine
 10
245.645300
 20
269.882256
 30
0.0
 11
245.645300
 21
269.882256
 31
0.0
  0
SPLINE
  5
618
100
AcDbEntity
  8
Layer_1
 62
1
100
AcDbSpline
 70
8
 71
3
 72
8
 73
4
 74
0
 40
0
 40
0
 40
0
 40
0
 40
1
 40
1
 40
1
 40
1
 10
247.144001
 20
273.332423
 30
0.0
 10
246.732915
 20
273.332422
 30
0.0
 10
246.338666
 20
273.495725
 30
0.0
 10
246.047985
 20
273.786407
 30
0.0
  0
SPLINE
  5
619
100
AcDbEntity
  8
Layer_1
 62
1
100
AcDbSpline
 70
8
 71
3
 72
8
 73
4
 74
0
 40
0
 40
0
 40
0
 40
0
 40
1
 40
1
 40
1
 40
1
 10
246.047985
 20
273.786407
 30
0.0
 10
245.757303
 20
274.077089
 30
0.0
 10
245.594000
 20
274.471338
 30
0.0
 10
245.594000
 20
274.882424
 30
0.0
  0
SPLINE
  5
61a
100
AcDbEntity
  8
Layer_1
 62
1
100
AcDbSpline
 70
8
 71
3
 72
8
 73
4
 74
0
 40
0
 40
0
 40
0
 40
0
 40
1
 40
1
 40
1
 40
1
 10
245.594000
 20
274.882424
 30
0.0
 10
245.594000
 20
275.293509
 30
0.0
 10
245.757304
 20
275.687758
 30
0.0
 10
246.047986
 20
275.978439
 30
0.0
  0
SPLINE
  5
61b
100
AcDbEntity
  8
Layer_1
 62
1
100
AcDbSpline
 70
8
 71
3
 72
8
 73
4
 74
0
 40
0
 40
0
 40
0
 40
0
 40
1
 40
1
 40
1
 40
1
 10
246.047986
 20
275.978439
 30
0.0
 10
246.338667
 20
276.269120
 30
0.0
 10
246.732916
 20
276.432423
 30
0.0
 10
247.144001
 20
276.432422
 30
0.0
  0
SPLINE
  5
61c
100
AcDbEntity
  8
Layer_1
 62
1
100
AcDbSpline
 70
8
 71
3
 72
8
 73
4
 74
0
 40
0
 40
0
 40
0
 40
0
 40
1
 40
1
 40
1
 40
1
 10
247.144001
 20
276.432422
 30
0.0
 10
248.000042
 20
276.432422
 30
0.0
 10
248.693999
 20
275.738464
 30
0.0
 10
248.694000
 20
274.882424
 30
0.0
  0
SPLINE
  5
61d
100
AcDbEntity
  8
Layer_1
 62
1
100
AcDbSpline
 70
8
 71
3
 72
8
 73
4
 74
0
 40
0
 40
0
 40
0
 40
0
 40
1
 40
1
 40
1
 40
1
 10
248.694000
 20
274.882424
 30
0.0
 10
248.694000
 20
274.471338
 30
0.0
 10
248.530697
 20
274.077090
 30
0.0
 10
248.240016
 20
273.786408
 30
0.0
  0
SPLINE
  5
61e
100
AcDbEntity
  8
Layer_1
 62
1
100
AcDbSpline
 70
8
 71
3
 72
8
 73
4
 74
0
 40
0
 40
0
 40
0
 40
0
 40
1
 40
1
 40
1
 40
1
 10
248.240016
 20
273.786408
 30
0.0
 10
247.949335
 20
273.495726
 30
0.0
 10
247.555087
 20
273.332423
 30
0.0
 10
247.144001
 20
273.332423
 30
0.0
  0
LINE
  5
61f
100
AcDbEntity
  8
Layer_1
 62
1
100
AcDbLine
 10
247.144001
 20
273.332423
 30
0.0
 11
247.144001
 21
273.332423
 31
0.0
  0
LINE
  5
620
100
AcDbEntity
  8
Layer_1
 62
1
100
AcDbLine
 10
248.645133
 20
239.895876
 30
0.0
 11
248.645133
 21
229.895870
 31
0.0
  0
LINE
  5
621
100
AcDbEntity
  8
Layer_1
 62
1
100
AcDbLine
 10
248.645133
 20
229.895870
 30
0.0
 11
245.645139
 21
229.895870
 31
0.0
  0
LINE
  5
622
100
AcDbEntity
  8
Layer_1
 62
1
100
AcDbLine
 10
245.645139
 20
229.895870
 30
0.0
 11
245.645139
 21
239.895876
 31
0.0
  0
LINE
  5
623
100
AcDbEntity
  8
Layer_1
 62
1
100
AcDbLine
 10
245.645139
 20
239.895876
 30
0.0
 11
248.645133
 21
239.895876
 31
0.0
  0
SPLINE
  5
624
100
AcDbEntity
  8
Layer_1
 62
1
100
AcDbSpline
 70
8
 71
3
 72
8
 73
4
 74
0
 40
0
 40
0
 40
0
 40
0
 40
1
 40
1
 40
1
 40
1
 10
247.144001
 20
243.345865
 30
0.0
 10
246.732916
 20
243.345865
 30
0.0
 10
246.338667
 20
243.509167
 30
0.0
 10
246.047986
 20
243.799848
 30
0.0
  0
SPLINE
  5
625
100
AcDbEntity
  8
Layer_1
 62
1
100
AcDbSpline
 70
8
 71
3
 72
8
 73
4
 74
0
 40
0
 40
0
 40
0
 40
0
 40
1
 40
1
 40
1
 40
1
 10
246.047986
 20
243.799848
 30
0.0
 10
245.757304
 20
244.090529
 30
0.0
 10
245.594000
 20
244.484778
 30
0.0
 10
245.594000
 20
244.895863
 30
0.0
  0
SPLINE
  5
626
100
AcDbEntity
  8
Layer_1
 62
1
100
AcDbSpline
 70
8
 71
3
 72
8
 73
4
 74
0
 40
0
 40
0
 40
0
 40
0
 40
1
 40
1
 40
1
 40
1
 10
245.594000
 20
244.895863
 30
0.0
 10
245.594000
 20
245.306949
 30
0.0
 10
245.757304
 20
245.701197
 30
0.0
 10
246.047986
 20
245.991878
 30
0.0
  0
SPLINE
  5
627
100
AcDbEntity
  8
Layer_1
 62
1
100
AcDbSpline
 70
8
 71
3
 72
8
 73
4
 74
0
 40
0
 40
0
 40
0
 40
0
 40
1
 40
1
 40
1
 40
1
 10
246.047986
 20
245.991878
 30
0.0
 10
246.338667
 20
246.282559
 30
0.0
 10
246.732916
 20
246.445862
 30
0.0
 10
247.144001
 20
246.445862
 30
0.0
  0
SPLINE
  5
628
100
AcDbEntity
  8
Layer_1
 62
1
100
AcDbSpline
 70
8
 71
3
 72
8
 73
4
 74
0
 40
0
 40
0
 40
0
 40
0
 40
1
 40
1
 40
1
 40
1
 10
247.144001
 20
246.445862
 30
0.0
 10
248.000042
 20
246.445861
 30
0.0
 10
248.693999
 20
245.751904
 30
0.0
 10
248.694000
 20
244.895863
 30
0.0
  0
SPLINE
  5
629
100
AcDbEntity
  8
Layer_1
 62
1
100
AcDbSpline
 70
8
 71
3
 72
8
 73
4
 74
0
 40
0
 40
0
 40
0
 40
0
 40
1
 40
1
 40
1
 40
1
 10
248.694000
 20
244.895863
 30
0.0
 10
248.693999
 20
244.039823
 30
0.0
 10
248.000042
 20
243.345866
 30
0.0
 10
247.144001
 20
243.345865
 30
0.0
  0
LINE
  5
62a
100
AcDbEntity
  8
Layer_1
 62
1
100
AcDbLine
 10
247.144001
 20
243.345865
 30
0.0
 11
247.144001
 21
243.345865
 31
0.0
  0
LINE
  5
62b
100
AcDbEntity
  8
Layer_1
 62
1
100
AcDbLine
 10
277.137234
 20
258.452798
 30
0.0
 11
267.137228
 21
258.452798
 31
0.0
  0
LINE
  5
62c
100
AcDbEntity
  8
Layer_1
 62
1
100
AcDbLine
 10
267.137228
 20
258.452798
 30
0.0
 11
267.137228
 21
261.452792
 31
0.0
  0
LINE
  5
62d
100
AcDbEntity
  8
Layer_1
 62
1
100
AcDbLine
 10
267.137228
 20
261.452792
 30
0.0
 11
277.137234
 21
261.452792
 31
0.0
  0
LINE
  5
62e
100
AcDbEntity
  8
Layer_1
 62
1
100
AcDbLine
 10
277.137234
 20
261.452792
 30
0.0
 11
277.137234
 21
258.452798
 31
0.0
  0
SPLINE
  5
62f
100
AcDbEntity
  8
Layer_1
 62
1
100
AcDbSpline
 70
8
 71
3
 72
8
 73
4
 74
0
 40
0
 40
0
 40
0
 40
0
 40
1
 40
1
 40
1
 40
1
 10
260.587271
 20
259.953929
 30
0.0
 10
260.587270
 20
260.365015
 30
0.0
 10
260.750573
 20
260.759264
 30
0.0
 10
261.041255
 20
261.049946
 30
0.0
  0
SPLINE
  5
630
100
AcDbEntity
  8
Layer_1
 62
1
100
AcDbSpline
 70
8
 71
3
 72
8
 73
4
 74
0
 40
0
 40
0
 40
0
 40
0
 40
1
 40
1
 40
1
 40
1
 10
261.041255
 20
261.049946
 30
0.0
 10
261.331937
 20
261.340628
 30
0.0
 10
261.726186
 20
261.503931
 30
0.0
 10
262.137272
 20
261.503930
 30
0.0
  0
SPLINE
  5
631
100
AcDbEntity
  8
Layer_1
 62
1
100
AcDbSpline
 70
8
 71
3
 72
8
 73
4
 74
0
 40
0
 40
0
 40
0
 40
0
 40
1
 40
1
 40
1
 40
1
 10
262.137272
 20
261.503930
 30
0.0
 10
262.548357
 20
261.503930
 30
0.0
 10
262.942606
 20
261.340627
 30
0.0
 10
263.233287
 20
261.049945
 30
0.0
  0
SPLINE
  5
632
100
AcDbEntity
  8
Layer_1
 62
1
100
AcDbSpline
 70
8
 71
3
 72
8
 73
4
 74
0
 40
0
 40
0
 40
0
 40
0
 40
1
 40
1
 40
1
 40
1
 10
263.233287
 20
261.049945
 30
0.0
 10
263.523968
 20
260.759263
 30
0.0
 10
263.687271
 20
260.365015
 30
0.0
 10
263.687270
 20
259.953929
 30
0.0
  0
SPLINE
  5
633
100
AcDbEntity
  8
Layer_1
 62
1
100
AcDbSpline
 70
8
 71
3
 72
8
 73
4
 74
0
 40
0
 40
0
 40
0
 40
0
 40
1
 40
1
 40
1
 40
1
 10
263.687270
 20
259.953929
 30
0.0
 10
263.687269
 20
259.097889
 30
0.0
 10
262.993312
 20
258.403931
 30
0.0
 10
262.137272
 20
258.403931
 30
0.0
  0
SPLINE
  5
634
100
AcDbEntity
  8
Layer_1
 62
1
100
AcDbSpline
 70
8
 71
3
 72
8
 73
4
 74
0
 40
0
 40
0
 40
0
 40
0
 40
1
 40
1
 40
1
 40
1
 10
262.137272
 20
258.403931
 30
0.0
 10
261.726186
 20
258.403930
 30
0.0
 10
261.331938
 20
258.567233
 30
0.0
 10
261.041256
 20
258.857914
 30
0.0
  0
SPLINE
  5
635
100
AcDbEntity
  8
Layer_1
 62
1
100
AcDbSpline
 70
8
 71
3
 72
8
 73
4
 74
0
 40
0
 40
0
 40
0
 40
0
 40
1
 40
1
 40
1
 40
1
 10
261.041256
 20
258.857914
 30
0.0
 10
260.750574
 20
259.148595
 30
0.0
 10
260.587271
 20
259.542844
 30
0.0
 10
260.587271
 20
259.953929
 30
0.0
  0
LINE
  5
636
100
AcDbEntity
  8
Layer_1
 62
1
100
AcDbLine
 10
260.587271
 20
259.953929
 30
0.0
 11
260.587271
 21
259.953929
 31
0.0
  0
LINE
  5
637
100
AcDbEntity
  8
Layer_1
 62
1
100
AcDbLine
 10
227.150724
 20
258.452798
 30
0.0
 11
217.150718
 21
258.452798
 31
0.0
  0
LINE
  5
638
100
AcDbEntity
  8
Layer_1
 62
1
100
AcDbLine
 10
217.150718
 20
258.452798
 30
0.0
 11
217.150718
 21
261.452792
 31
0.0
  0
LINE
  5
639
100
AcDbEntity
  8
Layer_1
 62
1
100
AcDbLine
 10
217.150718
 20
261.452792
 30
0.0
 11
227.150724
 21
261.452792
 31
0.0
  0
LINE
  5
63a
100
AcDbEntity
  8
Layer_1
 62
1
100
AcDbLine
 10
227.150724
 20
261.452792
 30
0.0
 11
227.150724
 21
258.452798
 31
0.0
  0
SPLINE
  5
63b
100
AcDbEntity
  8
Layer_1
 62
1
100
AcDbSpline
 70
8
 71
3
 72
8
 73
4
 74
0
 40
0
 40
0
 40
0
 40
0
 40
1
 40
1
 40
1
 40
1
 10
230.600713
 20
259.953929
 30
0.0
 10
230.600712
 20
260.365015
 30
0.0
 10
230.764015
 20
260.759263
 30
0.0
 10
231.054696
 20
261.049945
 30
0.0
  0
SPLINE
  5
63c
100
AcDbEntity
  8
Layer_1
 62
1
100
AcDbSpline
 70
8
 71
3
 72
8
 73
4
 74
0
 40
0
 40
0
 40
0
 40
0
 40
1
 40
1
 40
1
 40
1
 10
231.054696
 20
261.049945
 30
0.0
 10
231.345377
 20
261.340627
 30
0.0
 10
231.739626
 20
261.503930
 30
0.0
 10
232.150711
 20
261.503930
 30
0.0
  0
SPLINE
  5
63d
100
AcDbEntity
  8
Layer_1
 62
1
100
AcDbSpline
 70
8
 71
3
 72
8
 73
4
 74
0
 40
0
 40
0
 40
0
 40
0
 40
1
 40
1
 40
1
 40
1
 10
232.150711
 20
261.503930
 30
0.0
 10
232.561797
 20
261.503930
 30
0.0
 10
232.956045
 20
261.340627
 30
0.0
 10
233.246726
 20
261.049945
 30
0.0
  0
SPLINE
  5
63e
100
AcDbEntity
  8
Layer_1
 62
1
100
AcDbSpline
 70
8
 71
3
 72
8
 73
4
 74
0
 40
0
 40
0
 40
0
 40
0
 40
1
 40
1
 40
1
 40
1
 10
233.246726
 20
261.049945
 30
0.0
 10
233.537407
 20
260.759263
 30
0.0
 10
233.700710
 20
260.365015
 30
0.0
 10
233.700710
 20
259.953929
 30
0.0
  0
SPLINE
  5
63f
100
AcDbEntity
  8
Layer_1
 62
1
100
AcDbSpline
 70
8
 71
3
 72
8
 73
4
 74
0
 40
0
 40
0
 40
0
 40
0
 40
1
 40
1
 40
1
 40
1
 10
233.700710
 20
259.953929
 30
0.0
 10
233.700709
 20
259.097889
 30
0.0
 10
233.006751
 20
258.403931
 30
0.0
 10
232.150711
 20
258.403931
 30
0.0
  0
SPLINE
  5
640
100
AcDbEntity
  8
Layer_1
 62
1
100
AcDbSpline
 70
8
 71
3
 72
8
 73
4
 74
0
 40
0
 40
0
 40
0
 40
0
 40
1
 40
1
 40
1
 40
1
 10
232.150711
 20
258.403931
 30
0.0
 10
231.294671
 20
258.403931
 30
0.0
 10
230.600713
 20
259.097889
 30
0.0
 10
230.600713
 20
259.953929
 30
0.0
  0
LINE
  5
641
100
AcDbEntity
  8
Layer_1
 62
1
100
AcDbLine
 10
230.600713
 20
259.953929
 30
0.0
 11
230.600713
 21
259.953929
 31
0.0
  0
SPLINE
  5
642
100
AcDbEntity
  8
Layer_1
 62
3
100
AcDbSpline
 70
8
 71
3
 72
8
 73
4
 74
0
 40
0
 40
0
 40
0
 40
0
 40
1
 40
1
 40
1
 40
1
 10
273.940079
 20
170.187375
 30
0.0
 10
273.742467
 20
169.989763
 30
0.0
 10
273.513811
 20
169.837325
 30
0.0
 10
273.254110
 20
169.730062
 30
0.0
  0
SPLINE
  5
643
100
AcDbEntity
  8
Layer_1
 62
3
100
AcDbSpline
 70
8
 71
3
 72
8
 73
4
 74
0
 40
0
 40
0
 40
0
 40
0
 40
1
 40
1
 40
1
 40
1
 10
273.254110
 20
169.730062
 30
0.0
 10
273.000053
 20
169.622780
 30
0.0
 10
272.729054
 20
169.569139
 30
0.0
 10
272.441112
 20
169.569139
 30
0.0
  0
LINE
  5
644
100
AcDbEntity
  8
Layer_1
 62
3
100
AcDbLine
 10
272.441112
 20
169.569139
 30
0.0
 11
271.594220
 21
169.569139
 31
0.0
  0
SPLINE
  5
645
100
AcDbEntity
  8
Layer_1
 62
3
100
AcDbSpline
 70
8
 71
3
 72
8
 73
4
 74
0
 40
0
 40
0
 40
0
 40
0
 40
1
 40
1
 40
1
 40
1
 10
271.594220
 20
169.569139
 30
0.0
 10
271.306278
 20
169.569139
 30
0.0
 10
271.032456
 20
169.622780
 30
0.0
 10
270.772756
 20
169.730062
 30
0.0
  0
SPLINE
  5
646
100
AcDbEntity
  8
Layer_1
 62
3
100
AcDbSpline
 70
8
 71
3
 72
8
 73
4
 74
0
 40
0
 40
0
 40
0
 40
0
 40
1
 40
1
 40
1
 40
1
 10
270.772756
 20
169.730062
 30
0.0
 10
270.518699
 20
169.837325
 30
0.0
 10
270.292865
 20
169.989763
 30
0.0
 10
270.095253
 20
170.187375
 30
0.0
  0
SPLINE
  5
647
100
AcDbEntity
  8
Layer_1
 62
3
100
AcDbSpline
 70
8
 71
3
 72
8
 73
4
 74
0
 40
0
 40
0
 40
0
 40
0
 40
1
 40
1
 40
1
 40
1
 10
270.095253
 20
170.187375
 30
0.0
 10
269.897641
 20
170.384968
 30
0.0
 10
269.745203
 20
170.613625
 30
0.0
 10
269.637940
 20
170.873344
 30
0.0
  0
SPLINE
  5
648
100
AcDbEntity
  8
Layer_1
 62
3
100
AcDbSpline
 70
8
 71
3
 72
8
 73
4
 74
0
 40
0
 40
0
 40
0
 40
0
 40
1
 40
1
 40
1
 40
1
 10
269.637940
 20
170.873344
 30
0.0
 10
269.530677
 20
171.127401
 30
0.0
 10
269.477045
 20
171.398400
 30
0.0
 10
269.477045
 20
171.686342
 30
0.0
  0
SPLINE
  5
649
100
AcDbEntity
  8
Layer_1
 62
3
100
AcDbSpline
 70
8
 71
3
 72
8
 73
4
 74
0
 40
0
 40
0
 40
0
 40
0
 40
1
 40
1
 40
1
 40
1
 10
269.477045
 20
171.686342
 30
0.0
 10
269.477045
 20
171.974284
 30
0.0
 10
269.530677
 20
172.248105
 30
0.0
 10
269.637940
 20
172.507806
 30
0.0
  0
SPLINE
  5
64a
100
AcDbEntity
  8
Layer_1
 62
3
100
AcDbSpline
 70
8
 71
3
 72
8
 73
4
 74
0
 40
0
 40
0
 40
0
 40
0
 40
1
 40
1
 40
1
 40
1
 10
269.637940
 20
172.507806
 30
0.0
 10
269.745203
 20
172.761863
 30
0.0
 10
269.897641
 20
172.987697
 30
0.0
 10
270.095253
 20
173.185309
 30
0.0
  0
SPLINE
  5
64b
100
AcDbEntity
  8
Layer_1
 62
3
100
AcDbSpline
 70
8
 71
3
 72
8
 73
4
 74
0
 40
0
 40
0
 40
0
 40
0
 40
1
 40
1
 40
1
 40
1
 10
270.095253
 20
173.185309
 30
0.0
 10
270.292865
 20
173.382921
 30
0.0
 10
270.518699
 20
173.535358
 30
0.0
 10
270.772756
 20
173.642622
 30
0.0
  0
SPLINE
  5
64c
100
AcDbEntity
  8
Layer_1
 62
3
100
AcDbSpline
 70
8
 71
3
 72
8
 73
4
 74
0
 40
0
 40
0
 40
0
 40
0
 40
1
 40
1
 40
1
 40
1
 10
270.772756
 20
173.642622
 30
0.0
 10
271.032456
 20
173.749904
 30
0.0
 10
271.306278
 20
173.803545
 30
0.0
 10
271.594220
 20
173.803545
 30
0.0
  0
LINE
  5
64d
100
AcDbEntity
  8
Layer_1
 62
3
100
AcDbLine
 10
271.594220
 20
173.803545
 30
0.0
 11
274.134869
 21
173.803545
 31
0.0
  0
SPLINE
  5
64e
100
AcDbEntity
  8
Layer_1
 62
3
100
AcDbSpline
 70
8
 71
3
 72
8
 73
4
 74
0
 40
0
 40
0
 40
0
 40
0
 40
1
 40
1
 40
1
 40
1
 10
274.134869
 20
173.803545
 30
0.0
 10
274.586537
 20
173.803545
 30
0.0
 10
275.015619
 20
173.732970
 30
0.0
 10
275.422113
 20
173.591822
 30
0.0
  0
SPLINE
  5
64f
100
AcDbEntity
  8
Layer_1
 62
3
100
AcDbSpline
 70
8
 71
3
 72
8
 73
4
 74
0
 40
0
 40
0
 40
0
 40
0
 40
1
 40
1
 40
1
 40
1
 10
275.422113
 20
173.591822
 30
0.0
 10
275.817337
 20
173.456317
 30
0.0
 10
276.184320
 20
173.258705
 30
0.0
 10
276.523062
 20
172.998986
 30
0.0
  0
SPLINE
  5
650
100
AcDbEntity
  8
Layer_1
 62
3
100
AcDbSpline
 70
8
 71
3
 72
8
 73
4
 74
0
 40
0
 40
0
 40
0
 40
0
 40
1
 40
1
 40
1
 40
1
 10
276.523062
 20
172.998986
 30
0.0
 10
276.856159
 20
172.750574
 30
0.0
 10
277.144101
 20
172.448521
 30
0.0
 10
277.386887
 20
172.092826
 30
0.0
  0
SPLINE
  5
651
100
AcDbEntity
  8
Layer_1
 62
3
100
AcDbSpline
 70
8
 71
3
 72
8
 73
4
 74
0
 40
0
 40
0
 40
0
 40
0
 40
1
 40
1
 40
1
 40
1
 10
277.386887
 20
172.092826
 30
0.0
 10
277.629655
 20
171.731507
 30
0.0
 10
277.810315
 20
171.353244
 30
0.0
 10
277.928867
 20
170.958039
 30
0.0
  0
SPLINE
  5
652
100
AcDbEntity
  8
Layer_1
 62
3
100
AcDbSpline
 70
8
 71
3
 72
8
 73
4
 74
0
 40
0
 40
0
 40
0
 40
0
 40
1
 40
1
 40
1
 40
1
 10
277.928867
 20
170.958039
 30
0.0
 10
277.962753
 20
170.845113
 30
0.0
 10
277.951464
 20
170.737840
 30
0.0
 10
277.895000
 20
170.636221
 30
0.0
  0
SPLINE
  5
653
100
AcDbEntity
  8
Layer_1
 62
3
100
AcDbSpline
 70
8
 71
3
 72
8
 73
4
 74
0
 40
0
 40
0
 40
0
 40
0
 40
1
 40
1
 40
1
 40
1
 10
277.895000
 20
170.636221
 30
0.0
 10
277.838537
 20
170.534583
 30
0.0
 10
277.753852
 20
170.466831
 30
0.0
 10
277.640944
 20
170.432965
 30
0.0
  0
SPLINE
  5
654
100
AcDbEntity
  8
Layer_1
 62
3
100
AcDbSpline
 70
8
 71
3
 72
8
 73
4
 74
0
 40
0
 40
0
 40
0
 40
0
 40
1
 40
1
 40
1
 40
1
 10
277.640944
 20
170.432965
 30
0.0
 10
277.528017
 20
170.399079
 30
0.0
 10
277.420745
 20
170.410368
 30
0.0
 10
277.319126
 20
170.466831
 30
0.0
  0
SPLINE
  5
655
100
AcDbEntity
  8
Layer_1
 62
3
100
AcDbSpline
 70
8
 71
3
 72
8
 73
4
 74
0
 40
0
 40
0
 40
0
 40
0
 40
1
 40
1
 40
1
 40
1
 10
277.319126
 20
170.466831
 30
0.0
 10
277.217507
 20
170.523295
 30
0.0
 10
277.149755
 20
170.607980
 30
0.0
 10
277.115869
 20
170.720888
 30
0.0
  0
SPLINE
  5
656
100
AcDbEntity
  8
Layer_1
 62
3
100
AcDbSpline
 70
8
 71
3
 72
8
 73
4
 74
0
 40
0
 40
0
 40
0
 40
0
 40
1
 40
1
 40
1
 40
1
 10
277.115869
 20
170.720888
 30
0.0
 10
277.025540
 20
171.031426
 30
0.0
 10
276.884391
 20
171.330657
 30
0.0
 10
276.692423
 20
171.618580
 30
0.0
  0
SPLINE
  5
657
100
AcDbEntity
  8
Layer_1
 62
3
100
AcDbSpline
 70
8
 71
3
 72
8
 73
4
 74
0
 40
0
 40
0
 40
0
 40
0
 40
1
 40
1
 40
1
 40
1
 10
276.692423
 20
171.618580
 30
0.0
 10
276.506119
 20
171.889589
 30
0.0
 10
276.280285
 20
172.123899
 30
0.0
 10
276.014921
 20
172.321511
 30
0.0
  0
SPLINE
  5
658
100
AcDbEntity
  8
Layer_1
 62
3
100
AcDbSpline
 70
8
 71
3
 72
8
 73
4
 74
0
 40
0
 40
0
 40
0
 40
0
 40
1
 40
1
 40
1
 40
1
 10
276.014921
 20
172.321511
 30
0.0
 10
275.800394
 20
172.485238
 30
0.0
 10
275.568915
 20
172.617910
 30
0.0
 10
275.320485
 20
172.719529
 30
0.0
  0
SPLINE
  5
659
100
AcDbEntity
  8
Layer_1
 62
3
100
AcDbSpline
 70
8
 71
3
 72
8
 73
4
 74
0
 40
0
 40
0
 40
0
 40
0
 40
1
 40
1
 40
1
 40
1
 10
275.320485
 20
172.719529
 30
0.0
 10
275.077717
 20
172.821148
 30
0.0
 10
274.823661
 20
172.891722
 30
0.0
 10
274.558315
 20
172.931252
 30
0.0
  0
LINE
  5
65a
100
AcDbEntity
  8
Layer_1
 62
3
100
AcDbLine
 10
274.558315
 20
172.931252
 30
0.0
 11
274.558315
 21
171.686342
 31
0.0
  0
SPLINE
  5
65b
100
AcDbEntity
  8
Layer_1
 62
3
100
AcDbSpline
 70
8
 71
3
 72
8
 73
4
 74
0
 40
0
 40
0
 40
0
 40
0
 40
1
 40
1
 40
1
 40
1
 10
274.558315
 20
171.686342
 30
0.0
 10
274.558315
 20
171.398400
 30
0.0
 10
274.504674
 20
171.127401
 30
0.0
 10
274.397392
 20
170.873344
 30
0.0
  0
SPLINE
  5
65c
100
AcDbEntity
  8
Layer_1
 62
3
100
AcDbSpline
 70
8
 71
3
 72
8
 73
4
 74
0
 40
0
 40
0
 40
0
 40
0
 40
1
 40
1
 40
1
 40
1
 10
274.397392
 20
170.873344
 30
0.0
 10
274.290129
 20
170.613625
 30
0.0
 10
274.137691
 20
170.384968
 30
0.0
 10
273.940079
 20
170.187375
 30
0.0
  0
LINE
  5
65d
100
AcDbEntity
  8
Layer_1
 62
3
100
AcDbLine
 10
273.940079
 20
170.187375
 30
0.0
 11
273.940079
 21
170.187375
 31
0.0
  0
SPLINE
  5
65e
100
AcDbEntity
  8
Layer_1
 62
3
100
AcDbSpline
 70
8
 71
3
 72
8
 73
4
 74
0
 40
0
 40
0
 40
0
 40
0
 40
1
 40
1
 40
1
 40
1
 10
272.441112
 20
170.416031
 30
0.0
 10
272.616128
 20
170.416031
 30
0.0
 10
272.779854
 20
170.449898
 30
0.0
 10
272.932292
 20
170.517631
 30
0.0
  0
SPLINE
  5
65f
100
AcDbEntity
  8
Layer_1
 62
3
100
AcDbSpline
 70
8
 71
3
 72
8
 73
4
 74
0
 40
0
 40
0
 40
0
 40
0
 40
1
 40
1
 40
1
 40
1
 10
272.932292
 20
170.517631
 30
0.0
 10
273.090374
 20
170.585383
 30
0.0
 10
273.225878
 20
170.675723
 30
0.0
 10
273.338805
 20
170.788649
 30
0.0
  0
SPLINE
  5
660
100
AcDbEntity
  8
Layer_1
 62
3
100
AcDbSpline
 70
8
 71
3
 72
8
 73
4
 74
0
 40
0
 40
0
 40
0
 40
0
 40
1
 40
1
 40
1
 40
1
 10
273.338805
 20
170.788649
 30
0.0
 10
273.451712
 20
170.901557
 30
0.0
 10
273.542042
 20
171.037061
 30
0.0
 10
273.609794
 20
171.195162
 30
0.0
  0
SPLINE
  5
661
100
AcDbEntity
  8
Layer_1
 62
3
100
AcDbSpline
 70
8
 71
3
 72
8
 73
4
 74
0
 40
0
 40
0
 40
0
 40
0
 40
1
 40
1
 40
1
 40
1
 10
273.609794
 20
171.195162
 30
0.0
 10
273.677547
 20
171.347600
 30
0.0
 10
273.711423
 20
171.511326
 30
0.0
 10
273.711423
 20
171.686342
 30
0.0
  0
LINE
  5
662
100
AcDbEntity
  8
Layer_1
 62
3
100
AcDbLine
 10
273.711423
 20
171.686342
 30
0.0
 11
273.711423
 21
172.956652
 31
0.0
  0
LINE
  5
663
100
AcDbEntity
  8
Layer_1
 62
3
100
AcDbLine
 10
273.711423
 20
172.956652
 30
0.0
 11
271.594220
 21
172.956652
 31
0.0
  0
SPLINE
  5
664
100
AcDbEntity
  8
Layer_1
 62
3
100
AcDbSpline
 70
8
 71
3
 72
8
 73
4
 74
0
 40
0
 40
0
 40
0
 40
0
 40
1
 40
1
 40
1
 40
1
 10
271.594220
 20
172.956652
 30
0.0
 10
271.419204
 20
172.956652
 30
0.0
 10
271.252656
 20
172.922776
 30
0.0
 10
271.094574
 20
172.855024
 30
0.0
  0
SPLINE
  5
665
100
AcDbEntity
  8
Layer_1
 62
3
100
AcDbSpline
 70
8
 71
3
 72
8
 73
4
 74
0
 40
0
 40
0
 40
0
 40
0
 40
1
 40
1
 40
1
 40
1
 10
271.094574
 20
172.855024
 30
0.0
 10
270.942136
 20
172.787272
 30
0.0
 10
270.809454
 20
172.696942
 30
0.0
 10
270.696527
 20
172.584034
 30
0.0
  0
SPLINE
  5
666
100
AcDbEntity
  8
Layer_1
 62
3
100
AcDbSpline
 70
8
 71
3
 72
8
 73
4
 74
0
 40
0
 40
0
 40
0
 40
0
 40
1
 40
1
 40
1
 40
1
 10
270.696527
 20
172.584034
 30
0.0
 10
270.583620
 20
172.471108
 30
0.0
 10
270.493290
 20
172.338426
 30
0.0
 10
270.425538
 20
172.185988
 30
0.0
  0
SPLINE
  5
667
100
AcDbEntity
  8
Layer_1
 62
3
100
AcDbSpline
 70
8
 71
3
 72
8
 73
4
 74
0
 40
0
 40
0
 40
0
 40
0
 40
1
 40
1
 40
1
 40
1
 10
270.425538
 20
172.185988
 30
0.0
 10
270.357785
 20
172.027906
 30
0.0
 10
270.323909
 20
171.861357
 30
0.0
 10
270.323909
 20
171.686342
 30
0.0
  0
SPLINE
  5
668
100
AcDbEntity
  8
Layer_1
 62
3
100
AcDbSpline
 70
8
 71
3
 72
8
 73
4
 74
0
 40
0
 40
0
 40
0
 40
0
 40
1
 40
1
 40
1
 40
1
 10
270.323909
 20
171.686342
 30
0.0
 10
270.323909
 20
171.511326
 30
0.0
 10
270.357785
 20
171.347600
 30
0.0
 10
270.425538
 20
171.195162
 30
0.0
  0
SPLINE
  5
669
100
AcDbEntity
  8
Layer_1
 62
3
100
AcDbSpline
 70
8
 71
3
 72
8
 73
4
 74
0
 40
0
 40
0
 40
0
 40
0
 40
1
 40
1
 40
1
 40
1
 10
270.425538
 20
171.195162
 30
0.0
 10
270.493290
 20
171.037080
 30
0.0
 10
270.583620
 20
170.901576
 30
0.0
 10
270.696527
 20
170.788649
 30
0.0
  0
SPLINE
  5
66a
100
AcDbEntity
  8
Layer_1
 62
3
100
AcDbSpline
 70
8
 71
3
 72
8
 73
4
 74
0
 40
0
 40
0
 40
0
 40
0
 40
1
 40
1
 40
1
 40
1
 10
270.696527
 20
170.788649
 30
0.0
 10
270.809454
 20
170.675723
 30
0.0
 10
270.942136
 20
170.585383
 30
0.0
 10
271.094574
 20
170.517631
 30
0.0
  0
SPLINE
  5
66b
100
AcDbEntity
  8
Layer_1
 62
3
100
AcDbSpline
 70
8
 71
3
 72
8
 73
4
 74
0
 40
0
 40
0
 40
0
 40
0
 40
1
 40
1
 40
1
 40
1
 10
271.094574
 20
170.517631
 30
0.0
 10
271.252656
 20
170.449898
 30
0.0
 10
271.419204
 20
170.416031
 30
0.0
 10
271.594220
 20
170.416031
 30
0.0
  0
LINE
  5
66c
100
AcDbEntity
  8
Layer_1
 62
3
100
AcDbLine
 10
271.594220
 20
170.416031
 30
0.0
 11
272.441112
 21
170.416031
 31
0.0
  0
LINE
  5
66d
100
AcDbEntity
  8
Layer_1
 62
3
100
AcDbLine
 10
272.441112
 20
170.416031
 30
0.0
 11
272.441112
 21
170.416031
 31
0.0
  0
LINE
  5
66e
100
AcDbEntity
  8
Layer_1
 62
5
100
AcDbLine
 10
264.058217
 20
119.416612
 30
0.0
 11
264.776194
 21
114.527309
 31
0.0
  0
LINE
  5
66f
100
AcDbEntity
  8
Layer_1
 62
5
100
AcDbLine
 10
264.776194
 20
114.527309
 30
0.0
 11
264.497423
 21
111.659505
 31
0.0
  0
LINE
  5
670
100
AcDbEntity
  8
Layer_1
 62
5
100
AcDbLine
 10
264.497423
 20
111.659505
 30
0.0
 11
260.836086
 21
103.571524
 31
0.0
  0
LINE
  5
671
100
AcDbEntity
  8
Layer_1
 62
5
100
AcDbLine
 10
260.836086
 20
103.571524
 30
0.0
 11
256.029559
 21
103.571524
 31
0.0
  0
LINE
  5
672
100
AcDbEntity
  8
Layer_1
 62
5
100
AcDbLine
 10
256.029559
 20
103.571524
 30
0.0
 11
252.368223
 21
111.659505
 31
0.0
  0
LINE
  5
673
100
AcDbEntity
  8
Layer_1
 62
5
100
AcDbLine
 10
252.368223
 20
111.659505
 30
0.0
 11
252.089452
 21
114.527309
 31
0.0
  0
LINE
  5
674
100
AcDbEntity
  8
Layer_1
 62
5
100
AcDbLine
 10
252.089452
 20
114.527309
 30
0.0
 11
252.807428
 21
119.416612
 31
0.0
  0
LINE
  5
675
100
AcDbEntity
  8
Layer_1
 62
5
100
AcDbLine
 10
252.807428
 20
119.416612
 30
0.0
 11
244.150515
 21
121.736227
 31
0.0
  0
LINE
  5
676
100
AcDbEntity
  8
Layer_1
 62
5
100
AcDbLine
 10
244.150515
 20
121.736227
 30
0.0
 11
242.327645
 21
117.142976
 31
0.0
  0
LINE
  5
677
100
AcDbEntity
  8
Layer_1
 62
5
100
AcDbLine
 10
242.327645
 20
117.142976
 30
0.0
 11
240.652314
 21
114.798759
 31
0.0
  0
LINE
  5
678
100
AcDbEntity
  8
Layer_1
 62
5
100
AcDbLine
 10
240.652314
 20
114.798759
 30
0.0
 11
233.437518
 21
109.625022
 31
0.0
  0
LINE
  5
679
100
AcDbEntity
  8
Layer_1
 62
5
100
AcDbLine
 10
233.437518
 20
109.625022
 30
0.0
 11
229.274943
 21
112.028285
 31
0.0
  0
LINE
  5
67a
100
AcDbEntity
  8
Layer_1
 62
5
100
AcDbLine
 10
229.274943
 20
112.028285
 30
0.0
 11
230.148122
 21
120.863359
 31
0.0
  0
LINE
  5
67b
100
AcDbEntity
  8
Layer_1
 62
5
100
AcDbLine
 10
230.148122
 20
120.863359
 30
0.0
 11
231.340606
 21
123.486347
 31
0.0
  0
LINE
  5
67c
100
AcDbEntity
  8
Layer_1
 62
5
100
AcDbLine
 10
231.340606
 20
123.486347
 30
0.0
 11
234.407044
 21
127.361619
 31
0.0
  0
LINE
  5
67d
100
AcDbEntity
  8
Layer_1
 62
5
100
AcDbLine
 10
234.407044
 20
127.361619
 30
0.0
 11
228.069741
 21
133.698922
 31
0.0
  0
LINE
  5
67e
100
AcDbEntity
  8
Layer_1
 62
5
100
AcDbLine
 10
228.069741
 20
133.698922
 30
0.0
 11
224.194469
 21
130.632484
 31
0.0
  0
LINE
  5
67f
100
AcDbEntity
  8
Layer_1
 62
5
100
AcDbLine
 10
224.194469
 20
130.632484
 30
0.0
 11
221.571481
 21
129.440000
 31
0.0
  0
LINE
  5
680
100
AcDbEntity
  8
Layer_1
 62
5
100
AcDbLine
 10
221.571481
 20
129.440000
 30
0.0
 11
212.736421
 21
128.566821
 31
0.0
  0
LINE
  5
681
100
AcDbEntity
  8
Layer_1
 62
5
100
AcDbLine
 10
212.736421
 20
128.566821
 30
0.0
 11
210.333158
 21
132.729396
 31
0.0
  0
LINE
  5
682
100
AcDbEntity
  8
Layer_1
 62
5
100
AcDbLine
 10
210.333158
 20
132.729396
 30
0.0
 11
215.506881
 21
139.944192
 31
0.0
  0
LINE
  5
683
100
AcDbEntity
  8
Layer_1
 62
5
100
AcDbLine
 10
215.506881
 20
139.944192
 30
0.0
 11
217.851098
 21
141.619523
 31
0.0
  0
LINE
  5
684
100
AcDbEntity
  8
Layer_1
 62
5
100
AcDbLine
 10
217.851098
 20
141.619523
 30
0.0
 11
222.444349
 21
143.442393
 31
0.0
  0
LINE
  5
685
100
AcDbEntity
  8
Layer_1
 62
5
100
AcDbLine
 10
222.444349
 20
143.442393
 30
0.0
 11
220.124734
 21
152.099306
 31
0.0
  0
LINE
  5
686
100
AcDbEntity
  8
Layer_1
 62
5
100
AcDbLine
 10
220.124734
 20
152.099306
 30
0.0
 11
215.235431
 21
151.381330
 31
0.0
  0
LINE
  5
687
100
AcDbEntity
  8
Layer_1
 62
5
100
AcDbLine
 10
215.235431
 20
151.381330
 30
0.0
 11
212.367616
 21
151.660101
 31
0.0
  0
LINE
  5
688
100
AcDbEntity
  8
Layer_1
 62
5
100
AcDbLine
 10
212.367616
 20
151.660101
 30
0.0
 11
204.279638
 21
155.321438
 31
0.0
  0
LINE
  5
689
100
AcDbEntity
  8
Layer_1
 62
5
100
AcDbLine
 10
204.279638
 20
155.321438
 30
0.0
 11
204.279638
 21
160.127964
 31
0.0
  0
LINE
  5
68a
100
AcDbEntity
  8
Layer_1
 62
5
100
AcDbLine
 10
204.279638
 20
160.127964
 30
0.0
 11
212.367616
 21
163.789301
 31
0.0
  0
LINE
  5
68b
100
AcDbEntity
  8
Layer_1
 62
5
100
AcDbLine
 10
212.367616
 20
163.789301
 30
0.0
 11
215.235431
 21
164.068072
 31
0.0
  0
LINE
  5
68c
100
AcDbEntity
  8
Layer_1
 62
5
100
AcDbLine
 10
215.235431
 20
164.068072
 30
0.0
 11
220.124734
 21
163.350095
 31
0.0
  0
LINE
  5
68d
100
AcDbEntity
  8
Layer_1
 62
5
100
AcDbLine
 10
220.124734
 20
163.350095
 30
0.0
 11
222.444349
 21
172.007008
 31
0.0
  0
LINE
  5
68e
100
AcDbEntity
  8
Layer_1
 62
5
100
AcDbLine
 10
222.444349
 20
172.007008
 30
0.0
 11
217.851098
 21
173.829879
 31
0.0
  0
LINE
  5
68f
100
AcDbEntity
  8
Layer_1
 62
5
100
AcDbLine
 10
217.851098
 20
173.829879
 30
0.0
 11
215.506881
 21
175.505209
 31
0.0
  0
LINE
  5
690
100
AcDbEntity
  8
Layer_1
 62
5
100
AcDbLine
 10
215.506881
 20
175.505209
 30
0.0
 11
210.333158
 21
182.720006
 31
0.0
  0
LINE
  5
691
100
AcDbEntity
  8
Layer_1
 62
5
100
AcDbLine
 10
210.333158
 20
182.720006
 30
0.0
 11
212.736421
 21
186.882581
 31
0.0
  0
LINE
  5
692
100
AcDbEntity
  8
Layer_1
 62
5
100
AcDbLine
 10
212.736421
 20
186.882581
 30
0.0
 11
221.571481
 21
186.009402
 31
0.0
  0
LINE
  5
693
100
AcDbEntity
  8
Layer_1
 62
5
100
AcDbLine
 10
221.571481
 20
186.009402
 30
0.0
 11
224.194469
 21
184.816917
 31
0.0
  0
LINE
  5
694
100
AcDbEntity
  8
Layer_1
 62
5
100
AcDbLine
 10
224.194469
 20
184.816917
 30
0.0
 11
228.069741
 21
181.750480
 31
0.0
  0
LINE
  5
695
100
AcDbEntity
  8
Layer_1
 62
5
100
AcDbLine
 10
228.069741
 20
181.750480
 30
0.0
 11
234.407044
 21
188.087783
 31
0.0
  0
LINE
  5
696
100
AcDbEntity
  8
Layer_1
 62
5
100
AcDbLine
 10
234.407044
 20
188.087783
 30
0.0
 11
231.340606
 21
191.963055
 31
0.0
  0
LINE
  5
697
100
AcDbEntity
  8
Layer_1
 62
5
100
AcDbLine
 10
231.340606
 20
191.963055
 30
0.0
 11
230.148122
 21
194.586043
 31
0.0
  0
LINE
  5
698
100
AcDbEntity
  8
Layer_1
 62
5
100
AcDbLine
 10
230.148122
 20
194.586043
 30
0.0
 11
229.274943
 21
203.421103
 31
0.0
  0
LINE
  5
699
100
AcDbEntity
  8
Layer_1
 62
5
100
AcDbLine
 10
229.274943
 20
203.421103
 30
0.0
 11
233.437518
 21
205.824366
 31
0.0
  0
LINE
  5
69a
100
AcDbEntity
  8
Layer_1
 62
5
100
AcDbLine
 10
233.437518
 20
205.824366
 30
0.0
 11
240.652314
 21
200.650643
 31
0.0
  0
LINE
  5
69b
100
AcDbEntity
  8
Layer_1
 62
5
100
AcDbLine
 10
240.652314
 20
200.650643
 30
0.0
 11
242.327645
 21
198.306426
 31
0.0
  0
LINE
  5
69c
100
AcDbEntity
  8
Layer_1
 62
5
100
AcDbLine
 10
242.327645
 20
198.306426
 30
0.0
 11
244.150515
 21
193.713174
 31
0.0
  0
LINE
  5
69d
100
AcDbEntity
  8
Layer_1
 62
5
100
AcDbLine
 10
244.150515
 20
193.713174
 30
0.0
 11
252.807428
 21
196.032790
 31
0.0
  0
LINE
  5
69e
100
AcDbEntity
  8
Layer_1
 62
5
100
AcDbLine
 10
252.807428
 20
196.032790
 30
0.0
 11
252.089452
 21
200.922092
 31
0.0
  0
LINE
  5
69f
100
AcDbEntity
  8
Layer_1
 62
5
100
AcDbLine
 10
252.089452
 20
200.922092
 30
0.0
 11
252.368223
 21
203.789908
 31
0.0
  0
LINE
  5
6a0
100
AcDbEntity
  8
Layer_1
 62
5
100
AcDbLine
 10
252.368223
 20
203.789908
 30
0.0
 11
256.029559
 21
211.877886
 31
0.0
  0
LINE
  5
6a1
100
AcDbEntity
  8
Layer_1
 62
5
100
AcDbLine
 10
256.029559
 20
211.877886
 30
0.0
 11
260.836086
 21
211.877886
 31
0.0
  0
LINE
  5
6a2
100
AcDbEntity
  8
Layer_1
 62
5
100
AcDbLine
 10
260.836086
 20
211.877886
 30
0.0
 11
264.497423
 21
203.789908
 31
0.0
  0
LINE
  5
6a3
100
AcDbEntity
  8
Layer_1
 62
5
100
AcDbLine
 10
264.497423
 20
203.789908
 30
0.0
 11
264.776194
 21
200.922092
 31
0.0
  0
LINE
  5
6a4
100
AcDbEntity
  8
Layer_1
 62
5
100
AcDbLine
 10
264.776194
 20
200.922092
 30
0.0
 11
264.058217
 21
196.032790
 31
0.0
  0
LINE
  5
6a5
100
AcDbEntity
  8
Layer_1
 62
5
100
AcDbLine
 10
264.058217
 20
196.032790
 30
0.0
 11
272.715130
 21
193.713174
 31
0.0
  0
LINE
  5
6a6
100
AcDbEntity
  8
Layer_1
 62
5
100
AcDbLine
 10
272.715130
 20
193.713174
 30
0.0
 11
274.538001
 21
198.306426
 31
0.0
  0
LINE
  5
6a7
100
AcDbEntity
  8
Layer_1
 62
5
100
AcDbLine
 10
274.538001
 20
198.306426
 30
0.0
 11
276.213331
 21
200.650643
 31
0.0
  0
LINE
  5
6a8
100
AcDbEntity
  8
Layer_1
 62
5
100
AcDbLine
 10
276.213331
 20
200.650643
 30
0.0
 11
283.428128
 21
205.824366
 31
0.0
  0
LINE
  5
6a9
100
AcDbEntity
  8
Layer_1
 62
5
100
AcDbLine
 10
283.428128
 20
205.824366
 30
0.0
 11
287.590703
 21
203.421103
 31
0.0
  0
LINE
  5
6aa
100
AcDbEntity
  8
Layer_1
 62
5
100
AcDbLine
 10
287.590703
 20
203.421103
 30
0.0
 11
286.717524
 21
194.586043
 31
0.0
  0
LINE
  5
6ab
100
AcDbEntity
  8
Layer_1
 62
5
100
AcDbLine
 10
286.717524
 20
194.586043
 30
0.0
 11
285.525039
 21
191.963055
 31
0.0
  0
LINE
  5
6ac
100
AcDbEntity
  8
Layer_1
 62
5
100
AcDbLine
 10
285.525039
 20
191.963055
 30
0.0
 11
282.458602
 21
188.087783
 31
0.0
  0
LINE
  5
6ad
100
AcDbEntity
  8
Layer_1
 62
5
100
AcDbLine
 10
282.458602
 20
188.087783
 30
0.0
 11
288.795905
 21
181.750480
 31
0.0
  0
LINE
  5
6ae
100
AcDbEntity
  8
Layer_1
 62
5
100
AcDbLine
 10
288.795905
 20
181.750480
 30
0.0
 11
292.671177
 21
184.816917
 31
0.0
  0
LINE
  5
6af
100
AcDbEntity
  8
Layer_1
 62
5
100
AcDbLine
 10
292.671177
 20
184.816917
 30
0.0
 11
295.294164
 21
186.009402
 31
0.0
  0
LINE
  5
6b0
100
AcDbEntity
  8
Layer_1
 62
5
100
AcDbLine
 10
295.294164
 20
186.009402
 30
0.0
 11
304.129224
 21
186.882581
 31
0.0
  0
LINE
  5
6b1
100
AcDbEntity
  8
Layer_1
 62
5
100
AcDbLine
 10
304.129224
 20
186.882581
 30
0.0
 11
306.532488
 21
182.720006
 31
0.0
  0
LINE
  5
6b2
100
AcDbEntity
  8
Layer_1
 62
5
100
AcDbLine
 10
306.532488
 20
182.720006
 30
0.0
 11
301.358765
 21
175.505209
 31
0.0
  0
LINE
  5
6b3
100
AcDbEntity
  8
Layer_1
 62
5
100
AcDbLine
 10
301.358765
 20
175.505209
 30
0.0
 11
299.014548
 21
173.829879
 31
0.0
  0
LINE
  5
6b4
100
AcDbEntity
  8
Layer_1
 62
5
100
AcDbLine
 10
299.014548
 20
173.829879
 30
0.0
 11
294.421296
 21
172.007008
 31
0.0
  0
LINE
  5
6b5
100
AcDbEntity
  8
Layer_1
 62
5
100
AcDbLine
 10
294.421296
 20
172.007008
 30
0.0
 11
296.740912
 21
163.350095
 31
0.0
  0
LINE
  5
6b6
100
AcDbEntity
  8
Layer_1
 62
5
100
AcDbLine
 10
296.740912
 20
163.350095
 30
0.0
 11
301.630214
 21
164.068072
 31
0.0
  0
LINE
  5
6b7
100
AcDbEntity
  8
Layer_1
 62
5
100
AcDbLine
 10
301.630214
 20
164.068072
 30
0.0
 11
304.498030
 21
163.789301
 31
0.0
  0
LINE
  5
6b8
100
AcDbEntity
  8
Layer_1
 62
5
100
AcDbLine
 10
304.498030
 20
163.789301
 30
0.0
 11
312.586008
 21
160.127964
 31
0.0
  0
LINE
  5
6b9
100
AcDbEntity
  8
Layer_1
 62
5
100
AcDbLine
 10
312.586008
 20
160.127964
 30
0.0
 11
312.586008
 21
155.321438
 31
0.0
  0
LINE
  5
6ba
100
AcDbEntity
  8
Layer_1
 62
5
100
AcDbLine
 10
312.586008
 20
155.321438
 30
0.0
 11
304.498030
 21
151.660101
 31
0.0
  0
LINE
  5
6bb
100
AcDbEntity
  8
Layer_1
 62
5
100
AcDbLine
 10
304.498030
 20
151.660101
 30
0.0
 11
301.630214
 21
151.381330
 31
0.0
  0
LINE
  5
6bc
100
AcDbEntity
  8
Layer_1
 62
5
100
AcDbLine
 10
301.630214
 20
151.381330
 30
0.0
 11
296.740912
 21
152.099306
 31
0.0
  0
LINE
  5
6bd
100
AcDbEntity
  8
Layer_1
 62
5
100
AcDbLine
 10
296.740912
 20
152.099306
 30
0.0
 11
294.421296
 21
143.442393
 31
0.0
  0
LINE
  5
6be
100
AcDbEntity
  8
Layer_1
 62
5
100
AcDbLine
 10
294.421296
 20
143.442393
 30
0.0
 11
299.014548
 21
141.619523
 31
0.0
  0
LINE
  5
6bf
100
AcDbEntity
  8
Layer_1
 62
5
100
AcDbLine
 10
299.014548
 20
141.619523
 30
0.0
 11
301.358765
 21
139.944192
 31
0.0
  0
LINE
  5
6c0
100
AcDbEntity
  8
Layer_1
 62
5
100
AcDbLine
 10
301.358765
 20
139.944192
 30
0.0
 11
306.532488
 21
132.729396
 31
0.0
  0
LINE
  5
6c1
100
AcDbEntity
  8
Layer_1
 62
5
100
AcDbLine
 10
306.532488
 20
132.729396
 30
0.0
 11
304.129224
 21
128.566821
 31
0.0
  0
LINE
  5
6c2
100
AcDbEntity
  8
Layer_1
 62
5
100
AcDbLine
 10
304.129224
 20
128.566821
 30
0.0
 11
295.294164
 21
129.440000
 31
0.0
  0
LINE
  5
6c3
100
AcDbEntity
  8
Layer_1
 62
5
100
AcDbLine
 10
295.294164
 20
129.440000
 30
0.0
 11
292.671177
 21
130.632484
 31
0.0
  0
LINE
  5
6c4
100
AcDbEntity
  8
Layer_1
 62
5
100
AcDbLine
 10
292.671177
 20
130.632484
 30
0.0
 11
288.795905
 21
133.698922
 31
0.0
  0
LINE
  5
6c5
100
AcDbEntity
  8
Layer_1
 62
5
100
AcDbLine
 10
288.795905
 20
133.698922
 30
0.0
 11
282.458602
 21
127.361619
 31
0.0
  0
LINE
  5
6c6
100
AcDbEntity
  8
Layer_1
 62
5
100
AcDbLine
 10
282.458602
 20
127.361619
 30
0.0
 11
285.525039
 21
123.486347
 31
0.0
  0
LINE
  5
6c7
100
AcDbEntity
  8
Layer_1
 62
5
100
AcDbLine
 10
285.525039
 20
123.486347
 30
0.0
 11
286.717524
 21
120.863359
 31
0.0
  0
LINE
  5
6c8
100
AcDbEntity
  8
Layer_1
 62
5
100
AcDbLine
 10
286.717524
 20
120.863359
 30
0.0
 11
287.590703
 21
112.028285
 31
0.0
  0
LINE
  5
6c9
100
AcDbEntity
  8
Layer_1
 62
5
100
AcDbLine
 10
287.590703
 20
112.028285
 30
0.0
 11
283.428128
 21
109.625022
 31
0.0
  0
LINE
  5
6ca
100
AcDbEntity
  8
Layer_1
 62
5
100
AcDbLine
 10
283.428128
 20
109.625022
 30
0.0
 11
276.213331
 21
114.798759
 31
0.0
  0
LINE
  5
6cb
100
AcDbEntity
  8
Layer_1
 62
5
100
AcDbLine
 10
276.213331
 20
114.798759
 30
0.0
 11
274.538001
 21
117.142976
 31
0.0
  0
LINE
  5
6cc
100
AcDbEntity
  8
Layer_1
 62
5
100
AcDbLine
 10
274.538001
 20
117.142976
 30
0.0
 11
272.715130
 21
121.736227
 31
0.0
  0
LINE
  5
6cd
100
AcDbEntity
  8
Layer_1
 62
5
100
AcDbLine
 10
272.715130
 20
121.736227
 30
0.0
 11
264.058217
 21
119.416612
 31
0.0
  0
LINE
  5
6ce
100
AcDbEntity
  8
Layer_1
 62
1
100
AcDbLine
 10
288.426081
 20
156.223544
 30
0.0
 11
278.426075
 21
156.223544
 31
0.0
  0
LINE
  5
6cf
100
AcDbEntity
  8
Layer_1
 62
1
100
AcDbLine
 10
278.426075
 20
156.223544
 30
0.0
 11
278.426075
 21
159.223538
 31
0.0
  0
LINE
  5
6d0
100
AcDbEntity
  8
Layer_1
 62
1
100
AcDbLine
 10
278.426075
 20
159.223538
 30
0.0
 11
288.426081
 21
159.223538
 31
0.0
  0
LINE
  5
6d1
100
AcDbEntity
  8
Layer_1
 62
1
100
AcDbLine
 10
288.426081
 20
159.223538
 30
0.0
 11
288.426081
 21
156.223544
 31
0.0
  0
LINE
  5
6d2
100
AcDbEntity
  8
Layer_1
 62
1
100
AcDbLine
 10
268.425951
 20
159.223377
 30
0.0
 11
259.996215
 21
159.223377
 31
0.0
  0
LINE
  5
6d3
100
AcDbEntity
  8
Layer_1
 62
1
100
AcDbLine
 10
259.996215
 20
159.223377
 30
0.0
 11
259.996215
 21
167.718156
 31
0.0
  0
LINE
  5
6d4
100
AcDbEntity
  8
Layer_1
 62
1
100
AcDbLine
 10
259.996215
 20
167.718156
 30
0.0
 11
256.996504
 21
167.718156
 31
0.0
  0
LINE
  5
6d5
100
AcDbEntity
  8
Layer_1
 62
1
100
AcDbLine
 10
256.996504
 20
167.718156
 30
0.0
 11
256.996504
 21
159.223377
 31
0.0
  0
LINE
  5
6d6
100
AcDbEntity
  8
Layer_1
 62
1
100
AcDbLine
 10
256.996504
 20
159.223377
 30
0.0
 11
248.439435
 21
159.223377
 31
0.0
  0
LINE
  5
6d7
100
AcDbEntity
  8
Layer_1
 62
1
100
AcDbLine
 10
248.439435
 20
159.223377
 30
0.0
 11
248.439435
 21
156.223665
 31
0.0
  0
LINE
  5
6d8
100
AcDbEntity
  8
Layer_1
 62
1
100
AcDbLine
 10
248.439435
 20
156.223665
 30
0.0
 11
256.996504
 21
156.223665
 31
0.0
  0
LINE
  5
6d9
100
AcDbEntity
  8
Layer_1
 62
1
100
AcDbLine
 10
256.996504
 20
156.223665
 30
0.0
 11
256.996504
 21
147.731641
 31
0.0
  0
LINE
  5
6da
100
AcDbEntity
  8
Layer_1
 62
1
100
AcDbLine
 10
256.996504
 20
147.731641
 30
0.0
 11
259.996215
 21
147.731641
 31
0.0
  0
LINE
  5
6db
100
AcDbEntity
  8
Layer_1
 62
1
100
AcDbLine
 10
259.996215
 20
147.731641
 30
0.0
 11
259.996215
 21
156.223665
 31
0.0
  0
LINE
  5
6dc
100
AcDbEntity
  8
Layer_1
 62
1
100
AcDbLine
 10
259.996215
 20
156.223665
 30
0.0
 11
268.425951
 21
156.223665
 31
0.0
  0
LINE
  5
6dd
100
AcDbEntity
  8
Layer_1
 62
1
100
AcDbLine
 10
268.425951
 20
156.223665
 30
0.0
 11
268.425951
 21
159.223377
 31
0.0
  0
LINE
  5
6de
100
AcDbEntity
  8
Layer_1
 62
1
100
AcDbLine
 10
268.425951
 20
159.223377
 30
0.0
 11
268.425951
 21
159.223377
 31
0.0
  0
SPLINE
  5
6df
100
AcDbEntity
  8
Layer_1
 62
1
100
AcDbSpline
 70
8
 71
3
 72
8
 73
4
 74
0
 40
0
 40
0
 40
0
 40
0
 40
1
 40
1
 40
1
 40
1
 10
271.876117
 20
157.724675
 30
0.0
 10
271.876117
 20
158.135761
 30
0.0
 10
272.039420
 20
158.530011
 30
0.0
 10
272.330102
 20
158.820692
 30
0.0
  0
SPLINE
  5
6e0
100
AcDbEntity
  8
Layer_1
 62
1
100
AcDbSpline
 70
8
 71
3
 72
8
 73
4
 74
0
 40
0
 40
0
 40
0
 40
0
 40
1
 40
1
 40
1
 40
1
 10
272.330102
 20
158.820692
 30
0.0
 10
272.620783
 20
159.111374
 30
0.0
 10
273.015033
 20
159.274677
 30
0.0
 10
273.426119
 20
159.274677
 30
0.0
  0
SPLINE
  5
6e1
100
AcDbEntity
  8
Layer_1
 62
1
100
AcDbSpline
 70
8
 71
3
 72
8
 73
4
 74
0
 40
0
 40
0
 40
0
 40
0
 40
1
 40
1
 40
1
 40
1
 10
273.426119
 20
159.274677
 30
0.0
 10
273.837204
 20
159.274676
 30
0.0
 10
274.231453
 20
159.111373
 30
0.0
 10
274.522134
 20
158.820691
 30
0.0
  0
SPLINE
  5
6e2
100
AcDbEntity
  8
Layer_1
 62
1
100
AcDbSpline
 70
8
 71
3
 72
8
 73
4
 74
0
 40
0
 40
0
 40
0
 40
0
 40
1
 40
1
 40
1
 40
1
 10
274.522134
 20
158.820691
 30
0.0
 10
274.812815
 20
158.530010
 30
0.0
 10
274.976117
 20
158.135761
 30
0.0
 10
274.976117
 20
157.724675
 30
0.0
  0
SPLINE
  5
6e3
100
AcDbEntity
  8
Layer_1
 62
1
100
AcDbSpline
 70
8
 71
3
 72
8
 73
4
 74
0
 40
0
 40
0
 40
0
 40
0
 40
1
 40
1
 40
1
 40
1
 10
274.976117
 20
157.724675
 30
0.0
 10
274.976116
 20
156.868635
 30
0.0
 10
274.282159
 20
156.174678
 30
0.0
 10
273.426119
 20
156.174677
 30
0.0
  0
SPLINE
  5
6e4
100
AcDbEntity
  8
Layer_1
 62
1
100
AcDbSpline
 70
8
 71
3
 72
8
 73
4
 74
0
 40
0
 40
0
 40
0
 40
0
 40
1
 40
1
 40
1
 40
1
 10
273.426119
 20
156.174677
 30
0.0
 10
273.015033
 20
156.174677
 30
0.0
 10
272.620784
 20
156.337979
 30
0.0
 10
272.330103
 20
156.628660
 30
0.0
  0
SPLINE
  5
6e5
100
AcDbEntity
  8
Layer_1
 62
1
100
AcDbSpline
 70
8
 71
3
 72
8
 73
4
 74
0
 40
0
 40
0
 40
0
 40
0
 40
1
 40
1
 40
1
 40
1
 10
272.330103
 20
156.628660
 30
0.0
 10
272.039421
 20
156.919342
 30
0.0
 10
271.876118
 20
157.313590
 30
0.0
 10
271.876117
 20
157.724675
 30
0.0
  0
LINE
  5
6e6
100
AcDbEntity
  8
Layer_1
 62
1
100
AcDbLine
 10
271.876117
 20
157.724675
 30
0.0
 11
271.876117
 21
157.724675
 31
0.0
  0
LINE
  5
6e7
100
AcDbEntity
  8
Layer_1
 62
1
100
AcDbLine
 10
238.439571
 20
156.223544
 30
0.0
 11
228.439565
 21
156.223544
 31
0.0
  0
LINE
  5
6e8
100
AcDbEntity
  8
Layer_1
 62
1
100
AcDbLine
 10
228.439565
 20
156.223544
 30
0.0
 11
228.439565
 21
159.223538
 31
0.0
  0
LINE
  5
6e9
100
AcDbEntity
  8
Layer_1
 62
1
100
AcDbLine
 10
228.439565
 20
159.223538
 30
0.0
 11
238.439571
 21
159.223538
 31
0.0
  0
LINE
  5
6ea
100
AcDbEntity
  8
Layer_1
 62
1
100
AcDbLine
 10
238.439571
 20
159.223538
 30
0.0
 11
238.439571
 21
156.223544
 31
0.0
  0
SPLINE
  5
6eb
100
AcDbEntity
  8
Layer_1
 62
1
100
AcDbSpline
 70
8
 71
3
 72
8
 73
4
 74
0
 40
0
 40
0
 40
0
 40
0
 40
1
 40
1
 40
1
 40
1
 10
241.889560
 20
157.724675
 30
0.0
 10
241.889559
 20
158.135761
 30
0.0
 10
242.052862
 20
158.530010
 30
0.0
 10
242.343543
 20
158.820691
 30
0.0
  0
SPLINE
  5
6ec
100
AcDbEntity
  8
Layer_1
 62
1
100
AcDbSpline
 70
8
 71
3
 72
8
 73
4
 74
0
 40
0
 40
0
 40
0
 40
0
 40
1
 40
1
 40
1
 40
1
 10
242.343543
 20
158.820691
 30
0.0
 10
242.634224
 20
159.111373
 30
0.0
 10
243.028473
 20
159.274676
 30
0.0
 10
243.439558
 20
159.274677
 30
0.0
  0
SPLINE
  5
6ed
100
AcDbEntity
  8
Layer_1
 62
1
100
AcDbSpline
 70
8
 71
3
 72
8
 73
4
 74
0
 40
0
 40
0
 40
0
 40
0
 40
1
 40
1
 40
1
 40
1
 10
243.439558
 20
159.274677
 30
0.0
 10
243.850644
 20
159.274676
 30
0.0
 10
244.244892
 20
159.111373
 30
0.0
 10
244.535573
 20
158.820691
 30
0.0
  0
SPLINE
  5
6ee
100
AcDbEntity
  8
Layer_1
 62
1
100
AcDbSpline
 70
8
 71
3
 72
8
 73
4
 74
0
 40
0
 40
0
 40
0
 40
0
 40
1
 40
1
 40
1
 40
1
 10
244.535573
 20
158.820691
 30
0.0
 10
244.826254
 20
158.530010
 30
0.0
 10
244.989557
 20
158.135761
 30
0.0
 10
244.989556
 20
157.724675
 30
0.0
  0
SPLINE
  5
6ef
100
AcDbEntity
  8
Layer_1
 62
1
100
AcDbSpline
 70
8
 71
3
 72
8
 73
4
 74
0
 40
0
 40
0
 40
0
 40
0
 40
1
 40
1
 40
1
 40
1
 10
244.989556
 20
157.724675
 30
0.0
 10
244.989556
 20
156.868635
 30
0.0
 10
244.295598
 20
156.174678
 30
0.0
 10
243.439558
 20
156.174677
 30
0.0
  0
SPLINE
  5
6f0
100
AcDbEntity
  8
Layer_1
 62
1
100
AcDbSpline
 70
8
 71
3
 72
8
 73
4
 74
0
 40
0
 40
0
 40
0
 40
0
 40
1
 40
1
 40
1
 40
1
 10
243.439558
 20
156.174677
 30
0.0
 10
242.583518
 20
156.174678
 30
0.0
 10
241.889560
 20
156.868635
 30
0.0
 10
241.889560
 20
157.724675
 30
0.0
  0
LINE
  5
6f1
100
AcDbEntity
  8
Layer_1
 62
1
100
AcDbLine
 10
241.889560
 20
157.724675
 30
0.0
 11
241.889560
 21
157.724675
 31
0.0
  0
LINE
  5
6f2
100
AcDbEntity
  8
Layer_1
 62
1
100
AcDbLine
 10
256.996492
 20
127.731443
 30
0.0
 11
256.996492
 21
137.731449
 31
0.0
  0
LINE
  5
6f3
100
AcDbEntity
  8
Layer_1
 62
1
100
AcDbLine
 10
256.996492
 20
137.731449
 30
0.0
 11
259.996486
 21
137.731449
 31
0.0
  0
LINE
  5
6f4
100
AcDbEntity
  8
Layer_1
 62
1
100
AcDbLine
 10
259.996486
 20
137.731449
 30
0.0
 11
259.996486
 21
127.731443
 31
0.0
  0
LINE
  5
6f5
100
AcDbEntity
  8
Layer_1
 62
1
100
AcDbLine
 10
259.996486
 20
127.731443
 30
0.0
 11
256.996492
 21
127.731443
 31
0.0
  0
SPLINE
  5
6f6
100
AcDbEntity
  8
Layer_1
 62
1
100
AcDbSpline
 70
8
 71
3
 72
8
 73
4
 74
0
 40
0
 40
0
 40
0
 40
0
 40
1
 40
1
 40
1
 40
1
 10
258.497624
 20
144.281406
 30
0.0
 10
258.908710
 20
144.281407
 30
0.0
 10
259.302959
 20
144.118104
 30
0.0
 10
259.593641
 20
143.827422
 30
0.0
  0
SPLINE
  5
6f7
100
AcDbEntity
  8
Layer_1
 62
1
100
AcDbSpline
 70
8
 71
3
 72
8
 73
4
 74
0
 40
0
 40
0
 40
0
 40
0
 40
1
 40
1
 40
1
 40
1
 10
259.593641
 20
143.827422
 30
0.0
 10
259.884322
 20
143.536740
 30
0.0
 10
260.047625
 20
143.142491
 30
0.0
 10
260.047625
 20
142.731405
 30
0.0
  0
SPLINE
  5
6f8
100
AcDbEntity
  8
Layer_1
 62
1
100
AcDbSpline
 70
8
 71
3
 72
8
 73
4
 74
0
 40
0
 40
0
 40
0
 40
0
 40
1
 40
1
 40
1
 40
1
 10
260.047625
 20
142.731405
 30
0.0
 10
260.047625
 20
142.320320
 30
0.0
 10
259.884321
 20
141.926071
 30
0.0
 10
259.593640
 20
141.635390
 30
0.0
  0
SPLINE
  5
6f9
100
AcDbEntity
  8
Layer_1
 62
1
100
AcDbSpline
 70
8
 71
3
 72
8
 73
4
 74
0
 40
0
 40
0
 40
0
 40
0
 40
1
 40
1
 40
1
 40
1
 10
259.593640
 20
141.635390
 30
0.0
 10
259.302958
 20
141.344709
 30
0.0
 10
258.908709
 20
141.181406
 30
0.0
 10
258.497624
 20
141.181407
 30
0.0
  0
SPLINE
  5
6fa
100
AcDbEntity
  8
Layer_1
 62
1
100
AcDbSpline
 70
8
 71
3
 72
8
 73
4
 74
0
 40
0
 40
0
 40
0
 40
0
 40
1
 40
1
 40
1
 40
1
 10
258.497624
 20
141.181407
 30
0.0
 10
257.641584
 20
141.181407
 30
0.0
 10
256.947626
 20
141.875365
 30
0.0
 10
256.947625
 20
142.731405
 30
0.0
  0
SPLINE
  5
6fb
100
AcDbEntity
  8
Layer_1
 62
1
100
AcDbSpline
 70
8
 71
3
 72
8
 73
4
 74
0
 40
0
 40
0
 40
0
 40
0
 40
1
 40
1
 40
1
 40
1
 10
256.947625
 20
142.731405
 30
0.0
 10
256.947625
 20
143.142491
 30
0.0
 10
257.110928
 20
143.536739
 30
0.0
 10
257.401609
 20
143.827421
 30
0.0
  0
SPLINE
  5
6fc
100
AcDbEntity
  8
Layer_1
 62
1
100
AcDbSpline
 70
8
 71
3
 72
8
 73
4
 74
0
 40
0
 40
0
 40
0
 40
0
 40
1
 40
1
 40
1
 40
1
 10
257.401609
 20
143.827421
 30
0.0
 10
257.692290
 20
144.118103
 30
0.0
 10
258.086538
 20
144.281406
 30
0.0
 10
258.497624
 20
144.281406
 30
0.0
  0
LINE
  5
6fd
100
AcDbEntity
  8
Layer_1
 62
1
100
AcDbLine
 10
258.497624
 20
144.281406
 30
0.0
 11
258.497624
 21
144.281406
 31
0.0
  0
LINE
  5
6fe
100
AcDbEntity
  8
Layer_1
 62
1
100
AcDbLine
 10
256.996492
 20
177.717953
 30
0.0
 11
256.996492
 21
187.717959
 31
0.0
  0
LINE
  5
6ff
100
AcDbEntity
  8
Layer_1
 62
1
100
AcDbLine
 10
256.996492
 20
187.717959
 30
0.0
 11
259.996486
 21
187.717959
 31
0.0
  0
LINE
  5
700
100
AcDbEntity
  8
Layer_1
 62
1
100
AcDbLine
 10
259.996486
 20
187.717959
 30
0.0
 11
259.996486
 21
177.717953
 31
0.0
  0
LINE
  5
701
100
AcDbEntity
  8
Layer_1
 62
1
100
AcDbLine
 10
259.996486
 20
177.717953
 30
0.0
 11
256.996492
 21
177.717953
 31
0.0
  0
SPLINE
  5
702
100
AcDbEntity
  8
Layer_1
 62
1
100
AcDbSpline
 70
8
 71
3
 72
8
 73
4
 74
0
 40
0
 40
0
 40
0
 40
0
 40
1
 40
1
 40
1
 40
1
 10
258.497624
 20
174.267964
 30
0.0
 10
258.908709
 20
174.267964
 30
0.0
 10
259.302958
 20
174.104662
 30
0.0
 10
259.593640
 20
173.813981
 30
0.0
  0
SPLINE
  5
703
100
AcDbEntity
  8
Layer_1
 62
1
100
AcDbSpline
 70
8
 71
3
 72
8
 73
4
 74
0
 40
0
 40
0
 40
0
 40
0
 40
1
 40
1
 40
1
 40
1
 10
259.593640
 20
173.813981
 30
0.0
 10
259.884321
 20
173.523300
 30
0.0
 10
260.047625
 20
173.129051
 30
0.0
 10
260.047625
 20
172.717966
 30
0.0
  0
SPLINE
  5
704
100
AcDbEntity
  8
Layer_1
 62
1
100
AcDbSpline
 70
8
 71
3
 72
8
 73
4
 74
0
 40
0
 40
0
 40
0
 40
0
 40
1
 40
1
 40
1
 40
1
 10
260.047625
 20
172.717966
 30
0.0
 10
260.047625
 20
172.306880
 30
0.0
 10
259.884321
 20
171.912632
 30
0.0
 10
259.593640
 20
171.621951
 30
0.0
  0
SPLINE
  5
705
100
AcDbEntity
  8
Layer_1
 62
1
100
AcDbSpline
 70
8
 71
3
 72
8
 73
4
 74
0
 40
0
 40
0
 40
0
 40
0
 40
1
 40
1
 40
1
 40
1
 10
259.593640
 20
171.621951
 30
0.0
 10
259.302958
 20
171.331270
 30
0.0
 10
258.908709
 20
171.167967
 30
0.0
 10
258.497624
 20
171.167967
 30
0.0
  0
SPLINE
  5
706
100
AcDbEntity
  8
Layer_1
 62
1
100
AcDbSpline
 70
8
 71
3
 72
8
 73
4
 74
0
 40
0
 40
0
 40
0
 40
0
 40
1
 40
1
 40
1
 40
1
 10
258.497624
 20
171.167967
 30
0.0
 10
257.641584
 20
171.167968
 30
0.0
 10
256.947626
 20
171.861925
 30
0.0
 10
256.947625
 20
172.717966
 30
0.0
  0
SPLINE
  5
707
100
AcDbEntity
  8
Layer_1
 62
1
100
AcDbSpline
 70
8
 71
3
 72
8
 73
4
 74
0
 40
0
 40
0
 40
0
 40
0
 40
1
 40
1
 40
1
 40
1
 10
256.947625
 20
172.717966
 30
0.0
 10
256.947626
 20
173.574006
 30
0.0
 10
257.641584
 20
174.267963
 30
0.0
 10
258.497624
 20
174.267964
 30
0.0
  0
LINE
  5
708
100
AcDbEntity
  8
Layer_1
 62
1
100
AcDbLine
 10
258.497624
 20
174.267964
 30
0.0
 11
258.497624
 21
174.267964
 31
0.0
  0
ENDSEC
  0
SECTION
  2
OBJECTS
  0
DICTIONARY
  5
C
330
0
100
AcDbDictionary
  3
ACAD_GROUP
350
D
  3
ACAD_MLINESTYLE
350
17
  0
DICTIONARY
  5
D
330
C
100
AcDbDictionary
  0
DICTIONARY
  5
1A
330
C
100
AcDbDictionary
  0
DICTIONARY
  5
17
330
C
100
AcDbDictionary
  3
STANDARD
350
18
  0
DICTIONARY
  5
19
330
C
100
AcDbDictionary
  0
ENDSEC
  0
EOF
