  0
SECTION
  2
HEADER
  9
$ACADVER
  1
AC1021
  9
$ACADMAINTVER
 70
    25
  9
$DWGCODEPAGE
  3
ANSI_1252
  9
$INSBASE
 10
0.0
 20
0.0
 30
0.0
  9
$EXTMIN
 10
1.000000000000000E+20
 20
1.000000000000000E+20
 30
1.000000000000000E+20
  9
$EXTMAX
 10
-1.000000000000000E+20
 20
-1.000000000000000E+20
 30
-1.000000000000000E+20
  9
$LIMMIN
 10
0.0
 20
0.0
  9
$LIMMAX
 10
420.0
 20
297.0
  9
$ORTHOMODE
 70
     0
  9
$REGENMODE
 70
     1
  9
$FILLMODE
 70
     1
  9
$QTEXTMODE
 70
     0
  9
$MIRRTEXT
 70
     1
  9
$LTSCALE
 40
1.0
  9
$ATTMODE
 70
     1
  9
$TEXTSIZE
 40
2.5
  9
$TRACEWID
 40
1.0
  9
$TEXTSTYLE
  7
Standard
  9
$CLAYER
  8
0
  9
$CELTYPE
  6
ByLayer
  9
$CECOLOR
 62
   256
  9
$CELTSCALE
 40
1.0
  9
$DISPSILH
 70
     0
  9
$DIMSCALE
 40
1.0
  9
$DIMASZ
 40
3.0
  9
$DIMEXO
 40
0.625
  9
$DIMDLI
 40
3.75
  9
$DIMRND
 40
0.0
  9
$DIMDLE
 40
0.0
  9
$DIMEXE
 40
1.25
  9
$DIMTP
 40
0.0
  9
$DIMTM
 40
0.0
  9
$DIMTXT
 40
2.085798611111111
  9
$DIMCEN
 40
2.5
  9
$DIMTSZ
 40
0.0
  9
$DIMTOL
 70
     0
  9
$DIMLIM
 70
     0
  9
$DIMTIH
 70
     0
  9
$DIMTOH
 70
     0
  9
$DIMSE1
 70
     0
  9
$DIMSE2
 70
     0
  9
$DIMTAD
 70
     1
  9
$DIMZIN
 70
     8
  9
$DIMBLK
  1

  9
$DIMASO
 70
     1
  9
$DIMSHO
 70
     1
  9
$DIMPOST
  1

  9
$DIMAPOST
  1

  9
$DIMALT
 70
     0
  9
$DIMALTD
 70
     3
  9
$DIMALTF
 40
0.03937007874016
  9
$DIMLFAC
 40
1.0
  9
$DIMTOFL
 70
     1
  9
$DIMTVP
 40
0.0
  9
$DIMTIX
 70
     0
  9
$DIMSOXD
 70
     0
  9
$DIMSAH
 70
     0
  9
$DIMBLK1
  1

  9
$DIMBLK2
  1

  9
$DIMSTYLE
  2
ISO-25
  9
$DIMCLRD
 70
     0
  9
$DIMCLRE
 70
     0
  9
$DIMCLRT
 70
     0
  9
$DIMTFAC
 40
1.0
  9
$DIMGAP
 40
0.625
  9
$DIMJUST
 70
     0
  9
$DIMSD1
 70
     0
  9
$DIMSD2
 70
     0
  9
$DIMTOLJ
 70
     0
  9
$DIMTZIN
 70
     8
  9
$DIMALTZ
 70
     0
  9
$DIMALTTZ
 70
     0
  9
$DIMUPT
 70
     0
  9
$DIMDEC
 70
     2
  9
$DIMTDEC
 70
     2
  9
$DIMALTU
 70
     2
  9
$DIMALTTD
 70
     3
  9
$DIMTXSTY
  7
Standard
  9
$DIMAUNIT
 70
     0
  9
$DIMADEC
 70
     0
  9
$DIMALTRND
 40
0.0
  9
$DIMAZIN
 70
     0
  9
$DIMDSEP
 70
    44
  9
$DIMATFIT
 70
     3
  9
$DIMFRAC
 70
     0
  9
$DIMLDRBLK
  1

  9
$DIMLUNIT
 70
     2
  9
$DIMLWD
 70
    -2
  9
$DIMLWE
 70
    -2
  9
$DIMTMOVE
 70
     0
  9
$DIMFXL
 40
1.0
  9
$DIMFXLON
 70
     0
  9
$DIMJOGANG
 40
0.7853981633974483
  9
$DIMTFILL
 70
     0
  9
$DIMTFILLCLR
 70
     0
  9
$DIMARCSYM
 70
     0
  9
$DIMLTYPE
  6

  9
$DIMLTEX1
  6

  9
$DIMLTEX2
  6

  9
$LUNITS
 70
     2
  9
$LUPREC
 70
     4
  9
$SKETCHINC
 40
1.0
  9
$FILLETRAD
 40
10.0
  9
$AUNITS
 70
     0
  9
$AUPREC
 70
     0
  9
$MENU
  1
.
  9
$ELEVATION
 40
0.0
  9
$PELEVATION
 40
0.0
  9
$THICKNESS
 40
0.0
  9
$LIMCHECK
 70
     0
  9
$CHAMFERA
 40
10.0
  9
$CHAMFERB
 40
10.0
  9
$CHAMFERC
 40
20.0
  9
$CHAMFERD
 40
0.0
  9
$SKPOLY
 70
     0
  9
$TDCREATE
 40
2455809.839093808
  9
$TDUCREATE
 40
2455809.797427141
  9
$TDUPDATE
 40
2455809.839093819
  9
$TDUUPDATE
 40
2455809.797427153
  9
$TDINDWG
 40
0.0000000116
  9
$TDUSRTIMER
 40
0.0000000116
  9
$USRTIMER
 70
     1
  9
$ANGBASE
 50
0.0
  9
$ANGDIR
 70
     0
  9
$PDMODE
 70
     0
  9
$PDSIZE
 40
0.0
  9
$PLINEWID
 40
0.0
  9
$SPLFRAME
 70
     0
  9
$SPLINETYPE
 70
     6
  9
$SPLINESEGS
 70
     8
  9
$HANDSEED
  5
226
  9
$SURFTAB1
 70
     6
  9
$SURFTAB2
 70
     6
  9
$SURFTYPE
 70
     6
  9
$SURFU
 70
     6
  9
$SURFV
 70
     6
  9
$UCSBASE
  2

  9
$UCSNAME
  2

  9
$UCSORG
 10
0.0
 20
0.0
 30
0.0
  9
$UCSXDIR
 10
1.0
 20
0.0
 30
0.0
  9
$UCSYDIR
 10
0.0
 20
1.0
 30
0.0
  9
$UCSORTHOREF
  2

  9
$UCSORTHOVIEW
 70
     0
  9
$UCSORGTOP
 10
0.0
 20
0.0
 30
0.0
  9
$UCSORGBOTTOM
 10
0.0
 20
0.0
 30
0.0
  9
$UCSORGLEFT
 10
0.0
 20
0.0
 30
0.0
  9
$UCSORGRIGHT
 10
0.0
 20
0.0
 30
0.0
  9
$UCSORGFRONT
 10
0.0
 20
0.0
 30
0.0
  9
$UCSORGBACK
 10
0.0
 20
0.0
 30
0.0
  9
$PUCSBASE
  2

  9
$PUCSNAME
  2

  9
$PUCSORG
 10
0.0
 20
0.0
 30
0.0
  9
$PUCSXDIR
 10
1.0
 20
0.0
 30
0.0
  9
$PUCSYDIR
 10
0.0
 20
1.0
 30
0.0
  9
$PUCSORTHOREF
  2

  9
$PUCSORTHOVIEW
 70
     0
  9
$PUCSORGTOP
 10
0.0
 20
0.0
 30
0.0
  9
$PUCSORGBOTTOM
 10
0.0
 20
0.0
 30
0.0
  9
$PUCSORGLEFT
 10
0.0
 20
0.0
 30
0.0
  9
$PUCSORGRIGHT
 10
0.0
 20
0.0
 30
0.0
  9
$PUCSORGFRONT
 10
0.0
 20
0.0
 30
0.0
  9
$PUCSORGBACK
 10
0.0
 20
0.0
 30
0.0
  9
$USERI1
 70
     0
  9
$USERI2
 70
     0
  9
$USERI3
 70
     0
  9
$USERI4
 70
     0
  9
$USERI5
 70
     0
  9
$USERR1
 40
0.0
  9
$USERR2
 40
0.0
  9
$USERR3
 40
0.0
  9
$USERR4
 40
0.0
  9
$USERR5
 40
0.0
  9
$WORLDVIEW
 70
     1
  9
$SHADEDGE
 70
     3
  9
$SHADEDIF
 70
    70
  9
$TILEMODE
 70
     1
  9
$MAXACTVP
 70
    64
  9
$PINSBASE
 10
0.0
 20
0.0
 30
0.0
  9
$PLIMCHECK
 70
     0
  9
$PEXTMIN
 10
1.000000000000000E+20
 20
1.000000000000000E+20
 30
1.000000000000000E+20
  9
$PEXTMAX
 10
-1.000000000000000E+20
 20
-1.000000000000000E+20
 30
-1.000000000000000E+20
  9
$PLIMMIN
 10
0.0
 20
0.0
  9
$PLIMMAX
 10
420.0
 20
297.0
  9
$UNITMODE
 70
     0
  9
$VISRETAIN
 70
     1
  9
$PLINEGEN
 70
     0
  9
$PSLTSCALE
 70
     1
  9
$TREEDEPTH
 70
  3020
  9
$CMLSTYLE
  2
Standard
  9
$CMLJUST
 70
     0
  9
$CMLSCALE
 40
20.0
  9
$PROXYGRAPHICS
 70
     1
  9
$MEASUREMENT
 70
     1
  9
$CELWEIGHT
370
    -1
  9
$ENDCAPS
280
     0
  9
$JOINSTYLE
280
     0
  9
$LWDISPLAY
290
     0
  9
$INSUNITS
 70
     4
  9
$HYPERLINKBASE
  1

  9
$STYLESHEET
  1

  9
$XEDIT
290
     1
  9
$CEPSNTYPE
380
     0
  9
$PSTYLEMODE
290
     1
  9
$FINGERPRINTGUID
  2
{A703A4A3-B0D1-40FA-9124-E503D750F61E}
  9
$VERSIONGUID
  2
{FAEB1C32-E019-11D5-929B-00C0DF256EC4}
  9
$EXTNAMES
290
     1
  9
$PSVPSCALE
 40
0.0
  9
$OLESTARTUP
290
     0
  9
$SORTENTS
280
   127
  9
$INDEXCTL
280
     0
  9
$HIDETEXT
280
     1
  9
$XCLIPFRAME
290
     0
  9
$HALOGAP
280
     0
  9
$OBSCOLOR
 70
   257
  9
$OBSLTYPE
280
     0
  9
$INTERSECTIONDISPLAY
280
     0
  9
$INTERSECTIONCOLOR
 70
   257
  9
$DIMASSOC
280
     2
  9
$PROJECTNAME
  1

  9
$CAMERADISPLAY
290
     0
  9
$LENSLENGTH
 40
50.0
  9
$CAMERAHEIGHT
 40
0.0
  9
$STEPSPERSEC
 40
2.0
  9
$STEPSIZE
 40
6.0
  9
$3DDWFPREC
 40
2.0
  9
$PSOLWIDTH
 40
5.0
  9
$PSOLHEIGHT
 40
80.0
  9
$LOFTANG1
 40
1.570796326794897
  9
$LOFTANG2
 40
1.570796326794897
  9
$LOFTMAG1
 40
0.0
  9
$LOFTMAG2
 40
0.0
  9
$LOFTPARAM
 70
     7
  9
$LOFTNORMALS
280
     1
  9
$LATITUDE
 40
37.795
  9
$LONGITUDE
 40
-122.394
  9
$NORTHDIRECTION
 40
0.0
  9
$TIMEZONE
 70
 -8000
  9
$LIGHTGLYPHDISPLAY
280
     1
  9
$TILEMODELIGHTSYNCH
280
     1
  9
$SOLIDHIST
280
     1
  9
$SHOWHIST
280
     1
  9
$DWFFRAME
280
     2
  9
$DGNFRAME
280
     2
  9
$REALWORLDSCALE
290
     1
  9
$INTERFERECOLOR
 62
   256
  9
$CSHADOW
280
     0
  9
$SHADOWPLANELOCATION
 40
0.0
  0
ENDSEC
  0
SECTION
  2
CLASSES
  0
CLASS
  1
ACDBDICTIONARYWDFLT
  2
AcDbDictionaryWithDefault
  3
ObjectDBX Classes
 90
        0
 91
        4
280
     0
281
     0
  0
CLASS
  1
VISUALSTYLE
  2
AcDbVisualStyle
  3
ObjectDBX Classes
 90
     4095
 91
        4
280
     0
281
     0
  0
CLASS
  1
SCALE
  2
AcDbScale
  3
ObjectDBX Classes
 90
     1153
 91
        4
280
     0
281
     0
  0
ENDSEC
  0
SECTION
  2
TABLES
  0
TABLE
  2
VPORT
  5
8
330
0
100
AcDbSymbolTable
 70
     1
  0
VPORT
  5
29
330
8
100
AcDbSymbolTableRecord
100
AcDbViewportTableRecord
  2
*Active
 70
     0
 10
0.0
 20
0.0
 11
1.0
 21
1.0
 12
344.1869158878504
 22
148.5
 13
0.0
 23
0.0
 14
10.0
 24
10.0
 15
10.0
 25
10.0
 16
0.0
 26
0.0
 36
1.0
 17
0.0
 27
0.0
 37
0.0
 40
297.0
 41
1.972972972850329
 42
50.0
 43
0.0
 44
0.0
 50
0.0
 51
0.0
 71
     0
 72
   100
 73
     1
 74
     3
 75
     0
 76
     0
 77
     0
 78
     0
281
     0
 65
     1
110
0.0
120
0.0
130
0.0
111
1.0
121
0.0
131
0.0
112
0.0
122
1.0
132
0.0
 79
     0
146
0.0
 60
     3
 61
     5
292
     1
282
     1
141
0.0
142
0.0
 63
   256
  0
ENDTAB
  0
TABLE
  2
LTYPE
  5
5
330
0
100
AcDbSymbolTable
 70
     1
  0
LTYPE
  5
14
330
5
100
AcDbSymbolTableRecord
100
AcDbLinetypeTableRecord
  2
ByBlock
 70
     0
  3

 72
    65
 73
     0
 40
0.0
  0
LTYPE
  5
15
330
5
100
AcDbSymbolTableRecord
100
AcDbLinetypeTableRecord
  2
ByLayer
 70
     0
  3

 72
    65
 73
     0
 40
0.0
  0
LTYPE
  5
16
330
5
100
AcDbSymbolTableRecord
100
AcDbLinetypeTableRecord
  2
Continuous
 70
     0
  3
Solid line
 72
    65
 73
     0
 40
0.0
  0
ENDTAB
  0
TABLE
  2
LAYER
  5
2
330
0
100
AcDbSymbolTable
 70
     2
  0
LAYER
  5
10
330
2
100
AcDbSymbolTableRecord
100
AcDbLayerTableRecord
  2
0
 70
     0
 62
     7
  6
Continuous
370
    -3
390
F
347
0
  0
LAYER
  5
5D
330
2
100
AcDbSymbolTableRecord
100
AcDbLayerTableRecord
  2
VISIBLE
 70
     0
 62
     7
  6
Continuous
370
     0
390
F
347
0
  0
ENDTAB
  0
TABLE
  2
STYLE
  5
3
330
0
100
AcDbSymbolTable
 70
     1
  0
STYLE
  5
11
330
3
100
AcDbSymbolTableRecord
100
AcDbTextStyleTableRecord
  2
Standard
 70
     0
 40
0.125
 41
1.0
 50
0.0
 71
     0
 42
2.5
  3
txt
  4

1001
ACAD
1000
Arial
1071
        0
  0
ENDTAB
  0
TABLE
  2
VIEW
  5
6
330
0
100
AcDbSymbolTable
 70
     0
  0
ENDTAB
  0
TABLE
  2
UCS
  5
7
330
0
100
AcDbSymbolTable
 70
     0
  0
ENDTAB
  0
TABLE
  2
APPID
  5
9
330
0
100
AcDbSymbolTable
 70
     1
  0
APPID
  5
12
330
9
100
AcDbSymbolTableRecord
100
AcDbRegAppTableRecord
  2
ACAD
 70
     0
  0
ENDTAB
  0
TABLE
  2
DIMSTYLE
  5
A
330
0
100
AcDbSymbolTable
 70
     1
100
AcDbDimStyleTable
  0
DIMSTYLE
105
27
330
A
100
AcDbSymbolTableRecord
100
AcDbDimStyleTableRecord
  2
ISO-25
 70
     0
 41
2.5
 42
0.625
 43
3.75
 44
1.25
 73
     0
 74
     0
 77
     1
 78
     8
140
2.5
141
2.5
143
0.03937007874016
147
0.625
171
     3
172
     1
271
     2
272
     2
274
     3
278
    44
283
     0
284
     8
340
11
  0
ENDTAB
  0
TABLE
  2
BLOCK_RECORD
  5
1
330
0
100
AcDbSymbolTable
 70
     1
  0
BLOCK_RECORD
  5
1F
330
1
100
AcDbSymbolTableRecord
100
AcDbBlockTableRecord
  2
*Model_Space
340
22
 70
     0
280
     1
281
     0
  0
BLOCK_RECORD
  5
1B
330
1
100
AcDbSymbolTableRecord
100
AcDbBlockTableRecord
  2
*Paper_Space
340
1E
 70
     0
280
     1
281
     0
  0
BLOCK_RECORD
  5
23
330
1
100
AcDbSymbolTableRecord
100
AcDbBlockTableRecord
  2
*Paper_Space0
340
26
 70
     0
280
     1
281
     0
  0
ENDTAB
  0
ENDSEC
  0
SECTION
  2
BLOCKS
  0
BLOCK
  5
20
330
1F
100
AcDbEntity
  8
0
100
AcDbBlockBegin
  2
*Model_Space
 70
     0
 10
0.0
 20
0.0
 30
0.0
  3
*Model_Space
  1

  0
ENDBLK
  5
21
330
1F
100
AcDbEntity
  8
0
100
AcDbBlockEnd
  0
BLOCK
  5
1C
330
1B
100
AcDbEntity
 67
     1
  8
0
100
AcDbBlockBegin
  2
*Paper_Space
 70
     0
 10
0.0
 20
0.0
 30
0.0
  3
*Paper_Space
  1

  0
ENDBLK
  5
1D
330
1B
100
AcDbEntity
 67
     1
  8
0
100
AcDbBlockEnd
  0
BLOCK
  5
24
330
23
100
AcDbEntity
  8
0
100
AcDbBlockBegin
  2
*Paper_Space0
 70
     0
 10
0.0
 20
0.0
 30
0.0
  3
*Paper_Space0
  1

  0
ENDBLK
  5
25
330
23
100
AcDbEntity
  8
0
100
AcDbBlockEnd
  0
ENDSEC
  0
SECTION
  2
ENTITIES
  0
ARC
  5
5E
330
1F
100
AcDbEntity
  8
VISIBLE
100
AcDbCircle
 10
32.49834391953451
 20
129.9707941178259
 30
0.0
 40
4.0
100
AcDbArc
 50
90.0
 51
180.0
  0
LINE
  5
5F
330
1F
100
AcDbEntity
  8
VISIBLE
100
AcDbLine
 10
31.99834391953451
 20
110.9707941178259
 30
0.0
 11
28.99834391953451
 21
110.9707941178259
 31
0.0
  0
ARC
  5
60
330
1F
100
AcDbEntity
  8
VISIBLE
100
AcDbCircle
 10
31.99834391953451
 20
112.6707941178259
 30
0.0
 40
0.5
100
AcDbArc
 50
0.0
 51
90.0
  0
LINE
  5
61
330
1F
100
AcDbEntity
  8
VISIBLE
100
AcDbLine
 10
32.49834391953451
 20
112.6707941178259
 30
0.0
 11
32.49834391953451
 21
111.4707941178259
 31
0.0
  0
CIRCLE
  5
62
330
1F
100
AcDbEntity
  8
VISIBLE
100
AcDbCircle
 10
35.99834391953451
 20
101.4707941178259
 30
0.0
 40
1.600000000000009
  0
CIRCLE
  5
63
330
1F
100
AcDbEntity
  8
VISIBLE
100
AcDbCircle
 10
35.99834391953451
 20
128.970794117826
 30
0.0
 40
1.600000000000009
  0
LINE
  5
64
330
1F
100
AcDbEntity
  8
VISIBLE
100
AcDbLine
 10
43.49834391953451
 20
93.97079411782589
 30
0.0
 11
32.49834391953451
 21
93.97079411782589
 31
0.0
  0
LINE
  5
65
330
1F
100
AcDbEntity
  8
VISIBLE
100
AcDbLine
 10
28.49834391953451
 20
113.6707941178259
 30
0.0
 11
28.49834391953451
 21
129.9707941178259
 31
0.0
  0
ARC
  5
66
330
1F
100
AcDbEntity
  8
VISIBLE
100
AcDbCircle
 10
28.99834391953451
 20
110.4707941178259
 30
0.0
 40
0.5000000000000142
100
AcDbArc
 50
90.0
 51
180.0
  0
ARC
  5
67
330
1F
100
AcDbEntity
  8
VISIBLE
100
AcDbCircle
 10
32.49834391953451
 20
97.97079411782589
 30
0.0
 40
4.0
100
AcDbArc
 50
180.0
 51
270.0
  0
LINE
  5
68
330
1F
100
AcDbEntity
  8
VISIBLE
100
AcDbLine
 10
43.49834391953451
 20
133.9707941178259
 30
0.0
 11
43.49834391953451
 21
93.97079411782589
 31
0.0
  0
LINE
  5
69
330
1F
100
AcDbEntity
  8
VISIBLE
100
AcDbLine
 10
28.49834391953451
 20
97.97079411782589
 30
0.0
 11
28.49834391953451
 21
110.4707941178259
 31
0.0
  0
LINE
  5
6A
330
1F
100
AcDbEntity
  8
VISIBLE
100
AcDbLine
 10
32.49834391953451
 20
133.9707941178259
 30
0.0
 11
43.49834391953451
 21
133.9707941178259
 31
0.0
  0
ARC
  5
6B
330
1F
100
AcDbEntity
  8
VISIBLE
100
AcDbCircle
 10
28.99834391953451
 20
113.6707941178259
 30
0.0
 40
0.5
100
AcDbArc
 50
180.0
 51
270.0
  0
ARC
  5
6C
330
1F
100
AcDbEntity
  8
VISIBLE
100
AcDbCircle
 10
31.99834391953451
 20
111.4707941178259
 30
0.0
 40
0.5
100
AcDbArc
 50
270.0
 51
0.0
  0
LINE
  5
6D
330
1F
100
AcDbEntity
  8
VISIBLE
100
AcDbLine
 10
28.99834391953451
 20
113.1707941178259
 30
0.0
 11
31.99834391953451
 21
113.1707941178259
 31
0.0
  0
ARC
  5
6E
330
1F
100
AcDbEntity
  8
VISIBLE
100
AcDbCircle
 10
140.302270903489
 20
113.5440313390869
 30
0.0
 40
4.000000000000014
100
AcDbArc
 50
90.0
 51
180.0
  0
LINE
  5
6F
330
1F
100
AcDbEntity
  8
VISIBLE
100
AcDbLine
 10
139.802270903489
 20
94.5440313390869
 30
0.0
 11
136.802270903489
 21
94.5440313390869
 31
0.0
  0
ARC
  5
70
330
1F
100
AcDbEntity
  8
VISIBLE
100
AcDbCircle
 10
139.802270903489
 20
96.24403133908689
 30
0.0
 40
0.5
100
AcDbArc
 50
0.0
 51
90.0
  0
LINE
  5
71
330
1F
100
AcDbEntity
  8
VISIBLE
100
AcDbLine
 10
140.302270903489
 20
96.24403133908689
 30
0.0
 11
140.302270903489
 21
95.04403133908691
 31
0.0
  0
CIRCLE
  5
72
330
1F
100
AcDbEntity
  8
VISIBLE
100
AcDbCircle
 10
143.802270903489
 20
85.0440313390869
 30
0.0
 40
1.600000000000023
  0
CIRCLE
  5
73
330
1F
100
AcDbEntity
  8
VISIBLE
100
AcDbCircle
 10
143.802270903489
 20
112.544031339087
 30
0.0
 40
1.600000000000023
  0
LINE
  5
74
330
1F
100
AcDbEntity
  8
VISIBLE
100
AcDbLine
 10
151.302270903489
 20
77.5440313390869
 30
0.0
 11
140.302270903489
 21
77.5440313390869
 31
0.0
  0
LINE
  5
75
330
1F
100
AcDbEntity
  8
VISIBLE
100
AcDbLine
 10
136.302270903489
 20
97.2440313390869
 30
0.0
 11
136.302270903489
 21
113.5440313390869
 31
0.0
  0
ARC
  5
76
330
1F
100
AcDbEntity
  8
VISIBLE
100
AcDbCircle
 10
136.802270903489
 20
94.0440313390869
 30
0.0
 40
0.5
100
AcDbArc
 50
90.0
 51
180.0
  0
ARC
  5
77
330
1F
100
AcDbEntity
  8
VISIBLE
100
AcDbCircle
 10
140.302270903489
 20
81.5440313390869
 30
0.0
 40
4.0
100
AcDbArc
 50
180.0
 51
270.0
  0
LINE
  5
78
330
1F
100
AcDbEntity
  8
VISIBLE
100
AcDbLine
 10
151.302270903489
 20
117.5440313390869
 30
0.0
 11
151.302270903489
 21
77.5440313390869
 31
0.0
  0
LINE
  5
79
330
1F
100
AcDbEntity
  8
VISIBLE
100
AcDbLine
 10
136.302270903489
 20
81.5440313390869
 30
0.0
 11
136.302270903489
 21
94.0440313390869
 31
0.0
  0
LINE
  5
7A
330
1F
100
AcDbEntity
  8
VISIBLE
100
AcDbLine
 10
140.302270903489
 20
117.5440313390869
 30
0.0
 11
151.302270903489
 21
117.5440313390869
 31
0.0
  0
ARC
  5
7B
330
1F
100
AcDbEntity
  8
VISIBLE
100
AcDbCircle
 10
136.802270903489
 20
97.2440313390869
 30
0.0
 40
0.5
100
AcDbArc
 50
180.0
 51
270.0
  0
ARC
  5
7C
330
1F
100
AcDbEntity
  8
VISIBLE
100
AcDbCircle
 10
139.802270903489
 20
95.04403133908691
 30
0.0
 40
0.5000000000000142
100
AcDbArc
 50
270.0
 51
0.0
  0
LINE
  5
7D
330
1F
100
AcDbEntity
  8
VISIBLE
100
AcDbLine
 10
136.802270903489
 20
96.74403133908689
 30
0.0
 11
139.802270903489
 21
96.74403133908689
 31
0.0
  0
LINE
  5
7E
330
1F
100
AcDbEntity
  8
VISIBLE
100
AcDbLine
 10
160.4265523825198
 20
126.4838479148043
 30
0.0
 11
132.4265523825198
 21
126.4838479148043
 31
0.0
  0
LINE
  5
7F
330
1F
100
AcDbEntity
  8
VISIBLE
100
AcDbLine
 10
130.4265523825198
 20
131.0838479148043
 30
0.0
 11
130.4265523825198
 21
128.4838479148043
 31
0.0
  0
LINE
  5
80
330
1F
100
AcDbEntity
  8
VISIBLE
100
AcDbLine
 10
160.4265523825198
 20
133.0838479148043
 30
0.0
 11
132.4265523825198
 21
133.0838479148043
 31
0.0
  0
ARC
  5
81
330
1F
100
AcDbEntity
  8
VISIBLE
100
AcDbCircle
 10
132.4265523825198
 20
131.0838479148043
 30
0.0
 40
2.0
100
AcDbArc
 50
90.0
 51
180.0
  0
CIRCLE
  5
82
330
1F
100
AcDbEntity
  8
VISIBLE
100
AcDbCircle
 10
168.4265523825198
 20
127.7838479148043
 30
0.0
 40
1.600000000000023
  0
LINE
  5
83
330
1F
100
AcDbEntity
  8
VISIBLE
100
AcDbLine
 10
160.4265523825198
 20
120.4838479148043
 30
0.0
 11
185.4265523825198
 21
120.4838479148043
 31
0.0
  0
LINE
  5
84
330
1F
100
AcDbEntity
  8
VISIBLE
100
AcDbLine
 10
185.4265523825198
 20
135.0838479148043
 30
0.0
 11
160.4265523825198
 21
135.0838479148043
 31
0.0
  0
CIRCLE
  5
85
330
1F
100
AcDbEntity
  8
VISIBLE
100
AcDbCircle
 10
178.4265523825198
 20
127.7838479148043
 30
0.0
 40
1.600000000000023
  0
ARC
  5
86
330
1F
100
AcDbEntity
  8
VISIBLE
100
AcDbCircle
 10
132.4265523825198
 20
128.4838479148043
 30
0.0
 40
2.0
100
AcDbArc
 50
180.0
 51
270.0
  0
LINE
  5
87
330
1F
100
AcDbEntity
  8
VISIBLE
100
AcDbLine
 10
160.4265523825198
 20
126.4838479148043
 30
0.0
 11
160.4265523825198
 21
120.4838479148043
 31
0.0
  0
LINE
  5
88
330
1F
100
AcDbEntity
  8
VISIBLE
100
AcDbLine
 10
185.4265523825198
 20
120.4838479148043
 30
0.0
 11
185.4265523825198
 21
135.0838479148043
 31
0.0
  0
LINE
  5
89
330
1F
100
AcDbEntity
  8
VISIBLE
100
AcDbLine
 10
160.4265523825198
 20
135.0838479148043
 30
0.0
 11
160.4265523825198
 21
133.0838479148043
 31
0.0
  0
LINE
  5
8A
330
1F
100
AcDbEntity
  8
VISIBLE
100
AcDbLine
 10
96.01176997859011
 20
113.6649915408222
 30
0.0
 11
96.01176997859011
 21
115.1649915408222
 31
0.0
  0
LINE
  5
8B
330
1F
100
AcDbEntity
  8
VISIBLE
100
AcDbLine
 10
95.51176997859011
 20
115.6649915408222
 30
0.0
 11
93.5117699785901
 21
115.6649915408222
 31
0.0
  0
LINE
  5
8C
330
1F
100
AcDbEntity
  8
VISIBLE
100
AcDbLine
 10
96.5117699785901
 20
122.3649915408222
 30
0.0
 11
96.5117699785901
 21
132.6649915408222
 31
0.0
  0
LINE
  5
8D
330
1F
100
AcDbEntity
  8
VISIBLE
100
AcDbLine
 10
93.51176997859011
 20
121.8649915408222
 30
0.0
 11
96.01176997859011
 21
121.8649915408222
 31
0.0
  0
ARC
  5
8E
330
1F
100
AcDbEntity
  8
VISIBLE
100
AcDbCircle
 10
93.51176997859011
 20
117.1649915408222
 30
0.0
 40
0.5
100
AcDbArc
 50
90.0
 51
180.0
  0
LINE
  5
8F
330
1F
100
AcDbEntity
  8
VISIBLE
100
AcDbLine
 10
93.51176997859011
 20
117.6649915408222
 30
0.0
 11
99.01176997859008
 21
117.6649915408222
 31
0.0
  0
CIRCLE
  5
90
330
1F
100
AcDbEntity
  8
VISIBLE
100
AcDbCircle
 10
85.5117699785901
 20
123.1649915408222
 30
0.0
 40
1.600000000000009
  0
ARC
  5
91
330
1F
100
AcDbEntity
  8
VISIBLE
100
AcDbCircle
 10
69.5117699785901
 20
132.6649915408222
 30
0.0
 40
2.0
100
AcDbArc
 50
90.0
 51
180.0
  0
CIRCLE
  5
92
330
1F
100
AcDbEntity
  8
VISIBLE
100
AcDbCircle
 10
75.5117699785901
 20
123.1649915408222
 30
0.0
 40
1.600000000000009
  0
LINE
  5
93
330
1F
100
AcDbEntity
  8
VISIBLE
100
AcDbLine
 10
99.51176997859008
 20
119.3649915408222
 30
0.0
 11
99.51176997859008
 21
118.1649915408222
 31
0.0
  0
ARC
  5
94
330
1F
100
AcDbEntity
  8
VISIBLE
100
AcDbCircle
 10
94.5117699785901
 20
132.6649915408222
 30
0.0
 40
2.0
100
AcDbArc
 50
0.0
 51
90.0
  0
ARC
  5
95
330
1F
100
AcDbEntity
  8
VISIBLE
100
AcDbCircle
 10
95.51176997859011
 20
115.1649915408222
 30
0.0
 40
0.5
100
AcDbArc
 50
0.0
 51
90.0
  0
LINE
  5
96
330
1F
100
AcDbEntity
  8
VISIBLE
100
AcDbLine
 10
94.0117699785901
 20
111.6649915408222
 30
0.0
 11
67.5117699785901
 21
111.6649915408222
 31
0.0
  0
LINE
  5
97
330
1F
100
AcDbEntity
  8
VISIBLE
100
AcDbLine
 10
69.5117699785901
 20
134.6649915408222
 30
0.0
 11
94.5117699785901
 21
134.6649915408222
 31
0.0
  0
LINE
  5
98
330
1F
100
AcDbEntity
  8
VISIBLE
100
AcDbLine
 10
99.01176997859008
 20
119.8649915408222
 30
0.0
 11
93.01176997859011
 21
119.8649915408222
 31
0.0
  0
LINE
  5
99
330
1F
100
AcDbEntity
  8
VISIBLE
100
AcDbLine
 10
93.01176997859011
 20
116.1649915408222
 30
0.0
 11
93.01176997859011
 21
117.1649915408222
 31
0.0
  0
ARC
  5
9A
330
1F
100
AcDbEntity
  8
VISIBLE
100
AcDbCircle
 10
94.0117699785901
 20
113.6649915408222
 30
0.0
 40
2.0
100
AcDbArc
 50
270.0
 51
0.0
  0
LINE
  5
9B
330
1F
100
AcDbEntity
  8
VISIBLE
100
AcDbLine
 10
93.01176997859011
 20
119.8649915408222
 30
0.0
 11
93.01176997859011
 21
121.3649915408222
 31
0.0
  0
ARC
  5
9C
330
1F
100
AcDbEntity
  8
VISIBLE
100
AcDbCircle
 10
96.01176997859011
 20
122.3649915408222
 30
0.0
 40
0.5
100
AcDbArc
 50
270.0
 51
0.0
  0
LINE
  5
9D
330
1F
100
AcDbEntity
  8
VISIBLE
100
AcDbLine
 10
67.5117699785901
 20
111.6649915408222
 30
0.0
 11
67.5117699785901
 21
132.6649915408222
 31
0.0
  0
ARC
  5
9E
330
1F
100
AcDbEntity
  8
VISIBLE
100
AcDbCircle
 10
99.01176997859008
 20
119.3649915408222
 30
0.0
 40
0.5
100
AcDbArc
 50
0.0
 51
90.0
  0
ARC
  5
9F
330
1F
100
AcDbEntity
  8
VISIBLE
100
AcDbCircle
 10
93.51176997859011
 20
121.3649915408222
 30
0.0
 40
0.5
100
AcDbArc
 50
90.0
 51
180.0
  0
ARC
  5
A0
330
1F
100
AcDbEntity
  8
VISIBLE
100
AcDbCircle
 10
99.01176997859008
 20
118.1649915408222
 30
0.0
 40
0.5
100
AcDbArc
 50
270.0
 51
0.0
  0
ARC
  5
A1
330
1F
100
AcDbEntity
  8
VISIBLE
100
AcDbCircle
 10
93.51176997859011
 20
116.1649915408222
 30
0.0
 40
0.5
100
AcDbArc
 50
180.0
 51
269.9999999999984
  0
LINE
  5
A2
330
1F
100
AcDbEntity
  8
VISIBLE
100
AcDbLine
 10
129.0722314624688
 20
113.5492075743335
 30
0.0
 11
129.0722314624688
 21
115.0492075743334
 31
0.0
  0
LINE
  5
A3
330
1F
100
AcDbEntity
  8
VISIBLE
100
AcDbLine
 10
128.5722314624688
 20
115.5492075743334
 30
0.0
 11
126.5722314624688
 21
115.5492075743334
 31
0.0
  0
LINE
  5
A4
330
1F
100
AcDbEntity
  8
VISIBLE
100
AcDbLine
 10
129.5722314624688
 20
122.2492075743334
 30
0.0
 11
129.5722314624688
 21
132.5492075743334
 31
0.0
  0
LINE
  5
A5
330
1F
100
AcDbEntity
  8
VISIBLE
100
AcDbLine
 10
126.5722314624688
 20
121.7492075743334
 30
0.0
 11
129.0722314624688
 21
121.7492075743334
 31
0.0
  0
ARC
  5
A6
330
1F
100
AcDbEntity
  8
VISIBLE
100
AcDbCircle
 10
126.5722314624688
 20
117.0492075743334
 30
0.0
 40
0.5
100
AcDbArc
 50
90.0
 51
180.0
  0
LINE
  5
A7
330
1F
100
AcDbEntity
  8
VISIBLE
100
AcDbLine
 10
126.5722314624688
 20
117.5492075743334
 30
0.0
 11
132.0722314624688
 21
117.5492075743334
 31
0.0
  0
CIRCLE
  5
A8
330
1F
100
AcDbEntity
  8
VISIBLE
100
AcDbCircle
 10
118.5722314624688
 20
123.0492075743334
 30
0.0
 40
1.599999999999994
  0
ARC
  5
A9
330
1F
100
AcDbEntity
  8
VISIBLE
100
AcDbCircle
 10
102.5722314624688
 20
132.5492075743334
 30
0.0
 40
2.0
100
AcDbArc
 50
90.0
 51
180.0
  0
CIRCLE
  5
AA
330
1F
100
AcDbEntity
  8
VISIBLE
100
AcDbCircle
 10
108.5722314624688
 20
123.0492075743334
 30
0.0
 40
1.599999999999994
  0
LINE
  5
AB
330
1F
100
AcDbEntity
  8
VISIBLE
100
AcDbLine
 10
132.5722314624688
 20
119.2492075743334
 30
0.0
 11
132.5722314624688
 21
118.0492075743334
 31
0.0
  0
ARC
  5
AC
330
1F
100
AcDbEntity
  8
VISIBLE
100
AcDbCircle
 10
127.5722314624688
 20
132.5492075743334
 30
0.0
 40
2.0
100
AcDbArc
 50
0.0
 51
90.0
  0
ARC
  5
AD
330
1F
100
AcDbEntity
  8
VISIBLE
100
AcDbCircle
 10
128.5722314624688
 20
115.0492075743334
 30
0.0
 40
0.5
100
AcDbArc
 50
0.0
 51
89.99999999999675
  0
LINE
  5
AE
330
1F
100
AcDbEntity
  8
VISIBLE
100
AcDbLine
 10
127.0722314624688
 20
111.5492075743334
 30
0.0
 11
100.5722314624688
 21
111.5492075743334
 31
0.0
  0
LINE
  5
AF
330
1F
100
AcDbEntity
  8
VISIBLE
100
AcDbLine
 10
102.5722314624688
 20
134.5492075743334
 30
0.0
 11
127.5722314624688
 21
134.5492075743334
 31
0.0
  0
LINE
  5
B0
330
1F
100
AcDbEntity
  8
VISIBLE
100
AcDbLine
 10
132.0722314624688
 20
119.7492075743334
 30
0.0
 11
126.0722314624688
 21
119.7492075743334
 31
0.0
  0
LINE
  5
B1
330
1F
100
AcDbEntity
  8
VISIBLE
100
AcDbLine
 10
126.0722314624688
 20
116.0492075743334
 30
0.0
 11
126.0722314624688
 21
117.0492075743334
 31
0.0
  0
ARC
  5
B2
330
1F
100
AcDbEntity
  8
VISIBLE
100
AcDbCircle
 10
127.0722314624688
 20
113.5492075743335
 30
0.0
 40
2.000000000000014
100
AcDbArc
 50
270.0
 51
0.0
  0
LINE
  5
B3
330
1F
100
AcDbEntity
  8
VISIBLE
100
AcDbLine
 10
126.0722314624688
 20
119.7492075743334
 30
0.0
 11
126.0722314624688
 21
121.2492075743334
 31
0.0
  0
ARC
  5
B4
330
1F
100
AcDbEntity
  8
VISIBLE
100
AcDbCircle
 10
129.0722314624688
 20
122.2492075743334
 30
0.0
 40
0.5
100
AcDbArc
 50
270.0
 51
0.0
  0
LINE
  5
B5
330
1F
100
AcDbEntity
  8
VISIBLE
100
AcDbLine
 10
100.5722314624688
 20
111.5492075743334
 30
0.0
 11
100.5722314624688
 21
132.5492075743334
 31
0.0
  0
ARC
  5
B6
330
1F
100
AcDbEntity
  8
VISIBLE
100
AcDbCircle
 10
132.0722314624688
 20
119.2492075743334
 30
0.0
 40
0.5000000000000284
100
AcDbArc
 50
0.0
 51
90.0
  0
ARC
  5
B7
330
1F
100
AcDbEntity
  8
VISIBLE
100
AcDbCircle
 10
126.5722314624688
 20
121.2492075743334
 30
0.0
 40
0.4999999999999858
100
AcDbArc
 50
90.0
 51
180.0
  0
ARC
  5
B8
330
1F
100
AcDbEntity
  8
VISIBLE
100
AcDbCircle
 10
132.0722314624688
 20
118.0492075743334
 30
0.0
 40
0.5
100
AcDbArc
 50
270.0
 51
0.0
  0
ARC
  5
B9
330
1F
100
AcDbEntity
  8
VISIBLE
100
AcDbCircle
 10
126.5722314624688
 20
116.0492075743334
 30
0.0
 40
0.5
100
AcDbArc
 50
180.0
 51
270.0
  0
LINE
  5
BA
330
1F
100
AcDbEntity
  8
VISIBLE
100
AcDbLine
 10
72.4781855571577
 20
67.01898793449439
 30
0.0
 11
35.53079445104174
 21
66.96954961862843
 31
0.0
  0
SPLINE
  5
BB
330
1F
100
AcDbEntity
  8
VISIBLE
100
AcDbSpline
210
0.0
220
0.0
230
1.0
 70
     8
 71
     3
 72
    11
 73
     7
 74
     0
 42
0.000000001
 43
0.000001
 40
0.0
 40
0.0
 40
0.0
 40
0.0
 40
0.5
 40
0.5
 40
0.5
 40
1.0
 40
1.0
 40
1.0
 40
1.0
 10
72.47818555715769
 20
67.01898793449442
 30
0.0
 10
73.08178843894063
 20
67.01979559936693
 30
0.0
 10
73.68478702753589
 20
67.15951480739619
 30
0.0
 10
74.22723468957062
 20
67.42425548272263
 30
0.0
 10
74.76968235160533
 20
67.68899615804906
 30
0.0
 10
75.25082703566338
 20
68.07839126323512
 30
0.0
 10
75.62283611904871
 20
68.55372938825568
 30
0.0
  0
CIRCLE
  5
BC
330
1F
100
AcDbEntity
  8
VISIBLE
100
AcDbCircle
 10
121.5116921042807
 20
81.30309644222856
 30
0.0
 40
1.600000000000009
  0
SPLINE
  5
BD
330
1F
100
AcDbEntity
  8
VISIBLE
100
AcDbSpline
210
0.0
220
0.0
230
1.0
 70
     8
 71
     3
 72
     9
 73
     5
 74
     0
 42
0.000000001
 43
0.000001
 40
1.068590185343929
 40
1.068590185343929
 40
1.068590185343929
 40
1.068590185343929
 40
3.54955681593324
 40
6.51303058967348
 40
6.51303058967348
 40
6.51303058967348
 40
6.51303058967348
 10
120.2392165696943
 20
95.92487085546485
 30
0.0
 10
111.6441451369641
 20
94.82774683959428
 30
0.0
 10
93.6415769256474
 20
90.97379757788445
 30
0.0
 10
81.90192548009227
 20
76.57689521139645
 30
0.0
 10
75.6228361190487
 20
68.55372938825572
 30
0.0
  0
LINE
  5
BE
330
1F
100
AcDbEntity
  8
VISIBLE
100
AcDbLine
 10
131.5053911846259
 20
86.01873650853216
 30
0.0
 11
131.5521176629431
 21
51.09801885957535
 31
0.0
  0
CIRCLE
  5
BF
330
1F
100
AcDbEntity
  8
VISIBLE
100
AcDbCircle
 10
121.5440981827909
 20
57.08463276769529
 30
0.0
 40
1.600000000000009
  0
CIRCLE
  5
C0
330
1F
100
AcDbEntity
  8
VISIBLE
100
AcDbCircle
 10
64.11075957691817
 20
57.0077827533843
 30
0.0
 40
1.600000000000009
  0
CIRCLE
  5
C1
330
1F
100
AcDbEntity
  8
VISIBLE
100
AcDbCircle
 10
36.54417427639014
 20
56.9708966428733
 30
0.0
 40
1.599999999999994
  0
LINE
  5
C2
330
1F
100
AcDbEntity
  8
VISIBLE
100
AcDbLine
 10
127.5574735320452
 20
47.09267015222374
 30
0.0
 11
31.55755947305143
 21
46.96421523477849
 31
0.0
  0
ARC
  5
C3
330
1F
100
AcDbEntity
  8
VISIBLE
100
AcDbCircle
 10
35.53614673926863
 20
62.96955319950371
 30
0.0
 40
3.999999999999981
100
AcDbArc
 50
90.07666590441215
 51
180.0766659044126
  0
ARC
  5
C4
330
1F
100
AcDbEntity
  8
VISIBLE
100
AcDbCircle
 10
127.5521212438183
 20
51.09266657134847
 30
0.0
 40
4.000000000000023
100
AcDbArc
 50
270.0766659044119
 51
0.0766659044120453
  0
SPLINE
  5
C5
330
1F
100
AcDbEntity
  8
VISIBLE
100
AcDbSpline
210
0.0
220
0.0
230
1.0
 70
     8
 71
     3
 72
    16
 73
    12
 74
     0
 42
0.000000001
 43
0.000001
 40
0.0
 40
0.0
 40
0.0
 40
0.0
 40
0.3906444733869301
 40
0.3906444733869301
 40
0.7812889467738617
 40
0.7812889467738617
 40
1.171933420160793
 40
1.171933420160793
 40
1.436397699994695
 40
1.436397699994695
 40
1.700861979828598
 40
1.700861979828598
 40
1.700861979828598
 40
1.700861979828598
 10
120.2392165696943
 20
95.92487085546477
 30
0.0
 10
121.53088448296
 20
96.08974672639431
 30
0.0
 10
122.8424072708483
 20
96.00075482824934
 30
0.0
 10
125.3575192258009
 20
95.32505366800592
 30
0.0
 10
126.537062551734
 20
94.744804477285
 30
0.0
 10
128.607337986772
 20
93.16482984869808
 30
0.0
 10
129.4782771343307
 20
92.18020982943405
 30
0.0
 10
130.5812668459271
 20
90.29555038127938
 30
0.0
 10
130.9239840507736
 20
89.47917259744031
 30
0.0
 10
131.3864683770093
 20
87.77781639477585
 30
0.0
 10
131.5042116104163
 20
86.90028331880048
 30
0.0
 10
131.5053911846258
 20
86.01873650853216
 30
0.0
  0
LINE
  5
C6
330
1F
100
AcDbEntity
  8
VISIBLE
100
AcDbLine
 10
31.55755947305143
 20
46.96421523477849
 30
0.0
 11
31.53615032014389
 21
62.9642009112768
 31
0.0
  0
LINE
  5
C7
330
1F
100
AcDbEntity
  8
VISIBLE
100
AcDbLine
 10
241.0250454668256
 20
113.381937886422
 30
0.0
 11
240.5887898497646
 21
76.43708933169175
 31
0.0
  0
SPLINE
  5
C8
330
1F
100
AcDbEntity
  8
VISIBLE
100
AcDbSpline
210
0.0
220
0.0
230
1.0
 70
     8
 71
     3
 72
    11
 73
     7
 74
     0
 42
0.000000001
 43
0.000001
 40
0.0
 40
0.0
 40
0.0
 40
0.0
 40
0.5
 40
0.5
 40
0.5
 40
1.0
 40
1.0
 40
1.0
 40
1.0
 10
241.0250454668255
 20
113.381937886422
 30
0.0
 10
241.0321724963605
 20
113.9854992310003
 30
0.0
 10
240.900392041693
 20
114.5902823877663
 30
0.0
 10
240.6428049537224
 20
115.1361633118973
 30
0.0
 10
240.3852178657518
 20
115.6820442360282
 30
0.0
 10
240.002181264156
 20
116.1682661162209
 30
0.0
 10
239.5317744332955
 20
116.5464915842939
 30
0.0
  0
CIRCLE
  5
C9
330
1F
100
AcDbEntity
  8
VISIBLE
100
AcDbCircle
 10
227.3867381272915
 20
162.5989785642186
 30
0.0
 40
1.600000000000023
  0
SPLINE
  5
CA
330
1F
100
AcDbEntity
  8
VISIBLE
100
AcDbSpline
210
0.0
220
0.0
230
1.0
 70
     8
 71
     3
 72
     9
 73
     5
 74
     0
 42
0.000000001
 43
0.000001
 40
1.068590185343929
 40
1.068590185343929
 40
1.068590185343929
 40
1.068590185343929
 40
3.54955681593324
 40
6.51303058967348
 40
6.51303058967348
 40
6.51303058967348
 40
6.51303058967348
 10
212.7494998596232
 20
161.5188226156641
 30
0.0
 10
213.7335430947012
 20
152.9100716637878
 30
0.0
 10
217.3505077008223
 20
134.8583971111871
 30
0.0
 10
231.5918432355435
 20
122.930506434257
 30
0.0
 10
239.5317744332955
 20
116.5464915842939
 30
0.0
  0
LINE
  5
CB
330
1F
100
AcDbEntity
  8
VISIBLE
100
AcDbLine
 10
222.8028770735649
 20
172.6538032958362
 30
0.0
 11
257.7211916375841
 21
172.2414775870357
 31
0.0
  0
CIRCLE
  5
CC
330
1F
100
AcDbEntity
  8
VISIBLE
100
AcDbCircle
 10
251.6035351973221
 20
162.3130195154658
 30
0.0
 40
1.600000000000023
  0
CIRCLE
  5
CD
330
1F
100
AcDbEntity
  8
VISIBLE
100
AcDbCircle
 10
250.9253921451811
 20
104.8836332106971
 30
0.0
 40
1.599999999999994
  0
CIRCLE
  5
CE
330
1F
100
AcDbEntity
  8
VISIBLE
100
AcDbCircle
 10
250.5999002140727
 20
77.31894491717168
 30
0.0
 40
1.599999999999994
  0
LINE
  5
CF
330
1F
100
AcDbEntity
  8
VISIBLE
100
AcDbLine
 10
261.6736829135862
 20
168.1945265479042
 30
0.0
 11
260.5401657560332
 21
72.20121876630145
 31
0.0
  0
ARC
  5
D0
330
1F
100
AcDbEntity
  8
VISIBLE
100
AcDbCircle
 10
244.5885110073314
 20
76.38985945012705
 30
0.0
 40
4.000000000000011
100
AcDbArc
 50
179.323466059256
 51
269.3234660592556
  0
ARC
  5
D1
330
1F
100
AcDbEntity
  8
VISIBLE
100
AcDbCircle
 10
257.6739617560194
 20
168.2417564294689
 30
0.0
 40
4.000000000000011
100
AcDbArc
 50
359.323466059256
 51
89.32346605925603
  0
SPLINE
  5
D2
330
1F
100
AcDbEntity
  8
VISIBLE
100
AcDbSpline
210
0.0
220
0.0
230
1.0
 70
     8
 71
     3
 72
    16
 73
    12
 74
     0
 42
0.000000001
 43
0.000001
 40
0.0
 40
0.0
 40
0.0
 40
0.0
 40
0.3906444733869301
 40
0.3906444733869301
 40
0.7812889467738617
 40
0.7812889467738617
 40
1.171933420160793
 40
1.171933420160793
 40
1.436397699994695
 40
1.436397699994695
 40
1.700861979828598
 40
1.700861979828598
 40
1.700861979828598
 40
1.700861979828598
 10
212.7494998596232
 20
161.5188226156641
 30
0.0
 10
212.6016177760403
 20
162.8125462879876
 30
0.0
 10
212.7078425271198
 20
164.1227859162021
 30
0.0
 10
213.4165475531726
 20
166.628798164765
 30
0.0
 10
214.0122522218227
 20
167.800611942135
 30
0.0
 10
215.6193050113006
 20
169.8499390355321
 30
0.0
 10
216.6152888315495
 20
170.7078596675768
 30
0.0
 10
218.514284719214
 20
171.7859794002779
 30
0.0
 10
219.3350971318952
 20
172.1179353486089
 30
0.0
 10
221.0423858881724
 20
172.5580146403828
 30
0.0
 10
221.921390927338
 20
172.664212143015
 30
0.0
 10
222.8028770735649
 20
172.6538032958361
 30
0.0
  0
LINE
  5
D3
330
1F
100
AcDbEntity
  8
VISIBLE
100
AcDbLine
 10
260.5401657560332
 20
72.20121876630145
 30
0.0
 11
244.5412811257667
 21
72.39013829256027
 31
0.0
  0
LINE
  5
D4
330
1F
100
AcDbEntity
  8
VISIBLE
100
AcDbLine
 10
86.98649097383023
 20
173.1810144875703
 30
0.0
 11
86.98649097383023
 21
172.6907801125703
 31
0.0
  0
SPLINE
  5
D5
330
1F
100
AcDbEntity
  8
VISIBLE
100
AcDbSpline
210
0.0
220
0.0
230
1.0
 70
     8
 71
     2
 72
     6
 73
     3
 74
     0
 42
0.000000001
 43
0.000001
 40
0.0
 40
0.0
 40
0.0
 40
1.0
 40
1.0
 40
1.0
 10
95.86344409883024
 20
170.6966394875702
 30
0.0
 10
96.21500659883024
 20
170.6966394875702
 30
0.0
 10
96.43375659883024
 20
170.9632410500703
 30
0.0
  0
SPLINE
  5
D6
330
1F
100
AcDbEntity
  8
VISIBLE
100
AcDbSpline
210
0.0
220
0.0
230
1.0
 70
     8
 71
     2
 72
     6
 73
     3
 74
     0
 42
0.000000001
 43
0.000001
 40
0.0
 40
0.0
 40
0.0
 40
1.0
 40
1.0
 40
1.0
 10
113.0861003488302
 20
170.9632410500703
 30
0.0
 10
113.3048503488302
 20
170.6966394875702
 30
0.0
 10
113.6564128488302
 20
170.6966394875702
 30
0.0
  0
LINE
  5
D7
330
1F
100
AcDbEntity
  8
VISIBLE
100
AcDbLine
 10
89.74430347383023
 20
171.7571863625703
 30
0.0
 11
89.74430347383023
 21
171.6399988625703
 31
0.0
  0
SPLINE
  5
D8
330
1F
100
AcDbEntity
  8
VISIBLE
100
AcDbSpline
210
0.0
220
0.0
230
1.0
 70
     8
 71
     2
 72
     6
 73
     3
 74
     0
 42
0.000000001
 43
0.000001
 40
0.0
 40
0.0
 40
0.0
 40
1.0
 40
1.0
 40
1.0
 10
111.4103190988302
 20
172.6888269875702
 30
0.0
 10
111.2345378488302
 20
172.8196863625703
 30
0.0
 10
110.9884440988302
 20
172.8196863625703
 30
0.0
  0
LINE
  5
D9
330
1F
100
AcDbEntity
  8
VISIBLE
100
AcDbLine
 10
84.71500659883023
 20
170.9095301125703
 30
0.0
 11
84.71500659883023
 21
170.3763269875703
 31
0.0
  0
SPLINE
  5
DA
330
1F
100
AcDbEntity
  8
VISIBLE
100
AcDbSpline
210
0.0
220
0.0
230
1.0
 70
     8
 71
     2
 72
     6
 73
     3
 74
     0
 42
0.000000001
 43
0.000001
 40
0.0
 40
0.0
 40
0.0
 40
1.0
 40
1.0
 40
1.0
 10
118.3888347238302
 20
173.2024988625703
 30
0.0
 10
119.2384440988302
 20
173.2024988625703
 30
0.0
 10
119.2384440988302
 20
172.1829676125703
 30
0.0
  0
SPLINE
  5
DB
330
1F
100
AcDbEntity
  8
VISIBLE
100
AcDbSpline
210
0.0
220
0.0
230
1.0
 70
     8
 71
     2
 72
     6
 73
     3
 74
     0
 42
0.000000001
 43
0.000001
 40
0.0
 40
0.0
 40
0.0
 40
1.0
 40
1.0
 40
1.0
 10
88.44742847383024
 20
172.8196863625703
 30
0.0
 10
88.15250659883023
 20
172.8196863625703
 30
0.0
 10
87.94156909883024
 20
172.6224207375703
 30
0.0
  0
LINE
  5
DC
330
1F
100
AcDbEntity
  8
VISIBLE
100
AcDbLine
 10
86.04313159883023
 20
170.3763269875703
 30
0.0
 11
85.55094409883024
 21
170.3763269875703
 31
0.0
  0
LINE
  5
DD
330
1F
100
AcDbEntity
  8
VISIBLE
100
AcDbLine
 10
115.9943034738302
 20
173.1399988625703
 30
0.0
 11
115.9943034738302
 21
172.7884363625703
 31
0.0
  0
LINE
  5
DE
330
1F
100
AcDbEntity
  8
VISIBLE
100
AcDbLine
 10
108.4982097238302
 20
170.3763269875703
 30
0.0
 11
108.4982097238302
 21
170.9095301125703
 31
0.0
  0
LINE
  5
DF
330
1F
100
AcDbEntity
  8
VISIBLE
100
AcDbLine
 10
207.5114877313374
 20
136.1958863144887
 30
0.0
 11
207.5114877313389
 21
173.076700517958
 31
0.0
  0
SPLINE
  5
E0
330
1F
100
AcDbEntity
  8
VISIBLE
100
AcDbSpline
210
0.0
220
0.0
230
1.0
 70
     8
 71
     2
 72
     6
 73
     3
 74
     0
 42
0.000000001
 43
0.000001
 40
0.0
 40
0.0
 40
0.0
 40
1.0
 40
1.0
 40
1.0
 10
95.29313159883024
 20
172.5521082375702
 30
0.0
 10
95.07438159883024
 20
172.2845301125703
 30
0.0
 10
95.07438159883024
 20
171.7571863625703
 30
0.0
  0
SPLINE
  5
E1
330
1F
100
AcDbEntity
  8
VISIBLE
100
AcDbSpline
210
0.0
220
0.0
230
1.0
 70
     8
 71
     2
 72
     6
 73
     3
 74
     0
 42
0.000000001
 43
0.000001
 40
0.0
 40
0.0
 40
0.0
 40
1.0
 40
1.0
 40
1.0
 10
99.14469409883023
 20
172.6907801125703
 30
0.0
 10
99.04117847383024
 20
172.7220301125703
 30
0.0
 10
98.84586597383024
 20
172.7220301125703
 30
0.0
  0
SPLINE
  5
E2
330
1F
100
AcDbEntity
  8
VISIBLE
100
AcDbSpline
210
0.0
220
0.0
230
1.0
 70
     8
 71
     2
 72
     6
 73
     3
 74
     0
 42
0.000000001
 43
0.000001
 40
0.0
 40
0.0
 40
0.0
 40
1.0
 40
1.0
 40
1.0
 10
106.5939128488302
 20
170.3118738625703
 30
0.0
 10
105.9845378488302
 20
170.3118738625703
 30
0.0
 10
105.6144206613302
 20
170.6927332375703
 30
0.0
  0
CIRCLE
  5
E3
330
1F
100
AcDbEntity
  8
VISIBLE
100
AcDbCircle
 10
197.5114877313377
 20
87.14331049663402
 30
0.0
 40
1.599999999999994
  0
LINE
  5
E4
330
1F
100
AcDbEntity
  8
VISIBLE
100
AcDbLine
 10
86.04313159883023
 20
173.1399988625703
 30
0.0
 11
86.04313159883023
 21
172.7532801125703
 31
0.0
  0
LINE
  5
E5
330
1F
100
AcDbEntity
  8
VISIBLE
100
AcDbLine
 10
117.6153972238302
 20
172.3548426125703
 30
0.0
 11
117.6153972238302
 21
170.3763269875703
 31
0.0
  0
LINE
  5
E6
330
1F
100
AcDbEntity
  8
VISIBLE
100
AcDbLine
 10
79.82828784883023
 20
173.1399988625703
 30
0.0
 11
78.99625659883023
 21
170.3763269875703
 31
0.0
  0
SPLINE
  5
E7
330
1F
100
AcDbEntity
  8
VISIBLE
100
AcDbSpline
210
0.0
220
0.0
230
1.0
 70
     8
 71
     2
 72
     6
 73
     3
 74
     0
 42
0.000000001
 43
0.000001
 40
0.0
 40
0.0
 40
0.0
 40
1.0
 40
1.0
 40
1.0
 10
100.0353190988302
 20
170.9632410500703
 30
0.0
 10
100.2540690988302
 20
170.6966394875702
 30
0.0
 10
100.6056315988302
 20
170.6966394875702
 30
0.0
  0
SPLINE
  5
E8
330
1F
100
AcDbEntity
  8
VISIBLE
100
AcDbSpline
210
0.0
220
0.0
230
1.0
 70
     8
 71
     2
 72
     6
 73
     3
 74
     0
 42
0.000000001
 43
0.000001
 40
0.0
 40
0.0
 40
0.0
 40
1.0
 40
1.0
 40
1.0
 10
106.0187175363302
 20
170.9280848000703
 30
0.0
 10
106.2521159738302
 20
170.6966394875702
 30
0.0
 10
106.5939128488302
 20
170.6966394875702
 30
0.0
  0
SPLINE
  5
E9
330
1F
100
AcDbEntity
  8
VISIBLE
100
AcDbSpline
210
0.0
220
0.0
230
1.0
 70
     8
 71
     2
 72
     6
 73
     3
 74
     0
 42
0.000000001
 43
0.000001
 40
0.0
 40
0.0
 40
0.0
 40
1.0
 40
1.0
 40
1.0
 10
114.9532878488302
 20
171.7571863625703
 30
0.0
 10
114.9532878488302
 20
171.0696863625703
 30
0.0
 10
114.5997722238302
 20
170.6907801125703
 30
0.0
  0
SPLINE
  5
EA
330
1F
100
AcDbEntity
  8
VISIBLE
100
AcDbSpline
210
0.0
220
0.0
230
1.0
 70
     8
 71
     2
 72
     6
 73
     3
 74
     0
 42
0.000000001
 43
0.000001
 40
0.0
 40
0.0
 40
0.0
 40
1.0
 40
1.0
 40
1.0
 10
86.68766284883023
 20
172.7220301125703
 30
0.0
 10
86.31266284883023
 20
172.7220301125703
 30
0.0
 10
86.04313159883023
 20
172.3294519875703
 30
0.0
  0
LINE
  5
EB
330
1F
100
AcDbEntity
  8
VISIBLE
100
AcDbLine
 10
92.04313159883024
 20
170.3763269875703
 30
0.0
 11
92.04313159883024
 21
170.7064051125702
 31
0.0
  0
SPLINE
  5
EC
330
1F
100
AcDbEntity
  8
VISIBLE
100
AcDbSpline
210
0.0
220
0.0
230
1.0
 70
     8
 71
     2
 72
     6
 73
     3
 74
     0
 42
0.000000001
 43
0.000001
 40
0.0
 40
0.0
 40
0.0
 40
1.0
 40
1.0
 40
1.0
 10
101.9025065988302
 20
171.7571863625703
 30
0.0
 10
101.9025065988302
 20
171.0696863625703
 30
0.0
 10
101.5489909738302
 20
170.6907801125703
 30
0.0
  0
SPLINE
  5
ED
330
1F
100
AcDbEntity
  8
VISIBLE
100
AcDbSpline
210
0.0
220
0.0
230
1.0
 70
     8
 71
     2
 72
     6
 73
     3
 74
     0
 42
0.000000001
 43
0.000001
 40
0.0
 40
0.0
 40
0.0
 40
1.0
 40
1.0
 40
1.0
 10
111.7452800363302
 20
170.5403894875702
 30
0.0
 10
111.4415690988302
 20
170.3118738625703
 30
0.0
 10
110.9884440988302
 20
170.3118738625703
 30
0.0
  0
CIRCLE
  5
EE
330
1F
100
AcDbEntity
  8
VISIBLE
100
AcDbCircle
 10
221.7299730867147
 20
87.14331049663402
 30
0.0
 40
1.599999999999994
  0
SPLINE
  5
EF
330
1F
100
AcDbEntity
  8
VISIBLE
100
AcDbSpline
210
0.0
220
0.0
230
1.0
 70
     8
 71
     2
 72
     6
 73
     3
 74
     0
 42
0.000000001
 43
0.000001
 40
0.0
 40
0.0
 40
0.0
 40
1.0
 40
1.0
 40
1.0
 10
92.04313159883024
 20
172.4837488625702
 30
0.0
 10
91.72672534883024
 20
172.8196863625703
 30
0.0
 10
91.31656909883024
 20
172.8196863625703
 30
0.0
  0
LINE
  5
F0
330
1F
100
AcDbEntity
  8
VISIBLE
100
AcDbLine
 10
185.7102663401787
 20
177.198295485591
 30
0.0
 11
193.8201621815439
 21
180.1631979762997
 31
0.0
  0
SPLINE
  5
F1
330
1F
100
AcDbEntity
  8
VISIBLE
100
AcDbSpline
210
0.0
220
0.0
230
1.0
 70
     8
 71
     2
 72
     6
 73
     3
 74
     0
 42
0.000000001
 43
0.000001
 40
0.0
 40
0.0
 40
0.0
 40
1.0
 40
1.0
 40
1.0
 10
104.1837565988302
 20
172.5550379250703
 30
0.0
 10
104.0060222238302
 20
172.8196863625703
 30
0.0
 10
103.6896159738302
 20
172.8196863625703
 30
0.0
  0
ARC
  5
F2
330
1F
100
AcDbEntity
  8
VISIBLE
100
AcDbCircle
 10
93.55506672396062
 20
142.9428847628472
 30
0.0
 40
1.000000000000018
100
AcDbArc
 50
315.0000000000006
 51
135.0000000000006
  0
SPLINE
  5
F3
330
1F
100
AcDbEntity
  8
VISIBLE
100
AcDbSpline
210
0.0
220
0.0
230
1.0
 70
     8
 71
     2
 72
     6
 73
     3
 74
     0
 42
0.000000001
 43
0.000001
 40
0.0
 40
0.0
 40
0.0
 40
1.0
 40
1.0
 40
1.0
 10
99.81656909883024
 20
171.7571863625703
 30
0.0
 10
99.81656909883024
 20
171.2298426125703
 30
0.0
 10
100.0353190988302
 20
170.9632410500703
 30
0.0
  0
LINE
  5
F4
330
1F
100
AcDbEntity
  8
VISIBLE
100
AcDbLine
 10
102.9435222238302
 20
173.1399988625703
 30
0.0
 11
102.9435222238302
 21
172.8079676125703
 31
0.0
  0
LINE
  5
F5
330
1F
100
AcDbEntity
  8
VISIBLE
100
AcDbLine
 10
185.0235389311017
 20
177.0767005179582
 30
0.0
 11
31.5114877313375
 21
177.0767005179582
 31
0.0
  0
LINE
  5
F6
330
1F
100
AcDbEntity
  8
VISIBLE
100
AcDbLine
 10
81.18375659883024
 20
170.3763269875703
 30
0.0
 11
80.71500659883024
 21
170.3763269875703
 31
0.0
  0
LINE
  5
F7
330
1F
100
AcDbEntity
  8
VISIBLE
100
AcDbLine
 10
85.55094409883023
 20
170.3763269875703
 30
0.0
 11
85.55094409883023
 21
173.1399988625703
 31
0.0
  0
SPLINE
  5
F8
330
1F
100
AcDbEntity
  8
VISIBLE
100
AcDbSpline
210
0.0
220
0.0
230
1.0
 70
     8
 71
     2
 72
     6
 73
     3
 74
     0
 42
0.000000001
 43
0.000001
 40
0.0
 40
0.0
 40
0.0
 40
1.0
 40
1.0
 40
1.0
 10
88.44742847383024
 20
173.2024988625703
 30
0.0
 10
89.03727222383023
 20
173.2024988625703
 30
0.0
 10
89.39078784883024
 20
172.8245691750703
 30
0.0
  0
ARC
  5
F9
330
1F
100
AcDbEntity
  8
VISIBLE
100
AcDbCircle
 10
194.5068895906209
 20
178.2847929439325
 30
0.0
 40
2.0
100
AcDbArc
 50
0.0
 51
110.0819421716283
  0
SPLINE
  5
FA
330
1F
100
AcDbEntity
  8
VISIBLE
100
AcDbSpline
210
0.0
220
0.0
230
1.0
 70
     8
 71
     2
 72
     6
 73
     3
 74
     0
 42
0.000000001
 43
0.000001
 40
0.0
 40
0.0
 40
0.0
 40
1.0
 40
1.0
 40
1.0
 10
87.15250659883023
 20
171.7571863625703
 30
0.0
 10
87.15250659883023
 20
172.4329676125703
 30
0.0
 10
87.51090503633024
 20
172.8177332375703
 30
0.0
  0
LINE
  5
FB
330
1F
100
AcDbEntity
  8
VISIBLE
100
AcDbLine
 10
99.14469409883023
 20
173.1810144875703
 30
0.0
 11
99.14469409883023
 21
172.6907801125703
 31
0.0
  0
SPLINE
  5
FC
330
1F
100
AcDbEntity
  8
VISIBLE
100
AcDbSpline
210
0.0
220
0.0
230
1.0
 70
     8
 71
     2
 72
     6
 73
     3
 74
     0
 42
0.000000001
 43
0.000001
 40
0.0
 40
0.0
 40
0.0
 40
1.0
 40
1.0
 40
1.0
 10
114.4454753488302
 20
171.7571863625703
 30
0.0
 10
114.4454753488302
 20
172.2845301125703
 30
0.0
 10
114.2267253488302
 20
172.5521082375702
 30
0.0
  0
LINE
  5
FD
330
1F
100
AcDbEntity
  8
VISIBLE
100
AcDbLine
 10
78.77750659883023
 20
171.0325769875703
 30
0.0
 11
79.28531909883023
 21
173.1399988625703
 31
0.0
  0
LINE
  5
FE
330
1F
100
AcDbEntity
  8
VISIBLE
100
AcDbLine
 10
102.4513347238302
 20
173.1399988625703
 30
0.0
 11
102.9435222238302
 21
173.1399988625703
 31
0.0
  0
SPLINE
  5
FF
330
1F
100
AcDbEntity
  8
VISIBLE
100
AcDbSpline
210
0.0
220
0.0
230
1.0
 70
     8
 71
     2
 72
     6
 73
     3
 74
     0
 42
0.000000001
 43
0.000001
 40
0.0
 40
0.0
 40
0.0
 40
1.0
 40
1.0
 40
1.0
 10
87.92692066133024
 20
170.9280848000703
 30
0.0
 10
88.16031909883024
 20
170.6966394875702
 30
0.0
 10
88.50211597383024
 20
170.6966394875702
 30
0.0
  0
LINE
  5
100
330
1F
100
AcDbEntity
  8
VISIBLE
100
AcDbLine
 10
75.97672534883023
 20
173.1399988625703
 30
0.0
 11
75.14469409883023
 21
170.3763269875703
 31
0.0
  0
SPLINE
  5
101
330
1F
100
AcDbEntity
  8
VISIBLE
100
AcDbSpline
210
0.0
220
0.0
230
1.0
 70
     8
 71
     2
 72
     6
 73
     3
 74
     0
 42
0.000000001
 43
0.000001
 40
0.0
 40
0.0
 40
0.0
 40
1.0
 40
1.0
 40
1.0
 10
104.5372722238302
 20
170.7064051125702
 30
0.0
 10
104.2052409738302
 20
170.3118738625703
 30
0.0
 10
103.6993815988302
 20
170.3118738625703
 30
0.0
  0
LINE
  5
102
330
1F
100
AcDbEntity
  8
VISIBLE
100
AcDbLine
 10
90.92818790358109
 20
141.7302195048408
 30
0.0
 11
92.84795994277405
 21
143.6499915440338
 31
0.0
  0
SPLINE
  5
103
330
1F
100
AcDbEntity
  8
VISIBLE
100
AcDbSpline
210
0.0
220
0.0
230
1.0
 70
     8
 71
     2
 72
     6
 73
     3
 74
     0
 42
0.000000001
 43
0.000001
 40
0.0
 40
0.0
 40
0.0
 40
1.0
 40
1.0
 40
1.0
 10
88.50211597383024
 20
170.6966394875702
 30
0.0
 10
88.75992847383024
 20
170.6966394875702
 30
0.0
 10
88.96695972383024
 20
170.8284754250702
 30
0.0
  0
SPLINE
  5
104
330
1F
100
AcDbEntity
  8
VISIBLE
100
AcDbSpline
210
0.0
220
0.0
230
1.0
 70
     8
 71
     2
 72
     6
 73
     3
 74
     0
 42
0.000000001
 43
0.000001
 40
0.0
 40
0.0
 40
0.0
 40
1.0
 40
1.0
 40
1.0
 10
91.29703784883024
 20
170.6966394875702
 30
0.0
 10
91.70719409883024
 20
170.6966394875702
 30
0.0
 10
92.04313159883024
 20
171.1712488625703
 30
0.0
  0
LINE
  5
105
330
1F
100
AcDbEntity
  8
VISIBLE
100
AcDbLine
 10
117.1251628488302
 20
170.3763269875703
 30
0.0
 11
117.1251628488302
 21
172.1634363625703
 31
0.0
  0
LINE
  5
106
330
1F
100
AcDbEntity
  8
VISIBLE
100
AcDbLine
 10
102.9435222238302
 20
170.5892176125702
 30
0.0
 11
102.9435222238302
 21
169.3138269875703
 31
0.0
  0
SPLINE
  5
107
330
1F
100
AcDbEntity
  8
VISIBLE
100
AcDbSpline
210
0.0
220
0.0
230
1.0
 70
     8
 71
     2
 72
     6
 73
     3
 74
     0
 42
0.000000001
 43
0.000001
 40
0.0
 40
0.0
 40
0.0
 40
1.0
 40
1.0
 40
1.0
 10
101.3946940988302
 20
171.7571863625703
 30
0.0
 10
101.3946940988302
 20
172.2845301125703
 30
0.0
 10
101.1759440988302
 20
172.5521082375702
 30
0.0
  0
LINE
  5
108
330
1F
100
AcDbEntity
  8
VISIBLE
100
AcDbLine
 10
92.99039722383024
 20
173.1399988625703
 30
0.0
 11
93.33024097383023
 21
173.1399988625703
 31
0.0
  0
LINE
  5
109
330
1F
100
AcDbEntity
  8
VISIBLE
100
AcDbLine
 10
81.77945972383024
 20
172.4075769875703
 30
0.0
 11
81.18375659883024
 21
170.3763269875703
 31
0.0
  0
SPLINE
  5
10A
330
1F
100
AcDbEntity
  8
VISIBLE
100
AcDbSpline
210
0.0
220
0.0
230
1.0
 70
     8
 71
     2
 72
     6
 73
     3
 74
     0
 42
0.000000001
 43
0.000001
 40
0.0
 40
0.0
 40
0.0
 40
1.0
 40
1.0
 40
1.0
 10
100.6056315988302
 20
172.8196863625703
 30
0.0
 10
100.2540690988302
 20
172.8196863625703
 30
0.0
 10
100.0353190988302
 20
172.5521082375702
 30
0.0
  0
SPLINE
  5
10B
330
1F
100
AcDbEntity
  8
VISIBLE
100
AcDbSpline
210
0.0
220
0.0
230
1.0
 70
     8
 71
     2
 72
     6
 73
     3
 74
     0
 42
0.000000001
 43
0.000001
 40
0.0
 40
0.0
 40
0.0
 40
1.0
 40
1.0
 40
1.0
 10
111.5978190988302
 20
172.3118738625703
 30
0.0
 10
111.5861003488302
 20
172.5579676125703
 30
0.0
 10
111.4103190988302
 20
172.6888269875702
 30
0.0
  0
LINE
  5
10C
330
1F
100
AcDbEntity
  8
VISIBLE
100
AcDbLine
 10
106.9281879035811
 20
141.7302195048408
 30
0.0
 11
108.8479599427741
 21
143.6499915440338
 31
0.0
  0
SPLINE
  5
10D
330
1F
100
AcDbEntity
  8
VISIBLE
100
AcDbSpline
210
0.0
220
0.0
230
1.0
 70
     8
 71
     2
 72
     6
 73
     3
 74
     0
 42
0.000000001
 43
0.000001
 40
0.0
 40
0.0
 40
0.0
 40
1.0
 40
1.0
 40
1.0
 10
98.84586597383024
 20
172.7220301125703
 30
0.0
 10
98.47086597383023
 20
172.7220301125703
 30
0.0
 10
98.20133472383024
 20
172.3294519875703
 30
0.0
  0
SPLINE
  5
10E
330
1F
100
AcDbEntity
  8
VISIBLE
100
AcDbSpline
210
0.0
220
0.0
230
1.0
 70
     8
 71
     2
 72
     6
 73
     3
 74
     0
 42
0.000000001
 43
0.000001
 40
0.0
 40
0.0
 40
0.0
 40
1.0
 40
1.0
 40
1.0
 10
111.7452800363302
 20
172.9730066750703
 30
0.0
 10
112.0489909738302
 20
172.7435144875703
 30
0.0
 10
112.1036784738302
 20
172.3118738625703
 30
0.0
  0
SPLINE
  5
10F
330
1F
100
AcDbEntity
  8
VISIBLE
100
AcDbSpline
210
0.0
220
0.0
230
1.0
 70
     8
 71
     2
 72
     6
 73
     3
 74
     0
 42
0.000000001
 43
0.000001
 40
0.0
 40
0.0
 40
0.0
 40
1.0
 40
1.0
 40
1.0
 10
96.80680347383024
 20
172.8245691750703
 30
0.0
 10
97.16031909883024
 20
172.4466394875703
 30
0.0
 10
97.16031909883024
 20
171.7571863625703
 30
0.0
  0
LINE
  5
110
330
1F
100
AcDbEntity
  8
VISIBLE
100
AcDbLine
 10
80.71500659883026
 20
170.3763269875702
 30
0.0
 11
79.88102222383026
 21
173.1399988625702
 31
0.0
  0
SPLINE
  5
111
330
1F
100
AcDbEntity
  8
VISIBLE
100
AcDbSpline
210
0.0
220
0.0
230
1.0
 70
     8
 71
     2
 72
     6
 73
     3
 74
     0
 42
0.000000001
 43
0.000001
 40
0.0
 40
0.0
 40
0.0
 40
1.0
 40
1.0
 40
1.0
 10
95.86344409883024
 20
173.2024988625703
 30
0.0
 10
96.45328784883024
 20
173.2024988625703
 30
0.0
 10
96.80680347383024
 20
172.8245691750703
 30
0.0
  0
LINE
  5
112
330
1F
100
AcDbEntity
  8
VISIBLE
100
AcDbLine
 10
82.62906909883024
 20
171.0325769875703
 30
0.0
 11
83.13688159883024
 21
173.1399988625703
 31
0.0
  0
LINE
  5
113
330
1F
100
AcDbEntity
  8
VISIBLE
100
AcDbLine
 10
84.18180347383024
 20
170.9095301125703
 30
0.0
 11
84.71500659883023
 21
170.9095301125703
 31
0.0
  0
SPLINE
  5
114
330
1F
100
AcDbEntity
  8
VISIBLE
100
AcDbSpline
210
0.0
220
0.0
230
1.0
 70
     8
 71
     2
 72
     6
 73
     3
 74
     0
 42
0.000000001
 43
0.000001
 40
0.0
 40
0.0
 40
0.0
 40
1.0
 40
1.0
 40
1.0
 10
89.30485034883023
 20
170.5433191750703
 30
0.0
 10
88.97477222383024
 20
170.3118738625703
 30
0.0
 10
88.50211597383024
 20
170.3118738625703
 30
0.0
  0
SPLINE
  5
115
330
1F
100
AcDbEntity
  8
VISIBLE
100
AcDbSpline
210
0.0
220
0.0
230
1.0
 70
     8
 71
     2
 72
     6
 73
     3
 74
     0
 42
0.000000001
 43
0.000001
 40
0.0
 40
0.0
 40
0.0
 40
1.0
 40
1.0
 40
1.0
 10
105.7540690988302
 20
171.6399988625703
 30
0.0
 10
105.7853190988302
 20
171.1595301125703
 30
0.0
 10
106.0187175363302
 20
170.9280848000703
 30
0.0
  0
LINE
  5
116
330
1F
100
AcDbEntity
  8
VISIBLE
100
AcDbLine
 10
76.57438159883023
 20
173.1399988625703
 30
0.0
 11
77.08219409883023
 21
171.0325769875703
 31
0.0
  0
LINE
  5
117
330
1F
100
AcDbEntity
  8
VISIBLE
100
AcDbLine
 10
78.52750659883024
 20
170.3763269875703
 30
0.0
 11
77.92789722383024
 21
172.4075769875702
 31
0.0
  0
SPLINE
  5
118
330
1F
100
AcDbEntity
  8
VISIBLE
100
AcDbSpline
210
0.0
220
0.0
230
1.0
 70
     8
 71
     2
 72
     6
 73
     3
 74
     0
 42
0.000000001
 43
0.000001
 40
0.0
 40
0.0
 40
0.0
 40
1.0
 40
1.0
 40
1.0
 10
107.0587565988302
 20
170.8284754250702
 30
0.0
 10
107.2657878488302
 20
170.9603113625702
 30
0.0
 10
107.2755534738302
 20
171.2024988625703
 30
0.0
  0
LINE
  5
119
330
1F
100
AcDbEntity
  8
VISIBLE
100
AcDbLine
 10
187.5114877313374
 20
137.0767005179582
 30
0.0
 11
31.5114877313375
 21
137.0767005179582
 31
0.0
  0
LINE
  5
11A
330
1F
100
AcDbEntity
  8
VISIBLE
100
AcDbLine
 10
81.55680347383023
 20
173.1399988625703
 30
0.0
 11
82.00406909883024
 21
173.1399988625703
 31
0.0
  0
SPLINE
  5
11B
330
1F
100
AcDbEntity
  8
VISIBLE
100
AcDbSpline
210
0.0
220
0.0
230
1.0
 70
     8
 71
     2
 72
     6
 73
     3
 74
     0
 42
0.000000001
 43
0.000001
 40
0.0
 40
0.0
 40
0.0
 40
1.0
 40
1.0
 40
1.0
 10
86.76188159883023
 20
173.2024988625703
 30
0.0
 10
86.86735034883024
 20
173.2024988625703
 30
0.0
 10
86.98649097383023
 20
173.1810144875703
 30
0.0
  0
SPLINE
  5
11C
330
1F
100
AcDbEntity
  8
VISIBLE
100
AcDbSpline
210
0.0
220
0.0
230
1.0
 70
     8
 71
     2
 72
     6
 73
     3
 74
     0
 42
0.000000001
 43
0.000001
 40
0.0
 40
0.0
 40
0.0
 40
1.0
 40
1.0
 40
1.0
 10
93.98258472383024
 20
170.3392176125703
 30
0.0
 10
93.67985034883024
 20
170.3392176125703
 30
0.0
 10
93.53922534883023
 20
170.4476160500702
 30
0.0
  0
LINE
  5
11D
330
1F
100
AcDbEntity
  8
VISIBLE
100
AcDbLine
 10
87.67399097383023
 20
172.0247644875702
 30
0.0
 11
89.22477222383024
 21
172.0247644875702
 31
0.0
  0
SPLINE
  5
11E
330
1F
100
AcDbEntity
  8
VISIBLE
100
AcDbSpline
210
0.0
220
0.0
230
1.0
 70
     8
 71
     2
 72
     6
 73
     3
 74
     0
 42
0.000000001
 43
0.000001
 40
0.0
 40
0.0
 40
0.0
 40
1.0
 40
1.0
 40
1.0
 10
90.45133472383024
 20
172.8079676125703
 30
0.0
 10
90.78336597383024
 20
173.2024988625703
 30
0.0
 10
91.28531909883024
 20
173.2024988625703
 30
0.0
  0
CIRCLE
  5
11F
330
1F
100
AcDbEntity
  8
VISIBLE
100
AcDbCircle
 10
35.0114877313375
 20
172.0767005179582
 30
0.0
 40
1.600000000000009
  0
LINE
  5
120
330
1F
100
AcDbEntity
  8
VISIBLE
100
AcDbLine
 10
102.4513347238302
 20
169.3138269875703
 30
0.0
 11
102.4513347238302
 21
173.1399988625703
 31
0.0
  0
SPLINE
  5
121
330
1F
100
AcDbEntity
  8
VISIBLE
100
AcDbSpline
210
0.0
220
0.0
230
1.0
 70
     8
 71
     2
 72
     6
 73
     3
 74
     0
 42
0.000000001
 43
0.000001
 40
0.0
 40
0.0
 40
0.0
 40
1.0
 40
1.0
 40
1.0
 10
104.1739909738302
 20
170.9691004250703
 30
0.0
 10
104.3614909738302
 20
171.2415613625703
 30
0.0
 10
104.3614909738302
 20
171.7806238625702
 30
0.0
  0
SPLINE
  5
122
330
1F
100
AcDbEntity
  8
VISIBLE
100
AcDbSpline
210
0.0
220
0.0
230
1.0
 70
     8
 71
     3
 72
     9
 73
     5
 74
     0
 42
0.000000001
 43
0.000001
 40
1.068590185343967
 40
1.068590185343967
 40
1.068590185343967
 40
1.068590185343967
 40
3.549556815933238
 40
6.513030589673476
 40
6.513030589673476
 40
6.513030589673476
 40
6.513030589673476
 10
236.3534370742188
 20
88.39621990431479
 30
0.0
 10
235.2678148654237
 20
96.99275167356353
 30
0.0
 10
231.4379577873146
 20
115.0004606304574
 30
0.0
 10
217.0567768087602
 20
126.7593656592155
 30
0.0
 10
209.0420200421242
 20
133.0491849730946
 30
0.0
  0
LINE
  5
123
330
1F
100
AcDbEntity
  8
VISIBLE
100
AcDbLine
 10
73.23063159883023
 20
171.0325769875703
 30
0.0
 11
73.85367847383023
 21
173.1399988625703
 31
0.0
  0
SPLINE
  5
124
330
1F
100
AcDbEntity
  8
VISIBLE
100
AcDbSpline
210
0.0
220
0.0
230
1.0
 70
     8
 71
     2
 72
     6
 73
     3
 74
     0
 42
0.000000001
 43
0.000001
 40
0.0
 40
0.0
 40
0.0
 40
1.0
 40
1.0
 40
1.0
 10
101.1759440988302
 20
172.5521082375702
 30
0.0
 10
100.9571940988302
 20
172.8196863625703
 30
0.0
 10
100.6056315988302
 20
172.8196863625703
 30
0.0
  0
LINE
  5
125
330
1F
100
AcDbEntity
  8
VISIBLE
100
AcDbLine
 10
82.37906909883023
 20
170.3763269875702
 30
0.0
 11
81.77945972383024
 21
172.4075769875703
 31
0.0
  0
LINE
  5
126
330
1F
100
AcDbEntity
  8
VISIBLE
100
AcDbLine
 10
85.55094409883023
 20
173.1399988625703
 30
0.0
 11
86.04313159883024
 21
173.1399988625703
 31
0.0
  0
SPLINE
  5
127
330
1F
100
AcDbEntity
  8
VISIBLE
100
AcDbSpline
210
0.0
220
0.0
230
1.0
 70
     8
 71
     2
 72
     6
 73
     3
 74
     0
 42
0.000000001
 43
0.000001
 40
0.0
 40
0.0
 40
0.0
 40
1.0
 40
1.0
 40
1.0
 10
115.9943034738302
 20
172.7884363625703
 30
0.0
 10
116.3439128488302
 20
173.2024988625703
 30
0.0
 10
116.7677409738302
 20
173.2024988625703
 30
0.0
  0
SPLINE
  5
128
330
1F
100
AcDbEntity
  8
VISIBLE
100
AcDbSpline
210
0.0
220
0.0
230
1.0
 70
     8
 71
     2
 72
     6
 73
     3
 74
     0
 42
0.000000001
 43
0.000001
 40
0.0
 40
0.0
 40
0.0
 40
1.0
 40
1.0
 40
1.0
 10
102.9435222238302
 20
172.8079676125703
 30
0.0
 10
103.2716472238302
 20
173.2024988625703
 30
0.0
 10
103.7325847238302
 20
173.2024988625703
 30
0.0
  0
ARC
  5
129
330
1F
100
AcDbEntity
  8
VISIBLE
100
AcDbCircle
 10
91.63529468476764
 20
141.0231127236542
 30
0.0
 40
1.000000000000008
100
AcDbArc
 50
135.0
 51
315.0000000000006
  0
SPLINE
  5
12A
330
1F
100
AcDbEntity
  8
VISIBLE
100
AcDbSpline
210
0.0
220
0.0
230
1.0
 70
     8
 71
     2
 72
     6
 73
     3
 74
     0
 42
0.000000001
 43
0.000001
 40
0.0
 40
0.0
 40
0.0
 40
1.0
 40
1.0
 40
1.0
 10
87.94156909883024
 20
172.6224207375703
 30
0.0
 10
87.73063159883024
 20
172.4251551125702
 30
0.0
 10
87.67399097383023
 20
172.0247644875702
 30
0.0
  0
LINE
  5
12B
330
1F
100
AcDbEntity
  8
VISIBLE
100
AcDbLine
 10
98.20133472383024
 20
173.1399988625703
 30
0.0
 11
98.20133472383024
 21
172.7532801125703
 31
0.0
  0
LINE
  5
12C
330
1F
100
AcDbEntity
  8
VISIBLE
100
AcDbLine
 10
84.18180347383024
 20
170.3763269875703
 30
0.0
 11
84.18180347383024
 21
170.9095301125703
 31
0.0
  0
LINE
  5
12D
330
1F
100
AcDbEntity
  8
VISIBLE
100
AcDbLine
 10
72.72281909883023
 20
173.1399988625703
 30
0.0
 11
73.23063159883023
 21
171.0325769875703
 31
0.0
  0
SPLINE
  5
12E
330
1F
100
AcDbEntity
  8
VISIBLE
100
AcDbSpline
210
0.0
220
0.0
230
1.0
 70
     8
 71
     2
 72
     6
 73
     3
 74
     0
 42
0.000000001
 43
0.000001
 40
0.0
 40
0.0
 40
0.0
 40
1.0
 40
1.0
 40
1.0
 10
118.3165690988302
 20
172.7982019875703
 30
0.0
 10
117.9591472238302
 20
172.7982019875703
 30
0.0
 10
117.6153972238302
 20
172.3548426125703
 30
0.0
  0
SPLINE
  5
12F
330
1F
100
AcDbEntity
  8
VISIBLE
100
AcDbSpline
210
0.0
220
0.0
230
1.0
 70
     8
 71
     2
 72
     6
 73
     3
 74
     0
 42
0.000000001
 43
0.000001
 40
0.0
 40
0.0
 40
0.0
 40
1.0
 40
1.0
 40
1.0
 10
110.0460612863302
 20
170.6907801125703
 30
0.0
 10
109.6935222238302
 20
171.0696863625703
 30
0.0
 10
109.6935222238302
 20
171.7571863625703
 30
0.0
  0
SPLINE
  5
130
330
1F
100
AcDbEntity
  8
VISIBLE
100
AcDbSpline
210
0.0
220
0.0
230
1.0
 70
     8
 71
     2
 72
     6
 73
     3
 74
     0
 42
0.000000001
 43
0.000001
 40
0.0
 40
0.0
 40
0.0
 40
1.0
 40
1.0
 40
1.0
 10
95.29313159883024
 20
170.9632410500703
 30
0.0
 10
95.51188159883024
 20
170.6966394875702
 30
0.0
 10
95.86344409883024
 20
170.6966394875702
 30
0.0
  0
LINE
  5
131
330
1F
100
AcDbEntity
  8
VISIBLE
100
AcDbLine
 10
105.7657878488302
 20
172.0247644875702
 30
0.0
 11
107.3165690988302
 21
172.0247644875702
 31
0.0
  0
LINE
  5
132
330
1F
100
AcDbEntity
  8
VISIBLE
100
AcDbLine
 10
187.5114877313375
 20
152.0767005179582
 30
0.0
 11
27.5114877313375
 21
152.0767005179582
 31
0.0
  0
SPLINE
  5
133
330
1F
100
AcDbEntity
  8
VISIBLE
100
AcDbSpline
210
0.0
220
0.0
230
1.0
 70
     8
 71
     2
 72
     6
 73
     3
 74
     0
 42
0.000000001
 43
0.000001
 40
0.0
 40
0.0
 40
0.0
 40
1.0
 40
1.0
 40
1.0
 10
117.0265300363302
 20
172.6526941750703
 30
0.0
 10
116.9278972238302
 20
172.7982019875703
 30
0.0
 10
116.6935222238302
 20
172.7982019875703
 30
0.0
  0
ARC
  5
134
330
1F
100
AcDbEntity
  8
VISIBLE
100
AcDbCircle
 10
107.6352946847676
 20
141.0231127236542
 30
0.0
 40
0.999999999999998
100
AcDbArc
 50
134.9999999999994
 51
315.0000000000011
  0
SPLINE
  5
135
330
1F
100
AcDbEntity
  8
VISIBLE
100
AcDbSpline
210
0.0
220
0.0
230
1.0
 70
     8
 71
     2
 72
     6
 73
     3
 74
     0
 42
0.000000001
 43
0.000001
 40
0.0
 40
0.0
 40
0.0
 40
1.0
 40
1.0
 40
1.0
 10
118.0109050363302
 20
173.1155848000703
 30
0.0
 10
118.2032878488302
 20
173.2024988625703
 30
0.0
 10
118.3888347238302
 20
173.2024988625703
 30
0.0
  0
LINE
  5
136
330
1F
100
AcDbEntity
  8
VISIBLE
100
AcDbLine
 10
27.5114877313375
 20
167.0767005179582
 30
0.0
 11
187.5114877313375
 21
167.0767005179582
 31
0.0
  0
LINE
  5
137
330
1F
100
AcDbEntity
  8
VISIBLE
100
AcDbLine
 10
83.13688159883024
 20
173.1399988625703
 30
0.0
 11
83.67985034883024
 21
173.1399988625703
 31
0.0
  0
LINE
  5
138
330
1F
100
AcDbEntity
  8
VISIBLE
100
AcDbLine
 10
109.0314128488302
 20
170.9095301125703
 30
0.0
 11
109.0314128488302
 21
170.3763269875703
 31
0.0
  0
LINE
  5
139
330
1F
100
AcDbEntity
  8
VISIBLE
100
AcDbLine
 10
203.5114877313389
 20
177.0767005179582
 30
0.0
 11
197.0068895906209
 21
177.0767005179582
 31
0.0
  0
SPLINE
  5
13A
330
1F
100
AcDbEntity
  8
VISIBLE
100
AcDbSpline
210
0.0
220
0.0
230
1.0
 70
     8
 71
     2
 72
     6
 73
     3
 74
     0
 42
0.000000001
 43
0.000001
 40
0.0
 40
0.0
 40
0.0
 40
1.0
 40
1.0
 40
1.0
 10
110.4181315988302
 20
170.9632410500703
 30
0.0
 10
110.6368815988302
 20
170.6966394875702
 30
0.0
 10
110.9884440988302
 20
170.6966394875702
 30
0.0
  0
SPLINE
  5
13B
330
1F
100
AcDbEntity
  8
VISIBLE
100
AcDbSpline
210
0.0
220
0.0
230
1.0
 70
     8
 71
     2
 72
     6
 73
     3
 74
     0
 42
0.000000001
 43
0.000001
 40
0.0
 40
0.0
 40
0.0
 40
1.0
 40
1.0
 40
1.0
 10
112.3614909738302
 20
171.7571863625703
 30
0.0
 10
112.3614909738302
 20
172.4466394875703
 30
0.0
 10
112.7140300363302
 20
172.8245691750703
 30
0.0
  0
SPLINE
  5
13C
330
1F
100
AcDbEntity
  8
VISIBLE
100
AcDbSpline
210
0.0
220
0.0
230
1.0
 70
     8
 71
     2
 72
     6
 73
     3
 74
     0
 42
0.000000001
 43
0.000001
 40
0.0
 40
0.0
 40
0.0
 40
1.0
 40
1.0
 40
1.0
 10
113.6564128488302
 20
170.3118738625703
 30
0.0
 10
113.0665690988302
 20
170.3118738625703
 30
0.0
 10
112.7140300363302
 20
170.6907801125703
 30
0.0
  0
SPLINE
  5
13D
330
1F
100
AcDbEntity
  8
VISIBLE
100
AcDbSpline
210
0.0
220
0.0
230
1.0
 70
     8
 71
     2
 72
     6
 73
     3
 74
     0
 42
0.000000001
 43
0.000001
 40
0.0
 40
0.0
 40
0.0
 40
1.0
 40
1.0
 40
1.0
 10
93.53922534883023
 20
170.4476160500702
 30
0.0
 10
93.39860034883023
 20
170.5560144875703
 30
0.0
 10
93.36442066133023
 20
170.7249598000703
 30
0.0
  0
SPLINE
  5
13E
330
1F
100
AcDbEntity
  8
VISIBLE
100
AcDbSpline
210
0.0
220
0.0
230
1.0
 70
     8
 71
     2
 72
     6
 73
     3
 74
     0
 42
0.000000001
 43
0.000001
 40
0.0
 40
0.0
 40
0.0
 40
1.0
 40
1.0
 40
1.0
 10
95.07438159883024
 20
171.7571863625703
 30
0.0
 10
95.07438159883024
 20
171.2298426125703
 30
0.0
 10
95.29313159883024
 20
170.9632410500703
 30
0.0
  0
LINE
  5
13F
330
1F
100
AcDbEntity
  8
VISIBLE
100
AcDbLine
 10
89.74430347383023
 20
171.6399988625703
 30
0.0
 11
87.66227222383024
 21
171.6399988625703
 31
0.0
  0
LINE
  5
140
330
1F
100
AcDbEntity
  8
VISIBLE
100
AcDbLine
 10
115.5021159738302
 20
170.3763269875703
 30
0.0
 11
115.5021159738302
 21
173.1399988625703
 31
0.0
  0
SPLINE
  5
141
330
1F
100
AcDbEntity
  8
VISIBLE
100
AcDbSpline
210
0.0
220
0.0
230
1.0
 70
     8
 71
     2
 72
     6
 73
     3
 74
     0
 42
0.000000001
 43
0.000001
 40
0.0
 40
0.0
 40
0.0
 40
1.0
 40
1.0
 40
1.0
 10
109.6935222238302
 20
171.7571863625703
 30
0.0
 10
109.6935222238302
 20
172.4466394875703
 30
0.0
 10
110.0460612863302
 20
172.8245691750703
 30
0.0
  0
SPLINE
  5
142
330
1F
100
AcDbEntity
  8
VISIBLE
100
AcDbSpline
210
0.0
220
0.0
230
1.0
 70
     8
 71
     2
 72
     6
 73
     3
 74
     0
 42
0.000000001
 43
0.000001
 40
0.0
 40
0.0
 40
0.0
 40
1.0
 40
1.0
 40
1.0
 10
116.7677409738302
 20
173.2024988625703
 30
0.0
 10
117.3751628488302
 20
173.2024988625703
 30
0.0
 10
117.5411784738302
 20
172.7024988625703
 30
0.0
  0
LINE
  5
143
330
1F
100
AcDbEntity
  8
VISIBLE
100
AcDbLine
 10
75.43375659883023
 20
173.1399988625703
 30
0.0
 11
75.97672534883024
 21
173.1399988625703
 31
0.0
  0
LINE
  5
144
330
1F
100
AcDbEntity
  8
VISIBLE
100
AcDbLine
 10
80.42594409883023
 20
173.1399988625703
 30
0.0
 11
80.93375659883023
 21
171.0325769875703
 31
0.0
  0
SPLINE
  5
145
330
1F
100
AcDbEntity
  8
VISIBLE
100
AcDbSpline
210
0.0
220
0.0
230
1.0
 70
     8
 71
     2
 72
     6
 73
     3
 74
     0
 42
0.000000001
 43
0.000001
 40
0.0
 40
0.0
 40
0.0
 40
1.0
 40
1.0
 40
1.0
 10
104.3614909738302
 20
171.7806238625702
 30
0.0
 10
104.3614909738302
 20
172.2903894875703
 30
0.0
 10
104.1837565988302
 20
172.5550379250703
 30
0.0
  0
SPLINE
  5
146
330
1F
100
AcDbEntity
  8
VISIBLE
100
AcDbSpline
210
0.0
220
0.0
230
1.0
 70
     8
 71
     2
 72
     6
 73
     3
 74
     0
 42
0.000000001
 43
0.000001
 40
0.0
 40
0.0
 40
0.0
 40
1.0
 40
1.0
 40
1.0
 10
112.7140300363302
 20
170.6907801125703
 30
0.0
 10
112.3614909738302
 20
171.0696863625703
 30
0.0
 10
112.3614909738302
 20
171.7571863625703
 30
0.0
  0
SPLINE
  5
147
330
1F
100
AcDbEntity
  8
VISIBLE
100
AcDbSpline
210
0.0
220
0.0
230
1.0
 70
     8
 71
     2
 72
     6
 73
     3
 74
     0
 42
0.000000001
 43
0.000001
 40
0.0
 40
0.0
 40
0.0
 40
1.0
 40
1.0
 40
1.0
 10
107.3165690988302
 20
172.0247644875702
 30
0.0
 10
107.2579753488302
 20
172.4232019875703
 30
0.0
 10
107.0489909738302
 20
172.6214441750703
 30
0.0
  0
SPLINE
  5
148
330
1F
100
AcDbEntity
  8
VISIBLE
100
AcDbSpline
210
0.0
220
0.0
230
1.0
 70
     8
 71
     2
 72
     6
 73
     3
 74
     0
 42
0.000000001
 43
0.000001
 40
0.0
 40
0.0
 40
0.0
 40
1.0
 40
1.0
 40
1.0
 10
94.92106128633024
 20
172.8245691750703
 30
0.0
 10
95.27360034883024
 20
173.2024988625703
 30
0.0
 10
95.86344409883024
 20
173.2024988625703
 30
0.0
  0
LINE
  5
149
330
1F
100
AcDbEntity
  8
VISIBLE
100
AcDbLine
 10
27.5114877313375
 20
167.0767005179582
 30
0.0
 11
27.5114877313375
 21
173.0767005179582
 31
0.0
  0
SPLINE
  5
14A
330
1F
100
AcDbEntity
  8
VISIBLE
100
AcDbSpline
210
0.0
220
0.0
230
1.0
 70
     8
 71
     2
 72
     6
 73
     3
 74
     0
 42
0.000000001
 43
0.000001
 40
0.0
 40
0.0
 40
0.0
 40
1.0
 40
1.0
 40
1.0
 10
113.0861003488302
 20
172.5521082375702
 30
0.0
 10
112.8673503488302
 20
172.2845301125703
 30
0.0
 10
112.8673503488302
 20
171.7571863625703
 30
0.0
  0
SPLINE
  5
14B
330
1F
100
AcDbEntity
  8
VISIBLE
100
AcDbSpline
210
0.0
220
0.0
230
1.0
 70
     8
 71
     2
 72
     6
 73
     3
 74
     0
 42
0.000000001
 43
0.000001
 40
0.0
 40
0.0
 40
0.0
 40
1.0
 40
1.0
 40
1.0
 10
99.31070972383023
 20
171.7571863625703
 30
0.0
 10
99.31070972383023
 20
172.4466394875703
 30
0.0
 10
99.66324878633024
 20
172.8245691750703
 30
0.0
  0
SPLINE
  5
14C
330
1F
100
AcDbEntity
  8
VISIBLE
100
AcDbSpline
210
0.0
220
0.0
230
1.0
 70
     8
 71
     2
 72
     6
 73
     3
 74
     0
 42
0.000000001
 43
0.000001
 40
0.0
 40
0.0
 40
0.0
 40
1.0
 40
1.0
 40
1.0
 10
96.80680347383024
 20
170.6907801125703
 30
0.0
 10
96.45328784883024
 20
170.3118738625703
 30
0.0
 10
95.86344409883024
 20
170.3118738625703
 30
0.0
  0
SPLINE
  5
14D
330
1F
100
AcDbEntity
  8
VISIBLE
100
AcDbSpline
210
0.0
220
0.0
230
1.0
 70
     8
 71
     2
 72
     6
 73
     3
 74
     0
 42
0.000000001
 43
0.000001
 40
0.0
 40
0.0
 40
0.0
 40
1.0
 40
1.0
 40
1.0
 10
105.2443034738302
 20
171.7571863625703
 30
0.0
 10
105.2443034738302
 20
172.4329676125703
 30
0.0
 10
105.6027019113302
 20
172.8177332375703
 30
0.0
  0
LINE
  5
14E
330
1F
100
AcDbEntity
  8
VISIBLE
100
AcDbLine
 10
73.48063159883023
 20
170.3763269875703
 30
0.0
 11
73.01188159883023
 21
170.3763269875703
 31
0.0
  0
LINE
  5
14F
330
1F
100
AcDbEntity
  8
VISIBLE
100
AcDbLine
 10
79.28531909883023
 20
173.1399988625703
 30
0.0
 11
79.82828784883023
 21
173.1399988625703
 31
0.0
  0
LINE
  5
150
330
1F
100
AcDbEntity
  8
VISIBLE
100
AcDbLine
 10
74.07633472383023
 20
172.4075769875703
 30
0.0
 11
73.48063159883023
 21
170.3763269875703
 31
0.0
  0
LINE
  5
151
330
1F
100
AcDbEntity
  8
VISIBLE
100
AcDbLine
 10
89.18375659883023
 20
171.2024988625703
 30
0.0
 11
89.69156909883023
 21
171.2024988625703
 31
0.0
  0
ARC
  5
152
330
1F
100
AcDbEntity
  8
VISIBLE
100
AcDbCircle
 10
197.0068895906209
 20
177.5767005179582
 30
0.0
 40
0.5
100
AcDbArc
 50
180.0
 51
270.0
  0
LINE
  5
153
330
1F
100
AcDbEntity
  8
VISIBLE
100
AcDbLine
 10
77.08219409883023
 20
171.0325769875703
 30
0.0
 11
77.70524097383023
 21
173.1399988625703
 31
0.0
  0
SPLINE
  5
154
330
1F
100
AcDbEntity
  8
VISIBLE
100
AcDbSpline
210
0.0
220
0.0
230
1.0
 70
     8
 71
     2
 72
     6
 73
     3
 74
     0
 42
0.000000001
 43
0.000001
 40
0.0
 40
0.0
 40
0.0
 40
1.0
 40
1.0
 40
1.0
 10
112.8673503488302
 20
171.7571863625703
 30
0.0
 10
112.8673503488302
 20
171.2298426125703
 30
0.0
 10
113.0861003488302
 20
170.9632410500703
 30
0.0
  0
LINE
  5
155
330
1F
100
AcDbEntity
  8
VISIBLE
100
AcDbLine
 10
98.20133472383024
 20
170.3763269875703
 30
0.0
 11
97.70914722383024
 21
170.3763269875703
 31
0.0
  0
LINE
  5
156
330
1F
100
AcDbEntity
  8
VISIBLE
100
AcDbLine
 10
108.4982097238302
 20
170.9095301125703
 30
0.0
 11
109.0314128488302
 21
170.9095301125703
 31
0.0
  0
SPLINE
  5
157
330
1F
100
AcDbEntity
  8
VISIBLE
100
AcDbSpline
210
0.0
220
0.0
230
1.0
 70
     8
 71
     2
 72
     6
 73
     3
 74
     0
 42
0.000000001
 43
0.000001
 40
0.0
 40
0.0
 40
0.0
 40
1.0
 40
1.0
 40
1.0
 10
103.6896159738302
 20
172.8196863625703
 30
0.0
 10
103.2794597238302
 20
172.8196863625703
 30
0.0
 10
102.9435222238302
 20
172.3450769875703
 30
0.0
  0
SPLINE
  5
158
330
1F
100
AcDbEntity
  8
VISIBLE
100
AcDbSpline
210
0.0
220
0.0
230
1.0
 70
     8
 71
     2
 72
     6
 73
     3
 74
     0
 42
0.000000001
 43
0.000001
 40
0.0
 40
0.0
 40
0.0
 40
1.0
 40
1.0
 40
1.0
 10
101.1759440988302
 20
170.9632410500703
 30
0.0
 10
101.3946940988302
 20
171.2298426125703
 30
0.0
 10
101.3946940988302
 20
171.7571863625703
 30
0.0
  0
SPLINE
  5
159
330
1F
100
AcDbEntity
  8
VISIBLE
100
AcDbSpline
210
0.0
220
0.0
230
1.0
 70
     8
 71
     2
 72
     6
 73
     3
 74
     0
 42
0.000000001
 43
0.000001
 40
0.0
 40
0.0
 40
0.0
 40
1.0
 40
1.0
 40
1.0
 10
91.25406909883024
 20
170.3118738625703
 30
0.0
 10
90.71305347383024
 20
170.3118738625703
 30
0.0
 10
90.41617847383024
 20
170.6966394875702
 30
0.0
  0
SPLINE
  5
15A
330
1F
100
AcDbEntity
  8
VISIBLE
100
AcDbSpline
210
0.0
220
0.0
230
1.0
 70
     8
 71
     2
 72
     6
 73
     3
 74
     0
 42
0.000000001
 43
0.000001
 40
0.0
 40
0.0
 40
0.0
 40
1.0
 40
1.0
 40
1.0
 10
86.04313159883023
 20
172.7532801125703
 30
0.0
 10
86.35367847383023
 20
173.2024988625703
 30
0.0
 10
86.76188159883023
 20
173.2024988625703
 30
0.0
  0
LINE
  5
15B
330
1F
100
AcDbEntity
  8
VISIBLE
100
AcDbLine
 10
92.53336597383024
 20
174.1946863625703
 30
0.0
 11
92.53336597383024
 21
170.3763269875703
 31
0.0
  0
ARC
  5
15C
330
1F
100
AcDbEntity
  8
VISIBLE
100
AcDbCircle
 10
115.6352946847676
 20
141.0231127236542
 30
0.0
 40
1.000000000000008
100
AcDbArc
 50
135.0
 51
315.0000000000011
  0
LINE
  5
15D
330
1F
100
AcDbEntity
  8
VISIBLE
100
AcDbLine
 10
82.00406909883024
 20
173.1399988625703
 30
0.0
 11
82.62906909883024
 21
171.0325769875702
 31
0.0
  0
SPLINE
  5
15E
330
1F
100
AcDbEntity
  8
VISIBLE
100
AcDbSpline
210
0.0
220
0.0
230
1.0
 70
     8
 71
     2
 72
     6
 73
     3
 74
     0
 42
0.000000001
 43
0.000001
 40
0.0
 40
0.0
 40
0.0
 40
1.0
 40
1.0
 40
1.0
 10
117.1251628488302
 20
172.1634363625703
 30
0.0
 10
117.1251628488302
 20
172.5071863625703
 30
0.0
 10
117.0265300363302
 20
172.6526941750703
 30
0.0
  0
LINE
  5
15F
330
1F
100
AcDbEntity
  8
VISIBLE
100
AcDbLine
 10
119.2384440988302
 20
170.3763269875703
 30
0.0
 11
118.7462565988302
 21
170.3763269875703
 31
0.0
  0
ARC
  5
160
330
1F
100
AcDbEntity
  8
VISIBLE
100
AcDbCircle
 10
185.0235389311017
 20
179.0767005179582
 30
0.0
 40
2.000000000000028
100
AcDbArc
 50
270.0
 51
290.0819421716275
  0
LINE
  5
161
330
1F
100
AcDbEntity
  8
VISIBLE
100
AcDbLine
 10
77.92789722383023
 20
172.4075769875703
 30
0.0
 11
77.33219409883023
 21
170.3763269875703
 31
0.0
  0
LINE
  5
162
330
1F
100
AcDbEntity
  8
VISIBLE
100
AcDbLine
 10
74.92594409883023
 20
171.0325769875703
 30
0.0
 11
75.43375659883023
 21
173.1399988625703
 31
0.0
  0
LINE
  5
163
330
1F
100
AcDbEntity
  8
VISIBLE
100
AcDbLine
 10
107.8361003488302
 20
171.7571863625703
 30
0.0
 11
107.8361003488302
 21
171.6399988625703
 31
0.0
  0
SPLINE
  5
164
330
1F
100
AcDbEntity
  8
VISIBLE
100
AcDbSpline
210
0.0
220
0.0
230
1.0
 70
     8
 71
     2
 72
     6
 73
     3
 74
     0
 42
0.000000001
 43
0.000001
 40
0.0
 40
0.0
 40
0.0
 40
1.0
 40
1.0
 40
1.0
 10
103.7325847238302
 20
173.2024988625703
 30
0.0
 10
104.2755534738302
 20
173.2024988625703
 30
0.0
 10
104.5724284738302
 20
172.8177332375703
 30
0.0
  0
SPLINE
  5
165
330
1F
100
AcDbEntity
  8
VISIBLE
100
AcDbSpline
210
0.0
220
0.0
230
1.0
 70
     8
 71
     2
 72
     6
 73
     3
 74
     0
 42
0.000000001
 43
0.000001
 40
0.0
 40
0.0
 40
0.0
 40
1.0
 40
1.0
 40
1.0
 10
117.5411784738302
 20
172.7024988625703
 30
0.0
 10
117.8185222238302
 20
173.0286707375703
 30
0.0
 10
118.0109050363302
 20
173.1155848000703
 30
0.0
  0
LINE
  5
166
330
1F
100
AcDbEntity
  8
VISIBLE
100
AcDbLine
 10
191.5114876420058
 20
77.14331049663399
 30
0.0
 11
226.4322366420057
 21
77.14331049663399
 31
0.0
  0
SPLINE
  5
167
330
1F
100
AcDbEntity
  8
VISIBLE
100
AcDbSpline
210
0.0
220
0.0
230
1.0
 70
     8
 71
     2
 72
     6
 73
     3
 74
     0
 42
0.000000001
 43
0.000001
 40
0.0
 40
0.0
 40
0.0
 40
1.0
 40
1.0
 40
1.0
 10
114.2267253488302
 20
172.5521082375702
 30
0.0
 10
114.0079753488302
 20
172.8196863625703
 30
0.0
 10
113.6564128488302
 20
172.8196863625703
 30
0.0
  0
LINE
  5
168
330
1F
100
AcDbEntity
  8
VISIBLE
100
AcDbLine
 10
84.71500659883023
 20
170.3763269875703
 30
0.0
 11
84.18180347383024
 21
170.3763269875703
 31
0.0
  0
SPLINE
  5
169
330
1F
100
AcDbEntity
  8
VISIBLE
100
AcDbSpline
210
0.0
220
0.0
230
1.0
 70
     8
 71
     2
 72
     6
 73
     3
 74
     0
 42
0.000000001
 43
0.000001
 40
0.0
 40
0.0
 40
0.0
 40
1.0
 40
1.0
 40
1.0
 10
88.95719409883024
 20
172.6214441750703
 30
0.0
 10
88.74820972383023
 20
172.8196863625703
 30
0.0
 10
88.44742847383024
 20
172.8196863625703
 30
0.0
  0
SPLINE
  5
16A
330
1F
100
AcDbEntity
  8
VISIBLE
100
AcDbSpline
210
0.0
220
0.0
230
1.0
 70
     8
 71
     2
 72
     6
 73
     3
 74
     0
 42
0.000000001
 43
0.000001
 40
0.0
 40
0.0
 40
0.0
 40
1.0
 40
1.0
 40
1.0
 10
93.82047534883024
 20
171.1595301125703
 30
0.0
 10
93.82047534883024
 20
170.8763269875703
 30
0.0
 10
93.89176441133023
 20
170.7991785500702
 30
0.0
  0
SPLINE
  5
16B
330
1F
100
AcDbEntity
  8
VISIBLE
100
AcDbSpline
210
0.0
220
0.0
230
1.0
 70
     8
 71
     2
 72
     6
 73
     3
 74
     0
 42
0.000000001
 43
0.000001
 40
0.0
 40
0.0
 40
0.0
 40
1.0
 40
1.0
 40
1.0
 10
93.89176441133023
 20
170.7991785500702
 30
0.0
 10
93.96305347383024
 20
170.7220301125703
 30
0.0
 10
94.08805347383024
 20
170.7220301125703
 30
0.0
  0
LINE
  5
16C
330
1F
100
AcDbEntity
  8
VISIBLE
100
AcDbLine
 10
107.2755534738302
 20
171.2024988625703
 30
0.0
 11
107.7833659738302
 21
171.2024988625703
 31
0.0
  0
LINE
  5
16D
330
1F
100
AcDbEntity
  8
VISIBLE
100
AcDbLine
 10
102.9435222238302
 20
172.3450769875703
 30
0.0
 11
102.9435222238302
 21
171.0325769875703
 31
0.0
  0
CIRCLE
  5
16E
330
1F
100
AcDbEntity
  8
VISIBLE
100
AcDbCircle
 10
197.511487731337
 20
144.576700517958
 30
0.0
 40
1.599999999999994
  0
SPLINE
  5
16F
330
1F
100
AcDbEntity
  8
VISIBLE
100
AcDbSpline
210
0.0
220
0.0
230
1.0
 70
     8
 71
     2
 72
     6
 73
     3
 74
     0
 42
0.000000001
 43
0.000001
 40
0.0
 40
0.0
 40
0.0
 40
1.0
 40
1.0
 40
1.0
 10
101.5489909738302
 20
172.8245691750703
 30
0.0
 10
101.9025065988302
 20
172.4466394875703
 30
0.0
 10
101.9025065988302
 20
171.7571863625703
 30
0.0
  0
SPLINE
  5
170
330
1F
100
AcDbEntity
  8
VISIBLE
100
AcDbSpline
210
0.0
220
0.0
230
1.0
 70
     8
 71
     2
 72
     6
 73
     3
 74
     0
 42
0.000000001
 43
0.000001
 40
0.0
 40
0.0
 40
0.0
 40
1.0
 40
1.0
 40
1.0
 10
97.16031909883024
 20
171.7571863625703
 30
0.0
 10
97.16031909883024
 20
171.0696863625703
 30
0.0
 10
96.80680347383024
 20
170.6907801125703
 30
0.0
  0
SPLINE
  5
171
330
1F
100
AcDbEntity
  8
VISIBLE
100
AcDbSpline
210
0.0
220
0.0
230
1.0
 70
     8
 71
     2
 72
     6
 73
     3
 74
     0
 42
0.000000001
 43
0.000001
 40
0.0
 40
0.0
 40
0.0
 40
1.0
 40
1.0
 40
1.0
 10
107.3966472238302
 20
170.5433191750703
 30
0.0
 10
107.0665690988302
 20
170.3118738625703
 30
0.0
 10
106.5939128488302
 20
170.3118738625703
 30
0.0
  0
LINE
  5
172
330
1F
100
AcDbEntity
  8
VISIBLE
100
AcDbLine
 10
74.67594409883024
 20
170.3763269875702
 30
0.0
 11
74.07633472383024
 21
172.4075769875703
 31
0.0
  0
SPLINE
  5
173
330
1F
100
AcDbEntity
  8
VISIBLE
100
AcDbSpline
210
0.0
220
0.0
230
1.0
 70
     8
 71
     2
 72
     6
 73
     3
 74
     0
 42
0.000000001
 43
0.000001
 40
0.0
 40
0.0
 40
0.0
 40
1.0
 40
1.0
 40
1.0
 10
110.9884440988302
 20
170.6966394875702
 30
0.0
 10
111.2345378488302
 20
170.6966394875702
 30
0.0
 10
111.4103190988302
 20
170.8265223000703
 30
0.0
  0
LINE
  5
174
330
1F
100
AcDbEntity
  8
VISIBLE
100
AcDbLine
 10
92.04313159883024
 20
171.1712488625703
 30
0.0
 11
92.04313159883024
 21
172.4837488625702
 31
0.0
  0
SPLINE
  5
175
330
1F
100
AcDbEntity
  8
VISIBLE
100
AcDbSpline
210
0.0
220
0.0
230
1.0
 70
     8
 71
     2
 72
     6
 73
     3
 74
     0
 42
0.000000001
 43
0.000001
 40
0.0
 40
0.0
 40
0.0
 40
1.0
 40
1.0
 40
1.0
 10
89.69156909883023
 20
171.2024988625703
 30
0.0
 10
89.63492847383024
 20
170.7747644875702
 30
0.0
 10
89.30485034883023
 20
170.5433191750703
 30
0.0
  0
SPLINE
  5
176
330
1F
100
AcDbEntity
  8
VISIBLE
100
AcDbSpline
210
0.0
220
0.0
230
1.0
 70
     8
 71
     2
 72
     6
 73
     3
 74
     0
 42
0.000000001
 43
0.000001
 40
0.0
 40
0.0
 40
0.0
 40
1.0
 40
1.0
 40
1.0
 10
101.5489909738302
 20
170.6907801125703
 30
0.0
 10
101.1954753488302
 20
170.3118738625703
 30
0.0
 10
100.6056315988302
 20
170.3118738625703
 30
0.0
  0
LINE
  5
177
330
1F
100
AcDbEntity
  8
VISIBLE
100
AcDbLine
 10
73.85367847383023
 20
173.1399988625703
 30
0.0
 11
74.30094409883023
 21
173.1399988625703
 31
0.0
  0
ARC
  5
178
330
1F
100
AcDbEntity
  8
VISIBLE
100
AcDbCircle
 10
99.63529468476763
 20
141.0231127236542
 30
0.0
 40
0.999999999999998
100
AcDbArc
 50
134.9999999999994
 51
315.0000000000011
  0
SPLINE
  5
179
330
1F
100
AcDbEntity
  8
VISIBLE
100
AcDbSpline
210
0.0
220
0.0
230
1.0
 70
     8
 71
     2
 72
     6
 73
     3
 74
     0
 42
0.000000001
 43
0.000001
 40
0.0
 40
0.0
 40
0.0
 40
1.0
 40
1.0
 40
1.0
 10
90.41617847383024
 20
170.6966394875702
 30
0.0
 10
90.11930347383024
 20
171.0814051125703
 30
0.0
 10
90.11930347383024
 20
171.7357019875703
 30
0.0
  0
LINE
  5
17A
330
1F
100
AcDbEntity
  8
VISIBLE
100
AcDbLine
 10
93.33024097383023
 20
173.8274988625703
 30
0.0
 11
93.82047534883024
 21
173.8274988625703
 31
0.0
  0
LINE
  5
17B
330
1F
100
AcDbEntity
  8
VISIBLE
100
AcDbLine
 10
187.5114877313374
 20
137.0767005179582
 30
0.0
 11
187.5114877313374
 21
81.143310496634
 31
0.0
  0
SPLINE
  5
17C
330
1F
100
AcDbEntity
  8
VISIBLE
100
AcDbSpline
210
0.0
220
0.0
230
1.0
 70
     8
 71
     2
 72
     6
 73
     3
 74
     0
 42
0.000000001
 43
0.000001
 40
0.0
 40
0.0
 40
0.0
 40
1.0
 40
1.0
 40
1.0
 10
110.1993815988302
 20
171.7571863625703
 30
0.0
 10
110.1993815988302
 20
171.2298426125703
 30
0.0
 10
110.4181315988302
 20
170.9632410500703
 30
0.0
  0
SPLINE
  5
17D
330
1F
100
AcDbEntity
  8
VISIBLE
100
AcDbSpline
210
0.0
220
0.0
230
1.0
 70
     8
 71
     2
 72
     6
 73
     3
 74
     0
 42
0.000000001
 43
0.000001
 40
0.0
 40
0.0
 40
0.0
 40
1.0
 40
1.0
 40
1.0
 10
107.0489909738302
 20
172.6214441750703
 30
0.0
 10
106.8400065988302
 20
172.8196863625703
 30
0.0
 10
106.5392253488302
 20
172.8196863625703
 30
0.0
  0
ARC
  5
17E
330
1F
100
AcDbEntity
  8
VISIBLE
100
AcDbCircle
 10
109.5550667239606
 20
142.9428847628472
 30
0.0
 40
1.000000000000018
100
AcDbArc
 50
315.0000000000006
 51
135.0000000000006
  0
SPLINE
  5
17F
330
1F
100
AcDbEntity
  8
VISIBLE
100
AcDbSpline
210
0.0
220
0.0
230
1.0
 70
     8
 71
     2
 72
     6
 73
     3
 74
     0
 42
0.000000001
 43
0.000001
 40
0.0
 40
0.0
 40
0.0
 40
1.0
 40
1.0
 40
1.0
 10
94.33414722383024
 20
170.3704676125703
 30
0.0
 10
94.17203784883024
 20
170.3392176125703
 30
0.0
 10
93.98258472383024
 20
170.3392176125703
 30
0.0
  0
SPLINE
  5
180
330
1F
100
AcDbEntity
  8
VISIBLE
100
AcDbSpline
210
0.0
220
0.0
230
1.0
 70
     8
 71
     2
 72
     6
 73
     3
 74
     0
 42
0.000000001
 43
0.000001
 40
0.0
 40
0.0
 40
0.0
 40
1.0
 40
1.0
 40
1.0
 10
112.1036784738302
 20
171.2024988625703
 30
0.0
 10
112.0489909738302
 20
170.7689051125703
 30
0.0
 10
111.7452800363302
 20
170.5403894875702
 30
0.0
  0
LINE
  5
181
330
1F
100
AcDbEntity
  8
VISIBLE
100
AcDbLine
 10
119.2384440988302
 20
172.1829676125703
 30
0.0
 11
119.2384440988302
 21
170.3763269875703
 31
0.0
  0
SPLINE
  5
182
330
1F
100
AcDbEntity
  8
VISIBLE
100
AcDbSpline
210
0.0
220
0.0
230
1.0
 70
     8
 71
     2
 72
     6
 73
     3
 74
     0
 42
0.000000001
 43
0.000001
 40
0.0
 40
0.0
 40
0.0
 40
1.0
 40
1.0
 40
1.0
 10
96.43375659883024
 20
170.9632410500703
 30
0.0
 10
96.65250659883024
 20
171.2298426125703
 30
0.0
 10
96.65250659883024
 20
171.7571863625703
 30
0.0
  0
SPLINE
  5
183
330
1F
100
AcDbEntity
  8
VISIBLE
100
AcDbSpline
210
0.0
220
0.0
230
1.0
 70
     8
 71
     2
 72
     6
 73
     3
 74
     0
 42
0.000000001
 43
0.000001
 40
0.0
 40
0.0
 40
0.0
 40
1.0
 40
1.0
 40
1.0
 10
98.20133472383024
 20
172.7532801125703
 30
0.0
 10
98.51188159883023
 20
173.2024988625703
 30
0.0
 10
98.92008472383023
 20
173.2024988625703
 30
0.0
  0
LINE
  5
184
330
1F
100
AcDbEntity
  8
VISIBLE
100
AcDbLine
 10
86.04313159883023
 20
172.3294519875703
 30
0.0
 11
86.04313159883023
 21
170.3763269875703
 31
0.0
  0
SPLINE
  5
185
330
1F
100
AcDbEntity
  8
VISIBLE
100
AcDbSpline
210
0.0
220
0.0
230
1.0
 70
     8
 71
     2
 72
     6
 73
     3
 74
     0
 42
0.000000001
 43
0.000001
 40
0.0
 40
0.0
 40
0.0
 40
1.0
 40
1.0
 40
1.0
 10
87.52262378633023
 20
170.6927332375703
 30
0.0
 10
87.15250659883023
 20
171.0735926125703
 30
0.0
 10
87.15250659883023
 20
171.7571863625703
 30
0.0
  0
SPLINE
  5
186
330
1F
100
AcDbEntity
  8
VISIBLE
100
AcDbSpline
210
0.0
220
0.0
230
1.0
 70
     8
 71
     2
 72
     6
 73
     3
 74
     0
 42
0.000000001
 43
0.000001
 40
0.0
 40
0.0
 40
0.0
 40
1.0
 40
1.0
 40
1.0
 10
107.4825847238302
 20
172.8245691750703
 30
0.0
 10
107.8361003488302
 20
172.4466394875703
 30
0.0
 10
107.8361003488302
 20
171.7571863625703
 30
0.0
  0
SPLINE
  5
187
330
1F
100
AcDbEntity
  8
VISIBLE
100
AcDbSpline
210
0.0
220
0.0
230
1.0
 70
     8
 71
     2
 72
     6
 73
     3
 74
     0
 42
0.000000001
 43
0.000001
 40
0.0
 40
0.0
 40
0.0
 40
1.0
 40
1.0
 40
1.0
 10
113.6564128488302
 20
172.8196863625703
 30
0.0
 10
113.3048503488302
 20
172.8196863625703
 30
0.0
 10
113.0861003488302
 20
172.5521082375702
 30
0.0
  0
SPLINE
  5
188
330
1F
100
AcDbEntity
  8
VISIBLE
100
AcDbSpline
210
0.0
220
0.0
230
1.0
 70
     8
 71
     2
 72
     6
 73
     3
 74
     0
 42
0.000000001
 43
0.000001
 40
0.0
 40
0.0
 40
0.0
 40
1.0
 40
1.0
 40
1.0
 10
94.92106128633024
 20
170.6907801125703
 30
0.0
 10
94.56852222383024
 20
171.0696863625703
 30
0.0
 10
94.56852222383024
 20
171.7571863625703
 30
0.0
  0
SPLINE
  5
189
330
1F
100
AcDbEntity
  8
VISIBLE
100
AcDbSpline
210
0.0
220
0.0
230
1.0
 70
     8
 71
     2
 72
     6
 73
     3
 74
     0
 42
0.000000001
 43
0.000001
 40
0.0
 40
0.0
 40
0.0
 40
1.0
 40
1.0
 40
1.0
 10
86.98649097383023
 20
172.6907801125703
 30
0.0
 10
86.88297534883023
 20
172.7220301125703
 30
0.0
 10
86.68766284883023
 20
172.7220301125703
 30
0.0
  0
SPLINE
  5
18A
330
1F
100
AcDbEntity
  8
VISIBLE
100
AcDbSpline
210
0.0
220
0.0
230
1.0
 70
     8
 71
     2
 72
     6
 73
     3
 74
     0
 42
0.000000001
 43
0.000001
 40
0.0
 40
0.0
 40
0.0
 40
1.0
 40
1.0
 40
1.0
 10
92.04313159883024
 20
170.7064051125702
 30
0.0
 10
91.71500659883024
 20
170.3118738625703
 30
0.0
 10
91.25406909883024
 20
170.3118738625703
 30
0.0
  0
LINE
  5
18B
330
1F
100
AcDbEntity
  8
VISIBLE
100
AcDbLine
 10
117.6153972238302
 20
170.3763269875703
 30
0.0
 11
117.1251628488302
 21
170.3763269875703
 31
0.0
  0
SPLINE
  5
18C
330
1F
100
AcDbEntity
  8
VISIBLE
100
AcDbSpline
210
0.0
220
0.0
230
1.0
 70
     8
 71
     2
 72
     6
 73
     3
 74
     0
 42
0.000000001
 43
0.000001
 40
0.0
 40
0.0
 40
0.0
 40
1.0
 40
1.0
 40
1.0
 10
106.5392253488302
 20
173.2024988625703
 30
0.0
 10
107.1290690988302
 20
173.2024988625703
 30
0.0
 10
107.4825847238302
 20
172.8245691750703
 30
0.0
  0
ARC
  5
18D
330
1F
100
AcDbEntity
  8
VISIBLE
100
AcDbCircle
 10
31.51148773133751
 20
173.0767005179582
 30
0.0
 40
4.0
100
AcDbArc
 50
90.0000000000002
 51
180.0
  0
LINE
  5
18E
330
1F
100
AcDbEntity
  8
VISIBLE
100
AcDbLine
 10
93.33024097383023
 20
173.1399988625703
 30
0.0
 11
93.33024097383023
 21
173.8274988625703
 31
0.0
  0
SPLINE
  5
18F
330
1F
100
AcDbEntity
  8
VISIBLE
100
AcDbSpline
210
0.0
220
0.0
230
1.0
 70
     8
 71
     2
 72
     6
 73
     3
 74
     0
 42
0.000000001
 43
0.000001
 40
0.0
 40
0.0
 40
0.0
 40
1.0
 40
1.0
 40
1.0
 10
100.6056315988302
 20
170.3118738625703
 30
0.0
 10
100.0157878488302
 20
170.3118738625703
 30
0.0
 10
99.66324878633024
 20
170.6907801125703
 30
0.0
  0
SPLINE
  5
190
330
1F
100
AcDbEntity
  8
VISIBLE
100
AcDbSpline
210
0.0
220
0.0
230
1.0
 70
     8
 71
     2
 72
     6
 73
     3
 74
     0
 42
0.000000001
 43
0.000001
 40
0.0
 40
0.0
 40
0.0
 40
1.0
 40
1.0
 40
1.0
 10
102.9435222238302
 20
171.0325769875703
 30
0.0
 10
103.2599284738302
 20
170.6966394875702
 30
0.0
 10
103.6681315988302
 20
170.6966394875702
 30
0.0
  0
LINE
  5
191
330
1F
100
AcDbEntity
  8
VISIBLE
100
AcDbLine
 10
118.7462565988302
 20
170.3763269875703
 30
0.0
 11
118.7462565988302
 21
172.1634363625703
 31
0.0
  0
SPLINE
  5
192
330
1F
100
AcDbEntity
  8
VISIBLE
100
AcDbSpline
210
0.0
220
0.0
230
1.0
 70
     8
 71
     2
 72
     6
 73
     3
 74
     0
 42
0.000000001
 43
0.000001
 40
0.0
 40
0.0
 40
0.0
 40
1.0
 40
1.0
 40
1.0
 10
98.92008472383023
 20
173.2024988625703
 30
0.0
 10
99.02555347383024
 20
173.2024988625703
 30
0.0
 10
99.14469409883023
 20
173.1810144875703
 30
0.0
  0
LINE
  5
193
330
1F
100
AcDbEntity
  8
VISIBLE
100
AcDbLine
 10
92.99039722383024
 20
172.7532801125703
 30
0.0
 11
92.99039722383024
 21
173.1399988625703
 31
0.0
  0
LINE
  5
194
330
1F
100
AcDbEntity
  8
VISIBLE
100
AcDbLine
 10
102.2621735051472
 20
142.2357779816606
 30
0.0
 11
100.3424014659542
 21
140.3160059424677
 31
0.0
  0
LINE
  5
195
330
1F
100
AcDbEntity
  8
VISIBLE
100
AcDbLine
 10
118.2621735051472
 20
142.2357779816606
 30
0.0
 11
116.3424014659542
 21
140.3160059424677
 31
0.0
  0
LINE
  5
196
330
1F
100
AcDbEntity
  8
VISIBLE
100
AcDbLine
 10
111.5978190988302
 20
171.2024988625703
 30
0.0
 11
112.1036784738302
 21
171.2024988625703
 31
0.0
  0
LINE
  5
197
330
1F
100
AcDbEntity
  8
VISIBLE
100
AcDbLine
 10
77.33219409883023
 20
170.3763269875703
 30
0.0
 11
76.86344409883023
 21
170.3763269875703
 31
0.0
  0
SPLINE
  5
198
330
1F
100
AcDbEntity
  8
VISIBLE
100
AcDbSpline
210
0.0
220
0.0
230
1.0
 70
     8
 71
     2
 72
     6
 73
     3
 74
     0
 42
0.000000001
 43
0.000001
 40
0.0
 40
0.0
 40
0.0
 40
1.0
 40
1.0
 40
1.0
 10
93.36442066133023
 20
170.7249598000703
 30
0.0
 10
93.33024097383023
 20
170.8939051125703
 30
0.0
 10
93.33024097383023
 20
171.1868738625703
 30
0.0
  0
SPLINE
  5
199
330
1F
100
AcDbEntity
  8
VISIBLE
100
AcDbSpline
210
0.0
220
0.0
230
1.0
 70
     8
 71
     2
 72
     6
 73
     3
 74
     0
 42
0.000000001
 43
0.000001
 40
0.0
 40
0.0
 40
0.0
 40
1.0
 40
1.0
 40
1.0
 10
96.43375659883024
 20
172.5521082375702
 30
0.0
 10
96.21500659883024
 20
172.8196863625703
 30
0.0
 10
95.86344409883024
 20
172.8196863625703
 30
0.0
  0
LINE
  5
19A
330
1F
100
AcDbEntity
  8
VISIBLE
100
AcDbLine
 10
82.84781909883023
 20
170.3763269875703
 30
0.0
 11
82.37906909883023
 21
170.3763269875703
 31
0.0
  0
LINE
  5
19B
330
1F
100
AcDbEntity
  8
VISIBLE
100
AcDbLine
 10
74.30094409883023
 20
173.1399988625702
 30
0.0
 11
74.92594409883023
 21
171.0325769875702
 31
0.0
  0
SPLINE
  5
19C
330
1F
100
AcDbEntity
  8
VISIBLE
100
AcDbSpline
210
0.0
220
0.0
230
1.0
 70
     8
 71
     2
 72
     6
 73
     3
 74
     0
 42
0.000000001
 43
0.000001
 40
0.0
 40
0.0
 40
0.0
 40
1.0
 40
1.0
 40
1.0
 10
100.6056315988302
 20
170.6966394875702
 30
0.0
 10
100.9571940988302
 20
170.6966394875702
 30
0.0
 10
101.1759440988302
 20
170.9632410500703
 30
0.0
  0
SPLINE
  5
19D
330
1F
100
AcDbEntity
  8
VISIBLE
100
AcDbSpline
210
0.0
220
0.0
230
1.0
 70
     8
 71
     2
 72
     6
 73
     3
 74
     0
 42
0.000000001
 43
0.000001
 40
0.0
 40
0.0
 40
0.0
 40
1.0
 40
1.0
 40
1.0
 10
89.22477222383024
 20
172.0247644875702
 30
0.0
 10
89.16617847383024
 20
172.4232019875703
 30
0.0
 10
88.95719409883024
 20
172.6214441750703
 30
0.0
  0
SPLINE
  5
19E
330
1F
100
AcDbEntity
  8
VISIBLE
100
AcDbSpline
210
0.0
220
0.0
230
1.0
 70
     8
 71
     2
 72
     6
 73
     3
 74
     0
 42
0.000000001
 43
0.000001
 40
0.0
 40
0.0
 40
0.0
 40
1.0
 40
1.0
 40
1.0
 10
113.6564128488302
 20
173.2024988625703
 30
0.0
 10
114.2462565988302
 20
173.2024988625703
 30
0.0
 10
114.5997722238302
 20
172.8245691750703
 30
0.0
  0
SPLINE
  5
19F
330
1F
100
AcDbEntity
  8
VISIBLE
100
AcDbSpline
210
0.0
220
0.0
230
1.0
 70
     8
 71
     2
 72
     6
 73
     3
 74
     0
 42
0.000000001
 43
0.000001
 40
0.0
 40
0.0
 40
0.0
 40
1.0
 40
1.0
 40
1.0
 10
91.31656909883024
 20
172.8196863625703
 30
0.0
 10
91.00211597383024
 20
172.8196863625703
 30
0.0
 10
90.81363941133024
 20
172.5472254250702
 30
0.0
  0
LINE
  5
1A0
330
1F
100
AcDbEntity
  8
VISIBLE
100
AcDbLine
 10
97.70914722383023
 20
173.1399988625703
 30
0.0
 11
98.20133472383024
 21
173.1399988625703
 31
0.0
  0
SPLINE
  5
1A1
330
1F
100
AcDbEntity
  8
VISIBLE
100
AcDbSpline
210
0.0
220
0.0
230
1.0
 70
     8
 71
     2
 72
     6
 73
     3
 74
     0
 42
0.000000001
 43
0.000001
 40
0.0
 40
0.0
 40
0.0
 40
1.0
 40
1.0
 40
1.0
 10
90.11930347383024
 20
171.7357019875703
 30
0.0
 10
90.11930347383024
 20
172.4134363625703
 30
0.0
 10
90.45133472383024
 20
172.8079676125703
 30
0.0
  0
LINE
  5
1A2
330
1F
100
AcDbEntity
  8
VISIBLE
100
AcDbLine
 10
107.8361003488302
 20
171.6399988625703
 30
0.0
 11
105.7540690988302
 21
171.6399988625703
 31
0.0
  0
SPLINE
  5
1A3
330
1F
100
AcDbEntity
  8
VISIBLE
100
AcDbSpline
210
0.0
220
0.0
230
1.0
 70
     8
 71
     2
 72
     6
 73
     3
 74
     0
 42
0.000000001
 43
0.000001
 40
0.0
 40
0.0
 40
0.0
 40
1.0
 40
1.0
 40
1.0
 10
114.2267253488302
 20
170.9632410500703
 30
0.0
 10
114.4454753488302
 20
171.2298426125703
 30
0.0
 10
114.4454753488302
 20
171.7571863625703
 30
0.0
  0
ARC
  5
1A4
330
1F
100
AcDbEntity
  8
VISIBLE
100
AcDbCircle
 10
191.5114877313374
 20
81.143310496634
 30
0.0
 40
4.000000000000028
100
AcDbArc
 50
180.0
 51
269.9999987204188
  0
LINE
  5
1A5
330
1F
100
AcDbEntity
  8
VISIBLE
100
AcDbLine
 10
196.5068895906209
 20
178.2847929439325
 30
0.0
 11
196.5068895906209
 21
177.5767005179582
 31
0.0
  0
LINE
  5
1A6
330
1F
100
AcDbEntity
  8
VISIBLE
100
AcDbLine
 10
109.0314128488302
 20
170.3763269875703
 30
0.0
 11
108.4982097238302
 21
170.3763269875703
 31
0.0
  0
SPLINE
  5
1A7
330
1F
100
AcDbEntity
  8
VISIBLE
100
AcDbSpline
210
0.0
220
0.0
230
1.0
 70
     8
 71
     2
 72
     6
 73
     3
 74
     0
 42
0.000000001
 43
0.000001
 40
0.0
 40
0.0
 40
0.0
 40
1.0
 40
1.0
 40
1.0
 10
91.28531909883024
 20
173.2024988625703
 30
0.0
 10
91.73453784883024
 20
173.2024988625703
 30
0.0
 10
92.04313159883024
 20
172.9271082375703
 30
0.0
  0
SPLINE
  5
1A8
330
1F
100
AcDbEntity
  8
VISIBLE
100
AcDbSpline
210
0.0
220
0.0
230
1.0
 70
     8
 71
     2
 72
     6
 73
     3
 74
     0
 42
0.000000001
 43
0.000001
 40
0.0
 40
0.0
 40
0.0
 40
1.0
 40
1.0
 40
1.0
 10
104.5724284738302
 20
172.8177332375703
 30
0.0
 10
104.8693034738302
 20
172.4329676125703
 30
0.0
 10
104.8693034738302
 20
171.7806238625702
 30
0.0
  0
SPLINE
  5
1A9
330
1F
100
AcDbEntity
  8
VISIBLE
100
AcDbSpline
210
0.0
220
0.0
230
1.0
 70
     8
 71
     2
 72
     6
 73
     3
 74
     0
 42
0.000000001
 43
0.000001
 40
0.0
 40
0.0
 40
0.0
 40
1.0
 40
1.0
 40
1.0
 10
88.96695972383024
 20
170.8284754250702
 30
0.0
 10
89.17399097383023
 20
170.9603113625702
 30
0.0
 10
89.18375659883023
 20
171.2024988625703
 30
0.0
  0
SPLINE
  5
1AA
330
1F
100
AcDbEntity
  8
VISIBLE
100
AcDbSpline
210
0.0
220
0.0
230
1.0
 70
     8
 71
     5
 72
    16
 73
    10
 74
     0
 42
0.000000001
 43
0.000001
 40
0.0
 40
0.0
 40
0.0
 40
0.0
 40
0.0
 40
0.0
 40
0.5
 40
0.5
 40
0.5
 40
0.5
 40
1.0
 40
1.0
 40
1.0
 40
1.0
 40
1.0
 40
1.0
 10
209.0420200421242
 20
133.0491849730946
 30
0.0
 10
208.7571160874064
 20
133.2727718453056
 30
0.0
 10
208.4980388249469
 20
133.5290648690224
 30
0.0
 10
208.2686529919332
 20
133.8132756063918
 30
0.0
 10
208.0728233255526
 20
134.1206156195606
 30
0.0
 10
207.7560058004324
 20
134.771977321791
 30
0.0
 10
207.6351277509359
 20
135.1157732482928
 30
0.0
 10
207.5531613995539
 20
135.4716877336184
 30
0.0
 10
207.5114877313374
 20
135.8337242612047
 30
0.0
 10
207.5114877313374
 20
136.1958863144887
 30
0.0
  0
LINE
  5
1AB
330
1F
100
AcDbEntity
  8
VISIBLE
100
AcDbLine
 10
187.5114877313375
 20
167.0767005179582
 30
0.0
 11
187.5114877313375
 21
152.0767005179582
 31
0.0
  0
SPLINE
  5
1AC
330
1F
100
AcDbEntity
  8
VISIBLE
100
AcDbSpline
210
0.0
220
0.0
230
1.0
 70
     8
 71
     2
 72
     6
 73
     3
 74
     0
 42
0.000000001
 43
0.000001
 40
0.0
 40
0.0
 40
0.0
 40
1.0
 40
1.0
 40
1.0
 10
113.6564128488302
 20
170.6966394875702
 30
0.0
 10
114.0079753488302
 20
170.6966394875702
 30
0.0
 10
114.2267253488302
 20
170.9632410500703
 30
0.0
  0
SPLINE
  5
1AD
330
1F
100
AcDbEntity
  8
VISIBLE
100
AcDbSpline
210
0.0
220
0.0
230
1.0
 70
     8
 71
     2
 72
     6
 73
     3
 74
     0
 42
0.000000001
 43
0.000001
 40
0.0
 40
0.0
 40
0.0
 40
1.0
 40
1.0
 40
1.0
 10
106.5392253488302
 20
172.8196863625703
 30
0.0
 10
106.2443034738302
 20
172.8196863625703
 30
0.0
 10
106.0333659738302
 20
172.6224207375703
 30
0.0
  0
LINE
  5
1AE
330
1F
100
AcDbEntity
  8
VISIBLE
100
AcDbLine
 10
93.82047534883024
 20
173.1399988625703
 30
0.0
 11
94.26774097383023
 21
173.1399988625703
 31
0.0
  0
LINE
  5
1AF
330
1F
100
AcDbEntity
  8
VISIBLE
100
AcDbLine
 10
75.14469409883023
 20
170.3763269875703
 30
0.0
 11
74.67594409883023
 21
170.3763269875703
 31
0.0
  0
SPLINE
  5
1B0
330
1F
100
AcDbEntity
  8
VISIBLE
100
AcDbSpline
210
0.0
220
0.0
230
1.0
 70
     8
 71
     2
 72
     6
 73
     3
 74
     0
 42
0.000000001
 43
0.000001
 40
0.0
 40
0.0
 40
0.0
 40
1.0
 40
1.0
 40
1.0
 10
90.62516284883024
 20
171.7357019875703
 30
0.0
 10
90.62516284883024
 20
171.2259363625703
 30
0.0
 10
90.80289722383024
 20
170.9612879250703
 30
0.0
  0
LINE
  5
1B1
330
1F
100
AcDbEntity
  8
VISIBLE
100
AcDbLine
 10
115.5021159738302
 20
173.1399988625703
 30
0.0
 11
115.9943034738302
 21
173.1399988625703
 31
0.0
  0
LINE
  5
1B2
330
1F
100
AcDbEntity
  8
VISIBLE
100
AcDbLine
 10
78.15250659883023
 20
173.1399988625703
 30
0.0
 11
78.77750659883023
 21
171.0325769875703
 31
0.0
  0
LINE
  5
1B3
330
1F
100
AcDbEntity
  8
VISIBLE
100
AcDbLine
 10
93.33024097383023
 20
172.7532801125703
 30
0.0
 11
92.99039722383024
 21
172.7532801125703
 31
0.0
  0
SPLINE
  5
1B4
330
1F
100
AcDbEntity
  8
VISIBLE
100
AcDbSpline
210
0.0
220
0.0
230
1.0
 70
     8
 71
     2
 72
     6
 73
     3
 74
     0
 42
0.000000001
 43
0.000001
 40
0.0
 40
0.0
 40
0.0
 40
1.0
 40
1.0
 40
1.0
 10
96.65250659883024
 20
171.7571863625703
 30
0.0
 10
96.65250659883024
 20
172.2845301125703
 30
0.0
 10
96.43375659883024
 20
172.5521082375702
 30
0.0
  0
LINE
  5
1B5
330
1F
100
AcDbEntity
  8
VISIBLE
100
AcDbLine
 10
76.02945972383023
 20
173.1399988625703
 30
0.0
 11
76.57438159883023
 21
173.1399988625703
 31
0.0
  0
SPLINE
  5
1B6
330
1F
100
AcDbEntity
  8
VISIBLE
100
AcDbSpline
210
0.0
220
0.0
230
1.0
 70
     8
 71
     2
 72
     6
 73
     3
 74
     0
 42
0.000000001
 43
0.000001
 40
0.0
 40
0.0
 40
0.0
 40
1.0
 40
1.0
 40
1.0
 10
95.86344409883024
 20
172.8196863625703
 30
0.0
 10
95.51188159883024
 20
172.8196863625703
 30
0.0
 10
95.29313159883024
 20
172.5521082375702
 30
0.0
  0
LINE
  5
1B7
330
1F
100
AcDbEntity
  8
VISIBLE
100
AcDbLine
 10
93.82047534883024
 20
172.7532801125703
 30
0.0
 11
93.82047534883024
 21
171.1595301125703
 31
0.0
  0
SPLINE
  5
1B8
330
1F
100
AcDbEntity
  8
VISIBLE
100
AcDbSpline
210
0.0
220
0.0
230
1.0
 70
     8
 71
     2
 72
     6
 73
     3
 74
     0
 42
0.000000001
 43
0.000001
 40
0.0
 40
0.0
 40
0.0
 40
1.0
 40
1.0
 40
1.0
 10
100.6056315988302
 20
173.2024988625703
 30
0.0
 10
101.1954753488302
 20
173.2024988625703
 30
0.0
 10
101.5489909738302
 20
172.8245691750703
 30
0.0
  0
SPLINE
  5
1B9
330
1F
100
AcDbEntity
  8
VISIBLE
100
AcDbSpline
210
0.0
220
0.0
230
1.0
 70
     8
 71
     2
 72
     6
 73
     3
 74
     0
 42
0.000000001
 43
0.000001
 40
0.0
 40
0.0
 40
0.0
 40
1.0
 40
1.0
 40
1.0
 10
103.6681315988302
 20
170.6966394875702
 30
0.0
 10
103.9864909738302
 20
170.6966394875702
 30
0.0
 10
104.1739909738302
 20
170.9691004250703
 30
0.0
  0
LINE
  5
1BA
330
1F
100
AcDbEntity
  8
VISIBLE
100
AcDbLine
 10
94.26774097383023
 20
173.1399988625703
 30
0.0
 11
94.26774097383023
 21
172.7532801125703
 31
0.0
  0
LINE
  5
1BB
330
1F
100
AcDbEntity
  8
VISIBLE
100
AcDbLine
 10
102.9435222238302
 20
169.3138269875703
 30
0.0
 11
102.4513347238302
 21
169.3138269875703
 31
0.0
  0
SPLINE
  5
1BC
330
1F
100
AcDbEntity
  8
VISIBLE
100
AcDbSpline
210
0.0
220
0.0
230
1.0
 70
     8
 71
     2
 72
     6
 73
     3
 74
     0
 42
0.000000001
 43
0.000001
 40
0.0
 40
0.0
 40
0.0
 40
1.0
 40
1.0
 40
1.0
 10
112.7140300363302
 20
172.8245691750703
 30
0.0
 10
113.0665690988302
 20
173.2024988625703
 30
0.0
 10
113.6564128488302
 20
173.2024988625703
 30
0.0
  0
LINE
  5
1BD
330
1F
100
AcDbEntity
  8
VISIBLE
100
AcDbLine
 10
115.9943034738302
 20
172.3548426125703
 30
0.0
 11
115.9943034738302
 21
170.3763269875703
 31
0.0
  0
SPLINE
  5
1BE
330
1F
100
AcDbEntity
  8
VISIBLE
100
AcDbSpline
210
0.0
220
0.0
230
1.0
 70
     8
 71
     2
 72
     6
 73
     3
 74
     0
 42
0.000000001
 43
0.000001
 40
0.0
 40
0.0
 40
0.0
 40
1.0
 40
1.0
 40
1.0
 10
94.08805347383024
 20
170.7220301125703
 30
0.0
 10
94.21695972383024
 20
170.7220301125703
 30
0.0
 10
94.33414722383024
 20
170.7435144875703
 30
0.0
  0
SPLINE
  5
1BF
330
1F
100
AcDbEntity
  8
VISIBLE
100
AcDbSpline
210
0.0
220
0.0
230
1.0
 70
     8
 71
     2
 72
     6
 73
     3
 74
     0
 42
0.000000001
 43
0.000001
 40
0.0
 40
0.0
 40
0.0
 40
1.0
 40
1.0
 40
1.0
 10
104.8693034738302
 20
171.7806238625702
 30
0.0
 10
104.8693034738302
 20
171.1009363625703
 30
0.0
 10
104.5372722238302
 20
170.7064051125702
 30
0.0
  0
LINE
  5
1C0
330
1F
100
AcDbEntity
  8
VISIBLE
100
AcDbLine
 10
78.99625659883023
 20
170.3763269875703
 30
0.0
 11
78.52750659883023
 21
170.3763269875703
 31
0.0
  0
LINE
  5
1C1
330
1F
100
AcDbEntity
  8
VISIBLE
100
AcDbLine
 10
73.01188159883024
 20
170.3763269875702
 30
0.0
 11
72.17789722383026
 21
173.1399988625702
 31
0.0
  0
ARC
  5
1C2
330
1F
100
AcDbEntity
  8
VISIBLE
100
AcDbCircle
 10
101.5550667239606
 20
142.9428847628472
 30
0.0
 40
1.000000000000018
100
AcDbArc
 50
315.0000000000006
 51
135.0000000000006
  0
ARC
  5
1C3
330
1F
100
AcDbEntity
  8
VISIBLE
100
AcDbCircle
 10
117.5550667239606
 20
142.9428847628472
 30
0.0
 40
1.000000000000018
100
AcDbArc
 50
315.0000000000006
 51
135.0000000000006
  0
CIRCLE
  5
1C4
330
1F
100
AcDbEntity
  8
VISIBLE
100
AcDbCircle
 10
35.0114877313375
 20
144.5767005179581
 30
0.0
 40
1.600000000000009
  0
LINE
  5
1C5
330
1F
100
AcDbEntity
  8
VISIBLE
100
AcDbLine
 10
77.70524097383023
 20
173.1399988625703
 30
0.0
 11
78.15250659883023
 21
173.1399988625703
 31
0.0
  0
SPLINE
  5
1C6
330
1F
100
AcDbEntity
  8
VISIBLE
100
AcDbSpline
210
0.0
220
0.0
230
1.0
 70
     8
 71
     2
 72
     6
 73
     3
 74
     0
 42
0.000000001
 43
0.000001
 40
0.0
 40
0.0
 40
0.0
 40
1.0
 40
1.0
 40
1.0
 10
87.66227222383024
 20
171.6399988625703
 30
0.0
 10
87.69352222383023
 20
171.1595301125703
 30
0.0
 10
87.92692066133024
 20
170.9280848000703
 30
0.0
  0
LINE
  5
1C7
330
1F
100
AcDbEntity
  8
VISIBLE
100
AcDbLine
 10
72.17789722383024
 20
173.1399988625703
 30
0.0
 11
72.72281909883023
 21
173.1399988625703
 31
0.0
  0
SPLINE
  5
1C8
330
1F
100
AcDbEntity
  8
VISIBLE
100
AcDbSpline
210
0.0
220
0.0
230
1.0
 70
     8
 71
     2
 72
     6
 73
     3
 74
     0
 42
0.000000001
 43
0.000001
 40
0.0
 40
0.0
 40
0.0
 40
1.0
 40
1.0
 40
1.0
 10
111.4103190988302
 20
170.8265223000703
 30
0.0
 10
111.5861003488302
 20
170.9564051125703
 30
0.0
 10
111.5978190988302
 20
171.2024988625703
 30
0.0
  0
LINE
  5
1C9
330
1F
100
AcDbEntity
  8
VISIBLE
100
AcDbLine
 10
80.93375659883023
 20
171.0325769875703
 30
0.0
 11
81.55680347383023
 21
173.1399988625703
 31
0.0
  0
SPLINE
  5
1CA
330
1F
100
AcDbEntity
  8
VISIBLE
100
AcDbSpline
210
0.0
220
0.0
230
1.0
 70
     8
 71
     2
 72
     6
 73
     3
 74
     0
 42
0.000000001
 43
0.000001
 40
0.0
 40
0.0
 40
0.0
 40
1.0
 40
1.0
 40
1.0
 10
107.7833659738302
 20
171.2024988625703
 30
0.0
 10
107.7267253488302
 20
170.7747644875702
 30
0.0
 10
107.3966472238302
 20
170.5433191750703
 30
0.0
  0
SPLINE
  5
1CB
330
1F
100
AcDbEntity
  8
VISIBLE
100
AcDbSpline
210
0.0
220
0.0
230
1.0
 70
     8
 71
     2
 72
     6
 73
     3
 74
     0
 42
0.000000001
 43
0.000001
 40
0.0
 40
0.0
 40
0.0
 40
1.0
 40
1.0
 40
1.0
 10
88.50211597383024
 20
170.3118738625703
 30
0.0
 10
87.89274097383024
 20
170.3118738625703
 30
0.0
 10
87.52262378633023
 20
170.6927332375703
 30
0.0
  0
SPLINE
  5
1CC
330
1F
100
AcDbEntity
  8
VISIBLE
100
AcDbSpline
210
0.0
220
0.0
230
1.0
 70
     8
 71
     2
 72
     6
 73
     3
 74
     0
 42
0.000000001
 43
0.000001
 40
0.0
 40
0.0
 40
0.0
 40
1.0
 40
1.0
 40
1.0
 10
105.6027019113302
 20
172.8177332375703
 30
0.0
 10
105.9611003488302
 20
173.2024988625703
 30
0.0
 10
106.5392253488302
 20
173.2024988625703
 30
0.0
  0
LINE
  5
1CD
330
1F
100
AcDbEntity
  8
VISIBLE
100
AcDbLine
 10
93.33024097383023
 20
171.1868738625703
 30
0.0
 11
93.33024097383023
 21
172.7532801125703
 31
0.0
  0
LINE
  5
1CE
330
1F
100
AcDbEntity
  8
VISIBLE
100
AcDbLine
 10
112.1036784738302
 20
172.3118738625703
 30
0.0
 11
111.5978190988302
 21
172.3118738625703
 31
0.0
  0
SPLINE
  5
1CF
330
1F
100
AcDbEntity
  8
VISIBLE
100
AcDbSpline
210
0.0
220
0.0
230
1.0
 70
     8
 71
     2
 72
     6
 73
     3
 74
     0
 42
0.000000001
 43
0.000001
 40
0.0
 40
0.0
 40
0.0
 40
1.0
 40
1.0
 40
1.0
 10
99.66324878633024
 20
172.8245691750703
 30
0.0
 10
100.0157878488302
 20
173.2024988625703
 30
0.0
 10
100.6056315988302
 20
173.2024988625703
 30
0.0
  0
LINE
  5
1D0
330
1F
100
AcDbEntity
  8
VISIBLE
100
AcDbLine
 10
98.20133472383024
 20
172.3294519875703
 30
0.0
 11
98.20133472383024
 21
170.3763269875703
 31
0.0
  0
SPLINE
  5
1D1
330
1F
100
AcDbEntity
  8
VISIBLE
100
AcDbSpline
210
0.0
220
0.0
230
1.0
 70
     8
 71
     2
 72
     6
 73
     3
 74
     0
 42
0.000000001
 43
0.000001
 40
0.0
 40
0.0
 40
0.0
 40
1.0
 40
1.0
 40
1.0
 10
118.7462565988302
 20
172.1634363625703
 30
0.0
 10
118.7462565988302
 20
172.5071863625703
 30
0.0
 10
118.6466472238302
 20
172.6526941750703
 30
0.0
  0
ARC
  5
1D2
330
1F
100
AcDbEntity
  8
VISIBLE
100
AcDbCircle
 10
31.51148773133751
 20
141.0767005179582
 30
0.0
 40
4.000000000000014
100
AcDbArc
 50
180.0
 51
269.9999999999998
  0
SPLINE
  5
1D3
330
1F
100
AcDbEntity
  8
VISIBLE
100
AcDbSpline
210
0.0
220
0.0
230
1.0
 70
     8
 71
     2
 72
     6
 73
     3
 74
     0
 42
0.000000001
 43
0.000001
 40
0.0
 40
0.0
 40
0.0
 40
1.0
 40
1.0
 40
1.0
 10
106.5939128488302
 20
170.6966394875702
 30
0.0
 10
106.8517253488302
 20
170.6966394875702
 30
0.0
 10
107.0587565988302
 20
170.8284754250702
 30
0.0
  0
SPLINE
  5
1D4
330
1F
100
AcDbEntity
  8
VISIBLE
100
AcDbSpline
210
0.0
220
0.0
230
1.0
 70
     8
 71
     2
 72
     6
 73
     3
 74
     0
 42
0.000000001
 43
0.000001
 40
0.0
 40
0.0
 40
0.0
 40
1.0
 40
1.0
 40
1.0
 10
94.56852222383024
 20
171.7571863625703
 30
0.0
 10
94.56852222383024
 20
172.4466394875703
 30
0.0
 10
94.92106128633024
 20
172.8245691750703
 30
0.0
  0
SPLINE
  5
1D5
330
1F
100
AcDbEntity
  8
VISIBLE
100
AcDbSpline
210
0.0
220
0.0
230
1.0
 70
     8
 71
     2
 72
     6
 73
     3
 74
     0
 42
0.000000001
 43
0.000001
 40
0.0
 40
0.0
 40
0.0
 40
1.0
 40
1.0
 40
1.0
 10
110.0460612863302
 20
172.8245691750703
 30
0.0
 10
110.3986003488302
 20
173.2024988625703
 30
0.0
 10
110.9884440988302
 20
173.2024988625703
 30
0.0
  0
LINE
  5
1D6
330
1F
100
AcDbEntity
  8
VISIBLE
100
AcDbLine
 10
94.26774097383023
 20
172.7532801125703
 30
0.0
 11
93.82047534883024
 21
172.7532801125703
 31
0.0
  0
LINE
  5
1D7
330
1F
100
AcDbEntity
  8
VISIBLE
100
AcDbLine
 10
94.33414722383024
 20
170.7435144875703
 30
0.0
 11
94.33414722383024
 21
170.3704676125703
 31
0.0
  0
LINE
  5
1D8
330
1F
100
AcDbEntity
  8
VISIBLE
100
AcDbLine
 10
83.67985034883024
 20
173.1399988625703
 30
0.0
 11
82.84781909883023
 21
170.3763269875703
 31
0.0
  0
LINE
  5
1D9
330
1F
100
AcDbEntity
  8
VISIBLE
100
AcDbLine
 10
94.26217350514719
 20
142.2357779816606
 30
0.0
 11
92.34240146595421
 21
140.3160059424677
 31
0.0
  0
SPLINE
  5
1DA
330
1F
100
AcDbEntity
  8
VISIBLE
100
AcDbSpline
210
0.0
220
0.0
230
1.0
 70
     8
 71
     2
 72
     6
 73
     3
 74
     0
 42
0.000000001
 43
0.000001
 40
0.0
 40
0.0
 40
0.0
 40
1.0
 40
1.0
 40
1.0
 10
90.80289722383024
 20
170.9612879250703
 30
0.0
 10
90.98063159883024
 20
170.6966394875702
 30
0.0
 10
91.29703784883024
 20
170.6966394875702
 30
0.0
  0
LINE
  5
1DB
330
1F
100
AcDbEntity
  8
VISIBLE
100
AcDbLine
 10
92.04313159883024
 20
172.9271082375703
 30
0.0
 11
92.04313159883024
 21
174.1946863625703
 31
0.0
  0
CIRCLE
  5
1DC
330
1F
100
AcDbEntity
  8
VISIBLE
100
AcDbCircle
 10
179.7432824593602
 20
143.5767005179591
 30
0.0
 40
1.599999999999994
  0
SPLINE
  5
1DD
330
1F
100
AcDbEntity
  8
VISIBLE
100
AcDbSpline
210
0.0
220
0.0
230
1.0
 70
     8
 71
     2
 72
     6
 73
     3
 74
     0
 42
0.000000001
 43
0.000001
 40
0.0
 40
0.0
 40
0.0
 40
1.0
 40
1.0
 40
1.0
 10
90.81363941133024
 20
172.5472254250702
 30
0.0
 10
90.62516284883024
 20
172.2747644875703
 30
0.0
 10
90.62516284883024
 20
171.7357019875703
 30
0.0
  0
LINE
  5
1DE
330
1F
100
AcDbEntity
  8
VISIBLE
100
AcDbLine
 10
115.9943034738302
 20
170.3763269875703
 30
0.0
 11
115.5021159738302
 21
170.3763269875703
 31
0.0
  0
SPLINE
  5
1DF
330
1F
100
AcDbEntity
  8
VISIBLE
100
AcDbSpline
210
0.0
220
0.0
230
1.0
 70
     8
 71
     2
 72
     6
 73
     3
 74
     0
 42
0.000000001
 43
0.000001
 40
0.0
 40
0.0
 40
0.0
 40
1.0
 40
1.0
 40
1.0
 10
99.66324878633024
 20
170.6907801125703
 30
0.0
 10
99.31070972383023
 20
171.0696863625703
 30
0.0
 10
99.31070972383023
 20
171.7571863625703
 30
0.0
  0
SPLINE
  5
1E0
330
1F
100
AcDbEntity
  8
VISIBLE
100
AcDbSpline
210
0.0
220
0.0
230
1.0
 70
     8
 71
     2
 72
     6
 73
     3
 74
     0
 42
0.000000001
 43
0.000001
 40
0.0
 40
0.0
 40
0.0
 40
1.0
 40
1.0
 40
1.0
 10
89.39078784883024
 20
172.8245691750703
 30
0.0
 10
89.74430347383023
 20
172.4466394875703
 30
0.0
 10
89.74430347383023
 20
171.7571863625703
 30
0.0
  0
SPLINE
  5
1E1
330
1F
100
AcDbEntity
  8
VISIBLE
100
AcDbSpline
210
0.0
220
0.0
230
1.0
 70
     8
 71
     2
 72
     6
 73
     3
 74
     0
 42
0.000000001
 43
0.000001
 40
0.0
 40
0.0
 40
0.0
 40
1.0
 40
1.0
 40
1.0
 10
95.86344409883024
 20
170.3118738625703
 30
0.0
 10
95.27360034883024
 20
170.3118738625703
 30
0.0
 10
94.92106128633024
 20
170.6907801125703
 30
0.0
  0
SPLINE
  5
1E2
330
1F
100
AcDbEntity
  8
VISIBLE
100
AcDbSpline
210
0.0
220
0.0
230
1.0
 70
     8
 71
     2
 72
     6
 73
     3
 74
     0
 42
0.000000001
 43
0.000001
 40
0.0
 40
0.0
 40
0.0
 40
1.0
 40
1.0
 40
1.0
 10
110.9884440988302
 20
172.8196863625703
 30
0.0
 10
110.6368815988302
 20
172.8196863625703
 30
0.0
 10
110.4181315988302
 20
172.5521082375702
 30
0.0
  0
SPLINE
  5
1E3
330
1F
100
AcDbEntity
  8
VISIBLE
100
AcDbSpline
210
0.0
220
0.0
230
1.0
 70
     8
 71
     2
 72
     6
 73
     3
 74
     0
 42
0.000000001
 43
0.000001
 40
0.0
 40
0.0
 40
0.0
 40
1.0
 40
1.0
 40
1.0
 10
110.9884440988302
 20
173.2024988625703
 30
0.0
 10
111.4415690988302
 20
173.2024988625703
 30
0.0
 10
111.7452800363302
 20
172.9730066750703
 30
0.0
  0
LINE
  5
1E4
330
1F
100
AcDbEntity
  8
VISIBLE
100
AcDbLine
 10
79.88102222383024
 20
173.1399988625703
 30
0.0
 11
80.42594409883023
 21
173.1399988625703
 31
0.0
  0
SPLINE
  5
1E5
330
1F
100
AcDbEntity
  8
VISIBLE
100
AcDbSpline
210
0.0
220
0.0
230
1.0
 70
     8
 71
     2
 72
     6
 73
     3
 74
     0
 42
0.000000001
 43
0.000001
 40
0.0
 40
0.0
 40
0.0
 40
1.0
 40
1.0
 40
1.0
 10
105.6144206613302
 20
170.6927332375703
 30
0.0
 10
105.2443034738302
 20
171.0735926125703
 30
0.0
 10
105.2443034738302
 20
171.7571863625703
 30
0.0
  0
LINE
  5
1E6
330
1F
100
AcDbEntity
  8
VISIBLE
100
AcDbLine
 10
110.2621735051472
 20
142.2357779816606
 30
0.0
 11
108.3424014659542
 21
140.3160059424677
 31
0.0
  0
SPLINE
  5
1E7
330
1F
100
AcDbEntity
  8
VISIBLE
100
AcDbSpline
210
0.0
220
0.0
230
1.0
 70
     8
 71
     2
 72
     6
 73
     3
 74
     0
 42
0.000000001
 43
0.000001
 40
0.0
 40
0.0
 40
0.0
 40
1.0
 40
1.0
 40
1.0
 10
114.5997722238302
 20
172.8245691750703
 30
0.0
 10
114.9532878488302
 20
172.4466394875703
 30
0.0
 10
114.9532878488302
 20
171.7571863625703
 30
0.0
  0
LINE
  5
1E8
330
1F
100
AcDbEntity
  8
VISIBLE
100
AcDbLine
 10
97.70914722383023
 20
170.3763269875703
 30
0.0
 11
97.70914722383023
 21
173.1399988625703
 31
0.0
  0
LINE
  5
1E9
330
1F
100
AcDbEntity
  8
VISIBLE
100
AcDbLine
 10
93.82047534883024
 20
173.8274988625703
 30
0.0
 11
93.82047534883024
 21
173.1399988625703
 31
0.0
  0
SPLINE
  5
1EA
330
1F
100
AcDbEntity
  8
VISIBLE
100
AcDbSpline
210
0.0
220
0.0
230
1.0
 70
     8
 71
     2
 72
     6
 73
     3
 74
     0
 42
0.000000001
 43
0.000001
 40
0.0
 40
0.0
 40
0.0
 40
1.0
 40
1.0
 40
1.0
 10
116.6935222238302
 20
172.7982019875703
 30
0.0
 10
116.3361003488302
 20
172.7982019875703
 30
0.0
 10
115.9943034738302
 20
172.3548426125703
 30
0.0
  0
SPLINE
  5
1EB
330
1F
100
AcDbEntity
  8
VISIBLE
100
AcDbSpline
210
0.0
220
0.0
230
1.0
 70
     8
 71
     2
 72
     6
 73
     3
 74
     0
 42
0.000000001
 43
0.000001
 40
0.0
 40
0.0
 40
0.0
 40
1.0
 40
1.0
 40
1.0
 10
100.0353190988302
 20
172.5521082375702
 30
0.0
 10
99.81656909883024
 20
172.2845301125703
 30
0.0
 10
99.81656909883024
 20
171.7571863625703
 30
0.0
  0
ARC
  5
1EC
330
1F
100
AcDbEntity
  8
VISIBLE
100
AcDbCircle
 10
203.5114877313389
 20
173.0767005179582
 30
0.0
 40
4.0
100
AcDbArc
 50
359.9999999999976
 51
90.0
  0
CIRCLE
  5
1ED
330
1F
100
AcDbEntity
  8
VISIBLE
100
AcDbCircle
 10
197.511487731337
 20
172.143310496634
 30
0.0
 40
1.599999999999994
  0
LINE
  5
1EE
330
1F
100
AcDbEntity
  8
VISIBLE
100
AcDbLine
 10
27.5114877313375
 20
141.0767005179582
 30
0.0
 11
27.5114877313375
 21
152.0767005179582
 31
0.0
  0
LINE
  5
1EF
330
1F
100
AcDbEntity
  8
VISIBLE
100
AcDbLine
 10
98.92818790358109
 20
141.7302195048408
 30
0.0
 11
100.8479599427741
 21
143.6499915440338
 31
0.0
  0
LINE
  5
1F0
330
1F
100
AcDbEntity
  8
VISIBLE
100
AcDbLine
 10
76.86344409883024
 20
170.3763269875702
 30
0.0
 11
76.02945972383024
 21
173.1399988625702
 31
0.0
  0
ARC
  5
1F1
330
1F
100
AcDbEntity
  8
VISIBLE
100
AcDbCircle
 10
226.4322345559091
 20
87.14331233585463
 30
0.0
 40
10.00000183922086
100
AcDbArc
 50
270.0000119524512
 51
7.197545595884453
  0
LINE
  5
1F2
330
1F
100
AcDbEntity
  8
VISIBLE
100
AcDbLine
 10
92.04313159883024
 20
174.1946863625703
 30
0.0
 11
92.53336597383024
 21
174.1946863625703
 31
0.0
  0
SPLINE
  5
1F3
330
1F
100
AcDbEntity
  8
VISIBLE
100
AcDbSpline
210
0.0
220
0.0
230
1.0
 70
     8
 71
     2
 72
     6
 73
     3
 74
     0
 42
0.000000001
 43
0.000001
 40
0.0
 40
0.0
 40
0.0
 40
1.0
 40
1.0
 40
1.0
 10
87.51090503633024
 20
172.8177332375703
 30
0.0
 10
87.86930347383023
 20
173.2024988625703
 30
0.0
 10
88.44742847383024
 20
173.2024988625703
 30
0.0
  0
SPLINE
  5
1F4
330
1F
100
AcDbEntity
  8
VISIBLE
100
AcDbSpline
210
0.0
220
0.0
230
1.0
 70
     8
 71
     2
 72
     6
 73
     3
 74
     0
 42
0.000000001
 43
0.000001
 40
0.0
 40
0.0
 40
0.0
 40
1.0
 40
1.0
 40
1.0
 10
118.6466472238302
 20
172.6526941750703
 30
0.0
 10
118.5470378488302
 20
172.7982019875703
 30
0.0
 10
118.3165690988302
 20
172.7982019875703
 30
0.0
  0
SPLINE
  5
1F5
330
1F
100
AcDbEntity
  8
VISIBLE
100
AcDbSpline
210
0.0
220
0.0
230
1.0
 70
     8
 71
     2
 72
     6
 73
     3
 74
     0
 42
0.000000001
 43
0.000001
 40
0.0
 40
0.0
 40
0.0
 40
1.0
 40
1.0
 40
1.0
 10
106.0333659738302
 20
172.6224207375703
 30
0.0
 10
105.8224284738302
 20
172.4251551125702
 30
0.0
 10
105.7657878488302
 20
172.0247644875702
 30
0.0
  0
LINE
  5
1F6
330
1F
100
AcDbEntity
  8
VISIBLE
100
AcDbLine
 10
114.9281879035811
 20
141.7302195048408
 30
0.0
 11
116.8479599427741
 21
143.6499915440338
 31
0.0
  0
SPLINE
  5
1F7
330
1F
100
AcDbEntity
  8
VISIBLE
100
AcDbSpline
210
0.0
220
0.0
230
1.0
 70
     8
 71
     2
 72
     6
 73
     3
 74
     0
 42
0.000000001
 43
0.000001
 40
0.0
 40
0.0
 40
0.0
 40
1.0
 40
1.0
 40
1.0
 10
110.9884440988302
 20
170.3118738625703
 30
0.0
 10
110.3986003488302
 20
170.3118738625703
 30
0.0
 10
110.0460612863302
 20
170.6907801125703
 30
0.0
  0
SPLINE
  5
1F8
330
1F
100
AcDbEntity
  8
VISIBLE
100
AcDbSpline
210
0.0
220
0.0
230
1.0
 70
     8
 71
     2
 72
     6
 73
     3
 74
     0
 42
0.000000001
 43
0.000001
 40
0.0
 40
0.0
 40
0.0
 40
1.0
 40
1.0
 40
1.0
 10
110.4181315988302
 20
172.5521082375702
 30
0.0
 10
110.1993815988302
 20
172.2845301125703
 30
0.0
 10
110.1993815988302
 20
171.7571863625703
 30
0.0
  0
LINE
  5
1F9
330
1F
100
AcDbEntity
  8
VISIBLE
100
AcDbLine
 10
92.53336597383024
 20
170.3763269875703
 30
0.0
 11
92.04313159883023
 21
170.3763269875703
 31
0.0
  0
SPLINE
  5
1FA
330
1F
100
AcDbEntity
  8
VISIBLE
100
AcDbSpline
210
0.0
220
0.0
230
1.0
 70
     8
 71
     2
 72
     6
 73
     3
 74
     0
 42
0.000000001
 43
0.000001
 40
0.0
 40
0.0
 40
0.0
 40
1.0
 40
1.0
 40
1.0
 10
114.5997722238302
 20
170.6907801125703
 30
0.0
 10
114.2462565988302
 20
170.3118738625703
 30
0.0
 10
113.6564128488302
 20
170.3118738625703
 30
0.0
  0
SPLINE
  5
1FB
330
1F
100
AcDbEntity
  8
VISIBLE
100
AcDbSpline
210
0.0
220
0.0
230
1.0
 70
     8
 71
     2
 72
     6
 73
     3
 74
     0
 42
0.000000001
 43
0.000001
 40
0.0
 40
0.0
 40
0.0
 40
1.0
 40
1.0
 40
1.0
 10
103.6993815988302
 20
170.3118738625703
 30
0.0
 10
103.2521159738302
 20
170.3118738625703
 30
0.0
 10
102.9435222238302
 20
170.5892176125702
 30
0.0
  0
LINE
  5
1FC
330
1F
100
AcDbEntity
  8
VISIBLE
100
AcDbLine
 10
155.9397296801295
 20
53.69031377910346
 30
0.0
 11
138.9961195497927
 21
53.40122383728898
 31
0.0
  0
ARC
  5
1FD
330
1F
100
AcDbEntity
  8
VISIBLE
100
AcDbCircle
 10
170.3122713089891
 20
59.9364097039478
 30
0.0
 40
5.999999999999996
100
AcDbArc
 50
270.9774792060525
 51
5.977479206052542
  0
LINE
  5
1FE
330
1F
100
AcDbEntity
  8
VISIBLE
100
AcDbLine
 10
176.7589150892576
 20
84.7920676767613
 30
0.0
 11
173.7752263751312
 21
84.47965503746154
 31
0.0
  0
LINE
  5
1FF
330
1F
100
AcDbEntity
  8
VISIBLE
100
AcDbLine
 10
138.5651741945229
 20
63.43745145977618
 30
0.0
 11
162.0135689098752
 21
67.98579349049302
 31
0.0
  0
LINE
  5
200
330
1F
100
AcDbEntity
  8
VISIBLE
100
AcDbLine
 10
170.4146277267486
 20
53.93728283716599
 30
0.0
 11
161.666507060512
 21
53.78802340101663
 31
0.0
  0
ARC
  5
201
330
1F
100
AcDbEntity
  8
VISIBLE
100
AcDbCircle
 10
168.7002204056579
 20
113.4295887743271
 30
0.0
 40
1.999999999999998
100
AcDbArc
 50
85.97747920605255
 51
175.9774792060522
  0
LINE
  5
202
330
1F
100
AcDbEntity
  8
VISIBLE
100
AcDbLine
 10
173.7611811627288
 20
113.4218468834724
 30
0.0
 11
176.7589150892576
 21
84.7920676767613
 31
0.0
  0
LINE
  5
203
330
1F
100
AcDbEntity
  8
VISIBLE
100
AcDbLine
 10
136.9620076676482
 20
55.39567018386823
 30
0.0
 11
136.9460273988948
 21
61.46878463599681
 31
0.0
  0
LINE
  5
204
330
1F
100
AcDbEntity
  8
VISIBLE
100
AcDbLine
 10
168.8405175513993
 20
115.424661883488
 30
0.0
 11
171.9123524990525
 21
115.2086448997667
 31
0.0
  0
CIRCLE
  5
205
330
1F
100
AcDbEntity
  8
VISIBLE
100
AcDbCircle
 10
172.5286894978129
 20
57.97393489130054
 30
0.0
 40
1.600000000000023
  0
ARC
  5
206
330
1F
100
AcDbEntity
  8
VISIBLE
100
AcDbCircle
 10
138.9460204751195
 20
61.47404724501148
 30
0.0
 40
2.000000000000007
100
AcDbArc
 50
100.9774792060529
 51
180.1507628168588
  0
ARC
  5
207
330
1F
100
AcDbEntity
  8
VISIBLE
100
AcDbCircle
 10
138.9620007438728
 20
55.4009327928829
 30
0.0
 40
1.999999999999993
100
AcDbArc
 50
180.1507628168586
 51
270.9774792060528
  0
ARC
  5
208
330
1F
100
AcDbEntity
  8
VISIBLE
100
AcDbCircle
 10
161.6327226292787
 20
69.94919770525772
 30
0.0
 40
1.999999999999993
100
AcDbArc
 50
280.977479206053
 51
355.9774792060526
  0
ARC
  5
209
330
1F
100
AcDbEntity
  8
VISIBLE
100
AcDbCircle
 10
161.6494476575521
 20
54.7878778788136
 30
0.0
 40
0.999999999999995
100
AcDbArc
 50
191.3585590012604
 51
270.977479206052
  0
ARC
  5
20A
330
1F
100
AcDbEntity
  8
VISIBLE
100
AcDbCircle
 10
171.7720553533112
 20
113.2135717906059
 30
0.0
 40
2.0
100
AcDbArc
 50
5.977479206052274
 51
85.97747920605251
  0
ARC
  5
20B
330
1F
100
AcDbEntity
  8
VISIBLE
100
AcDbCircle
 10
158.7950088278184
 20
54.21447024058609
 30
0.0
 40
1.911463094780538
100
AcDbArc
 50
11.35855900125984
 51
170.596399410845
  0
ARC
  5
20C
330
1F
100
AcDbEntity
  8
VISIBLE
100
AcDbCircle
 10
155.9226702771696
 20
54.69016825690044
 30
0.0
 40
1.000000000000017
100
AcDbArc
 50
270.977479206052
 51
350.5963994108448
  0
LINE
  5
20D
330
1F
100
AcDbEntity
  8
VISIBLE
100
AcDbLine
 10
173.7752263751312
 20
84.47965503746154
 30
0.0
 11
176.279648737242
 21
60.56123498254733
 31
0.0
  0
LINE
  5
20E
330
1F
100
AcDbEntity
  8
VISIBLE
100
AcDbLine
 10
163.6277957384396
 20
69.80890055951636
 30
0.0
 11
166.705147296497
 21
113.5698859200685
 31
0.0
  0
CIRCLE
  5
20F
330
1F
100
AcDbEntity
  8
VISIBLE
100
AcDbCircle
 10
163.6404036450967
 20
65.55966571190004
 30
0.0
 40
1.25
  0
LINE
  5
210
330
1F
100
AcDbEntity
  8
VISIBLE
100
AcDbLine
 10
42.34579951514058
 20
71.89494403903103
 30
0.0
 11
25.43114266906537
 21
72.92639012236913
 31
0.0
  0
ARC
  5
211
330
1F
100
AcDbEntity
  8
VISIBLE
100
AcDbCircle
 10
57.16116101836741
 20
77.00265690335323
 30
0.0
 40
5.999999999999998
100
AcDbArc
 50
266.5104571892043
 51
1.510457189204166
  0
LINE
  5
212
330
1F
100
AcDbEntity
  8
VISIBLE
100
AcDbLine
 10
65.5241119544574
 20
101.280712857892
 30
0.0
 11
62.52515436233126
 21
101.2016346647603
 31
0.0
  0
LINE
  5
213
330
1F
100
AcDbEntity
  8
VISIBLE
100
AcDbLine
 10
25.78318081001058
 20
82.96569527446623
 30
0.0
 11
49.51459588973836
 21
85.67393608152464
 31
0.0
  0
LINE
  5
214
330
1F
100
AcDbEntity
  8
VISIBLE
100
AcDbLine
 10
56.79596281901134
 20
71.01378135988206
 30
0.0
 11
48.06279096371033
 21
71.54632517600793
 31
0.0
  0
ARC
  5
215
330
1F
100
AcDbEntity
  8
VISIBLE
100
AcDbCircle
 10
59.72033837087187
 20
130.4588962627491
 30
0.0
 40
2.000000000000004
100
AcDbArc
 50
81.51045718920463
 51
171.5104571892042
  0
LINE
  5
216
330
1F
100
AcDbEntity
  8
VISIBLE
100
AcDbLine
 10
64.76532260799968
 20
130.0570035300233
 30
0.0
 11
65.5241119544574
 21
101.280712857892
 31
0.0
  0
LINE
  5
217
330
1F
100
AcDbEntity
  8
VISIBLE
100
AcDbLine
 10
23.55854776984808
 20
75.07320537336071
 30
0.0
 11
24.0156222797699
 21
81.12911632135378
 31
0.0
  0
LINE
  5
218
330
1F
100
AcDbEntity
  8
VISIBLE
100
AcDbLine
 10
60.01559617292709
 20
132.4369819106232
 30
0.0
 11
63.06127534863747
 21
131.9823703824763
 31
0.0
  0
CIRCLE
  5
219
330
1F
100
AcDbEntity
  8
VISIBLE
100
AcDbCircle
 10
59.21799854939403
 20
74.87351708901868
 30
0.0
 40
1.599999999999994
  0
ARC
  5
21A
330
1F
100
AcDbEntity
  8
VISIBLE
100
AcDbCircle
 10
26.00994991210587
 20
80.9785929181859
 30
0.0
 40
2.000000000000001
100
AcDbArc
 50
96.5104571892044
 51
175.6837408000099
  0
ARC
  5
21B
330
1F
100
AcDbEntity
  8
VISIBLE
100
AcDbCircle
 10
25.55287540218404
 20
74.92268197019284
 30
0.0
 40
2.000000000000005
100
AcDbArc
 50
175.6837408000107
 51
266.5104571892047
  0
ARC
  5
21C
330
1F
100
AcDbEntity
  8
VISIBLE
100
AcDbCircle
 10
49.28782678764307
 20
87.66103843780499
 30
0.0
 40
2.000000000000016
100
AcDbArc
 50
276.5104571892043
 51
351.5104571892042
  0
ARC
  5
21D
330
1F
100
AcDbEntity
  8
VISIBLE
100
AcDbCircle
 10
48.12365733026968
 20
72.5444710999198
 30
0.0
 40
1.000000000000007
100
AcDbArc
 50
186.8915369844119
 51
266.5104571892039
  0
ARC
  5
21E
330
1F
100
AcDbEntity
  8
VISIBLE
100
AcDbCircle
 10
62.76601754658224
 20
130.0042847346022
 30
0.0
 40
2.000000000000009
100
AcDbArc
 50
1.510457189203889
 51
81.51045718920442
  0
ARC
  5
21F
330
1F
100
AcDbEntity
  8
VISIBLE
100
AcDbCircle
 10
45.23322933446589
 20
72.19512406137126
 30
0.0
 40
1.911463094780511
100
AcDbArc
 50
6.891536984412298
 51
166.1293773939968
  0
ARC
  5
220
330
1F
100
AcDbEntity
  8
VISIBLE
100
AcDbCircle
 10
42.40666588169991
 20
72.89308996294288
 30
0.0
 40
0.9999999999999867
100
AcDbArc
 50
266.5104571892055
 51
346.1293773939969
  0
LINE
  5
221
330
1F
100
AcDbEntity
  8
VISIBLE
100
AcDbLine
 10
62.52515436233126
 20
101.2016346647603
 30
0.0
 11
63.1590762026197
 21
77.16081328961656
 31
0.0
  0
LINE
  5
222
330
1F
100
AcDbEntity
  8
VISIBLE
100
AcDbLine
 10
51.26591243551718
 20
87.36578063574976
 30
0.0
 11
57.74225272299776
 21
130.7541540648044
 31
0.0
  0
CIRCLE
  5
223
330
1F
100
AcDbEntity
  8
VISIBLE
100
AcDbCircle
 10
50.94752918620271
 20
83.12847160098923
 30
0.0
 40
1.25
  0
ENDSEC
  0
SECTION
  2
OBJECTS
  0
DICTIONARY
  5
C
330
0
100
AcDbDictionary
281
     1
  3
ACAD_GROUP
350
D
  3
ACAD_LAYOUT
350
1A
  3
ACAD_MLEADERSTYLE
350
225
  3
ACAD_MLINESTYLE
350
17
  3
ACAD_PLOTSETTINGS
350
19
  3
ACAD_PLOTSTYLENAME
350
E
  3
ACAD_SCALELIST
350
3B
  3
ACAD_TABLESTYLE
350
224
  3
ACAD_VISUALSTYLE
350
2A
  0
DICTIONARY
  5
D
102
{ACAD_REACTORS
330
C
102
}
330
C
100
AcDbDictionary
281
     1
  0
DICTIONARY
  5
1A
102
{ACAD_REACTORS
330
C
102
}
330
C
100
AcDbDictionary
281
     1
  3
Layout1
350
1E
  3
Layout2
350
26
  3
Model
350
22
  0
DICTIONARY
  5
225
102
{ACAD_REACTORS
330
C
102
}
330
C
100
AcDbDictionary
281
     1
  0
DICTIONARY
  5
17
102
{ACAD_REACTORS
330
C
102
}
330
C
100
AcDbDictionary
281
     1
  3
Standard
350
18
  0
DICTIONARY
  5
19
102
{ACAD_REACTORS
330
C
102
}
330
C
100
AcDbDictionary
281
     1
  0
ACDBDICTIONARYWDFLT
  5
E
102
{ACAD_REACTORS
330
C
102
}
330
C
100
AcDbDictionary
281
     1
  3
Normal
350
F
100
AcDbDictionaryWithDefault
340
F
  0
DICTIONARY
  5
3B
102
{ACAD_REACTORS
330
C
102
}
330
C
100
AcDbDictionary
281
     1
  3
A0
350
3C
  3
A1
350
3D
  3
A2
350
3E
  3
A3
350
3F
  3
A4
350
40
  3
A5
350
41
  3
A6
350
42
  3
A7
350
43
  3
A8
350
44
  3
A9
350
45
  3
B0
350
46
  3
B1
350
47
  3
B2
350
48
  3
B3
350
49
  3
B4
350
4A
  3
B5
350
4B
  3
B6
350
4C
  3
B7
350
4D
  3
B8
350
4E
  3
B9
350
4F
  3
C0
350
50
  3
C1
350
51
  3
C2
350
52
  3
C3
350
53
  3
C4
350
54
  3
C5
350
55
  3
C6
350
56
  3
C7
350
57
  3
C8
350
58
  3
C9
350
59
  3
D0
350
5A
  3
D1
350
5B
  3
D2
350
5C
  0
DICTIONARY
  5
224
102
{ACAD_REACTORS
330
C
102
}
330
C
100
AcDbDictionary
281
     1
  0
DICTIONARY
  5
2A
102
{ACAD_REACTORS
330
C
102
}
330
C
100
AcDbDictionary
281
     1
  3
2dWireframe
350
2F
  3
3D Hidden
350
31
  3
3dWireframe
350
30
  3
Basic
350
32
  3
Brighten
350
36
  3
ColorChange
350
3A
  3
Conceptual
350
34
  3
Dim
350
35
  3
Facepattern
350
39
  3
Flat
350
2B
  3
FlatWithEdges
350
2C
  3
Gouraud
350
2D
  3
GouraudWithEdges
350
2E
  3
Linepattern
350
38
  3
Realistic
350
33
  3
Thicken
350
37
  0
LAYOUT
  5
1E
102
{ACAD_REACTORS
330
1A
102
}
330
1A
100
AcDbPlotSettings
  1

  2
none_device
  4

  6

 40
0.0
 41
0.0
 42
0.0
 43
0.0
 44
0.0
 45
0.0
 46
0.0
 47
0.0
 48
0.0
 49
0.0
140
0.0
141
0.0
142
1.0
143
1.0
 70
   688
 72
     0
 73
     0
 74
     5
  7

 75
    16
 76
     0
 77
     2
 78
   300
147
1.0
148
0.0
149
0.0
100
AcDbLayout
  1
Layout1
 70
     1
 71
     1
 10
0.0
 20
0.0
 11
420.0
 21
297.0
 12
0.0
 22
0.0
 32
0.0
 14
1.000000000000000E+20
 24
1.000000000000000E+20
 34
1.000000000000000E+20
 15
-1.000000000000000E+20
 25
-1.000000000000000E+20
 35
-1.000000000000000E+20
146
0.0
 13
0.0
 23
0.0
 33
0.0
 16
1.0
 26
0.0
 36
0.0
 17
0.0
 27
1.0
 37
0.0
 76
     0
330
1B
  0
LAYOUT
  5
26
102
{ACAD_REACTORS
330
1A
102
}
330
1A
100
AcDbPlotSettings
  1

  2
none_device
  4

  6

 40
0.0
 41
0.0
 42
0.0
 43
0.0
 44
0.0
 45
0.0
 46
0.0
 47
0.0
 48
0.0
 49
0.0
140
0.0
141
0.0
142
1.0
143
1.0
 70
   688
 72
     0
 73
     0
 74
     5
  7

 75
    16
 76
     0
 77
     2
 78
   300
147
1.0
148
0.0
149
0.0
100
AcDbLayout
  1
Layout2
 70
     1
 71
     2
 10
0.0
 20
0.0
 11
0.0
 21
0.0
 12
0.0
 22
0.0
 32
0.0
 14
0.0
 24
0.0
 34
0.0
 15
0.0
 25
0.0
 35
0.0
146
0.0
 13
0.0
 23
0.0
 33
0.0
 16
1.0
 26
0.0
 36
0.0
 17
0.0
 27
1.0
 37
0.0
 76
     0
330
23
  0
LAYOUT
  5
22
102
{ACAD_REACTORS
330
1A
102
}
330
1A
100
AcDbPlotSettings
  1

  2
none_device
  4

  6

 40
0.0
 41
0.0
 42
0.0
 43
0.0
 44
0.0
 45
0.0
 46
0.0
 47
0.0
 48
0.0
 49
0.0
140
0.0
141
0.0
142
1.0
143
1.0
 70
  1712
 72
     0
 73
     0
 74
     0
  7

 75
     0
 76
     0
 77
     2
 78
   300
147
1.0
148
0.0
149
0.0
100
AcDbLayout
  1
Model
 70
     1
 71
     0
 10
0.0
 20
0.0
 11
420.0
 21
297.0
 12
0.0
 22
0.0
 32
0.0
 14
1.000000000000000E+20
 24
1.000000000000000E+20
 34
1.000000000000000E+20
 15
-1.000000000000000E+20
 25
-1.000000000000000E+20
 35
-1.000000000000000E+20
146
0.0
 13
0.0
 23
0.0
 33
0.0
 16
1.0
 26
0.0
 36
0.0
 17
0.0
 27
1.0
 37
0.0
 76
     0
330
1F
331
29
  0
MLINESTYLE
  5
18
102
{ACAD_REACTORS
330
17
102
}
330
17
100
AcDbMlineStyle
  2
Standard
 70
     0
  3

 62
   256
 51
90.0
 52
90.0
 71
     2
 49
0.5
 62
   256
  6
BYLAYER
 49
-0.5
 62
   256
  6
BYLAYER
  0
ACDBPLACEHOLDER
  5
F
102
{ACAD_REACTORS
330
E
102
}
330
E
  0
SCALE
  5
3C
102
{ACAD_REACTORS
330
3B
102
}
330
3B
100
AcDbScale
 70
     0
300
1:1
140
1.0
141
1.0
290
     1
  0
SCALE
  5
3D
102
{ACAD_REACTORS
330
3B
102
}
330
3B
100
AcDbScale
 70
     0
300
1:2
140
1.0
141
2.0
290
     0
  0
SCALE
  5
3E
102
{ACAD_REACTORS
330
3B
102
}
330
3B
100
AcDbScale
 70
     0
300
1:4
140
1.0
141
4.0
290
     0
  0
SCALE
  5
3F
102
{ACAD_REACTORS
330
3B
102
}
330
3B
100
AcDbScale
 70
     0
300
1:5
140
1.0
141
5.0
290
     0
  0
SCALE
  5
40
102
{ACAD_REACTORS
330
3B
102
}
330
3B
100
AcDbScale
 70
     0
300
1:8
140
1.0
141
8.0
290
     0
  0
SCALE
  5
41
102
{ACAD_REACTORS
330
3B
102
}
330
3B
100
AcDbScale
 70
     0
300
1:10
140
1.0
141
10.0
290
     0
  0
SCALE
  5
42
102
{ACAD_REACTORS
330
3B
102
}
330
3B
100
AcDbScale
 70
     0
300
1:16
140
1.0
141
16.0
290
     0
  0
SCALE
  5
43
102
{ACAD_REACTORS
330
3B
102
}
330
3B
100
AcDbScale
 70
     0
300
1:20
140
1.0
141
20.0
290
     0
  0
SCALE
  5
44
102
{ACAD_REACTORS
330
3B
102
}
330
3B
100
AcDbScale
 70
     0
300
1:30
140
1.0
141
30.0
290
     0
  0
SCALE
  5
45
102
{ACAD_REACTORS
330
3B
102
}
330
3B
100
AcDbScale
 70
     0
300
1:40
140
1.0
141
40.0
290
     0
  0
SCALE
  5
46
102
{ACAD_REACTORS
330
3B
102
}
330
3B
100
AcDbScale
 70
     0
300
1:50
140
1.0
141
50.0
290
     0
  0
SCALE
  5
47
102
{ACAD_REACTORS
330
3B
102
}
330
3B
100
AcDbScale
 70
     0
300
1:100
140
1.0
141
100.0
290
     0
  0
SCALE
  5
48
102
{ACAD_REACTORS
330
3B
102
}
330
3B
100
AcDbScale
 70
     0
300
2:1
140
2.0
141
1.0
290
     0
  0
SCALE
  5
49
102
{ACAD_REACTORS
330
3B
102
}
330
3B
100
AcDbScale
 70
     0
300
4:1
140
4.0
141
1.0
290
     0
  0
SCALE
  5
4A
102
{ACAD_REACTORS
330
3B
102
}
330
3B
100
AcDbScale
 70
     0
300
8:1
140
8.0
141
1.0
290
     0
  0
SCALE
  5
4B
102
{ACAD_REACTORS
330
3B
102
}
330
3B
100
AcDbScale
 70
     0
300
10:1
140
10.0
141
1.0
290
     0
  0
SCALE
  5
4C
102
{ACAD_REACTORS
330
3B
102
}
330
3B
100
AcDbScale
 70
     0
300
100:1
140
100.0
141
1.0
290
     0
  0
SCALE
  5
4D
102
{ACAD_REACTORS
330
3B
102
}
330
3B
100
AcDbScale
 70
     0
300
1/128" = 1'-0"
140
0.0078125
141
12.0
290
     0
  0
SCALE
  5
4E
102
{ACAD_REACTORS
330
3B
102
}
330
3B
100
AcDbScale
 70
     0
300
1/64" = 1'-0"
140
0.015625
141
12.0
290
     0
  0
SCALE
  5
4F
102
{ACAD_REACTORS
330
3B
102
}
330
3B
100
AcDbScale
 70
     0
300
1/32" = 1'-0"
140
0.03125
141
12.0
290
     0
  0
SCALE
  5
50
102
{ACAD_REACTORS
330
3B
102
}
330
3B
100
AcDbScale
 70
     0
300
1/16" = 1'-0"
140
0.0625
141
12.0
290
     0
  0
SCALE
  5
51
102
{ACAD_REACTORS
330
3B
102
}
330
3B
100
AcDbScale
 70
     0
300
3/32" = 1'-0"
140
0.09375
141
12.0
290
     0
  0
SCALE
  5
52
102
{ACAD_REACTORS
330
3B
102
}
330
3B
100
AcDbScale
 70
     0
300
1/8" = 1'-0"
140
0.125
141
12.0
290
     0
  0
SCALE
  5
53
102
{ACAD_REACTORS
330
3B
102
}
330
3B
100
AcDbScale
 70
     0
300
3/16" = 1'-0"
140
0.1875
141
12.0
290
     0
  0
SCALE
  5
54
102
{ACAD_REACTORS
330
3B
102
}
330
3B
100
AcDbScale
 70
     0
300
1/4" = 1'-0"
140
0.25
141
12.0
290
     0
  0
SCALE
  5
55
102
{ACAD_REACTORS
330
3B
102
}
330
3B
100
AcDbScale
 70
     0
300
3/8" = 1'-0"
140
0.375
141
12.0
290
     0
  0
SCALE
  5
56
102
{ACAD_REACTORS
330
3B
102
}
330
3B
100
AcDbScale
 70
     0
300
1/2" = 1'-0"
140
0.5
141
12.0
290
     0
  0
SCALE
  5
57
102
{ACAD_REACTORS
330
3B
102
}
330
3B
100
AcDbScale
 70
     0
300
3/4" = 1'-0"
140
0.75
141
12.0
290
     0
  0
SCALE
  5
58
102
{ACAD_REACTORS
330
3B
102
}
330
3B
100
AcDbScale
 70
     0
300
1" = 1'-0"
140
1.0
141
12.0
290
     0
  0
SCALE
  5
59
102
{ACAD_REACTORS
330
3B
102
}
330
3B
100
AcDbScale
 70
     0
300
1-1/2" = 1'-0"
140
1.5
141
12.0
290
     0
  0
SCALE
  5
5A
102
{ACAD_REACTORS
330
3B
102
}
330
3B
100
AcDbScale
 70
     0
300
3" = 1'-0"
140
3.0
141
12.0
290
     0
  0
SCALE
  5
5B
102
{ACAD_REACTORS
330
3B
102
}
330
3B
100
AcDbScale
 70
     0
300
6" = 1'-0"
140
6.0
141
12.0
290
     0
  0
SCALE
  5
5C
102
{ACAD_REACTORS
330
3B
102
}
330
3B
100
AcDbScale
 70
     0
300
1'-0" = 1'-0"
140
12.0
141
12.0
290
     0
  0
VISUALSTYLE
  5
2F
102
{ACAD_REACTORS
330
2A
102
}
330
2A
100
AcDbVisualStyle
  2
2dWireframe
 70
     4
 71
     0
 72
     2
 73
     0
 90
        0
 40
-0.6
 41
-30.0
 62
     5
 63
     7
421
 16777215
 74
     1
 91
        4
 64
     7
 65
   257
 75
     1
175
     1
 42
1.0
 92
        0
 66
   257
 43
1.0
 76
     1
 77
     6
 78
     2
 67
     7
 79
     5
170
     0
171
     0
290
     0
174
     0
 93
        1
 44
0.0
173
     0
291
     0
 45
0.0
  0
VISUALSTYLE
  5
31
102
{ACAD_REACTORS
330
2A
102
}
330
2A
100
AcDbVisualStyle
  2
3D Hidden
 70
     6
 71
     1
 72
     2
 73
     2
 90
        0
 40
-0.6
 41
-30.0
 62
     5
 63
     7
421
 16777215
 74
     2
 91
        2
 64
     7
 65
   257
 75
     2
175
     1
 42
40.0
 92
        0
 66
   257
 43
1.0
 76
     1
 77
     6
 78
     2
 67
     7
 79
     3
170
     0
171
     0
290
     0
174
     0
 93
        1
 44
0.0
173
     0
291
     0
 45
0.0
  0
VISUALSTYLE
  5
30
102
{ACAD_REACTORS
330
2A
102
}
330
2A
100
AcDbVisualStyle
  2
3dWireframe
 70
     5
 71
     0
 72
     2
 73
     0
 90
        0
 40
-0.6
 41
-30.0
 62
     5
 63
     7
421
 16777215
 74
     1
 91
        4
 64
     7
 65
   257
 75
     1
175
     1
 42
1.0
 92
        0
 66
   257
 43
1.0
 76
     1
 77
     6
 78
     2
 67
     7
 79
     5
170
     0
171
     0
290
     0
174
     0
 93
        1
 44
0.0
173
     0
291
     0
 45
0.0
  0
VISUALSTYLE
  5
32
102
{ACAD_REACTORS
330
2A
102
}
330
2A
100
AcDbVisualStyle
  2
Basic
 70
     7
 71
     1
 72
     0
 73
     1
 90
        0
 40
-0.6
 41
-30.0
 62
     5
 63
     7
421
 16777215
 74
     0
 91
        4
 64
     7
 65
   257
 75
     1
175
     1
 42
1.0
 92
        8
 66
     7
 43
1.0
 76
     1
 77
     6
 78
     2
 67
     7
 79
     5
170
     0
171
     0
290
     0
174
     0
 93
        1
 44
0.0
173
     0
291
     1
 45
0.0
  0
VISUALSTYLE
  5
36
102
{ACAD_REACTORS
330
2A
102
}
330
2A
100
AcDbVisualStyle
  2
Brighten
 70
    12
 71
     2
 72
     2
 73
     0
 90
        0
 40
-0.6
 41
-30.0
 62
     5
 63
     7
421
 16777215
 74
     1
 91
        4
 64
     7
 65
   257
 75
     1
175
     1
 42
1.0
 92
        8
 66
     7
 43
1.0
 76
     1
 77
     6
 78
     2
 67
     7
 79
     5
170
     0
171
     0
290
     0
174
     0
 93
        1
 44
50.0
173
     0
291
     1
 45
0.0
  0
VISUALSTYLE
  5
3A
102
{ACAD_REACTORS
330
2A
102
}
330
2A
100
AcDbVisualStyle
  2
ColorChange
 70
    16
 71
     2
 72
     2
 73
     3
 90
        0
 40
-0.6
 41
-30.0
 62
     5
 63
     8
421
  8421504
 74
     1
 91
        4
 64
     7
 65
   257
 75
     1
175
     1
 42
1.0
 92
        8
 66
     8
424
  8421504
 43
1.0
 76
     1
 77
     6
 78
     2
 67
     7
 79
     5
170
     0
171
     0
290
     0
174
     0
 93
        1
 44
0.0
173
     0
291
     1
 45
0.0
  0
VISUALSTYLE
  5
34
102
{ACAD_REACTORS
330
2A
102
}
330
2A
100
AcDbVisualStyle
  2
Conceptual
 70
     9
 71
     3
 72
     2
 73
     0
 90
        0
 40
-0.6
 41
-30.0
 62
     5
 63
     7
421
 16777215
 74
     2
 91
        2
 64
     7
 65
   257
 75
     1
175
     1
 42
40.0
 92
        8
 66
     7
 43
1.0
 76
     1
 77
     6
 78
     2
 67
     7
 79
     3
170
     0
171
     0
290
     0
174
     0
 93
        1
 44
0.0
173
     0
291
     0
 45
0.0
  0
VISUALSTYLE
  5
35
102
{ACAD_REACTORS
330
2A
102
}
330
2A
100
AcDbVisualStyle
  2
Dim
 70
    11
 71
     2
 72
     2
 73
     0
 90
        0
 40
-0.6
 41
-30.0
 62
     5
 63
     7
421
 16777215
 74
     1
 91
        4
 64
     7
 65
   257
 75
     1
175
     1
 42
1.0
 92
        8
 66
     7
 43
1.0
 76
     1
 77
     6
 78
     2
 67
     7
 79
     5
170
     0
171
     0
290
     0
174
     0
 93
        1
 44
-50.0
173
     0
291
     1
 45
0.0
  0
VISUALSTYLE
  5
39
102
{ACAD_REACTORS
330
2A
102
}
330
2A
100
AcDbVisualStyle
  2
Facepattern
 70
    15
 71
     2
 72
     2
 73
     0
 90
        0
 40
-0.6
 41
-30.0
 62
     5
 63
     7
421
 16777215
 74
     1
 91
        4
 64
     7
 65
   257
 75
     1
175
     1
 42
1.0
 92
        8
 66
     7
 43
1.0
 76
     1
 77
     6
 78
     2
 67
     7
 79
     5
170
     0
171
     0
290
     0
174
     0
 93
        1
 44
0.0
173
     0
291
     1
 45
0.0
  0
VISUALSTYLE
  5
2B
102
{ACAD_REACTORS
330
2A
102
}
330
2A
100
AcDbVisualStyle
  2
Flat
 70
     0
 71
     2
 72
     1
 73
     1
 90
        2
 40
-0.6
 41
30.0
 62
     5
 63
     7
421
 16777215
 74
     0
 91
        4
 64
     7
 65
   257
 75
     1
175
     1
 42
1.0
 92
        8
 66
     7
 43
1.0
 76
     1
 77
     6
 78
     2
 67
     7
 79
     5
170
     0
171
     0
290
     0
174
     0
 93
       13
 44
0.0
173
     0
291
     1
 45
0.0
  0
VISUALSTYLE
  5
2C
102
{ACAD_REACTORS
330
2A
102
}
330
2A
100
AcDbVisualStyle
  2
FlatWithEdges
 70
     1
 71
     2
 72
     1
 73
     1
 90
        2
 40
-0.6
 41
30.0
 62
     5
 63
     7
421
 16777215
 74
     1
 91
        4
 64
     7
 65
   257
 75
     1
175
     1
 42
1.0
 92
        0
 66
   257
 43
1.0
 76
     1
 77
     6
 78
     2
 67
     7
 79
     5
170
     0
171
     0
290
     0
174
     0
 93
       13
 44
0.0
173
     0
291
     1
 45
0.0
  0
VISUALSTYLE
  5
2D
102
{ACAD_REACTORS
330
2A
102
}
330
2A
100
AcDbVisualStyle
  2
Gouraud
 70
     2
 71
     2
 72
     2
 73
     1
 90
        2
 40
-0.6
 41
30.0
 62
     5
 63
     7
421
 16777215
 74
     0
 91
        4
 64
     7
 65
   257
 75
     1
175
     1
 42
1.0
 92
        0
 66
     7
 43
1.0
 76
     1
 77
     6
 78
     2
 67
     7
 79
     5
170
     0
171
     0
290
     0
174
     0
 93
       13
 44
0.0
173
     0
291
     1
 45
0.0
  0
VISUALSTYLE
  5
2E
102
{ACAD_REACTORS
330
2A
102
}
330
2A
100
AcDbVisualStyle
  2
GouraudWithEdges
 70
     3
 71
     2
 72
     2
 73
     1
 90
        2
 40
-0.6
 41
30.0
 62
     5
 63
     7
421
 16777215
 74
     1
 91
        4
 64
     7
 65
   257
 75
     1
175
     1
 42
1.0
 92
        0
 66
   257
 43
1.0
 76
     1
 77
     6
 78
     2
 67
     7
 79
     5
170
     0
171
     0
290
     0
174
     0
 93
       13
 44
0.0
173
     0
291
     1
 45
0.0
  0
VISUALSTYLE
  5
38
102
{ACAD_REACTORS
330
2A
102
}
330
2A
100
AcDbVisualStyle
  2
Linepattern
 70
    14
 71
     2
 72
     2
 73
     0
 90
        0
 40
-0.6
 41
-30.0
 62
     5
 63
     7
421
 16777215
 74
     1
 91
        4
 64
     7
 65
   257
 75
     7
175
     7
 42
1.0
 92
        8
 66
     7
 43
1.0
 76
     1
 77
     6
 78
     2
 67
     7
 79
     5
170
     0
171
     0
290
     0
174
     0
 93
        1
 44
0.0
173
     0
291
     1
 45
0.0
  0
VISUALSTYLE
  5
33
102
{ACAD_REACTORS
330
2A
102
}
330
2A
100
AcDbVisualStyle
  2
Realistic
 70
     8
 71
     2
 72
     2
 73
     0
 90
        0
 40
-0.6
 41
-30.0
 62
     5
 63
     7
421
 16777215
 74
     1
 91
        0
 64
     7
 65
   257
 75
     1
175
     1
 42
1.0
 92
        8
 66
     8
424
  7895160
 43
1.0
 76
     1
 77
     6
 78
     2
 67
     7
 79
     5
170
     0
171
     0
290
     0
174
     0
 93
       13
 44
0.0
173
     0
291
     0
 45
0.0
  0
VISUALSTYLE
  5
37
102
{ACAD_REACTORS
330
2A
102
}
330
2A
100
AcDbVisualStyle
  2
Thicken
 70
    13
 71
     2
 72
     2
 73
     0
 90
        0
 40
-0.6
 41
-30.0
 62
     5
 63
     7
421
 16777215
 74
     1
 91
        4
 64
     7
 65
   257
 75
     1
175
     1
 42
1.0
 92
       12
 66
     7
 43
1.0
 76
     1
 77
     6
 78
     2
 67
     7
 79
     5
170
     0
171
     0
290
     0
174
     0
 93
        1
 44
0.0
173
     0
291
     1
 45
0.0
  0
ENDSEC
  0
EOF
