0
SECTION
2
HEADER
9
$ACADVER
1
AC1014
9
$HANDSEED
5
FFFF
0
ENDSEC
0
SECTION
2
TABLES
0
TABLE
2
VPORT
5
8
100
AcDbSymbolTable
0
ENDTAB
0
TABLE
2
LTYPE
5
5
100
AcDbSymbolTable
0
LTYPE
5
14
100
AcDbSymbolTableRecord
100
AcDbLinetypeTableRecord
2
BYBLOCK
70
0
0
LTYPE
5
15
100
AcDbSymbolTableRecord
100
AcDbLinetypeTableRecord
2
BYLAYER
70
0
0
ENDTAB
0
TABLE
2
LAYER
5
2
100
AcDbSymbolTable
70
2
0
LAYER
5
50
100
AcDbSymbolTableRecord
100
AcDbLayerTableRecord
2
0
70
0
6
CONTINUOUS
0
ENDTAB
0
TABLE
2
STYLE
5
3
100
AcDbSymbolTable
70
1
0
STYLE
5
11
100
AcDbSymbolTableRecord
100
AcDbTextStyleTableRecord
2
STANDARD
70
0
0
ENDTAB
0
TABLE
2
VIEW
5
6
100
AcDbSymbolTable
70
0
0
ENDTAB
0
TABLE
2
UCS
5
7
100
AcDbSymbolTable
70
0
0
ENDTAB
0
TABLE
2
APPID
5
9
100
AcDbSymbolTable
70
2
0
APPID
5
12
100
AcDbSymbolTableRecord
100
AcDbRegAppTableRecord
2
ACAD
70
0
0
ENDTAB
0
TABLE
2
DIMSTYLE
5
A
100
AcDbSymbolTable
70
1
0
ENDTAB
0
TABLE
2
BLOCK_RECORD
5
1
100
AcDbSymbolTable
70
1
0
BLOCK_RECORD
5
1F
100
AcDbSymbolTableRecord
100
AcDbBlockTableRecord
2
*MODEL_SPACE
0
BLOCK_RECORD
5
1B
100
AcDbSymbolTableRecord
100
AcDbBlockTableRecord
2
*PAPER_SPACE
0
ENDTAB
0
ENDSEC
0
SECTION
2
BLOCKS
0
BLOCK
5
20
100
AcDbEntity
100
AcDbBlockBegin
2
*MODEL_SPACE
0
ENDBLK
5
21
100
AcDbEntity
100
AcDbBlockEnd
0
BLOCK
5
1C
100
AcDbEntity
100
AcDbBlockBegin
2
*PAPER_SPACE
0
ENDBLK
5
1D
100
AcDbEntity
100
AcDbBlockEnd
0
ENDSEC
0
SECTION
2
ENTITIES
0
LWPOLYLINE
5
100
100
AcDbEntity
8
0
100
AcDbPolyline
90
4
70
1
43
0.0
10
-433.3333333333332
20
-20
10
-389.99999999999989
20
-20
10
-389.99999999999994
20
-10
10
-433.3333333333332
20
-10
0
LWPOLYLINE
5
101
100
AcDbEntity
8
0
100
AcDbPolyline
90
4
70
1
43
0.0
10
-43.333333333333321
20
-20
10
-43.333333333333329
20
-10
10
-86.666666666666657
20
-10
10
-86.666666666666657
20
-20
0
LWPOLYLINE
5
102
100
AcDbEntity
8
0
100
AcDbPolyline
90
4
70
1
43
0.0
10
-346.66666666666657
20
-20
10
-303.33333333333326
20
-20
10
-303.33333333333326
20
-10
10
-346.66666666666657
20
-10
0
LWPOLYLINE
5
103
100
AcDbEntity
8
0
100
AcDbPolyline
90
4
70
1
43
0.0
10
-519.99999999999989
20
-20
10
-476.66666666666657
20
-20
10
-476.66666666666657
20
-10
10
-519.99999999999989
20
-10
0
LWPOLYLINE
5
104
100
AcDbEntity
8
0
100
AcDbPolyline
90
4
70
1
43
0.0
10
-173.33333333333329
20
-20
10
-129.99999999999997
20
-20
10
-129.99999999999997
20
-10
10
-173.33333333333329
20
-10
0
LWPOLYLINE
5
105
100
AcDbEntity
8
0
100
AcDbPolyline
90
4
70
1
43
0.0
10
-259.99999999999994
20
-20
10
-216.6666666666666
20
-20
10
-216.6666666666666
20
-10
10
-259.99999999999994
20
-10
0
LWPOLYLINE
5
106
100
AcDbEntity
8
0
100
AcDbPolyline
90
4
70
1
43
0.0
10
-606.66666666666652
20
-20
10
-563.33333333333314
20
-20
10
-563.33333333333326
20
-10
10
-606.66666666666652
20
-10
0
LWPOLYLINE
5
107
100
AcDbEntity
8
0
100
AcDbPolyline
90
40
70
1
43
0.0
10
-640
20
-120
10
-650
20
-120
10
-650
20
-90
10
-640
20
-90
10
-640
20
-60
10
-650
20
-60
10
-650
20
-30
10
-640
20
-30
10
-640
20
0
10
-10
20
0
10
-10
20
-30
10
0
20
-30
10
0
20
-60
10
-10
20
-60
10
-10
20
-90
10
0
20
-90
10
0
20
-120
10
-10
20
-120
10
-10
20
-150
10
0
20
-150
10
0
20
-180
10
-10
20
-180
10
-10
20
-210
10
0
20
-210
10
0
20
-240
10
-10
20
-240
10
-10
20
-270
10
0
20
-270
10
0
20
-300
10
-650
20
-300
10
-650
20
-270
10
-640
20
-270
10
-640
20
-240
10
-650
20
-240
10
-650
20
-210
10
-640
20
-210
10
-640
20
-180
10
-650
20
-180
10
-650
20
-150
10
-640
20
-150
0
LWPOLYLINE
5
108
100
AcDbEntity
8
0
100
AcDbPolyline
90
4
70
1
43
0.0
10
-630
20
24.999999999999996
10
-630
20
55
10
-2.4172699188362285e-014
20
55
10
0
20
24.999999999999996
0
LWPOLYLINE
5
109
100
AcDbEntity
8
0
100
AcDbPolyline
90
4
70
1
43
0.0
10
-433.3333333333332
20
-10
10
-389.99999999999994
20
-10
10
-389.99999999999989
20
-20
10
-433.33333333333314
20
-20
0
LWPOLYLINE
5
110
100
AcDbEntity
8
0
100
AcDbPolyline
90
4
70
1
43
0.0
10
-86.666666666666643
20
-20
10
-86.666666666666643
20
-10
10
-43.33333333333335
20
-10
10
-43.333333333333321
20
-20
0
LWPOLYLINE
5
111
100
AcDbEntity
8
0
100
AcDbPolyline
90
4
70
1
43
0.0
10
-346.66666666666657
20
-10
10
-303.33333333333326
20
-10
10
-303.33333333333326
20
-20
10
-346.66666666666657
20
-20
0
LWPOLYLINE
5
112
100
AcDbEntity
8
0
100
AcDbPolyline
90
4
70
1
43
0.0
10
-519.99999999999989
20
-10
10
-476.66666666666657
20
-10
10
-476.66666666666657
20
-20
10
-519.99999999999989
20
-20
0
LWPOLYLINE
5
113
100
AcDbEntity
8
0
100
AcDbPolyline
90
4
70
1
43
0.0
10
-173.33333333333329
20
-10
10
-129.99999999999997
20
-10
10
-129.99999999999997
20
-20
10
-173.33333333333329
20
-20
0
LWPOLYLINE
5
114
100
AcDbEntity
8
0
100
AcDbPolyline
90
4
70
1
43
0.0
10
-259.99999999999994
20
-10
10
-216.6666666666666
20
-10
10
-216.6666666666666
20
-20
10
-259.99999999999994
20
-20
0
LWPOLYLINE
5
115
100
AcDbEntity
8
0
100
AcDbPolyline
90
4
70
1
43
0.0
10
-606.66666666666652
20
-10
10
-563.33333333333326
20
-10
10
-563.33333333333314
20
-20
10
-606.66666666666652
20
-20
0
LWPOLYLINE
5
116
100
AcDbEntity
8
0
100
AcDbPolyline
90
40
70
1
43
0.0
10
-640
20
-120
10
-640
20
-150
10
-650
20
-150
10
-650
20
-180
10
-640
20
-180
10
-640
20
-210
10
-650
20
-210
10
-650
20
-240
10
-640
20
-240
10
-640
20
-270
10
-650
20
-270
10
-650
20
-300
10
0
20
-300
10
0
20
-270
10
-10
20
-270
10
-10
20
-240
10
0
20
-240
10
0
20
-210
10
-10
20
-210
10
-10
20
-180
10
0
20
-180
10
0
20
-150
10
-10
20
-150
10
-10
20
-120
10
0
20
-120
10
0
20
-90
10
-10
20
-90
10
-10
20
-60
10
0
20
-60
10
0
20
-30
10
-10
20
-30
10
-10
20
0
10
-640
20
0
10
-640
20
-30
10
-650
20
-30
10
-650
20
-60
10
-640
20
-60
10
-640
20
-90
10
-650
20
-90
10
-650
20
-120
0
ENDSEC
0
SECTION
2
OBJECTS
0
DICTIONARY
5
C
100
AcDbDictionary
3
ACAD_GROUP
350
D
3
ACAD_MLINESTYLE
350
17
0
DICTIONARY
5
D
100
AcDbDictionary
0
DICTIONARY
5
1A
330
C
100
AcDbDictionary
0
DICTIONARY
5
17
100
AcDbDictionary
0
ENDSEC
0
EOF
