999
DXF created by Inkscape
  0
SECTION
  2
HEADER
  9
$ACADVER
  1
AC1014
  9
$HANDSEED
  5
FFFF
  9
$MEASUREMENT
 70
     1
  0
ENDSEC
  0
SECTION
  2
TABLES
  0
TABLE
  2
VPORT
  5
8
330
0
100
AcDbSymbolTable
 70
     4
  0
VPORT
  5
2E
330
8
100
AcDbSymbolTableRecord
100
AcDbViewportTableRecord
  2
*ACTIVE
 70
     0
 10
0.0
 20
0.0
 11
1.0
 21
1.0
 12
210.0
 22
148.5
 13
0.0
 23
0.0
 14
10.0
 24
10.0
 15
10.0
 25
10.0
 16
0.0
 26
0.0
 36
1.0
 17
0.0
 27
0.0
 37
0.0
 40
341.0
 41
1.24
 42
50.0
 43
0.0
 44
0.0
 50
0.0
 51
0.0
 71
     0
 72
   100
 73
     1
 74
     3
 75
     0
 76
     0
 77
     0
 78
     0
  0
ENDTAB
  0
TABLE
  2
LTYPE
  5
5
330
0
100
AcDbSymbolTable
 70
     1
  0
LTYPE
  5
14
330
5
100
AcDbSymbolTableRecord
100
AcDbLinetypeTableRecord
  2
BYBLOCK
 70
     0
  3

 72
    65
 73
     0
 40
0.0
  0
LTYPE
  5
15
330
5
100
AcDbSymbolTableRecord
100
AcDbLinetypeTableRecord
  2
BYLAYER
 70
     0
  3

 72
    65
 73
     0
 40
0.0
  0
LTYPE
  5
16
330
5
100
AcDbSymbolTableRecord
100
AcDbLinetypeTableRecord
  2
CONTINUOUS
 70
     0
  3
Solid line
 72
    65
 73
     0
 40
0.0
  0
ENDTAB
  0
TABLE
  2
LAYER
  5
2
100
AcDbSymbolTable
 70
2
  0
LAYER
  5
50
100
AcDbSymbolTableRecord
100
AcDbLayerTableRecord
  2
0
 70
0
  6
CONTINUOUS
  0
LAYER
  5
51
100
AcDbSymbolTableRecord
100
AcDbLayerTableRecord
  2
Layer_1
 70
0
  6
CONTINUOUS
  0
ENDTAB
  0
TABLE
  2
STYLE
  5
3
330
0
100
AcDbSymbolTable
 70
     1
  0
STYLE
  5
11
330
3
100
AcDbSymbolTableRecord
100
AcDbTextStyleTableRecord
  2
STANDARD
 70
     0
 40
0.0
 41
1.0
 50
0.0
 71
     0
 42
2.5
  3
txt
  4

  0
ENDTAB
  0
TABLE
  2
VIEW
  5
6
330
0
100
AcDbSymbolTable
 70
     0
  0
ENDTAB
  0
TABLE
  2
UCS
  5
7
330
0
100
AcDbSymbolTable
 70
     0
  0
ENDTAB
  0
TABLE
  2
APPID
  5
9
330
0
100
AcDbSymbolTable
 70
     2
  0
APPID
  5
12
330
9
100
AcDbSymbolTableRecord
100
AcDbRegAppTableRecord
  2
ACAD
 70
     0
  0
ENDTAB
  0
TABLE
  2
DIMSTYLE
  5
A
330
0
100
AcDbSymbolTable
 70
     1
  0
DIMSTYLE
105
27
330
A
100
AcDbSymbolTableRecord
100
AcDbDimStyleTableRecord
  2
ISO-25
 70
     0
  3

  4

  5

  6

  7

 40
1.0
 41
2.5
 42
0.625
 43
3.75
 44
1.25
 45
0.0
 46
0.0
 47
0.0
 48
0.0
140
2.5
141
2.5
142
0.0
143
0.03937007874016
144
1.0
145
0.0
146
1.0
147
0.625
 71
     0
 72
     0
 73
     0
 74
     0
 75
     0
 76
     0
 77
     1
 78
     8
170
     0
171
     3
172
     1
173
     0
174
     0
175
     0
176
     0
177
     0
178
     0
270
     2
271
     2
272
     2
273
     2
274
     3
340
11
275
     0
280
     0
281
     0
282
     0
283
     0
284
     8
285
     0
286
     0
287
     3
288
     0
  0
ENDTAB
  0
TABLE
  2
BLOCK_RECORD
  5
1
330
0
100
AcDbSymbolTable
 70
     1
  0
BLOCK_RECORD
  5
1F
330
1
100
AcDbSymbolTableRecord
100
AcDbBlockTableRecord
  2
*MODEL_SPACE
  0
BLOCK_RECORD
  5
1B
330
1
100
AcDbSymbolTableRecord
100
AcDbBlockTableRecord
  2
*PAPER_SPACE
  0
ENDTAB
  0
ENDSEC
  0
SECTION
  2
BLOCKS
  0
BLOCK
  5
20
330
1F
100
AcDbEntity
  8
0
100
AcDbBlockBegin
  2
*MODEL_SPACE
 70
     0
 10
0.0
 20
0.0
 30
0.0
  3
*MODEL_SPACE
  1

  0
ENDBLK
  5
21
330
1F
100
AcDbEntity
  8
0
100
AcDbBlockEnd
  0
BLOCK
  5
1C
330
1B
100
AcDbEntity
 67
     1
  8
0
100
AcDbBlockBegin
  2
*PAPER_SPACE
  1

  0
ENDBLK
  5
1D
330
1B
100
AcDbEntity
 67
     1
  8
0
100
AcDbBlockEnd
  0
ENDSEC
  0
SECTION
  2
ENTITIES
  0
SPLINE
  5
100
100
AcDbEntity
  8
Layer_1
 62
1
100
AcDbSpline
 70
8
 71
3
 72
8
 73
4
 74
0
 40
0
 40
0
 40
0
 40
0
 40
1
 40
1
 40
1
 40
1
 10
17.953223
 20
278.374393
 30
0.0
 10
17.953223
 20
276.993682
 30
0.0
 10
16.833918
 20
275.874394
 30
0.0
 10
15.453186
 20
275.874394
 30
0.0
  0
SPLINE
  5
101
100
AcDbEntity
  8
Layer_1
 62
1
100
AcDbSpline
 70
8
 71
3
 72
8
 73
4
 74
0
 40
0
 40
0
 40
0
 40
0
 40
1
 40
1
 40
1
 40
1
 10
15.453186
 20
275.874394
 30
0.0
 10
14.072455
 20
275.874394
 30
0.0
 10
12.953150
 20
276.993682
 30
0.0
 10
12.953150
 20
278.374393
 30
0.0
  0
SPLINE
  5
102
100
AcDbEntity
  8
Layer_1
 62
1
100
AcDbSpline
 70
8
 71
3
 72
8
 73
4
 74
0
 40
0
 40
0
 40
0
 40
0
 40
1
 40
1
 40
1
 40
1
 10
12.953150
 20
278.374393
 30
0.0
 10
12.953150
 20
279.755105
 30
0.0
 10
14.072455
 20
280.874392
 30
0.0
 10
15.453186
 20
280.874392
 30
0.0
  0
SPLINE
  5
103
100
AcDbEntity
  8
Layer_1
 62
1
100
AcDbSpline
 70
8
 71
3
 72
8
 73
4
 74
0
 40
0
 40
0
 40
0
 40
0
 40
1
 40
1
 40
1
 40
1
 10
15.453186
 20
280.874392
 30
0.0
 10
16.833918
 20
280.874392
 30
0.0
 10
17.953223
 20
279.755105
 30
0.0
 10
17.953223
 20
278.374393
 30
0.0
  0
LWPOLYLINE
  5
104
100
AcDbEntity
  8
Layer_1
 62
1
100
AcDbPolyline
 90
5
 70
0
 10
9.794632
 20
283.487572
 30
0.0
 10
200.276339
 20
283.487572
 30
0.0
 10
200.276339
 20
153.668322
 30
0.0
 10
9.794632
 20
153.668322
 30
0.0
 10
9.794632
 20
283.487572
 30
0.0
  0
SPLINE
  5
105
100
AcDbEntity
  8
Layer_1
 62
1
100
AcDbSpline
 70
8
 71
3
 72
8
 73
4
 74
0
 40
0
 40
0
 40
0
 40
0
 40
1
 40
1
 40
1
 40
1
 10
197.413563
 20
278.162560
 30
0.0
 10
197.413563
 20
276.781848
 30
0.0
 10
196.294259
 20
275.662560
 30
0.0
 10
194.913527
 20
275.662560
 30
0.0
  0
SPLINE
  5
106
100
AcDbEntity
  8
Layer_1
 62
1
100
AcDbSpline
 70
8
 71
3
 72
8
 73
4
 74
0
 40
0
 40
0
 40
0
 40
0
 40
1
 40
1
 40
1
 40
1
 10
194.913527
 20
275.662560
 30
0.0
 10
193.532795
 20
275.662560
 30
0.0
 10
192.413491
 20
276.781848
 30
0.0
 10
192.413491
 20
278.162560
 30
0.0
  0
SPLINE
  5
107
100
AcDbEntity
  8
Layer_1
 62
1
100
AcDbSpline
 70
8
 71
3
 72
8
 73
4
 74
0
 40
0
 40
0
 40
0
 40
0
 40
1
 40
1
 40
1
 40
1
 10
192.413491
 20
278.162560
 30
0.0
 10
192.413491
 20
279.543271
 30
0.0
 10
193.532795
 20
280.662559
 30
0.0
 10
194.913527
 20
280.662559
 30
0.0
  0
SPLINE
  5
108
100
AcDbEntity
  8
Layer_1
 62
1
100
AcDbSpline
 70
8
 71
3
 72
8
 73
4
 74
0
 40
0
 40
0
 40
0
 40
0
 40
1
 40
1
 40
1
 40
1
 10
194.913527
 20
280.662559
 30
0.0
 10
196.294259
 20
280.662559
 30
0.0
 10
197.413563
 20
279.543271
 30
0.0
 10
197.413563
 20
278.162560
 30
0.0
  0
LWPOLYLINE
  5
109
100
AcDbEntity
  8
Layer_1
 62
1
100
AcDbPolyline
 90
2
 70
0
 10
17.953223
 20
278.374393
 30
0.0
 10
17.953223
 20
278.374393
 30
0.0
  0
SPLINE
  5
10a
100
AcDbEntity
  8
Layer_1
 62
1
100
AcDbSpline
 70
8
 71
3
 72
8
 73
4
 74
0
 40
0
 40
0
 40
0
 40
0
 40
1
 40
1
 40
1
 40
1
 10
17.957551
 20
158.840720
 30
0.0
 10
17.957551
 20
157.460009
 30
0.0
 10
16.838247
 20
156.340721
 30
0.0
 10
15.457515
 20
156.340721
 30
0.0
  0
SPLINE
  5
10b
100
AcDbEntity
  8
Layer_1
 62
1
100
AcDbSpline
 70
8
 71
3
 72
8
 73
4
 74
0
 40
0
 40
0
 40
0
 40
0
 40
1
 40
1
 40
1
 40
1
 10
15.457515
 20
156.340721
 30
0.0
 10
14.076783
 20
156.340721
 30
0.0
 10
12.957478
 20
157.460009
 30
0.0
 10
12.957478
 20
158.840720
 30
0.0
  0
SPLINE
  5
10c
100
AcDbEntity
  8
Layer_1
 62
1
100
AcDbSpline
 70
8
 71
3
 72
8
 73
4
 74
0
 40
0
 40
0
 40
0
 40
0
 40
1
 40
1
 40
1
 40
1
 10
12.957478
 20
158.840720
 30
0.0
 10
12.957478
 20
160.221432
 30
0.0
 10
14.076783
 20
161.340719
 30
0.0
 10
15.457515
 20
161.340719
 30
0.0
  0
SPLINE
  5
10d
100
AcDbEntity
  8
Layer_1
 62
1
100
AcDbSpline
 70
8
 71
3
 72
8
 73
4
 74
0
 40
0
 40
0
 40
0
 40
0
 40
1
 40
1
 40
1
 40
1
 10
15.457515
 20
161.340719
 30
0.0
 10
16.838247
 20
161.340719
 30
0.0
 10
17.957551
 20
160.221432
 30
0.0
 10
17.957551
 20
158.840720
 30
0.0
  0
LWPOLYLINE
  5
10e
100
AcDbEntity
  8
Layer_1
 62
1
100
AcDbPolyline
 90
2
 70
0
 10
197.413563
 20
278.162560
 30
0.0
 10
197.413563
 20
278.162560
 30
0.0
  0
SPLINE
  5
10f
100
AcDbEntity
  8
Layer_1
 62
1
100
AcDbSpline
 70
8
 71
3
 72
8
 73
4
 74
0
 40
0
 40
0
 40
0
 40
0
 40
1
 40
1
 40
1
 40
1
 10
197.417890
 20
158.628887
 30
0.0
 10
197.417890
 20
157.248176
 30
0.0
 10
196.298585
 20
156.128888
 30
0.0
 10
194.917853
 20
156.128888
 30
0.0
  0
SPLINE
  5
110
100
AcDbEntity
  8
Layer_1
 62
1
100
AcDbSpline
 70
8
 71
3
 72
8
 73
4
 74
0
 40
0
 40
0
 40
0
 40
0
 40
1
 40
1
 40
1
 40
1
 10
194.917853
 20
156.128888
 30
0.0
 10
193.537122
 20
156.128888
 30
0.0
 10
192.417817
 20
157.248176
 30
0.0
 10
192.417817
 20
158.628887
 30
0.0
  0
SPLINE
  5
111
100
AcDbEntity
  8
Layer_1
 62
1
100
AcDbSpline
 70
8
 71
3
 72
8
 73
4
 74
0
 40
0
 40
0
 40
0
 40
0
 40
1
 40
1
 40
1
 40
1
 10
192.417817
 20
158.628887
 30
0.0
 10
192.417817
 20
160.009598
 30
0.0
 10
193.537122
 20
161.128886
 30
0.0
 10
194.917853
 20
161.128886
 30
0.0
  0
SPLINE
  5
112
100
AcDbEntity
  8
Layer_1
 62
1
100
AcDbSpline
 70
8
 71
3
 72
8
 73
4
 74
0
 40
0
 40
0
 40
0
 40
0
 40
1
 40
1
 40
1
 40
1
 10
194.917853
 20
161.128886
 30
0.0
 10
196.298585
 20
161.128886
 30
0.0
 10
197.417890
 20
160.009598
 30
0.0
 10
197.417890
 20
158.628887
 30
0.0
  0
LWPOLYLINE
  5
113
100
AcDbEntity
  8
Layer_1
 62
1
100
AcDbPolyline
 90
2
 70
0
 10
17.957551
 20
158.840720
 30
0.0
 10
17.957551
 20
158.840720
 30
0.0
  0
LWPOLYLINE
  5
114
100
AcDbEntity
  8
Layer_1
 62
1
100
AcDbPolyline
 90
2
 70
0
 10
197.417890
 20
158.628887
 30
0.0
 10
197.417890
 20
158.628887
 30
0.0
  0
SPLINE
  5
115
100
AcDbEntity
  8
Layer_1
 62
1
100
AcDbSpline
 70
8
 71
3
 72
8
 73
4
 74
0
 40
0
 40
0
 40
0
 40
0
 40
1
 40
1
 40
1
 40
1
 10
17.664560
 20
138.104187
 30
0.0
 10
17.664560
 20
136.723476
 30
0.0
 10
16.545256
 20
135.604188
 30
0.0
 10
15.164524
 20
135.604188
 30
0.0
  0
SPLINE
  5
116
100
AcDbEntity
  8
Layer_1
 62
1
100
AcDbSpline
 70
8
 71
3
 72
8
 73
4
 74
0
 40
0
 40
0
 40
0
 40
0
 40
1
 40
1
 40
1
 40
1
 10
15.164524
 20
135.604188
 30
0.0
 10
13.783792
 20
135.604188
 30
0.0
 10
12.664488
 20
136.723476
 30
0.0
 10
12.664488
 20
138.104187
 30
0.0
  0
SPLINE
  5
117
100
AcDbEntity
  8
Layer_1
 62
1
100
AcDbSpline
 70
8
 71
3
 72
8
 73
4
 74
0
 40
0
 40
0
 40
0
 40
0
 40
1
 40
1
 40
1
 40
1
 10
12.664488
 20
138.104187
 30
0.0
 10
12.664488
 20
139.484898
 30
0.0
 10
13.783792
 20
140.604186
 30
0.0
 10
15.164524
 20
140.604186
 30
0.0
  0
SPLINE
  5
118
100
AcDbEntity
  8
Layer_1
 62
1
100
AcDbSpline
 70
8
 71
3
 72
8
 73
4
 74
0
 40
0
 40
0
 40
0
 40
0
 40
1
 40
1
 40
1
 40
1
 10
15.164524
 20
140.604186
 30
0.0
 10
16.545256
 20
140.604186
 30
0.0
 10
17.664560
 20
139.484898
 30
0.0
 10
17.664560
 20
138.104187
 30
0.0
  0
LWPOLYLINE
  5
119
100
AcDbEntity
  8
Layer_1
 62
1
100
AcDbPolyline
 90
5
 70
0
 10
9.505970
 20
143.217366
 30
0.0
 10
199.987676
 20
143.217366
 30
0.0
 10
199.987676
 20
13.398115
 30
0.0
 10
9.505970
 20
13.398115
 30
0.0
 10
9.505970
 20
143.217366
 30
0.0
  0
SPLINE
  5
11a
100
AcDbEntity
  8
Layer_1
 62
1
100
AcDbSpline
 70
8
 71
3
 72
8
 73
4
 74
0
 40
0
 40
0
 40
0
 40
0
 40
1
 40
1
 40
1
 40
1
 10
197.124901
 20
137.892353
 30
0.0
 10
197.124901
 20
136.511642
 30
0.0
 10
196.005596
 20
135.392354
 30
0.0
 10
194.624864
 20
135.392354
 30
0.0
  0
SPLINE
  5
11b
100
AcDbEntity
  8
Layer_1
 62
1
100
AcDbSpline
 70
8
 71
3
 72
8
 73
4
 74
0
 40
0
 40
0
 40
0
 40
0
 40
1
 40
1
 40
1
 40
1
 10
194.624864
 20
135.392354
 30
0.0
 10
193.244133
 20
135.392354
 30
0.0
 10
192.124828
 20
136.511642
 30
0.0
 10
192.124828
 20
137.892353
 30
0.0
  0
SPLINE
  5
11c
100
AcDbEntity
  8
Layer_1
 62
1
100
AcDbSpline
 70
8
 71
3
 72
8
 73
4
 74
0
 40
0
 40
0
 40
0
 40
0
 40
1
 40
1
 40
1
 40
1
 10
192.124828
 20
137.892353
 30
0.0
 10
192.124828
 20
139.273065
 30
0.0
 10
193.244133
 20
140.392353
 30
0.0
 10
194.624864
 20
140.392353
 30
0.0
  0
SPLINE
  5
11d
100
AcDbEntity
  8
Layer_1
 62
1
100
AcDbSpline
 70
8
 71
3
 72
8
 73
4
 74
0
 40
0
 40
0
 40
0
 40
0
 40
1
 40
1
 40
1
 40
1
 10
194.624864
 20
140.392353
 30
0.0
 10
196.005596
 20
140.392353
 30
0.0
 10
197.124901
 20
139.273065
 30
0.0
 10
197.124901
 20
137.892353
 30
0.0
  0
LWPOLYLINE
  5
11e
100
AcDbEntity
  8
Layer_1
 62
1
100
AcDbPolyline
 90
2
 70
0
 10
17.664560
 20
138.104187
 30
0.0
 10
17.664560
 20
138.104187
 30
0.0
  0
SPLINE
  5
11f
100
AcDbEntity
  8
Layer_1
 62
1
100
AcDbSpline
 70
8
 71
3
 72
8
 73
4
 74
0
 40
0
 40
0
 40
0
 40
0
 40
1
 40
1
 40
1
 40
1
 10
17.668888
 20
18.570514
 30
0.0
 10
17.668888
 20
17.189802
 30
0.0
 10
16.549584
 20
16.070515
 30
0.0
 10
15.168852
 20
16.070515
 30
0.0
  0
SPLINE
  5
120
100
AcDbEntity
  8
Layer_1
 62
1
100
AcDbSpline
 70
8
 71
3
 72
8
 73
4
 74
0
 40
0
 40
0
 40
0
 40
0
 40
1
 40
1
 40
1
 40
1
 10
15.168852
 20
16.070515
 30
0.0
 10
13.788120
 20
16.070515
 30
0.0
 10
12.668816
 20
17.189802
 30
0.0
 10
12.668816
 20
18.570514
 30
0.0
  0
SPLINE
  5
121
100
AcDbEntity
  8
Layer_1
 62
1
100
AcDbSpline
 70
8
 71
3
 72
8
 73
4
 74
0
 40
0
 40
0
 40
0
 40
0
 40
1
 40
1
 40
1
 40
1
 10
12.668816
 20
18.570514
 30
0.0
 10
12.668816
 20
19.951225
 30
0.0
 10
13.788120
 20
21.070513
 30
0.0
 10
15.168852
 20
21.070513
 30
0.0
  0
SPLINE
  5
122
100
AcDbEntity
  8
Layer_1
 62
1
100
AcDbSpline
 70
8
 71
3
 72
8
 73
4
 74
0
 40
0
 40
0
 40
0
 40
0
 40
1
 40
1
 40
1
 40
1
 10
15.168852
 20
21.070513
 30
0.0
 10
16.549584
 20
21.070513
 30
0.0
 10
17.668888
 20
19.951225
 30
0.0
 10
17.668888
 20
18.570514
 30
0.0
  0
LWPOLYLINE
  5
123
100
AcDbEntity
  8
Layer_1
 62
1
100
AcDbPolyline
 90
2
 70
0
 10
197.124901
 20
137.892353
 30
0.0
 10
197.124901
 20
137.892353
 30
0.0
  0
SPLINE
  5
124
100
AcDbEntity
  8
Layer_1
 62
1
100
AcDbSpline
 70
8
 71
3
 72
8
 73
4
 74
0
 40
0
 40
0
 40
0
 40
0
 40
1
 40
1
 40
1
 40
1
 10
197.129227
 20
18.358681
 30
0.0
 10
197.129227
 20
16.977969
 30
0.0
 10
196.009923
 20
15.858681
 30
0.0
 10
194.629191
 20
15.858681
 30
0.0
  0
SPLINE
  5
125
100
AcDbEntity
  8
Layer_1
 62
1
100
AcDbSpline
 70
8
 71
3
 72
8
 73
4
 74
0
 40
0
 40
0
 40
0
 40
0
 40
1
 40
1
 40
1
 40
1
 10
194.629191
 20
15.858681
 30
0.0
 10
193.248459
 20
15.858681
 30
0.0
 10
192.129155
 20
16.977969
 30
0.0
 10
192.129155
 20
18.358681
 30
0.0
  0
SPLINE
  5
126
100
AcDbEntity
  8
Layer_1
 62
1
100
AcDbSpline
 70
8
 71
3
 72
8
 73
4
 74
0
 40
0
 40
0
 40
0
 40
0
 40
1
 40
1
 40
1
 40
1
 10
192.129155
 20
18.358681
 30
0.0
 10
192.129155
 20
19.739392
 30
0.0
 10
193.248459
 20
20.858680
 30
0.0
 10
194.629191
 20
20.858680
 30
0.0
  0
SPLINE
  5
127
100
AcDbEntity
  8
Layer_1
 62
1
100
AcDbSpline
 70
8
 71
3
 72
8
 73
4
 74
0
 40
0
 40
0
 40
0
 40
0
 40
1
 40
1
 40
1
 40
1
 10
194.629191
 20
20.858680
 30
0.0
 10
196.009923
 20
20.858680
 30
0.0
 10
197.129227
 20
19.739392
 30
0.0
 10
197.129227
 20
18.358681
 30
0.0
  0
LWPOLYLINE
  5
128
100
AcDbEntity
  8
Layer_1
 62
1
100
AcDbPolyline
 90
2
 70
0
 10
17.668888
 20
18.570514
 30
0.0
 10
17.668888
 20
18.570514
 30
0.0
  0
SPLINE
  5
129
100
AcDbEntity
  8
Layer_1
 62
7
100
AcDbSpline
 70
8
 71
3
 72
8
 73
4
 74
0
 40
0
 40
0
 40
0
 40
0
 40
1
 40
1
 40
1
 40
1
 10
40.676683
 20
233.177166
 30
0.0
 10
40.676683
 20
229.380140
 30
0.0
 10
38.650994
 20
225.871544
 30
0.0
 10
35.362674
 20
223.973031
 30
0.0
  0
SPLINE
  5
12a
100
AcDbEntity
  8
Layer_1
 62
7
100
AcDbSpline
 70
8
 71
3
 72
8
 73
4
 74
0
 40
0
 40
0
 40
0
 40
0
 40
1
 40
1
 40
1
 40
1
 10
35.362674
 20
223.973031
 30
0.0
 10
32.074353
 20
222.074518
 30
0.0
 10
28.022975
 20
222.074518
 30
0.0
 10
24.734655
 20
223.973031
 30
0.0
  0
SPLINE
  5
12b
100
AcDbEntity
  8
Layer_1
 62
7
100
AcDbSpline
 70
8
 71
3
 72
8
 73
4
 74
0
 40
0
 40
0
 40
0
 40
0
 40
1
 40
1
 40
1
 40
1
 10
24.734655
 20
223.973031
 30
0.0
 10
21.446334
 20
225.871544
 30
0.0
 10
19.420645
 20
229.380140
 30
0.0
 10
19.420646
 20
233.177166
 30
0.0
  0
SPLINE
  5
12c
100
AcDbEntity
  8
Layer_1
 62
7
100
AcDbSpline
 70
8
 71
3
 72
8
 73
4
 74
0
 40
0
 40
0
 40
0
 40
0
 40
1
 40
1
 40
1
 40
1
 10
19.420646
 20
233.177166
 30
0.0
 10
19.420646
 20
236.974191
 30
0.0
 10
21.446335
 20
240.482788
 30
0.0
 10
24.734655
 20
242.381300
 30
0.0
  0
SPLINE
  5
12d
100
AcDbEntity
  8
Layer_1
 62
7
100
AcDbSpline
 70
8
 71
3
 72
8
 73
4
 74
0
 40
0
 40
0
 40
0
 40
0
 40
1
 40
1
 40
1
 40
1
 10
24.734655
 20
242.381300
 30
0.0
 10
28.022976
 20
244.279813
 30
0.0
 10
32.074354
 20
244.279813
 30
0.0
 10
35.362674
 20
242.381300
 30
0.0
  0
SPLINE
  5
12e
100
AcDbEntity
  8
Layer_1
 62
7
100
AcDbSpline
 70
8
 71
3
 72
8
 73
4
 74
0
 40
0
 40
0
 40
0
 40
0
 40
1
 40
1
 40
1
 40
1
 10
35.362674
 20
242.381300
 30
0.0
 10
38.650995
 20
240.482788
 30
0.0
 10
40.676684
 20
236.974191
 30
0.0
 10
40.676684
 20
233.177166
 30
0.0
  0
LWPOLYLINE
  5
12f
100
AcDbEntity
  8
Layer_1
 62
1
100
AcDbPolyline
 90
2
 70
0
 10
197.129227
 20
18.358681
 30
0.0
 10
197.129227
 20
18.358681
 30
0.0
  0
SPLINE
  5
130
100
AcDbEntity
  8
Layer_1
 62
7
100
AcDbSpline
 70
8
 71
3
 72
8
 73
4
 74
0
 40
0
 40
0
 40
0
 40
0
 40
1
 40
1
 40
1
 40
1
 10
170.619857
 20
232.894944
 30
0.0
 10
170.619857
 20
229.097918
 30
0.0
 10
168.594168
 20
225.589322
 30
0.0
 10
165.305848
 20
223.690809
 30
0.0
  0
SPLINE
  5
131
100
AcDbEntity
  8
Layer_1
 62
7
100
AcDbSpline
 70
8
 71
3
 72
8
 73
4
 74
0
 40
0
 40
0
 40
0
 40
0
 40
1
 40
1
 40
1
 40
1
 10
165.305848
 20
223.690809
 30
0.0
 10
162.017527
 20
221.792296
 30
0.0
 10
157.966149
 20
221.792296
 30
0.0
 10
154.677829
 20
223.690809
 30
0.0
  0
SPLINE
  5
132
100
AcDbEntity
  8
Layer_1
 62
7
100
AcDbSpline
 70
8
 71
3
 72
8
 73
4
 74
0
 40
0
 40
0
 40
0
 40
0
 40
1
 40
1
 40
1
 40
1
 10
154.677829
 20
223.690809
 30
0.0
 10
151.389509
 20
225.589322
 30
0.0
 10
149.363820
 20
229.097918
 30
0.0
 10
149.363820
 20
232.894944
 30
0.0
  0
SPLINE
  5
133
100
AcDbEntity
  8
Layer_1
 62
7
100
AcDbSpline
 70
8
 71
3
 72
8
 73
4
 74
0
 40
0
 40
0
 40
0
 40
0
 40
1
 40
1
 40
1
 40
1
 10
149.363820
 20
232.894944
 30
0.0
 10
149.363820
 20
236.691969
 30
0.0
 10
151.389509
 20
240.200565
 30
0.0
 10
154.677830
 20
242.099078
 30
0.0
  0
SPLINE
  5
134
100
AcDbEntity
  8
Layer_1
 62
7
100
AcDbSpline
 70
8
 71
3
 72
8
 73
4
 74
0
 40
0
 40
0
 40
0
 40
0
 40
1
 40
1
 40
1
 40
1
 10
154.677830
 20
242.099078
 30
0.0
 10
157.966150
 20
243.997591
 30
0.0
 10
162.017528
 20
243.997591
 30
0.0
 10
165.305848
 20
242.099078
 30
0.0
  0
SPLINE
  5
135
100
AcDbEntity
  8
Layer_1
 62
7
100
AcDbSpline
 70
8
 71
3
 72
8
 73
4
 74
0
 40
0
 40
0
 40
0
 40
0
 40
1
 40
1
 40
1
 40
1
 10
165.305848
 20
242.099078
 30
0.0
 10
168.594169
 20
240.200565
 30
0.0
 10
170.619858
 20
236.691969
 30
0.0
 10
170.619858
 20
232.894944
 30
0.0
  0
LWPOLYLINE
  5
136
100
AcDbEntity
  8
Layer_1
 62
7
100
AcDbPolyline
 90
2
 70
0
 10
40.676684
 20
233.177166
 30
0.0
 10
40.676684
 20
233.177166
 30
0.0
  0
SPLINE
  5
137
100
AcDbEntity
  8
Layer_1
 62
7
100
AcDbSpline
 70
8
 71
3
 72
8
 73
4
 74
0
 40
0
 40
0
 40
0
 40
0
 40
1
 40
1
 40
1
 40
1
 10
160.177607
 20
173.628277
 30
0.0
 10
160.177607
 20
169.831251
 30
0.0
 10
158.151918
 20
166.322655
 30
0.0
 10
154.863597
 20
164.424142
 30
0.0
  0
SPLINE
  5
138
100
AcDbEntity
  8
Layer_1
 62
7
100
AcDbSpline
 70
8
 71
3
 72
8
 73
4
 74
0
 40
0
 40
0
 40
0
 40
0
 40
1
 40
1
 40
1
 40
1
 10
154.863597
 20
164.424142
 30
0.0
 10
151.575277
 20
162.525629
 30
0.0
 10
147.523899
 20
162.525629
 30
0.0
 10
144.235579
 20
164.424142
 30
0.0
  0
SPLINE
  5
139
100
AcDbEntity
  8
Layer_1
 62
7
100
AcDbSpline
 70
8
 71
3
 72
8
 73
4
 74
0
 40
0
 40
0
 40
0
 40
0
 40
1
 40
1
 40
1
 40
1
 10
144.235579
 20
164.424142
 30
0.0
 10
140.947258
 20
166.322655
 30
0.0
 10
138.921569
 20
169.831251
 30
0.0
 10
138.921570
 20
173.628277
 30
0.0
  0
SPLINE
  5
13a
100
AcDbEntity
  8
Layer_1
 62
7
100
AcDbSpline
 70
8
 71
3
 72
8
 73
4
 74
0
 40
0
 40
0
 40
0
 40
0
 40
1
 40
1
 40
1
 40
1
 10
138.921570
 20
173.628277
 30
0.0
 10
138.921570
 20
177.425302
 30
0.0
 10
140.947259
 20
180.933899
 30
0.0
 10
144.235579
 20
182.832412
 30
0.0
  0
SPLINE
  5
13b
100
AcDbEntity
  8
Layer_1
 62
7
100
AcDbSpline
 70
8
 71
3
 72
8
 73
4
 74
0
 40
0
 40
0
 40
0
 40
0
 40
1
 40
1
 40
1
 40
1
 10
144.235579
 20
182.832412
 30
0.0
 10
147.523900
 20
184.730924
 30
0.0
 10
151.575277
 20
184.730924
 30
0.0
 10
154.863598
 20
182.832412
 30
0.0
  0
SPLINE
  5
13c
100
AcDbEntity
  8
Layer_1
 62
7
100
AcDbSpline
 70
8
 71
3
 72
8
 73
4
 74
0
 40
0
 40
0
 40
0
 40
0
 40
1
 40
1
 40
1
 40
1
 10
154.863598
 20
182.832412
 30
0.0
 10
158.151918
 20
180.933899
 30
0.0
 10
160.177607
 20
177.425302
 30
0.0
 10
160.177607
 20
173.628277
 30
0.0
  0
LWPOLYLINE
  5
13d
100
AcDbEntity
  8
Layer_1
 62
7
100
AcDbPolyline
 90
2
 70
0
 10
170.619858
 20
232.894944
 30
0.0
 10
170.619858
 20
232.894944
 30
0.0
  0
SPLINE
  5
13e
100
AcDbEntity
  8
Layer_1
 62
7
100
AcDbSpline
 70
8
 71
3
 72
8
 73
4
 74
0
 40
0
 40
0
 40
0
 40
0
 40
1
 40
1
 40
1
 40
1
 10
40.233199
 20
173.910499
 30
0.0
 10
40.233199
 20
170.113473
 30
0.0
 10
38.207510
 20
166.604877
 30
0.0
 10
34.919190
 20
164.706364
 30
0.0
  0
SPLINE
  5
13f
100
AcDbEntity
  8
Layer_1
 62
7
100
AcDbSpline
 70
8
 71
3
 72
8
 73
4
 74
0
 40
0
 40
0
 40
0
 40
0
 40
1
 40
1
 40
1
 40
1
 10
34.919190
 20
164.706364
 30
0.0
 10
31.630869
 20
162.807852
 30
0.0
 10
27.579491
 20
162.807852
 30
0.0
 10
24.291171
 20
164.706364
 30
0.0
  0
SPLINE
  5
140
100
AcDbEntity
  8
Layer_1
 62
7
100
AcDbSpline
 70
8
 71
3
 72
8
 73
4
 74
0
 40
0
 40
0
 40
0
 40
0
 40
1
 40
1
 40
1
 40
1
 10
24.291171
 20
164.706364
 30
0.0
 10
21.002850
 20
166.604877
 30
0.0
 10
18.977161
 20
170.113473
 30
0.0
 10
18.977162
 20
173.910499
 30
0.0
  0
SPLINE
  5
141
100
AcDbEntity
  8
Layer_1
 62
7
100
AcDbSpline
 70
8
 71
3
 72
8
 73
4
 74
0
 40
0
 40
0
 40
0
 40
0
 40
1
 40
1
 40
1
 40
1
 10
18.977162
 20
173.910499
 30
0.0
 10
18.977162
 20
177.707525
 30
0.0
 10
21.002851
 20
181.216121
 30
0.0
 10
24.291171
 20
183.114634
 30
0.0
  0
SPLINE
  5
142
100
AcDbEntity
  8
Layer_1
 62
7
100
AcDbSpline
 70
8
 71
3
 72
8
 73
4
 74
0
 40
0
 40
0
 40
0
 40
0
 40
1
 40
1
 40
1
 40
1
 10
24.291171
 20
183.114634
 30
0.0
 10
27.579492
 20
185.013147
 30
0.0
 10
31.630870
 20
185.013147
 30
0.0
 10
34.919190
 20
183.114634
 30
0.0
  0
SPLINE
  5
143
100
AcDbEntity
  8
Layer_1
 62
7
100
AcDbSpline
 70
8
 71
3
 72
8
 73
4
 74
0
 40
0
 40
0
 40
0
 40
0
 40
1
 40
1
 40
1
 40
1
 10
34.919190
 20
183.114634
 30
0.0
 10
38.207511
 20
181.216121
 30
0.0
 10
40.233200
 20
177.707525
 30
0.0
 10
40.233200
 20
173.910499
 30
0.0
  0
LWPOLYLINE
  5
144
100
AcDbEntity
  8
Layer_1
 62
7
100
AcDbPolyline
 90
2
 70
0
 10
160.177607
 20
173.628277
 30
0.0
 10
160.177608
 20
173.628277
 30
0.0
  0
SPLINE
  5
145
100
AcDbEntity
  8
Layer_1
 62
7
100
AcDbSpline
 70
8
 71
3
 72
8
 73
4
 74
0
 40
0
 40
0
 40
0
 40
0
 40
1
 40
1
 40
1
 40
1
 10
109.942079
 20
122.546055
 30
0.0
 10
109.942079
 20
118.749029
 30
0.0
 10
107.916390
 20
115.240433
 30
0.0
 10
104.628070
 20
113.341920
 30
0.0
  0
SPLINE
  5
146
100
AcDbEntity
  8
Layer_1
 62
7
100
AcDbSpline
 70
8
 71
3
 72
8
 73
4
 74
0
 40
0
 40
0
 40
0
 40
0
 40
1
 40
1
 40
1
 40
1
 10
104.628070
 20
113.341920
 30
0.0
 10
101.339750
 20
111.443407
 30
0.0
 10
97.288372
 20
111.443407
 30
0.0
 10
94.000051
 20
113.341920
 30
0.0
  0
SPLINE
  5
147
100
AcDbEntity
  8
Layer_1
 62
7
100
AcDbSpline
 70
8
 71
3
 72
8
 73
4
 74
0
 40
0
 40
0
 40
0
 40
0
 40
1
 40
1
 40
1
 40
1
 10
94.000051
 20
113.341920
 30
0.0
 10
90.711731
 20
115.240433
 30
0.0
 10
88.686042
 20
118.749029
 30
0.0
 10
88.686042
 20
122.546055
 30
0.0
  0
SPLINE
  5
148
100
AcDbEntity
  8
Layer_1
 62
7
100
AcDbSpline
 70
8
 71
3
 72
8
 73
4
 74
0
 40
0
 40
0
 40
0
 40
0
 40
1
 40
1
 40
1
 40
1
 10
88.686042
 20
122.546055
 30
0.0
 10
88.686042
 20
126.343080
 30
0.0
 10
90.711731
 20
129.851677
 30
0.0
 10
94.000052
 20
131.750189
 30
0.0
  0
SPLINE
  5
149
100
AcDbEntity
  8
Layer_1
 62
7
100
AcDbSpline
 70
8
 71
3
 72
8
 73
4
 74
0
 40
0
 40
0
 40
0
 40
0
 40
1
 40
1
 40
1
 40
1
 10
94.000052
 20
131.750189
 30
0.0
 10
97.288372
 20
133.648702
 30
0.0
 10
101.339750
 20
133.648702
 30
0.0
 10
104.628071
 20
131.750189
 30
0.0
  0
SPLINE
  5
14a
100
AcDbEntity
  8
Layer_1
 62
7
100
AcDbSpline
 70
8
 71
3
 72
8
 73
4
 74
0
 40
0
 40
0
 40
0
 40
0
 40
1
 40
1
 40
1
 40
1
 10
104.628071
 20
131.750189
 30
0.0
 10
107.916391
 20
129.851677
 30
0.0
 10
109.942080
 20
126.343080
 30
0.0
 10
109.942080
 20
122.546055
 30
0.0
  0
LWPOLYLINE
  5
14b
100
AcDbEntity
  8
Layer_1
 62
7
100
AcDbPolyline
 90
2
 70
0
 10
40.233200
 20
173.910499
 30
0.0
 10
40.233200
 20
173.910499
 30
0.0
  0
LWPOLYLINE
  5
14c
100
AcDbEntity
  8
Layer_1
 62
7
100
AcDbPolyline
 90
2
 70
0
 10
109.942080
 20
122.546055
 30
0.0
 10
109.942081
 20
122.546055
 30
0.0
  0
ENDSEC
  0
SECTION
  2
OBJECTS
  0
DICTIONARY
  5
C
330
0
100
AcDbDictionary
  3
ACAD_GROUP
350
D
  3
ACAD_MLINESTYLE
350
17
  0
DICTIONARY
  5
D
330
C
100
AcDbDictionary
  0
DICTIONARY
  5
1A
330
C
100
AcDbDictionary
  0
DICTIONARY
  5
17
330
C
100
AcDbDictionary
  3
STANDARD
350
18
  0
DICTIONARY
  5
19
330
C
100
AcDbDictionary
  0
ENDSEC
  0
EOF
