  0
SECTION
  2
HEADER
  9
$ACADVER
  1
AC1018
  9
$ACADMAINTVER
 70
     0
  9
$DWGCODEPAGE
  3
ANSI_1252
  9
$INSBASE
 10
0.0
 20
0.0
 30
0.0
  9
$EXTMIN
 10
4.803206751061626
 20
5.120412967785369
 30
0.0
  9
$EXTMAX
 10
16.78293786855788
 20
14.18123509365999
 30
0.0
  9
$LIMMIN
 10
0.0
 20
0.0
  9
$LIMMAX
 10
12.0
 20
9.0
  9
$ORTHOMODE
 70
     0
  9
$REGENMODE
 70
     1
  9
$FILLMODE
 70
     1
  9
$QTEXTMODE
 70
     0
  9
$MIRRTEXT
 70
     1
  9
$LTSCALE
 40
1.0
  9
$ATTMODE
 70
     1
  9
$TEXTSIZE
 40
0.2
  9
$TRACEWID
 40
0.05
  9
$TEXTSTYLE
  7
Standard
  9
$CLAYER
  8
0
  9
$CELTYPE
  6
ByLayer
  9
$CECOLOR
 62
   256
  9
$CELTSCALE
 40
1.0
  9
$DISPSILH
 70
     0
  9
$DIMSCALE
 40
1.0
  9
$DIMASZ
 40
0.18
  9
$DIMEXO
 40
0.0625
  9
$DIMDLI
 40
0.38
  9
$DIMRND
 40
0.0
  9
$DIMDLE
 40
0.0
  9
$DIMEXE
 40
0.18
  9
$DIMTP
 40
0.0
  9
$DIMTM
 40
0.0
  9
$DIMTXT
 40
0.18
  9
$DIMCEN
 40
0.09
  9
$DIMTSZ
 40
0.0
  9
$DIMTOL
 70
     0
  9
$DIMLIM
 70
     0
  9
$DIMTIH
 70
     1
  9
$DIMTOH
 70
     1
  9
$DIMSE1
 70
     0
  9
$DIMSE2
 70
     0
  9
$DIMTAD
 70
     0
  9
$DIMZIN
 70
     0
  9
$DIMBLK
  1

  9
$DIMASO
 70
     1
  9
$DIMSHO
 70
     1
  9
$DIMPOST
  1

  9
$DIMAPOST
  1

  9
$DIMALT
 70
     0
  9
$DIMALTD
 70
     2
  9
$DIMALTF
 40
25.4
  9
$DIMLFAC
 40
1.0
  9
$DIMTOFL
 70
     0
  9
$DIMTVP
 40
0.0
  9
$DIMTIX
 70
     0
  9
$DIMSOXD
 70
     0
  9
$DIMSAH
 70
     0
  9
$DIMBLK1
  1

  9
$DIMBLK2
  1

  9
$DIMSTYLE
  2
Standard
  9
$DIMCLRD
 70
     0
  9
$DIMCLRE
 70
     0
  9
$DIMCLRT
 70
     0
  9
$DIMTFAC
 40
1.0
  9
$DIMGAP
 40
0.09
  9
$DIMJUST
 70
     0
  9
$DIMSD1
 70
     0
  9
$DIMSD2
 70
     0
  9
$DIMTOLJ
 70
     1
  9
$DIMTZIN
 70
     0
  9
$DIMALTZ
 70
     0
  9
$DIMALTTZ
 70
     0
  9
$DIMUPT
 70
     0
  9
$DIMDEC
 70
     4
  9
$DIMTDEC
 70
     4
  9
$DIMALTU
 70
     2
  9
$DIMALTTD
 70
     2
  9
$DIMTXSTY
  7
Standard
  9
$DIMAUNIT
 70
     0
  9
$DIMADEC
 70
     0
  9
$DIMALTRND
 40
0.0
  9
$DIMAZIN
 70
     0
  9
$DIMDSEP
 70
    46
  9
$DIMATFIT
 70
     3
  9
$DIMFRAC
 70
     0
  9
$DIMLDRBLK
  1

  9
$DIMLUNIT
 70
     2
  9
$DIMLWD
 70
    -2
  9
$DIMLWE
 70
    -2
  9
$DIMTMOVE
 70
     0
  9
$LUNITS
 70
     2
  9
$LUPREC
 70
     6
  9
$SKETCHINC
 40
0.1
  9
$FILLETRAD
 40
0.5
  9
$AUNITS
 70
     0
  9
$AUPREC
 70
     0
  9
$MENU
  1
.
  9
$ELEVATION
 40
0.0
  9
$PELEVATION
 40
0.0
  9
$THICKNESS
 40
0.0
  9
$LIMCHECK
 70
     0
  9
$CHAMFERA
 40
0.5
  9
$CHAMFERB
 40
0.5
  9
$CHAMFERC
 40
1.0
  9
$CHAMFERD
 40
0.0
  9
$SKPOLY
 70
     0
  9
$TDCREATE
 40
2454283.021709699
  9
$TDUCREATE
 40
2454283.188376366
  9
$TDUPDATE
 40
2454283.021709711
  9
$TDUUPDATE
 40
2454283.188376377
  9
$TDINDWG
 40
0.0000000116
  9
$TDUSRTIMER
 40
0.0000000116
  9
$USRTIMER
 70
     1
  9
$ANGBASE
 50
0.0
  9
$ANGDIR
 70
     0
  9
$PDMODE
 70
     0
  9
$PDSIZE
 40
0.0
  9
$PLINEWID
 40
0.0
  9
$SPLFRAME
 70
     0
  9
$SPLINETYPE
 70
     6
  9
$SPLINESEGS
 70
     8
  9
$HANDSEED
  5
185
  9
$SURFTAB1
 70
     6
  9
$SURFTAB2
 70
     6
  9
$SURFTYPE
 70
     6
  9
$SURFU
 70
     6
  9
$SURFV
 70
     6
  9
$UCSBASE
  2

  9
$UCSNAME
  2

  9
$UCSORG
 10
0.0
 20
0.0
 30
0.0
  9
$UCSXDIR
 10
1.0
 20
0.0
 30
0.0
  9
$UCSYDIR
 10
0.0
 20
1.0
 30
0.0
  9
$UCSORTHOREF
  2

  9
$UCSORTHOVIEW
 70
     0
  9
$UCSORGTOP
 10
0.0
 20
0.0
 30
0.0
  9
$UCSORGBOTTOM
 10
0.0
 20
0.0
 30
0.0
  9
$UCSORGLEFT
 10
0.0
 20
0.0
 30
0.0
  9
$UCSORGRIGHT
 10
0.0
 20
0.0
 30
0.0
  9
$UCSORGFRONT
 10
0.0
 20
0.0
 30
0.0
  9
$UCSORGBACK
 10
0.0
 20
0.0
 30
0.0
  9
$PUCSBASE
  2

  9
$PUCSNAME
  2

  9
$PUCSORG
 10
0.0
 20
0.0
 30
0.0
  9
$PUCSXDIR
 10
1.0
 20
0.0
 30
0.0
  9
$PUCSYDIR
 10
0.0
 20
1.0
 30
0.0
  9
$PUCSORTHOREF
  2

  9
$PUCSORTHOVIEW
 70
     0
  9
$PUCSORGTOP
 10
0.0
 20
0.0
 30
0.0
  9
$PUCSORGBOTTOM
 10
0.0
 20
0.0
 30
0.0
  9
$PUCSORGLEFT
 10
0.0
 20
0.0
 30
0.0
  9
$PUCSORGRIGHT
 10
0.0
 20
0.0
 30
0.0
  9
$PUCSORGFRONT
 10
0.0
 20
0.0
 30
0.0
  9
$PUCSORGBACK
 10
0.0
 20
0.0
 30
0.0
  9
$USERI1
 70
     0
  9
$USERI2
 70
     0
  9
$USERI3
 70
     0
  9
$USERI4
 70
     0
  9
$USERI5
 70
     0
  9
$USERR1
 40
0.0
  9
$USERR2
 40
0.0
  9
$USERR3
 40
0.0
  9
$USERR4
 40
0.0
  9
$USERR5
 40
0.0
  9
$WORLDVIEW
 70
     1
  9
$SHADEDGE
 70
     3
  9
$SHADEDIF
 70
    70
  9
$TILEMODE
 70
     1
  9
$MAXACTVP
 70
    64
  9
$PINSBASE
 10
0.0
 20
0.0
 30
0.0
  9
$PLIMCHECK
 70
     0
  9
$PEXTMIN
 10
1.000000000000000E+20
 20
1.000000000000000E+20
 30
1.000000000000000E+20
  9
$PEXTMAX
 10
-1.000000000000000E+20
 20
-1.000000000000000E+20
 30
-1.000000000000000E+20
  9
$PLIMMIN
 10
0.0
 20
0.0
  9
$PLIMMAX
 10
12.0
 20
9.0
  9
$UNITMODE
 70
     0
  9
$VISRETAIN
 70
     1
  9
$PLINEGEN
 70
     0
  9
$PSLTSCALE
 70
     1
  9
$TREEDEPTH
 70
  3020
  9
$CMLSTYLE
  2
Standard
  9
$CMLJUST
 70
     0
  9
$CMLSCALE
 40
1.0
  9
$PROXYGRAPHICS
 70
     1
  9
$MEASUREMENT
 70
     0
  9
$CELWEIGHT
370
    -1
  9
$ENDCAPS
280
     0
  9
$JOINSTYLE
280
     0
  9
$LWDISPLAY
290
     0
  9
$INSUNITS
 70
     4
  9
$HYPERLINKBASE
  1

  9
$STYLESHEET
  1

  9
$XEDIT
290
     1
  9
$CEPSNTYPE
380
     0
  9
$PSTYLEMODE
290
     1
  9
$FINGERPRINTGUID
  2
{054DBDCB-7095-47CB-8456-31336A1EAE70}
  9
$VERSIONGUID
  2
{FAEB1C32-E019-11D5-929B-00C0DF256EC4}
  9
$EXTNAMES
290
     1
  9
$PSVPSCALE
 40
0.0
  9
$OLESTARTUP
290
     0
  9
$SORTENTS
280
   127
  9
$INDEXCTL
280
     0
  9
$HIDETEXT
280
     1
  9
$XCLIPFRAME
290
     0
  9
$HALOGAP
280
     0
  9
$OBSCOLOR
 70
   257
  9
$OBSLTYPE
280
     0
  9
$INTERSECTIONDISPLAY
280
     0
  9
$INTERSECTIONCOLOR
 70
   257
  9
$DIMASSOC
280
     2
  9
$PROJECTNAME
  1

  0
ENDSEC
  0
SECTION
  2
CLASSES
  0
CLASS
  1
ACDBDICTIONARYWDFLT
  2
AcDbDictionaryWithDefault
  3
ObjectDBX Classes
 90
        0
 91
        3
280
     0
281
     0
  0
ENDSEC
  0
SECTION
  2
TABLES
  0
TABLE
  2
VPORT
  5
8
330
0
100
AcDbSymbolTable
 70
     1
  0
VPORT
  5
29
330
8
100
AcDbSymbolTableRecord
100
AcDbViewportTableRecord
  2
*Active
 70
     0
 10
0.0
 20
0.0
 11
1.0
 21
1.0
 12
0.0
 22
0.0
 13
0.0
 23
0.0
 14
0.5
 24
0.5
 15
0.5
 25
0.5
 16
0.0
 26
0.0
 36
1.0
 17
10.79307230980976
 27
9.650824030722681
 37
0.0
 40
9.242038568392118
 41
1.322146153083198
 42
50.0
 43
0.0
 44
0.0
 50
0.0
 51
0.0
 71
     0
 72
   100
 73
     1
 74
     3
 75
     0
 76
     0
 77
     0
 78
     0
281
     0
 65
     1
110
0.0
120
0.0
130
0.0
111
1.0
121
0.0
131
0.0
112
0.0
122
1.0
132
0.0
 79
     0
146
0.0
  0
ENDTAB
  0
TABLE
  2
LTYPE
  5
5
330
0
100
AcDbSymbolTable
 70
     1
  0
LTYPE
  5
14
330
5
100
AcDbSymbolTableRecord
100
AcDbLinetypeTableRecord
  2
ByBlock
 70
     0
  3

 72
    65
 73
     0
 40
0.0
  0
LTYPE
  5
15
330
5
100
AcDbSymbolTableRecord
100
AcDbLinetypeTableRecord
  2
ByLayer
 70
     0
  3

 72
    65
 73
     0
 40
0.0
  0
LTYPE
  5
16
330
5
100
AcDbSymbolTableRecord
100
AcDbLinetypeTableRecord
  2
Continuous
 70
     0
  3
Solid line
 72
    65
 73
     0
 40
0.0
  0
ENDTAB
  0
TABLE
  2
LAYER
  5
2
330
0
100
AcDbSymbolTable
 70
     2
  0
LAYER
  5
10
330
2
100
AcDbSymbolTableRecord
100
AcDbLayerTableRecord
  2
0
 70
     0
 62
     7
  6
Continuous
370
    -3
390
F
  0
LAYER
  5
2A
330
2
100
AcDbSymbolTableRecord
100
AcDbLayerTableRecord
  2
PARTS
 70
     0
 62
     1
  6
Continuous
370
    -3
390
F
  0
ENDTAB
  0
TABLE
  2
STYLE
  5
3
330
0
100
AcDbSymbolTable
 70
     1
  0
STYLE
  5
11
330
3
100
AcDbSymbolTableRecord
100
AcDbTextStyleTableRecord
  2
Standard
 70
     0
 40
0.0
 41
1.0
 50
0.0
 71
     0
 42
0.2
  3
txt
  4

  0
ENDTAB
  0
TABLE
  2
VIEW
  5
6
330
0
100
AcDbSymbolTable
 70
     0
  0
ENDTAB
  0
TABLE
  2
UCS
  5
7
330
0
100
AcDbSymbolTable
 70
     0
  0
ENDTAB
  0
TABLE
  2
APPID
  5
9
330
0
100
AcDbSymbolTable
 70
     1
  0
APPID
  5
12
330
9
100
AcDbSymbolTableRecord
100
AcDbRegAppTableRecord
  2
ACAD
 70
     0
  0
ENDTAB
  0
TABLE
  2
DIMSTYLE
  5
A
330
0
100
AcDbSymbolTable
 70
     1
100
AcDbDimStyleTable
  0
DIMSTYLE
105
27
330
A
100
AcDbSymbolTableRecord
100
AcDbDimStyleTableRecord
  2
Standard
 70
     0
340
11
  0
ENDTAB
  0
TABLE
  2
BLOCK_RECORD
  5
1
330
0
100
AcDbSymbolTable
 70
     1
  0
BLOCK_RECORD
  5
1F
330
1
100
AcDbSymbolTableRecord
100
AcDbBlockTableRecord
  2
*Model_Space
340
22
  0
BLOCK_RECORD
  5
1B
330
1
100
AcDbSymbolTableRecord
100
AcDbBlockTableRecord
  2
*Paper_Space
340
1E
  0
BLOCK_RECORD
  5
23
330
1
100
AcDbSymbolTableRecord
100
AcDbBlockTableRecord
  2
*Paper_Space0
340
26
  0
ENDTAB
  0
ENDSEC
  0
SECTION
  2
BLOCKS
  0
BLOCK
  5
20
330
1F
100
AcDbEntity
  8
0
100
AcDbBlockBegin
  2
*Model_Space
 70
     0
 71
     0
 10
0.0
 20
0.0
 30
0.0
  3
*Model_Space
  1

  0
ENDBLK
  5
21
330
1F
100
AcDbEntity
  8
0
100
AcDbBlockEnd
  0
BLOCK
  5
1C
330
1B
100
AcDbEntity
 67
     1
  8
0
100
AcDbBlockBegin
  2
*Paper_Space
 70
     0
 71
     0
 10
0.0
 20
0.0
 30
0.0
  3
*Paper_Space
  1

  0
ENDBLK
  5
1D
330
1B
100
AcDbEntity
 67
     1
  8
0
100
AcDbBlockEnd
  0
BLOCK
  5
24
330
23
100
AcDbEntity
  8
0
100
AcDbBlockBegin
  2
*Paper_Space0
 70
     0
 71
     0
 10
0.0
 20
0.0
 30
0.0
  3
*Paper_Space0
  1

  0
ENDBLK
  5
25
330
23
100
AcDbEntity
  8
0
100
AcDbBlockEnd
  0
ENDSEC
  0
SECTION
  2
ENTITIES
  0
SPLINE
  5
2B
330
1F
100
AcDbEntity
  8
PARTS
100
AcDbSpline
210
0.0
220
0.0
230
1.0
 70
    11
 71
     2
 72
    34
 73
    31
 74
     0
 42
0.0000000001
 43
0.0000000001
 40
-15.0
 40
-15.0
 40
-15.0
 40
-14.0
 40
-14.0
 40
-13.0
 40
-13.0
 40
-12.0
 40
-12.0
 40
-11.0
 40
-11.0
 40
-10.0
 40
-10.0
 40
-9.0
 40
-9.0
 40
-8.0
 40
-8.0
 40
-7.0
 40
-7.0
 40
-6.0
 40
-6.0
 40
-5.0
 40
-5.0
 40
-4.0
 40
-4.0
 40
-3.0
 40
-3.0
 40
-2.0
 40
-2.0
 40
-1.0
 40
-1.0
 40
0.0
 40
0.0
 40
0.0
 10
10.66050005479111
 20
12.06253021371484
 30
0.0
 10
10.67565156994262
 20
12.06253021371484
 30
0.0
 10
10.69080308509414
 20
12.06253021371484
 30
0.0
 10
10.69080308509414
 20
12.10752311595768
 30
0.0
 10
10.69080308509414
 20
12.15251601820053
 30
0.0
 10
10.6986866125176
 20
12.14243079887521
 30
0.0
 10
10.71094987226084
 20
12.13581383962836
 30
0.0
 10
10.72321313200407
 20
12.1291968803815
 30
0.0
 10
10.73864874239963
 20
12.1291968803815
 30
0.0
 10
10.75976616519707
 20
12.1291968803815
 30
0.0
 10
10.77888311866399
 20
12.14096298500753
 30
0.0
 10
10.79800007213091
 20
12.15272908963356
 30
0.0
 10
10.80803794224888
 20
12.17481715962161
 30
0.0
 10
10.81807581236687
 20
12.19690522960965
 30
0.0
 10
10.81807581236687
 20
12.22448572673009
 30
0.0
 10
10.81807581236687
 20
12.250219627884
 30
0.0
 10
10.8090677643888
 20
12.27179869389314
 30
0.0
 10
10.80005971641074
 20
12.29337775990228
 30
0.0
 10
10.78238690220783
 20
12.30522671408129
 30
0.0
 10
10.76471408800491
 20
12.31707566826029
 30
0.0
 10
10.74160802161892
 20
12.31707566826029
 30
0.0
 10
10.72394704471784
 20
12.31707566826029
 30
0.0
 10
10.71154173735259
 20
12.31013912498363
 30
0.0
 10
10.69913642998734
 20
12.30320258170696
 30
0.0
 10
10.68928793357898
 20
12.28930579743023
 30
0.0
 10
10.68928793357898
 20
12.30167558133011
 30
0.0
 10
10.68928793357898
 20
12.31404536522999
 30
0.0
 10
10.67489399418505
 20
12.31404536522999
 30
0.0
 10
10.66050005479111
 20
12.31404536522999
 30
0.0
 10
10.66050005479111
 20
12.18828778947242
 30
0.0
 10
10.66050005479111
 20
12.06253021371484
 30
0.0
  0
SPLINE
  5
2C
330
1F
100
AcDbEntity
  8
PARTS
100
AcDbSpline
210
0.0
220
0.0
230
1.0
 70
    11
 71
     2
 72
    22
 73
    19
 74
     0
 42
0.0000000001
 43
0.0000000001
 40
-9.0
 40
-9.0
 40
-9.0
 40
-8.0
 40
-8.0
 40
-7.0
 40
-7.0
 40
-6.0
 40
-6.0
 40
-5.0
 40
-5.0
 40
-4.0
 40
-4.0
 40
-3.0
 40
-3.0
 40
-2.0
 40
-2.0
 40
-1.0
 40
-1.0
 40
0.0
 40
0.0
 40
0.0
 10
10.45595460024565
 20
12.2231362743209
 30
0.0
 10
10.45595460024565
 20
12.17761072817507
 30
0.0
 10
10.47919087695183
 20
12.15340380427829
 30
0.0
 10
10.50242715365801
 20
12.1291968803815
 30
0.0
 10
10.54014021931111
 20
12.1291968803815
 30
0.0
 10
10.56362505623609
 20
12.1291968803815
 30
0.0
 10
10.58348774815875
 20
12.14019357194812
 30
0.0
 10
10.60335044008141
 20
12.15119026351474
 30
0.0
 10
10.61374342925444
 20
12.1710884673429
 30
0.0
 10
10.62413641842747
 20
12.19098667117107
 30
0.0
 10
10.62413641842747
 20
12.22566943379386
 30
0.0
 10
10.62413641842747
 20
12.26849614448049
 30
0.0
 10
10.60063974420065
 20
12.29278590637039
 30
0.0
 10
10.57714306997383
 20
12.31707566826029
 30
0.0
 10
10.54014021931111
 20
12.31707566826029
 30
0.0
 10
10.50683056058144
 20
12.31707566826029
 30
0.0
 10
10.48367714498811
 20
12.29709462643901
 30
0.0
 10
10.45595460024565
 20
12.27306527362962
 30
0.0
 10
10.45595460024565
 20
12.2231362743209
 30
0.0
  0
SPLINE
  5
2D
330
1F
100
AcDbEntity
  8
PARTS
100
AcDbSpline
210
0.0
220
0.0
230
1.0
 70
    11
 71
     2
 72
    20
 73
    17
 74
     0
 42
0.0000000001
 43
0.0000000001
 40
0.0
 40
0.0
 40
0.0
 40
1.0
 40
1.0
 40
2.0
 40
2.0
 40
3.0
 40
3.0
 40
4.0
 40
4.0
 40
5.0
 40
5.0
 40
6.0
 40
6.0
 40
7.0
 40
7.0
 40
8.0
 40
8.0
 40
8.0
 10
10.17565156994262
 20
12.22304159902595
 30
0.0
 10
10.17565156994262
 20
12.18883230535683
 30
0.0
 10
10.19068472363565
 20
12.17189338074795
 30
0.0
 10
10.20571787732868
 20
12.15495445613908
 30
0.0
 10
10.22617241122336
 20
12.15495445613908
 30
0.0
 10
10.24681636506713
 20
12.15495445613908
 30
0.0
 10
10.26123396750488
 20
12.17113580499038
 30
0.0
 10
10.27565156994262
 20
12.18731715384167
 30
0.0
 10
10.27565156994262
 20
12.22053211415666
 30
0.0
 10
10.27565156994262
 20
12.25710882195332
 30
0.0
 10
10.26096170956267
 20
12.27421345722802
 30
0.0
 10
10.24627184918272
 20
12.29131809250272
 30
0.0
 10
10.22477563272656
 20
12.29131809250272
 30
0.0
 10
10.20380025755114
 20
12.29131809250272
 30
0.0
 10
10.18972591374688
 20
12.27487633457092
 30
0.0
 10
10.17565156994262
 20
12.25843457663911
 30
0.0
 10
10.17565156994262
 20
12.22304159902595
 30
0.0
  0
SPLINE
  5
2E
330
1F
100
AcDbEntity
  8
PARTS
100
AcDbSpline
210
0.0
220
0.0
230
1.0
 70
    11
 71
     2
 72
    10
 73
     7
 74
     0
 42
0.0000000001
 43
0.0000000001
 40
0.0
 40
0.0
 40
0.0
 40
1.0
 40
1.0
 40
2.0
 40
2.0
 40
3.0
 40
3.0
 40
3.0
 10
11.50898490327596
 20
12.2201059712906
 30
0.0
 10
11.50898490327596
 20
12.27588249366703
 30
0.0
 10
11.50898490327596
 20
12.33165901604346
 30
0.0
 10
11.46885706272811
 20
12.27588249366703
 30
0.0
 10
11.42872922218027
 20
12.2201059712906
 30
0.0
 10
11.46885706272811
 20
12.2201059712906
 30
0.0
 10
11.50898490327596
 20
12.2201059712906
 30
0.0
  0
SPLINE
  5
2F
330
1F
100
AcDbEntity
  8
PARTS
100
AcDbSpline
210
0.0
220
0.0
230
1.0
 70
    11
 71
     2
 72
    26
 73
    23
 74
     0
 42
0.0000000001
 43
0.0000000001
 40
-11.0
 40
-11.0
 40
-11.0
 40
-10.0
 40
-10.0
 40
-9.0
 40
-9.0
 40
-8.0
 40
-8.0
 40
-7.0
 40
-7.0
 40
-6.0
 40
-6.0
 40
-5.0
 40
-5.0
 40
-4.0
 40
-4.0
 40
-3.0
 40
-3.0
 40
-2.0
 40
-2.0
 40
-1.0
 40
-1.0
 40
0.0
 40
0.0
 40
0.0
 10
11.50898490327596
 20
12.13222718341181
 30
0.0
 10
11.52413641842747
 20
12.13222718341181
 30
0.0
 10
11.53928793357899
 20
12.13222718341181
 30
0.0
 10
11.53928793357899
 20
12.16177263795726
 30
0.0
 10
11.53928793357899
 20
12.19131809250272
 30
0.0
 10
11.55595460024565
 20
12.19131809250272
 30
0.0
 10
11.57262126691232
 20
12.19131809250272
 30
0.0
 10
11.57262126691232
 20
12.20571203189666
 30
0.0
 10
11.57262126691232
 20
12.2201059712906
 30
0.0
 10
11.55595460024565
 20
12.2201059712906
 30
0.0
 10
11.53928793357899
 20
12.2201059712906
 30
0.0
 10
11.53928793357899
 20
12.3011665773512
 30
0.0
 10
11.53928793357899
 20
12.38222718341181
 30
0.0
 10
11.52716672145777
 20
12.38222718341181
 30
0.0
 10
11.51504550933656
 20
12.38222718341181
 30
0.0
 10
11.45671217600323
 20
12.3011665773512
 30
0.0
 10
11.3983788426699
 20
12.2201059712906
 30
0.0
 10
11.3983788426699
 20
12.20571203189666
 30
0.0
 10
11.3983788426699
 20
12.19131809250272
 30
0.0
 10
11.45368187297293
 20
12.19131809250272
 30
0.0
 10
11.50898490327596
 20
12.19131809250272
 30
0.0
 10
11.50898490327596
 20
12.16177263795726
 30
0.0
 10
11.50898490327596
 20
12.13222718341181
 30
0.0
  0
SPLINE
  5
30
330
1F
100
AcDbEntity
  8
PARTS
100
AcDbSpline
210
0.0
220
0.0
230
1.0
 70
    11
 71
     2
 72
    48
 73
    45
 74
     0
 42
0.0000000001
 43
0.0000000001
 40
-22.0
 40
-22.0
 40
-22.0
 40
-21.0
 40
-21.0
 40
-20.0
 40
-20.0
 40
-19.0
 40
-19.0
 40
-18.0
 40
-18.0
 40
-17.0
 40
-17.0
 40
-16.0
 40
-16.0
 40
-15.0
 40
-15.0
 40
-14.0
 40
-14.0
 40
-13.0
 40
-13.0
 40
-12.0
 40
-12.0
 40
-11.0
 40
-11.0
 40
-10.0
 40
-10.0
 40
-9.0
 40
-9.0
 40
-8.0
 40
-8.0
 40
-7.0
 40
-7.0
 40
-6.0
 40
-6.0
 40
-5.0
 40
-5.0
 40
-4.0
 40
-4.0
 40
-3.0
 40
-3.0
 40
-2.0
 40
-2.0
 40
-1.0
 40
-1.0
 40
0.0
 40
0.0
 40
0.0
 10
11.37413641842747
 20
12.16253021371484
 30
0.0
 10
11.31264258330351
 20
12.16253021371484
 30
0.0
 10
11.25114874817956
 20
12.16253021371484
 30
0.0
 10
11.25668851295942
 20
12.17086355860804
 30
0.0
 10
11.26519940582028
 20
12.17910219352669
 30
0.0
 10
11.27371029868114
 20
12.18734082844534
 30
0.0
 10
11.30105404976488
 20
12.21044689483134
 30
0.0
 10
11.33344039895141
 20
12.23833513867975
 30
0.0
 10
11.34765679037769
 20
12.2543626026072
 30
0.0
 10
11.36187318180397
 20
12.27039006653464
 30
0.0
 10
11.36800480011572
 20
12.28487870434326
 30
0.0
 10
11.37413641842747
 20
12.29936734215187
 30
0.0
 10
11.37413641842747
 20
12.3143531350777
 30
0.0
 10
11.37413641842747
 20
12.34385125197568
 30
0.0
 10
11.35316104325205
 20
12.36379679345132
 30
0.0
 10
11.33218566807663
 20
12.38374233492696
 30
0.0
 10
11.29620082537171
 20
12.38374233492696
 30
0.0
 10
11.26057107860212
 20
12.38374233492696
 30
0.0
 10
11.23942998120101
 20
12.36513438543895
 30
0.0
 10
11.21828888379989
 20
12.34652643595093
 30
0.0
 10
11.21504550933656
 20
12.31101506219969
 30
0.0
 10
11.23019702448808
 20
12.30874233492696
 30
0.0
 10
11.24534853963959
 20
12.30646960765423
 30
0.0
 10
11.24551426186528
 20
12.33064103120538
 30
0.0
 10
11.25916246280348
 20
12.34431289518738
 30
0.0
 10
11.27281066374168
 20
12.35798475916938
 30
0.0
 10
11.29556161107262
 20
12.35798475916938
 30
0.0
 10
11.31705782752879
 20
12.35798475916938
 30
0.0
 10
11.33044560782661
 20
12.34568599908051
 30
0.0
 10
11.34383338812444
 20
12.33338723899164
 30
0.0
 10
11.34383338812444
 20
12.31548951605386
 30
0.0
 10
11.34383338812444
 20
12.29804158746608
 30
0.0
 10
11.32835044008141
 20
12.27888912209366
 30
0.0
 10
11.31286749203838
 20
12.25973665672124
 30
0.0
 10
11.27281066374168
 20
12.22533798934248
 30
0.0
 10
11.24700573877676
 20
12.20386544748999
 30
0.0
 10
11.23354693466793
 20
12.18743552686002
 30
0.0
 10
11.22008813055909
 20
12.17100560623006
 30
0.0
 10
11.21398017529114
 20
12.15386544748999
 30
0.0
 10
11.21014495885579
 20
12.14347245831696
 30
0.0
 10
11.21050005479111
 20
12.13222718341181
 30
0.0
 10
11.29231823660929
 20
12.13222718341181
 30
0.0
 10
11.37413641842747
 20
12.13222718341181
 30
0.0
 10
11.37413641842747
 20
12.14737869856332
 30
0.0
 10
11.37413641842747
 20
12.16253021371484
 30
0.0
  0
SPLINE
  5
31
330
1F
100
AcDbEntity
  8
PARTS
100
AcDbSpline
210
0.0
220
0.0
230
1.0
 70
    11
 71
     2
 72
    34
 73
    31
 74
     0
 42
0.0000000001
 43
0.0000000001
 40
-15.0
 40
-15.0
 40
-15.0
 40
-14.0
 40
-14.0
 40
-13.0
 40
-13.0
 40
-12.0
 40
-12.0
 40
-11.0
 40
-11.0
 40
-10.0
 40
-10.0
 40
-9.0
 40
-9.0
 40
-8.0
 40
-8.0
 40
-7.0
 40
-7.0
 40
-6.0
 40
-6.0
 40
-5.0
 40
-5.0
 40
-4.0
 40
-4.0
 40
-3.0
 40
-3.0
 40
-2.0
 40
-2.0
 40
-1.0
 40
-1.0
 40
0.0
 40
0.0
 40
0.0
 10
10.93019702448808
 20
12.13222718341181
 30
0.0
 10
10.94852089029192
 20
12.13222718341181
 30
0.0
 10
10.96684475609575
 20
12.13222718341181
 30
0.0
 10
10.99108718033818
 20
12.16686260838713
 30
0.0
 10
11.0153296045806
 20
12.20149803336245
 30
0.0
 10
11.02009996786092
 20
12.1946561769406
 30
0.0
 10
11.02487033114124
 20
12.18781432051874
 30
0.0
 10
11.04337175647261
 20
12.16002075196528
 30
0.0
 10
11.06187318180397
 20
12.13222718341181
 30
0.0
 10
11.08012601223693
 20
12.13222718341181
 30
0.0
 10
11.0983788426699
 20
12.13222718341181
 30
0.0
 10
11.06550716410813
 20
12.17922055498518
 30
0.0
 10
11.03263548554636
 20
12.22621392655854
 30
0.0
 10
11.06337648445742
 20
12.27012964589427
 30
0.0
 10
11.09411748336848
 20
12.31404536522999
 30
0.0
 10
11.07579361756464
 20
12.31404536522999
 30
0.0
 10
11.0574697517608
 20
12.31404536522999
 30
0.0
 10
11.04242477232581
 20
12.29254916033369
 30
0.0
 10
11.02737979289081
 20
12.2710529554374
 30
0.0
 10
11.02124816301919
 20
12.2622698161942
 30
0.0
 10
11.01338833331912
 20
12.25109556510006
 30
0.0
 10
11.00881920417
 20
12.25762966323406
 30
0.0
 10
11.00181161396259
 20
12.27029536811996
 30
0.0
 10
10.98651805118905
 20
12.29217036667497
 30
0.0
 10
10.97122448841552
 20
12.31404536522999
 30
0.0
 10
10.95298348372453
 20
12.31404536522999
 30
0.0
 10
10.93474247903353
 20
12.31404536522999
 30
0.0
 10
10.96541246569345
 20
12.27018883240344
 30
0.0
 10
10.99608245235336
 20
12.22633229957689
 30
0.0
 10
10.96313973842072
 20
12.17927974149435
 30
0.0
 10
10.93019702448808
 20
12.13222718341181
 30
0.0
  0
SPLINE
  5
32
330
1F
100
AcDbEntity
  8
PARTS
100
AcDbSpline
210
0.0
220
0.0
230
1.0
 70
    11
 71
     2
 72
    20
 73
    17
 74
     0
 42
0.0000000001
 43
0.0000000001
 40
0.0
 40
0.0
 40
0.0
 40
1.0
 40
1.0
 40
2.0
 40
2.0
 40
3.0
 40
3.0
 40
4.0
 40
4.0
 40
5.0
 40
5.0
 40
6.0
 40
6.0
 40
7.0
 40
7.0
 40
8.0
 40
8.0
 40
8.0
 10
10.68777278206383
 20
12.22230768631218
 30
0.0
 10
10.68777278206383
 20
12.18786166972608
 30
0.0
 10
10.70220223336328
 20
12.17140806293258
 30
0.0
 10
10.71663168466272
 20
12.15495445613908
 30
0.0
 10
10.73715726548814
 20
12.15495445613908
 30
0.0
 10
10.75803794224888
 20
12.15495445613908
 30
0.0
 10
10.77290536215636
 20
12.17199991646447
 30
0.0
 10
10.78777278206383
 20
12.18904537678986
 30
0.0
 10
10.78777278206383
 20
12.22481714806174
 30
0.0
 10
10.78777278206383
 20
12.25890806871251
 30
0.0
 10
10.77324864390958
 20
12.27587065636519
 30
0.0
 10
10.75872450575532
 20
12.29283324401787
 30
0.0
 10
10.73855404398495
 20
12.29283324401787
 30
0.0
 10
10.71854930444027
 20
12.29283324401787
 30
0.0
 10
10.70316104325205
 20
12.27478163615624
 30
0.0
 10
10.68777278206383
 20
12.2567300282946
 30
0.0
 10
10.68777278206383
 20
12.22230768631218
 30
0.0
  0
SPLINE
  5
33
330
1F
100
AcDbEntity
  8
PARTS
100
AcDbSpline
210
0.0
220
0.0
230
1.0
 70
    11
 71
     2
 72
    20
 73
    17
 74
     0
 42
0.0000000001
 43
0.0000000001
 40
0.0
 40
0.0
 40
0.0
 40
1.0
 40
1.0
 40
2.0
 40
2.0
 40
3.0
 40
3.0
 40
4.0
 40
4.0
 40
5.0
 40
5.0
 40
6.0
 40
6.0
 40
7.0
 40
7.0
 40
8.0
 40
8.0
 40
8.0
 10
10.48625763054868
 20
12.22323097273558
 30
0.0
 10
10.48625763054868
 20
12.18899802758252
 30
0.0
 10
10.50157486792589
 20
12.1719762418608
 30
0.0
 10
10.51689210530309
 20
12.15495445613908
 30
0.0
 10
10.54014021931111
 20
12.15495445613908
 30
0.0
 10
10.56319893648976
 20
12.15495445613908
 30
0.0
 10
10.5785161623071
 20
12.17205910297364
 30
0.0
 10
10.59383338812444
 20
12.18916374980821
 30
0.0
 10
10.59383338812444
 20
12.22422530608972
 30
0.0
 10
10.59383338812444
 20
12.25727454417901
 30
0.0
 10
10.57843330119426
 20
12.27429631834087
 30
0.0
 10
10.56303321426407
 20
12.29131809250272
 30
0.0
 10
10.54014021931111
 20
12.29131809250272
 30
0.0
 10
10.51689210530309
 20
12.29131809250272
 30
0.0
 10
10.50157486792589
 20
12.27437917945371
 30
0.0
 10
10.48625763054868
 20
12.2574402664047
 30
0.0
 10
10.48625763054868
 20
12.22323097273558
 30
0.0
  0
SPLINE
  5
34
330
1F
100
AcDbEntity
  8
PARTS
100
AcDbSpline
210
0.0
220
0.0
230
1.0
 70
    11
 71
     2
 72
    30
 73
    27
 74
     0
 42
0.0000000001
 43
0.0000000001
 40
-13.0
 40
-13.0
 40
-13.0
 40
-12.0
 40
-12.0
 40
-11.0
 40
-11.0
 40
-10.0
 40
-10.0
 40
-9.0
 40
-9.0
 40
-8.0
 40
-8.0
 40
-7.0
 40
-7.0
 40
-6.0
 40
-6.0
 40
-5.0
 40
-5.0
 40
-4.0
 40
-4.0
 40
-3.0
 40
-3.0
 40
-2.0
 40
-2.0
 40
-1.0
 40
-1.0
 40
0.0
 40
0.0
 40
0.0
 10
10.3514091457002
 20
12.13222718341181
 30
0.0
 10
10.36656066085171
 20
12.13222718341181
 30
0.0
 10
10.38171217600323
 20
12.13222718341181
 30
0.0
 10
10.38171217600323
 20
12.17949281292738
 30
0.0
 10
10.38171217600323
 20
12.22675844244295
 30
0.0
 10
10.38171217600323
 20
12.24614764229221
 30
0.0
 10
10.38677847182942
 20
12.26248288762723
 30
0.0
 10
10.39014021931111
 20
12.27318362352824
 30
0.0
 10
10.39797639752723
 20
12.27922055498517
 30
0.0
 10
10.40581257574336
 20
12.28525748644211
 30
0.0
 10
10.41563737442831
 20
12.28525748644211
 30
0.0
 10
10.42664590329676
 20
12.28525748644211
 30
0.0
 10
10.43765443216521
 20
12.27976507086959
 30
0.0
 10
10.44301663741756
 20
12.29388675232132
 30
0.0
 10
10.4483788426699
 20
12.30800843377305
 30
0.0
 10
10.43225669188764
 20
12.31707566826029
 30
0.0
 10
10.41663168466272
 20
12.31707566826029
 30
0.0
 10
10.40581257574336
 20
12.31707566826029
 30
0.0
 10
10.39680451620543
 20
12.31092037534487
 30
0.0
 10
10.38779645666751
 20
12.30476508242945
 30
0.0
 10
10.37716672145777
 20
12.28544688327147
 30
0.0
 10
10.37716672145777
 20
12.29974612425073
 30
0.0
 10
10.37716672145777
 20
12.31404536522999
 30
0.0
 10
10.36428793357899
 20
12.31404536522999
 30
0.0
 10
10.3514091457002
 20
12.31404536522999
 30
0.0
 10
10.3514091457002
 20
12.2231362743209
 30
0.0
 10
10.3514091457002
 20
12.13222718341181
 30
0.0
  0
SPLINE
  5
35
330
1F
100
AcDbEntity
  8
PARTS
100
AcDbSpline
210
0.0
220
0.0
230
1.0
 70
    11
 71
     2
 72
    32
 73
    29
 74
     0
 42
0.0000000001
 43
0.0000000001
 40
-14.0
 40
-14.0
 40
-14.0
 40
-13.0
 40
-13.0
 40
-12.0
 40
-12.0
 40
-11.0
 40
-11.0
 40
-10.0
 40
-10.0
 40
-9.0
 40
-9.0
 40
-8.0
 40
-8.0
 40
-7.0
 40
-7.0
 40
-6.0
 40
-6.0
 40
-5.0
 40
-5.0
 40
-4.0
 40
-4.0
 40
-3.0
 40
-3.0
 40
-2.0
 40
-2.0
 40
-1.0
 40
-1.0
 40
0.0
 40
0.0
 40
0.0
 10
10.27413641842747
 20
12.13222718341181
 30
0.0
 10
10.28853035782141
 20
12.13222718341181
 30
0.0
 10
10.30292429721535
 20
12.13222718341181
 30
0.0
 10
10.30292429721535
 20
12.25722718341181
 30
0.0
 10
10.30292429721535
 20
12.38222718341181
 30
0.0
 10
10.28777278206383
 20
12.38222718341181
 30
0.0
 10
10.27262126691232
 20
12.38222718341181
 30
0.0
 10
10.27262126691232
 20
12.33703305859763
 30
0.0
 10
10.27262126691232
 20
12.29183893378346
 30
0.0
 10
10.26454836577922
 20
12.30308420868861
 30
0.0
 10
10.2516932525041
 20
12.31007993847445
 30
0.0
 10
10.23883813922899
 20
12.31707566826029
 30
0.0
 10
10.22236086939168
 20
12.31707566826029
 30
0.0
 10
10.19989399418505
 20
12.31707566826029
 30
0.0
 10
10.18171217600323
 20
12.30539243630698
 30
0.0
 10
10.16353035782141
 20
12.29370920435366
 30
0.0
 10
10.1544394487305
 20
12.27179869389314
 30
0.0
 10
10.14534853963959
 20
12.24988818343262
 30
0.0
 10
10.14534853963959
 20
12.22297057521494
 30
0.0
 10
10.14534853963959
 20
12.19536640349083
 30
0.0
 10
10.1553390721101
 20
12.17413060767504
 30
0.0
 10
10.1653296045806
 20
12.15289481185925
 30
0.0
 10
10.18352326006426
 20
12.14104584612038
 30
0.0
 10
10.20171691554791
 20
12.1291968803815
 30
0.0
 10
10.22340252883343
 20
12.1291968803815
 30
0.0
 10
10.25687790978878
 20
12.1291968803815
 30
0.0
 10
10.27413641842747
 20
12.15670635369093
 30
0.0
 10
10.27413641842747
 20
12.14446676855137
 30
0.0
 10
10.27413641842747
 20
12.13222718341181
 30
0.0
  0
SPLINE
  5
36
330
1F
100
AcDbEntity
  8
PARTS
 62
     1
100
AcDbSpline
210
0.0
220
0.0
230
1.0
 70
    24
 71
     2
 72
     6
 73
     3
 74
     0
 42
0.0000000001
 43
0.0000000001
 40
0.0
 40
0.0
 40
0.0
 40
0.0348484848484851
 40
0.0348484848484851
 40
0.0348484848484851
 10
8.119916215054513
 20
6.159031409447438
 30
0.0
 10
8.119916215054513
 20
6.141607167023196
 30
0.0
 10
8.119916215054513
 20
6.124182924598953
 30
0.0
  0
SPLINE
  5
37
330
1F
100
AcDbEntity
  8
PARTS
 62
     1
100
AcDbSpline
210
0.0
220
0.0
230
1.0
 70
    24
 71
     2
 72
     6
 73
     3
 74
     0
 42
0.0000000001
 43
0.0000000001
 40
0.0
 40
0.0
 40
0.0
 40
0.0303030303030312
 40
0.0303030303030312
 40
0.0303030303030312
 10
8.119916215054513
 20
6.124182924598953
 30
0.0
 10
8.135067730206028
 20
6.124182924598953
 30
0.0
 10
8.150219245357544
 20
6.124182924598953
 30
0.0
  0
SPLINE
  5
38
330
1F
100
AcDbEntity
  8
PARTS
 62
     1
100
AcDbSpline
210
0.0
220
0.0
230
1.0
 70
    24
 71
     2
 72
     6
 73
     3
 74
     0
 42
0.0000000001
 43
0.0000000001
 40
0.0
 40
0.0
 40
0.0
 40
0.0348484848484851
 40
0.0348484848484851
 40
0.0348484848484851
 10
8.150219245357544
 20
6.124182924598953
 30
0.0
 10
8.150219245357544
 20
6.141607167023196
 30
0.0
 10
8.150219245357544
 20
6.159031409447438
 30
0.0
  0
SPLINE
  5
39
330
1F
100
AcDbEntity
  8
PARTS
 62
     1
100
AcDbSpline
210
0.0
220
0.0
230
1.0
 70
    24
 71
     2
 72
     6
 73
     3
 74
     0
 42
0.0000000001
 43
0.0000000001
 40
0.0
 40
0.0
 40
0.0
 40
0.0303030303030312
 40
0.0303030303030312
 40
0.0303030303030312
 10
8.150219245357544
 20
6.159031409447438
 30
0.0
 10
8.135067730206028
 20
6.159031409447438
 30
0.0
 10
8.119916215054513
 20
6.159031409447438
 30
0.0
  0
SPLINE
  5
3A
330
1F
100
AcDbEntity
  8
PARTS
 62
     1
100
AcDbSpline
210
0.0
220
0.0
230
1.0
 70
    24
 71
     2
 72
     6
 73
     3
 74
     0
 42
0.0000000001
 43
0.0000000001
 40
0.0
 40
0.0
 40
0.0
 40
0.1818181818181817
 40
0.1818181818181817
 40
0.1818181818181817
 10
8.119916215054513
 20
6.09084959126562
 30
0.0
 10
8.119916215054513
 20
5.999940500356529
 30
0.0
 10
8.119916215054513
 20
5.909031409447438
 30
0.0
  0
SPLINE
  5
3B
330
1F
100
AcDbEntity
  8
PARTS
 62
     1
100
AcDbSpline
210
0.0
220
0.0
230
1.0
 70
    24
 71
     2
 72
     6
 73
     3
 74
     0
 42
0.0000000001
 43
0.0000000001
 40
0.0
 40
0.0
 40
0.0
 40
0.0303030303030312
 40
0.0303030303030312
 40
0.0303030303030312
 10
8.119916215054513
 20
5.909031409447438
 30
0.0
 10
8.135067730206028
 20
5.909031409447438
 30
0.0
 10
8.150219245357544
 20
5.909031409447438
 30
0.0
  0
SPLINE
  5
3C
330
1F
100
AcDbEntity
  8
PARTS
 62
     1
100
AcDbSpline
210
0.0
220
0.0
230
1.0
 70
    24
 71
     2
 72
     6
 73
     3
 74
     0
 42
0.0000000001
 43
0.0000000001
 40
0.0
 40
0.0
 40
0.0
 40
0.1818181818181817
 40
0.1818181818181817
 40
0.1818181818181817
 10
8.150219245357544
 20
5.909031409447438
 30
0.0
 10
8.150219245357544
 20
5.999940500356529
 30
0.0
 10
8.150219245357544
 20
6.09084959126562
 30
0.0
  0
SPLINE
  5
3D
330
1F
100
AcDbEntity
  8
PARTS
 62
     1
100
AcDbSpline
210
0.0
220
0.0
230
1.0
 70
    24
 71
     2
 72
     6
 73
     3
 74
     0
 42
0.0000000001
 43
0.0000000001
 40
0.0
 40
0.0
 40
0.0
 40
0.0303030303030312
 40
0.0303030303030312
 40
0.0303030303030312
 10
8.150219245357544
 20
6.09084959126562
 30
0.0
 10
8.135067730206028
 20
6.09084959126562
 30
0.0
 10
8.119916215054513
 20
6.09084959126562
 30
0.0
  0
SPLINE
  5
3E
330
1F
100
AcDbEntity
  8
PARTS
 62
     1
100
AcDbSpline
210
0.0
220
0.0
230
1.0
 70
    24
 71
     2
 72
     6
 73
     3
 74
     0
 42
0.0000000001
 43
0.0000000001
 40
0.0
 40
0.0
 40
0.0
 40
0.1818181818181817
 40
0.1818181818181817
 40
0.1818181818181817
 10
8.19718894232724
 20
6.09084959126562
 30
0.0
 10
8.19718894232724
 20
5.999940500356529
 30
0.0
 10
8.19718894232724
 20
5.909031409447438
 30
0.0
  0
SPLINE
  5
3F
330
1F
100
AcDbEntity
  8
PARTS
 62
     1
100
AcDbSpline
210
0.0
220
0.0
230
1.0
 70
    24
 71
     2
 72
     6
 73
     3
 74
     0
 42
0.0000000001
 43
0.0000000001
 40
0.0
 40
0.0
 40
0.0
 40
0.0303030303030294
 40
0.0303030303030294
 40
0.0303030303030294
 10
8.19718894232724
 20
5.909031409447438
 30
0.0
 10
8.212340457478756
 20
5.909031409447438
 30
0.0
 10
8.22749197263027
 20
5.909031409447438
 30
0.0
  0
SPLINE
  5
40
330
1F
100
AcDbEntity
  8
PARTS
 62
     1
100
AcDbSpline
210
0.0
220
0.0
230
1.0
 70
    24
 71
     2
 72
     6
 73
     3
 74
     0
 42
0.0000000001
 43
0.0000000001
 40
0.0
 40
0.0
 40
0.0
 40
0.0982718001715481
 40
0.0982718001715481
 40
0.0982718001715481
 10
8.22749197263027
 20
5.909031409447438
 30
0.0
 10
8.22749197263027
 20
5.958167309533213
 30
0.0
 10
8.22749197263027
 20
6.007303209618986
 30
0.0
  0
SPLINE
  5
41
330
1F
100
AcDbEntity
  8
PARTS
 62
     1
100
AcDbSpline
210
0.0
220
0.0
230
1.0
 70
    24
 71
     2
 72
     6
 73
     3
 74
     0
 42
0.0000000001
 43
0.0000000001
 40
0.0
 40
0.0
 40
0.0
 40
0.0490024197431916
 40
0.0490024197431916
 40
0.0490024197431916
 10
8.22749197263027
 20
6.007303209618986
 30
0.0
 10
8.234535063183317
 20
6.03077029637115
 30
0.0
 10
8.241578153736365
 20
6.054237383123313
 30
0.0
  0
SPLINE
  5
42
330
1F
100
AcDbEntity
  8
PARTS
 62
     1
100
AcDbSpline
210
0.0
220
0.0
230
1.0
 70
    24
 71
     2
 72
     6
 73
     3
 74
     0
 42
0.0000000001
 43
0.0000000001
 40
0.0
 40
0.0
 40
0.0
 40
0.0356877105434888
 40
0.0356877105434888
 40
0.0356877105434888
 10
8.241578153736365
 20
6.054237383123313
 30
0.0
 10
8.258315844214042
 20
6.060422275073254
 30
0.0
 10
8.275053534691718
 20
6.066607167023196
 30
0.0
  0
SPLINE
  5
43
330
1F
100
AcDbEntity
  8
PARTS
 62
     1
100
AcDbSpline
210
0.0
220
0.0
230
1.0
 70
    24
 71
     2
 72
     6
 73
     3
 74
     0
 42
0.0000000001
 43
0.0000000001
 40
0.0
 40
0.0
 40
0.0
 40
0.0218802555156465
 40
0.0218802555156465
 40
0.0218802555156465
 10
8.275053534691718
 20
6.066607167023196
 30
0.0
 10
8.285641839345026
 20
6.063855040586015
 30
0.0
 10
8.296230143998335
 20
6.061102914148835
 30
0.0
  0
SPLINE
  5
44
330
1F
100
AcDbEntity
  8
PARTS
 62
     1
100
AcDbSpline
210
0.0
220
0.0
230
1.0
 70
    24
 71
     2
 72
     6
 73
     3
 74
     0
 42
0.0000000001
 43
0.0000000001
 40
0.0
 40
0.0
 40
0.0
 40
0.0193704889137421
 40
0.0193704889137421
 40
0.0193704889137421
 10
8.296230143998335
 20
6.061102914148835
 30
0.0
 10
8.302515653013874
 20
6.05373430935519
 30
0.0
 10
8.308801162029413
 20
6.046365704561545
 30
0.0
  0
SPLINE
  5
45
330
1F
100
AcDbEntity
  8
PARTS
 62
     1
100
AcDbSpline
210
0.0
220
0.0
230
1.0
 70
    24
 71
     2
 72
     6
 73
     3
 74
     0
 42
0.0000000001
 43
0.0000000001
 40
0.0
 40
0.0
 40
0.0
 40
0.028111955584136
 40
0.028111955584136
 40
0.028111955584136
 10
8.308801162029413
 20
6.046365704561545
 30
0.0
 10
8.310570809754084
 20
6.032421571077471
 30
0.0
 10
8.312340457478756
 20
6.018477437593397
 30
0.0
  0
SPLINE
  5
46
330
1F
100
AcDbEntity
  8
PARTS
 62
     1
100
AcDbSpline
210
0.0
220
0.0
230
1.0
 70
    24
 71
     2
 72
     6
 73
     3
 74
     0
 42
0.0000000001
 43
0.0000000001
 40
0.0
 40
0.0
 40
0.0
 40
0.1094460281459586
 40
0.1094460281459586
 40
0.1094460281459586
 10
8.312340457478756
 20
6.018477437593397
 30
0.0
 10
8.312340457478756
 20
5.963754423520418
 30
0.0
 10
8.312340457478756
 20
5.909031409447438
 30
0.0
  0
SPLINE
  5
47
330
1F
100
AcDbEntity
  8
PARTS
 62
     1
100
AcDbSpline
210
0.0
220
0.0
230
1.0
 70
    24
 71
     2
 72
     6
 73
     3
 74
     0
 42
0.0000000001
 43
0.0000000001
 40
0.0
 40
0.0
 40
0.0
 40
0.0303030303030294
 40
0.0303030303030294
 40
0.0303030303030294
 10
8.312340457478756
 20
5.909031409447438
 30
0.0
 10
8.32749197263027
 20
5.909031409447438
 30
0.0
 10
8.342643487781785
 20
5.909031409447438
 30
0.0
  0
SPLINE
  5
48
330
1F
100
AcDbEntity
  8
PARTS
 62
     1
100
AcDbSpline
210
0.0
220
0.0
230
1.0
 70
    24
 71
     2
 72
     6
 73
     3
 74
     0
 42
0.0000000001
 43
0.0000000001
 40
0.0
 40
0.0
 40
0.0
 40
0.1111505764904708
 40
0.1111505764904708
 40
0.1111505764904708
 10
8.342643487781785
 20
5.909031409447438
 30
0.0
 10
8.342643487781785
 20
5.964606697692673
 30
0.0
 10
8.342643487781785
 20
6.020181985937909
 30
0.0
  0
SPLINE
  5
49
330
1F
100
AcDbEntity
  8
PARTS
 62
     1
100
AcDbSpline
210
0.0
220
0.0
230
1.0
 70
    24
 71
     2
 72
     6
 73
     3
 74
     0
 42
0.0000000001
 43
0.0000000001
 40
0.0
 40
0.0
 40
0.0
 40
0.029829583332153
 40
0.029829583332153
 40
0.029829583332153
 10
8.342643487781785
 20
6.020181985937909
 30
0.0
 10
8.34180306247123
 20
6.035073080449054
 30
0.0
 10
8.340962637160676
 20
6.049964174960198
 30
0.0
  0
SPLINE
  5
4A
330
1F
100
AcDbEntity
  8
PARTS
 62
     1
100
AcDbSpline
210
0.0
220
0.0
230
1.0
 70
    24
 71
     2
 72
     6
 73
     3
 74
     0
 42
0.0000000001
 43
0.0000000001
 40
0.0
 40
0.0
 40
0.0
 40
0.0245356387122997
 40
0.0245356387122997
 40
0.0245356387122997
 10
8.340962637160676
 20
6.049964174960198
 30
0.0
 10
8.336239617307763
 20
6.061286386547345
 30
0.0
 10
8.33151659745485
 20
6.072608598134492
 30
0.0
  0
SPLINE
  5
4B
330
1F
100
AcDbEntity
  8
PARTS
 62
     1
100
AcDbSpline
210
0.0
220
0.0
230
1.0
 70
    24
 71
     2
 72
     6
 73
     3
 74
     0
 42
0.0000000001
 43
0.0000000001
 40
0.0
 40
0.0
 40
0.0
 40
0.0254903951647211
 40
0.0254903951647211
 40
0.0254903951647211
 10
8.33151659745485
 20
6.072608598134492
 30
0.0
 10
8.321360348538587
 20
6.080308641599585
 30
0.0
 10
8.311204099622325
 20
6.088008685064677
 30
0.0
  0
SPLINE
  5
4C
330
1F
100
AcDbEntity
  8
PARTS
 62
     1
100
AcDbSpline
210
0.0
220
0.0
230
1.0
 70
    24
 71
     2
 72
     6
 73
     3
 74
     0
 42
0.0000000001
 43
0.0000000001
 40
0.0
 40
0.0
 40
0.0
 40
0.0303321657360667
 40
0.0303321657360667
 40
0.0303321657360667
 10
8.311204099622325
 20
6.088008685064677
 30
0.0
 10
8.296324842413014
 20
6.0909442896803
 30
0.0
 10
8.281445585203706
 20
6.093879894295923
 30
0.0
  0
SPLINE
  5
4D
330
1F
100
AcDbEntity
  8
PARTS
 62
     1
100
AcDbSpline
210
0.0
220
0.0
230
1.0
 70
    12
 71
     2
 72
     6
 73
     3
 74
     0
 42
0.0000000001
 43
0.0000000001
 40
0.0
 40
0.0
 40
0.0
 40
0.0667119560488129
 40
0.0667119560488129
 40
0.0667119560488129
 10
8.281445585203706
 20
6.093879894295923
 30
0.0
 41
1.0
 10
8.244842863541018
 20
6.095615954999147
 30
0.0
 41
0.8706892888019495
 10
8.22446166959997
 20
6.065163039319053
 30
0.0
 41
1.0
  0
SPLINE
  5
4E
330
1F
100
AcDbEntity
  8
PARTS
 62
     1
100
AcDbSpline
210
0.0
220
0.0
230
1.0
 70
    24
 71
     2
 72
     6
 73
     3
 74
     0
 42
0.0000000001
 43
0.0000000001
 40
0.0
 40
0.0
 40
0.0
 40
0.0256865519465661
 40
0.0256865519465661
 40
0.0256865519465661
 10
8.224461669599968
 20
6.065163039319054
 30
0.0
 10
8.224461669599968
 20
6.078006315292336
 30
0.0
 10
8.224461669599968
 20
6.09084959126562
 30
0.0
  0
SPLINE
  5
4F
330
1F
100
AcDbEntity
  8
PARTS
 62
     1
100
AcDbSpline
210
0.0
220
0.0
230
1.0
 70
    24
 71
     2
 72
     6
 73
     3
 74
     0
 42
0.0000000001
 43
0.0000000001
 40
0.0
 40
0.0
 40
0.0
 40
0.0272727272727273
 40
0.0272727272727273
 40
0.0272727272727273
 10
8.224461669599968
 20
6.09084959126562
 30
0.0
 10
8.210825305963604
 20
6.09084959126562
 30
0.0
 10
8.19718894232724
 20
6.09084959126562
 30
0.0
  0
SPLINE
  5
50
330
1F
100
AcDbEntity
  8
PARTS
 62
     1
100
AcDbSpline
210
0.0
220
0.0
230
1.0
 70
    24
 71
     2
 72
     6
 73
     3
 74
     0
 42
0.0000000001
 43
0.0000000001
 40
0.0
 40
0.0
 40
0.0
 40
0.1818181818181817
 40
0.1818181818181817
 40
0.1818181818181817
 10
8.391128336266634
 20
6.09084959126562
 30
0.0
 10
8.391128336266634
 20
5.999940500356529
 30
0.0
 10
8.391128336266634
 20
5.909031409447438
 30
0.0
  0
SPLINE
  5
51
330
1F
100
AcDbEntity
  8
PARTS
 62
     1
100
AcDbSpline
210
0.0
220
0.0
230
1.0
 70
    24
 71
     2
 72
     6
 73
     3
 74
     0
 42
0.0000000001
 43
0.0000000001
 40
0.0
 40
0.0
 40
0.0
 40
0.0303030303030312
 40
0.0303030303030312
 40
0.0303030303030312
 10
8.391128336266634
 20
5.909031409447438
 30
0.0
 10
8.406279851418152
 20
5.909031409447438
 30
0.0
 10
8.421431366569667
 20
5.909031409447438
 30
0.0
  0
SPLINE
  5
52
330
1F
100
AcDbEntity
  8
PARTS
 62
     1
100
AcDbSpline
210
0.0
220
0.0
230
1.0
 70
    24
 71
     2
 72
     6
 73
     3
 74
     0
 42
0.0000000001
 43
0.0000000001
 40
0.0
 40
0.0
 40
0.0
 40
0.0982718001715481
 40
0.0982718001715481
 40
0.0982718001715481
 10
8.421431366569667
 20
5.909031409447438
 30
0.0
 10
8.421431366569667
 20
5.958167309533213
 30
0.0
 10
8.421431366569665
 20
6.007303209618986
 30
0.0
  0
SPLINE
  5
53
330
1F
100
AcDbEntity
  8
PARTS
 62
     1
100
AcDbSpline
210
0.0
220
0.0
230
1.0
 70
    24
 71
     2
 72
     6
 73
     3
 74
     0
 42
0.0000000001
 43
0.0000000001
 40
0.0
 40
0.0
 40
0.0
 40
0.0490024197431916
 40
0.0490024197431916
 40
0.0490024197431916
 10
8.421431366569665
 20
6.007303209618986
 30
0.0
 10
8.428474457122713
 20
6.03077029637115
 30
0.0
 10
8.43551754767576
 20
6.054237383123313
 30
0.0
  0
SPLINE
  5
54
330
1F
100
AcDbEntity
  8
PARTS
 62
     1
100
AcDbSpline
210
0.0
220
0.0
230
1.0
 70
    24
 71
     2
 72
     6
 73
     3
 74
     0
 42
0.0000000001
 43
0.0000000001
 40
0.0
 40
0.0
 40
0.0
 40
0.0356877105434888
 40
0.0356877105434888
 40
0.0356877105434888
 10
8.43551754767576
 20
6.054237383123313
 30
0.0
 10
8.452255238153437
 20
6.060422275073254
 30
0.0
 10
8.468992928631113
 20
6.066607167023196
 30
0.0
  0
SPLINE
  5
55
330
1F
100
AcDbEntity
  8
PARTS
 62
     1
100
AcDbSpline
210
0.0
220
0.0
230
1.0
 70
    24
 71
     2
 72
     6
 73
     3
 74
     0
 42
0.0000000001
 43
0.0000000001
 40
0.0
 40
0.0
 40
0.0
 40
0.0218802555156448
 40
0.0218802555156448
 40
0.0218802555156448
 10
8.468992928631113
 20
6.066607167023196
 30
0.0
 10
8.47958123328442
 20
6.063855040586015
 30
0.0
 10
8.490169537937728
 20
6.061102914148835
 30
0.0
  0
SPLINE
  5
56
330
1F
100
AcDbEntity
  8
PARTS
 62
     1
100
AcDbSpline
210
0.0
220
0.0
230
1.0
 70
    24
 71
     2
 72
     6
 73
     3
 74
     0
 42
0.0000000001
 43
0.0000000001
 40
0.0
 40
0.0
 40
0.0
 40
0.0193704889137421
 40
0.0193704889137421
 40
0.0193704889137421
 10
8.490169537937728
 20
6.061102914148835
 30
0.0
 10
8.496455046953267
 20
6.05373430935519
 30
0.0
 10
8.502740555968806
 20
6.046365704561545
 30
0.0
  0
SPLINE
  5
57
330
1F
100
AcDbEntity
  8
PARTS
 62
     1
100
AcDbSpline
210
0.0
220
0.0
230
1.0
 70
    24
 71
     2
 72
     6
 73
     3
 74
     0
 42
0.0000000001
 43
0.0000000001
 40
0.0
 40
0.0
 40
0.0
 40
0.028111955584136
 40
0.028111955584136
 40
0.028111955584136
 10
8.502740555968806
 20
6.046365704561545
 30
0.0
 10
8.504510203693478
 20
6.032421571077471
 30
0.0
 10
8.50627985141815
 20
6.018477437593397
 30
0.0
  0
SPLINE
  5
58
330
1F
100
AcDbEntity
  8
PARTS
 62
     1
100
AcDbSpline
210
0.0
220
0.0
230
1.0
 70
    24
 71
     2
 72
     6
 73
     3
 74
     0
 42
0.0000000001
 43
0.0000000001
 40
0.0
 40
0.0
 40
0.0
 40
0.1094460281459586
 40
0.1094460281459586
 40
0.1094460281459586
 10
8.50627985141815
 20
6.018477437593397
 30
0.0
 10
8.50627985141815
 20
5.963754423520418
 30
0.0
 10
8.50627985141815
 20
5.909031409447438
 30
0.0
  0
SPLINE
  5
59
330
1F
100
AcDbEntity
  8
PARTS
 62
     1
100
AcDbSpline
210
0.0
220
0.0
230
1.0
 70
    24
 71
     2
 72
     6
 73
     3
 74
     0
 42
0.0000000001
 43
0.0000000001
 40
0.0
 40
0.0
 40
0.0
 40
0.0303030303030312
 40
0.0303030303030312
 40
0.0303030303030312
 10
8.50627985141815
 20
5.909031409447438
 30
0.0
 10
8.521431366569665
 20
5.909031409447438
 30
0.0
 10
8.53658288172118
 20
5.909031409447438
 30
0.0
  0
SPLINE
  5
5A
330
1F
100
AcDbEntity
  8
PARTS
 62
     1
100
AcDbSpline
210
0.0
220
0.0
230
1.0
 70
    24
 71
     2
 72
     6
 73
     3
 74
     0
 42
0.0000000001
 43
0.0000000001
 40
0.0
 40
0.0
 40
0.0
 40
0.1111505764904708
 40
0.1111505764904708
 40
0.1111505764904708
 10
8.53658288172118
 20
5.909031409447438
 30
0.0
 10
8.53658288172118
 20
5.964606697692673
 30
0.0
 10
8.53658288172118
 20
6.020181985937909
 30
0.0
  0
SPLINE
  5
5B
330
1F
100
AcDbEntity
  8
PARTS
 62
     1
100
AcDbSpline
210
0.0
220
0.0
230
1.0
 70
    24
 71
     2
 72
     6
 73
     3
 74
     0
 42
0.0000000001
 43
0.0000000001
 40
0.0
 40
0.0
 40
0.0
 40
0.0298295833321531
 40
0.0298295833321531
 40
0.0298295833321531
 10
8.53658288172118
 20
6.020181985937909
 30
0.0
 10
8.535742456410624
 20
6.035073080449054
 30
0.0
 10
8.534902031100069
 20
6.049964174960198
 30
0.0
  0
SPLINE
  5
5C
330
1F
100
AcDbEntity
  8
PARTS
 62
     1
100
AcDbSpline
210
0.0
220
0.0
230
1.0
 70
    24
 71
     2
 72
     6
 73
     3
 74
     0
 42
0.0000000001
 43
0.0000000001
 40
0.0
 40
0.0
 40
0.0
 40
0.0245356387122997
 40
0.0245356387122997
 40
0.0245356387122997
 10
8.534902031100069
 20
6.049964174960198
 30
0.0
 10
8.530179011247156
 20
6.061286386547345
 30
0.0
 10
8.525455991394244
 20
6.072608598134492
 30
0.0
  0
SPLINE
  5
5D
330
1F
100
AcDbEntity
  8
PARTS
 62
     1
100
AcDbSpline
210
0.0
220
0.0
230
1.0
 70
    24
 71
     2
 72
     6
 73
     3
 74
     0
 42
0.0000000001
 43
0.0000000001
 40
0.0
 40
0.0
 40
0.0
 40
0.0254903951647211
 40
0.0254903951647211
 40
0.0254903951647211
 10
8.525455991394244
 20
6.072608598134492
 30
0.0
 10
8.515299742477982
 20
6.080308641599585
 30
0.0
 10
8.505143493561718
 20
6.088008685064677
 30
0.0
  0
SPLINE
  5
5E
330
1F
100
AcDbEntity
  8
PARTS
 62
     1
100
AcDbSpline
210
0.0
220
0.0
230
1.0
 70
    24
 71
     2
 72
     6
 73
     3
 74
     0
 42
0.0000000001
 43
0.0000000001
 40
0.0
 40
0.0
 40
0.0
 40
0.0303321657360667
 40
0.0303321657360667
 40
0.0303321657360667
 10
8.505143493561718
 20
6.088008685064677
 30
0.0
 10
8.49026423635241
 20
6.0909442896803
 30
0.0
 10
8.475384979143099
 20
6.093879894295923
 30
0.0
  0
SPLINE
  5
5F
330
1F
100
AcDbEntity
  8
PARTS
 62
     1
100
AcDbSpline
210
0.0
220
0.0
230
1.0
 70
    12
 71
     2
 72
     6
 73
     3
 74
     0
 42
0.0000000001
 43
0.0000000001
 40
0.0
 40
0.0
 40
0.0
 40
0.0667119560488129
 40
0.0667119560488129
 40
0.0667119560488129
 10
8.475384979143099
 20
6.093879894295923
 30
0.0
 41
1.0
 10
8.43878225748041
 20
6.095615954999147
 30
0.0
 41
0.8706892888019495
 10
8.418401063539363
 20
6.065163039319053
 30
0.0
 41
1.0
  0
SPLINE
  5
60
330
1F
100
AcDbEntity
  8
PARTS
 62
     1
100
AcDbSpline
210
0.0
220
0.0
230
1.0
 70
    24
 71
     2
 72
     6
 73
     3
 74
     0
 42
0.0000000001
 43
0.0000000001
 40
0.0
 40
0.0
 40
0.0
 40
0.0256865519465661
 40
0.0256865519465661
 40
0.0256865519465661
 10
8.418401063539362
 20
6.065163039319054
 30
0.0
 10
8.418401063539362
 20
6.078006315292336
 30
0.0
 10
8.418401063539362
 20
6.09084959126562
 30
0.0
  0
SPLINE
  5
61
330
1F
100
AcDbEntity
  8
PARTS
 62
     1
100
AcDbSpline
210
0.0
220
0.0
230
1.0
 70
    24
 71
     2
 72
     6
 73
     3
 74
     0
 42
0.0000000001
 43
0.0000000001
 40
0.0
 40
0.0
 40
0.0
 40
0.0272727272727273
 40
0.0272727272727273
 40
0.0272727272727273
 10
8.418401063539362
 20
6.09084959126562
 30
0.0
 10
8.404764699902998
 20
6.09084959126562
 30
0.0
 10
8.391128336266634
 20
6.09084959126562
 30
0.0
  0
SPLINE
  5
62
330
1F
100
AcDbEntity
  8
PARTS
 62
     1
100
AcDbSpline
210
0.0
220
0.0
230
1.0
 70
    24
 71
     2
 72
     6
 73
     3
 74
     0
 42
0.0000000001
 43
0.0000000001
 40
0.0
 40
0.0
 40
0.0
 40
0.0300568543802703
 40
0.0300568543802703
 40
0.0300568543802703
 10
8.740181375239564
 20
5.965092015508044
 30
0.0
 10
8.725325792633924
 20
5.967364742780772
 30
0.0
 10
8.710470210028284
 20
5.969637470053499
 30
0.0
  0
SPLINE
  5
63
330
1F
100
AcDbEntity
  8
PARTS
 62
     1
100
AcDbSpline
210
0.0
220
0.0
230
1.0
 70
    24
 71
     2
 72
     6
 73
     3
 74
     0
 42
0.0000000001
 43
0.0000000001
 40
0.0
 40
0.0
 40
0.0
 40
0.0349904463529437
 40
0.0349904463529437
 40
0.0349904463529437
 10
8.710470210028284
 20
5.969637470053499
 30
0.0
 10
8.700568457321541
 20
5.955213943184904
 30
0.0
 10
8.690666704614799
 20
5.940790416316309
 30
0.0
  0
SPLINE
  5
64
330
1F
100
AcDbEntity
  8
PARTS
 62
     1
100
AcDbSpline
210
0.0
220
0.0
230
1.0
 70
    24
 71
     2
 72
     6
 73
     3
 74
     0
 42
0.0000000001
 43
0.0000000001
 40
0.0
 40
0.0
 40
0.0
 40
0.0314728960964693
 40
0.0314728960964693
 40
0.0314728960964693
 10
8.690666704614799
 20
5.940790416316309
 30
0.0
 10
8.67559213192521
 20
5.93627454924551
 30
0.0
 10
8.660517559235624
 20
5.931758682174711
 30
0.0
  0
SPLINE
  5
65
330
1F
100
AcDbEntity
  8
PARTS
 62
     1
100
AcDbSpline
210
0.0
220
0.0
230
1.0
 70
    24
 71
     2
 72
     6
 73
     3
 74
     0
 42
0.0000000001
 43
0.0000000001
 40
0.0
 40
0.0
 40
0.0
 40
0.0425733167300618
 40
0.0425733167300618
 40
0.0425733167300618
 10
8.660517559235624
 20
5.931758682174711
 30
0.0
 10
8.640714048042206
 20
5.939565267136251
 30
0.0
 10
8.62091053684879
 20
5.947371852097792
 30
0.0
  0
SPLINE
  5
66
330
1F
100
AcDbEntity
  8
PARTS
 62
     1
100
AcDbSpline
210
0.0
220
0.0
230
1.0
 70
    24
 71
     2
 72
     6
 73
     3
 74
     0
 42
0.0000000001
 43
0.0000000001
 40
0.0
 40
0.0
 40
0.0
 40
0.0483349844877196
 40
0.0483349844877196
 40
0.0483349844877196
 10
8.62091053684879
 20
5.947371852097792
 30
0.0
 10
8.612080042618318
 20
5.969868297439282
 30
0.0
 10
8.603249548387847
 20
5.992364742780771
 30
0.0
  0
SPLINE
  5
67
330
1F
100
AcDbEntity
  8
PARTS
 62
     1
100
AcDbSpline
210
0.0
220
0.0
230
1.0
 70
    24
 71
     2
 72
     6
 73
     3
 74
     0
 42
0.0000000001
 43
0.0000000001
 40
0.0
 40
0.0
 40
0.0
 40
0.1377130887728271
 40
0.1377130887728271
 40
0.1377130887728271
 10
8.603249548387847
 20
5.992364742780771
 30
0.0
 10
8.67210609277426
 20
5.992364742780771
 30
0.0
 10
8.740962637160674
 20
5.992364742780771
 30
0.0
  0
SPLINE
  5
68
330
1F
100
AcDbEntity
  8
PARTS
 62
     1
100
AcDbSpline
210
0.0
220
0.0
230
1.0
 70
    24
 71
     2
 72
     6
 73
     3
 74
     0
 42
0.0000000001
 43
0.0000000001
 40
0.0
 40
0.0
 40
0.0
 40
0.00809829421772
 40
0.00809829421772
 40
0.00809829421772
 10
8.740962637160674
 20
5.992364742780771
 30
0.0
 10
8.741045486713654
 20
5.996413042209021
 30
0.0
 10
8.741128336266634
 20
6.000461341637269
 30
0.0
  0
SPLINE
  5
69
330
1F
100
AcDbEntity
  8
PARTS
 62
     1
100
AcDbSpline
210
0.0
220
0.0
230
1.0
 70
    12
 71
     2
 72
     6
 73
     3
 74
     0
 42
0.0000000001
 43
0.0000000001
 40
0.0
 40
0.0
 40
0.0
 40
0.0745724495340895
 40
0.0745724495340895
 40
0.0745724495340895
 10
8.741128336266634
 20
6.000461341637269
 30
0.0
 41
1.0
 10
8.745516836973758
 20
6.040302178179028
 30
0.0
 41
0.9071906744072945
 10
8.717939420327662
 20
6.069388898274829
 30
0.0
 41
1.0
  0
SPLINE
  5
6A
330
1F
100
AcDbEntity
  8
PARTS
 62
     1
100
AcDbSpline
210
0.0
220
0.0
230
1.0
 70
    12
 71
     2
 72
     6
 73
     3
 74
     0
 42
0.0000000001
 43
0.0000000001
 40
0.0
 40
0.0
 40
0.0
 40
0.0665811129379218
 40
0.0665811129379218
 40
0.0665811129379218
 10
8.717939420327662
 20
6.069388898274829
 30
0.0
 41
1.0
 10
8.693561144353072
 20
6.095101389723564
 30
0.0
 41
0.9117570648235842
 10
8.658150121988351
 20
6.093879894295922
 30
0.0
 41
1.0
  0
SPLINE
  5
6B
330
1F
100
AcDbEntity
  8
PARTS
 62
     1
100
AcDbSpline
210
0.0
220
0.0
230
1.0
 70
    12
 71
     2
 72
     6
 73
     3
 74
     0
 42
0.0000000001
 43
0.0000000001
 40
0.0
 40
0.0
 40
0.0
 40
0.0684232957957074
 40
0.0684232957957074
 40
0.0684232957957074
 10
8.658150121988351
 20
6.093879894295925
 30
0.0
 41
1.0
 10
8.621009443088264
 20
6.097053567423734
 30
0.0
 41
0.8906429773031752
 10
8.596656275304529
 20
6.068832556648449
 30
0.0
 41
1.0
  0
SPLINE
  5
6C
330
1F
100
AcDbEntity
  8
PARTS
 62
     1
100
AcDbSpline
210
0.0
220
0.0
230
1.0
 70
    12
 71
     2
 72
     6
 73
     3
 74
     0
 42
0.0000000001
 43
0.0000000001
 40
0.0
 40
0.0
 40
0.0
 40
0.0761809049772349
 40
0.0761809049772349
 40
0.0761809049772349
 10
8.596656275304529
 20
6.068832556648449
 30
0.0
 41
1.0
 10
8.570448455315317
 20
6.038462332253808
 30
0.0
 41
0.9259936877867944
 10
8.572946518084816
 20
5.998425348841377
 30
0.0
 41
1.0
  0
SPLINE
  5
6D
330
1F
100
AcDbEntity
  8
PARTS
 62
     1
100
AcDbSpline
210
0.0
220
0.0
230
1.0
 70
    12
 71
     2
 72
     6
 73
     3
 74
     0
 42
0.0000000001
 43
0.0000000001
 40
0.0
 40
0.0
 40
0.0
 40
0.0739516438457027
 40
0.0739516438457027
 40
0.0739516438457027
 10
8.572946518084816
 20
5.998425348841377
 30
0.0
 41
1.0
 10
8.570545437774317
 20
5.959492063344078
 30
0.0
 41
0.9236822965720337
 10
8.59640770352586
 20
5.930290879866899
 30
0.0
 41
1.0
  0
SPLINE
  5
6E
330
1F
100
AcDbEntity
  8
PARTS
 62
     1
100
AcDbSpline
210
0.0
220
0.0
230
1.0
 70
    12
 71
     2
 72
     6
 73
     3
 74
     0
 42
0.0000000001
 43
0.0000000001
 40
0.0
 40
0.0
 40
0.0
 40
0.0700028053891586
 40
0.0700028053891586
 40
0.0700028053891586
 10
8.59640770352586
 20
5.930290879866899
 30
0.0
 41
1.0
 10
8.622805470789359
 20
5.904126330365008
 30
0.0
 41
0.9148290466380613
 10
8.659925694143874
 20
5.906001106417134
 30
0.0
 41
1.0
  0
SPLINE
  5
6F
330
1F
100
AcDbEntity
  8
PARTS
 62
     1
100
AcDbSpline
210
0.0
220
0.0
230
1.0
 70
    24
 71
     2
 72
     6
 73
     3
 74
     0
 42
0.0000000001
 43
0.0000000001
 40
0.0
 40
0.0
 40
0.0
 40
0.0545015523561492
 40
0.0545015523561492
 40
0.0545015523561492
 10
8.659925694143874
 20
5.906001106417134
 30
0.0
 10
8.686050220478403
 20
5.913754423520418
 30
0.0
 10
8.71217474681293
 20
5.9215077406237
 30
0.0
  0
SPLINE
  5
70
330
1F
100
AcDbEntity
  8
PARTS
 62
     1
100
AcDbSpline
210
0.0
220
0.0
230
1.0
 70
    24
 71
     2
 72
     6
 73
     3
 74
     0
 42
0.0000000001
 43
0.0000000001
 40
0.0
 40
0.0
 40
0.0
 40
0.0518069517827629
 40
0.0518069517827629
 40
0.0518069517827629
 10
8.71217474681293
 20
5.9215077406237
 30
0.0
 10
8.726178061026246
 20
5.943299878065872
 30
0.0
 10
8.740181375239564
 20
5.965092015508044
 30
0.0
  0
SPLINE
  5
71
330
1F
100
AcDbEntity
  8
PARTS
 62
     1
100
AcDbSpline
210
0.0
220
0.0
230
1.0
 70
    24
 71
     2
 72
     6
 73
     3
 74
     0
 42
0.0000000001
 43
0.0000000001
 40
0.0
 40
0.0
 40
0.0
 40
0.0400581097804015
 40
0.0400581097804015
 40
0.0400581097804015
 10
8.62149055307884
 20
6.054521466807488
 30
0.0
 10
8.613127626490918
 20
6.036321892672918
 30
0.0
 10
8.604764699902999
 20
6.018122318538347
 30
0.0
  0
SPLINE
  5
72
330
1F
100
AcDbEntity
  8
PARTS
 62
     1
100
AcDbSpline
210
0.0
220
0.0
230
1.0
 70
    24
 71
     2
 72
     6
 73
     3
 74
     0
 42
0.0000000001
 43
0.0000000001
 40
0.0
 40
0.0
 40
0.0
 40
0.1060606060606055
 40
0.1060606060606055
 40
0.1060606060606055
 10
8.604764699902999
 20
6.018122318538347
 30
0.0
 10
8.657795002933302
 20
6.018122318538347
 30
0.0
 10
8.710825305963604
 20
6.018122318538347
 30
0.0
  0
SPLINE
  5
73
330
1F
100
AcDbEntity
  8
PARTS
 62
     1
100
AcDbSpline
210
0.0
220
0.0
230
1.0
 70
    24
 71
     2
 72
     6
 73
     3
 74
     0
 42
0.0000000001
 43
0.0000000001
 40
0.0
 40
0.0
 40
0.0
 40
0.0351294254309107
 40
0.0351294254309107
 40
0.0351294254309107
 10
8.710825305963604
 20
6.018122318538347
 30
0.0
 10
8.704741036859193
 20
6.034599599935518
 30
0.0
 10
8.698656767754782
 20
6.051076881332691
 30
0.0
  0
SPLINE
  5
74
330
1F
100
AcDbEntity
  8
PARTS
 62
     1
100
AcDbSpline
210
0.0
220
0.0
230
1.0
 70
    24
 71
     2
 72
     6
 73
     3
 74
     0
 42
0.0000000001
 43
0.0000000001
 40
0.0
 40
0.0
 40
0.0
 40
0.0433584942235655
 40
0.0433584942235655
 40
0.0433584942235655
 10
8.698656767754782
 20
6.051076881332691
 30
0.0
 10
8.678723052021112
 20
6.059599599935519
 30
0.0
 10
8.658789336287443
 20
6.068122318538347
 30
0.0
  0
SPLINE
  5
75
330
1F
100
AcDbEntity
  8
PARTS
 62
     1
100
AcDbSpline
210
0.0
220
0.0
230
1.0
 70
    24
 71
     2
 72
     6
 73
     3
 74
     0
 42
0.0000000001
 43
0.0000000001
 40
0.0
 40
0.0
 40
0.0
 40
0.0397011636686786
 40
0.0397011636686786
 40
0.0397011636686786
 10
8.658789336287443
 20
6.068122318538347
 30
0.0
 10
8.640139944683142
 20
6.061321892672917
 30
0.0
 10
8.62149055307884
 20
6.054521466807488
 30
0.0
  0
SPLINE
  5
76
330
1F
100
AcDbEntity
  8
PARTS
 62
     1
100
AcDbSpline
210
0.0
220
0.0
230
1.0
 70
    24
 71
     2
 72
     6
 73
     3
 74
     0
 42
0.0000000001
 43
0.0000000001
 40
0.0
 40
0.0
 40
0.0
 40
0.0304541685488521
 40
0.0304541685488521
 40
0.0304541685488521
 10
9.383552578690876
 20
6.095395045811074
 30
0.0
 10
9.398704093842392
 20
6.096910197326226
 30
0.0
 10
9.413855608993908
 20
6.098425348841378
 30
0.0
  0
SPLINE
  5
77
330
1F
100
AcDbEntity
  8
PARTS
 62
     1
100
AcDbSpline
210
0.0
220
0.0
230
1.0
 70
    24
 71
     2
 72
     6
 73
     3
 74
     0
 42
0.0000000001
 43
0.0000000001
 40
0.0
 40
0.0
 40
0.0
 40
0.0508942117776875
 40
0.0508942117776875
 40
0.0508942117776875
 10
9.413855608993908
 20
6.098425348841378
 30
0.0
 10
9.402563002221214
 20
6.121229564030578
 30
0.0
 10
9.39127039544852
 20
6.144033779219778
 30
0.0
  0
SPLINE
  5
78
330
1F
100
AcDbEntity
  8
PARTS
 62
     1
100
AcDbSpline
210
0.0
220
0.0
230
1.0
 70
    24
 71
     2
 72
     6
 73
     3
 74
     0
 42
0.0000000001
 43
0.0000000001
 40
0.0
 40
0.0
 40
0.0
 40
0.0510852177622993
 40
0.0510852177622993
 40
0.0510852177622993
 10
9.39127039544852
 20
6.144033779219778
 30
0.0
 10
9.367098989237174
 20
6.152290170091184
 30
0.0
 10
9.342927583025826
 20
6.160546560962589
 30
0.0
  0
SPLINE
  5
79
330
1F
100
AcDbEntity
  8
PARTS
 62
     1
100
AcDbSpline
210
0.0
220
0.0
230
1.0
 70
    12
 71
     2
 72
     6
 73
     3
 74
     0
 42
0.0000000001
 43
0.0000000001
 40
0.0
 40
0.0
 40
0.0
 40
0.0717360467825763
 40
0.0717360467825763
 40
0.0717360467825763
 10
9.342927583025826
 20
6.160546560962589
 30
0.0
 41
1.0
 10
9.304231683595546
 20
6.162032223513782
 30
0.0
 41
0.892942371154013
 10
9.280025132103232
 20
6.131806031382052
 30
0.0
 41
1.0
  0
SPLINE
  5
7A
330
1F
100
AcDbEntity
  8
PARTS
 62
     1
100
AcDbSpline
210
0.0
220
0.0
230
1.0
 70
    12
 71
     2
 72
     6
 73
     3
 74
     0
 42
0.0000000001
 43
0.0000000001
 40
0.0
 40
0.0
 40
0.0
 40
0.1110650104439073
 40
0.1110650104439073
 40
0.1110650104439073
 10
9.280025132103233
 20
6.131806031382051
 30
0.0
 41
1.0
 10
9.248454997327077
 20
6.083558941367532
 30
0.0
 41
0.9456084008071902
 10
9.25324954838785
 20
6.026100544376495
 30
0.0
 41
1.0
  0
SPLINE
  5
7B
330
1F
100
AcDbEntity
  8
PARTS
 62
     1
100
AcDbSpline
210
0.0
220
0.0
230
1.0
 70
    12
 71
     2
 72
     6
 73
     3
 74
     0
 42
0.0000000001
 43
0.0000000001
 40
0.0
 40
0.0
 40
0.0
 40
0.0983155861609277
 40
0.0983155861609277
 40
0.0983155861609277
 10
9.25324954838785
 20
6.026100544376495
 30
0.0
 41
1.0
 10
9.24868718937749
 20
5.975119164606017
 30
0.0
 41
0.9416337507843376
 10
9.277480146888301
 20
5.932800353176327
 30
0.0
 41
1.0
  0
SPLINE
  5
7C
330
1F
100
AcDbEntity
  8
PARTS
 62
     1
100
AcDbSpline
210
0.0
220
0.0
230
1.0
 70
    12
 71
     2
 72
     6
 73
     3
 74
     0
 42
0.0000000001
 43
0.0000000001
 40
0.0
 40
0.0
 40
0.0
 40
0.0711131483687394
 40
0.0711131483687394
 40
0.0711131483687394
 10
9.277480146888301
 20
5.932800353176327
 30
0.0
 41
1.0
 10
9.30190188081741
 20
5.903427263705207
 30
0.0
 41
0.8993788637013838
 10
9.340086676824884
 20
5.904485954901983
 30
0.0
 41
1.0
  0
SPLINE
  5
7D
330
1F
100
AcDbEntity
  8
PARTS
 62
     1
100
AcDbSpline
210
0.0
220
0.0
230
1.0
 70
    24
 71
     2
 72
     6
 73
     3
 74
     0
 42
0.0000000001
 43
0.0000000001
 40
0.0
 40
0.0
 40
0.0
 40
0.0416711781390895
 40
0.0416711781390895
 40
0.0416711781390895
 10
9.340086676824884
 20
5.904485954901983
 30
0.0
 10
9.360215702258898
 20
5.909865927666941
 30
0.0
 10
9.380344727692915
 20
5.915245900431898
 30
0.0
  0
SPLINE
  5
7E
330
1F
100
AcDbEntity
  8
PARTS
 62
     1
100
AcDbSpline
210
0.0
220
0.0
230
1.0
 70
    24
 71
     2
 72
     6
 73
     3
 74
     0
 42
0.0000000001
 43
0.0000000001
 40
0.0
 40
0.0
 40
0.0
 40
0.0416985622978611
 40
0.0416985622978611
 40
0.0416985622978611
 10
9.380344727692915
 20
5.915245900431898
 30
0.0
 10
9.394294774047975
 20
5.930740697336629
 30
0.0
 10
9.408244820403032
 20
5.94623549424136
 30
0.0
  0
SPLINE
  5
7F
330
1F
100
AcDbEntity
  8
PARTS
 62
     1
100
AcDbSpline
210
0.0
220
0.0
230
1.0
 70
    24
 71
     2
 72
     6
 73
     3
 74
     0
 42
0.0000000001
 43
0.0000000001
 40
0.0
 40
0.0
 40
0.0
 40
0.0449710333884573
 40
0.0449710333884573
 40
0.0449710333884573
 10
9.408244820403032
 20
5.94623549424136
 30
0.0
 10
9.413322941971197
 20
5.968140086050965
 30
0.0
 10
9.418401063539362
 20
5.990044677860569
 30
0.0
  0
SPLINE
  5
80
330
1F
100
AcDbEntity
  8
PARTS
 62
     1
100
AcDbSpline
210
0.0
220
0.0
230
1.0
 70
    12
 71
     2
 72
     6
 73
     3
 74
     0
 42
0.0000000001
 43
0.0000000001
 40
0.0
 40
0.0
 40
0.0
 40
0.0639980786602115
 40
0.0639980786602115
 40
0.0639980786602115
 10
9.418401063539362
 20
5.990044677860569
 30
0.0
 41
1.0
 10
9.41954554962803
 20
6.023705188555938
 30
0.0
 41
0.9256746627770643
 10
9.396786485624716
 20
6.048531884557892
 30
0.0
 41
1.0
  0
SPLINE
  5
81
330
1F
100
AcDbEntity
  8
PARTS
 62
     1
100
AcDbSpline
210
0.0
220
0.0
230
1.0
 70
    12
 71
     2
 72
     6
 73
     3
 74
     0
 42
0.0000000001
 43
0.0000000001
 40
0.0
 40
0.0
 40
0.0
 40
0.0587891799320261
 40
0.0587891799320261
 40
0.0587891799320261
 10
9.396786485624716
 20
6.048531884557892
 30
0.0
 41
1.0
 10
9.375658575793908
 20
6.071579238106777
 30
0.0
 41
0.9125853513547697
 10
9.344395385333637
 20
6.07115262156865
 30
0.0
 41
1.0
  0
SPLINE
  5
82
330
1F
100
AcDbEntity
  8
PARTS
 62
     1
100
AcDbSpline
210
0.0
220
0.0
230
1.0
 70
    24
 71
     2
 72
     6
 73
     3
 74
     0
 42
0.0000000001
 43
0.0000000001
 40
0.0
 40
0.0
 40
0.0
 40
0.0346529002581179
 40
0.0346529002581179
 40
0.0346529002581179
 10
9.344395385333637
 20
6.07115262156865
 30
0.0
 10
9.327557083570296
 20
6.067068816014829
 30
0.0
 10
9.310718781806955
 20
6.062985010461007
 30
0.0
  0
SPLINE
  5
83
330
1F
100
AcDbEntity
  8
PARTS
 62
     1
100
AcDbSpline
210
0.0
220
0.0
230
1.0
 70
    24
 71
     2
 72
     6
 73
     3
 74
     0
 42
0.0000000001
 43
0.0000000001
 40
0.0
 40
0.0
 40
0.0
 40
0.0369188649845038
 40
0.0369188649845038
 40
0.0369188649845038
 10
9.310718781806955
 20
6.062985010461007
 30
0.0
 10
9.297135680248916
 20
6.050485010461007
 30
0.0
 10
9.283552578690877
 20
6.037985010461007
 30
0.0
  0
SPLINE
  5
84
330
1F
100
AcDbEntity
  8
PARTS
 62
     1
100
AcDbSpline
210
0.0
220
0.0
230
1.0
 70
    24
 71
     2
 72
     6
 73
     3
 74
     0
 42
0.0000000001
 43
0.0000000001
 40
0.0
 40
0.0
 40
0.0
 40
0.0583851052138123
 40
0.0583851052138123
 40
0.0583851052138123
 10
9.283552578690877
 20
6.037985010461007
 30
0.0
 10
9.287914560837821
 20
6.066849837490746
 30
0.0
 10
9.292276542984766
 20
6.095714664520484
 30
0.0
  0
SPLINE
  5
85
330
1F
100
AcDbEntity
  8
PARTS
 62
     1
100
AcDbSpline
210
0.0
220
0.0
230
1.0
 70
    24
 71
     2
 72
     6
 73
     3
 74
     0
 42
0.0000000001
 43
0.0000000001
 40
0.0
 40
0.0
 40
0.0
 40
0.038031080520352
 40
0.038031080520352
 40
0.038031080520352
 10
9.292276542984766
 20
6.095714664520484
 30
0.0
 10
9.303373845837047
 20
6.111156187787024
 30
0.0
 10
9.314471148689329
 20
6.126597711053566
 30
0.0
  0
SPLINE
  5
86
330
1F
100
AcDbEntity
  8
PARTS
 62
     1
100
AcDbSpline
210
0.0
220
0.0
230
1.0
 70
    24
 71
     2
 72
     6
 73
     3
 74
     0
 42
0.0000000001
 43
0.0000000001
 40
0.0
 40
0.0
 40
0.0
 40
0.0278420850642509
 40
0.0278420850642509
 40
0.0278420850642509
 10
9.314471148689329
 20
6.126597711053566
 30
0.0
 10
9.327776079434177
 20
6.13069334812929
 30
0.0
 10
9.341081010179025
 20
6.134788985205013
 30
0.0
  0
SPLINE
  5
87
330
1F
100
AcDbEntity
  8
PARTS
 62
     1
100
AcDbSpline
210
0.0
220
0.0
230
1.0
 70
    24
 71
     2
 72
     6
 73
     3
 74
     0
 42
0.0000000001
 43
0.0000000001
 40
0.0
 40
0.0
 40
0.0
 40
0.0335074339642591
 40
0.0335074339642591
 40
0.0335074339642591
 10
9.341081010179025
 20
6.134788985205013
 30
0.0
 10
9.356492934411044
 20
6.128219386725367
 30
0.0
 10
9.371904858643065
 20
6.121649788245721
 30
0.0
  0
SPLINE
  5
88
330
1F
100
AcDbEntity
  8
PARTS
 62
     1
100
AcDbSpline
210
0.0
220
0.0
230
1.0
 70
    24
 71
     2
 72
     6
 73
     3
 74
     0
 42
0.0000000001
 43
0.0000000001
 40
0.0
 40
0.0
 40
0.0
 40
0.0287224804399244
 40
0.0287224804399244
 40
0.0287224804399244
 10
9.371904858643065
 20
6.121649788245721
 30
0.0
 10
9.37772871866697
 20
6.108522417028397
 30
0.0
 10
9.383552578690876
 20
6.095395045811074
 30
0.0
  0
SPLINE
  5
89
330
1F
100
AcDbEntity
  8
PARTS
 62
     1
100
AcDbSpline
210
0.0
220
0.0
230
1.0
 70
    24
 71
     2
 72
     6
 73
     3
 74
     0
 42
0.0000000001
 43
0.0000000001
 40
0.0
 40
0.0
 40
0.0
 40
0.0416614312449585
 40
0.0416614312449585
 40
0.0416614312449585
 10
9.302835254383487
 20
6.029012474388448
 30
0.0
 10
9.29546664380991
 20
6.009528576124509
 30
0.0
 10
9.28809803323633
 20
5.990044677860569
 30
0.0
  0
SPLINE
  5
8A
330
1F
100
AcDbEntity
  8
PARTS
 62
     1
100
AcDbSpline
210
0.0
220
0.0
230
1.0
 70
    24
 71
     2
 72
     6
 73
     3
 74
     0
 42
0.0000000001
 43
0.0000000001
 40
0.0
 40
0.0
 40
0.0
 40
0.0310080809906761
 40
0.0310080809906761
 40
0.0310080809906761
 10
9.28809803323633
 20
5.990044677860569
 30
0.0
 10
9.291518961447256
 20
5.974922755963641
 30
0.0
 10
9.294939889658183
 20
5.959800834066714
 30
0.0
  0
SPLINE
  5
8B
330
1F
100
AcDbEntity
  8
PARTS
 62
     1
100
AcDbSpline
210
0.0
220
0.0
230
1.0
 70
    24
 71
     2
 72
     6
 73
     3
 74
     0
 42
0.0000000001
 43
0.0000000001
 40
0.0
 40
0.0
 40
0.0
 40
0.0289164239977992
 40
0.0289164239977992
 40
0.0289164239977992
 10
9.294939889658183
 20
5.959800834066714
 30
0.0
 10
9.304326731294967
 20
5.94880414828003
 30
0.0
 10
9.313713572931752
 20
5.937807462493346
 30
0.0
  0
SPLINE
  5
8C
330
1F
100
AcDbEntity
  8
PARTS
 62
     1
100
AcDbSpline
210
0.0
220
0.0
230
1.0
 70
    24
 71
     2
 72
     6
 73
     3
 74
     0
 42
0.0000000001
 43
0.0000000001
 40
0.0
 40
0.0
 40
0.0
 40
0.0272770951284984
 40
0.0272770951284984
 40
0.0272770951284984
 10
9.313713572931752
 20
5.937807462493346
 30
0.0
 10
9.326817263765474
 20
5.934025496576453
 30
0.0
 10
9.339920954599194
 20
5.930243530659559
 30
0.0
  0
SPLINE
  5
8D
330
1F
100
AcDbEntity
  8
PARTS
 62
     1
100
AcDbSpline
210
0.0
220
0.0
230
1.0
 70
    24
 71
     2
 72
     6
 73
     3
 74
     0
 42
0.0000000001
 43
0.0000000001
 40
0.0
 40
0.0
 40
0.0
 40
0.037727199618982
 40
0.037727199618982
 40
0.037727199618982
 10
9.339920954599194
 20
5.930243530659559
 30
0.0
 10
9.357090700813917
 20
5.938056034272017
 30
0.0
 10
9.374260447028638
 20
5.945868537884475
 30
0.0
  0
SPLINE
  5
8E
330
1F
100
AcDbEntity
  8
PARTS
 62
     1
100
AcDbSpline
210
0.0
220
0.0
230
1.0
 70
    24
 71
     2
 72
     6
 73
     3
 74
     0
 42
0.0000000001
 43
0.0000000001
 40
0.0
 40
0.0
 40
0.0
 40
0.0446689476904852
 40
0.0446689476904852
 40
0.0446689476904852
 10
9.374260447028638
 20
5.945868537884475
 30
0.0
 10
9.381179240132486
 20
5.967104333700266
 30
0.0
 10
9.388098033236332
 20
5.988340129516057
 30
0.0
  0
SPLINE
  5
8F
330
1F
100
AcDbEntity
  8
PARTS
 62
     1
100
AcDbSpline
210
0.0
220
0.0
230
1.0
 70
    24
 71
     2
 72
     6
 73
     3
 74
     0
 42
0.0000000001
 43
0.0000000001
 40
0.0
 40
0.0
 40
0.0
 40
0.0429049643552076
 40
0.0429049643552076
 40
0.0429049643552076
 10
9.388098033236332
 20
5.988340129516057
 30
0.0
 10
9.381268019896247
 20
6.008676301952253
 30
0.0
 10
9.374438006556163
 20
6.029012474388448
 30
0.0
  0
SPLINE
  5
90
330
1F
100
AcDbEntity
  8
PARTS
 62
     1
100
AcDbSpline
210
0.0
220
0.0
230
1.0
 70
    24
 71
     2
 72
     6
 73
     3
 74
     0
 42
0.0000000001
 43
0.0000000001
 40
0.0
 40
0.0
 40
0.0
 40
0.0386946421677489
 40
0.0386946421677489
 40
0.0386946421677489
 10
9.374438006556163
 20
6.029012474388448
 30
0.0
 10
9.356575789743957
 20
6.036446184342186
 30
0.0
 10
9.338713572931752
 20
6.043879894295923
 30
0.0
  0
SPLINE
  5
91
330
1F
100
AcDbEntity
  8
PARTS
 62
     1
100
AcDbSpline
210
0.0
220
0.0
230
1.0
 70
    24
 71
     2
 72
     6
 73
     3
 74
     0
 42
0.0000000001
 43
0.0000000001
 40
0.0
 40
0.0
 40
0.0
 40
0.0388367598617081
 40
0.0388367598617081
 40
0.0388367598617081
 10
9.338713572931752
 20
6.043879894295923
 30
0.0
 10
9.32077441365762
 20
6.036446184342186
 30
0.0
 10
9.302835254383487
 20
6.029012474388448
 30
0.0
  0
SPLINE
  5
92
330
1F
100
AcDbEntity
  8
PARTS
 62
     1
100
AcDbSpline
210
0.0
220
0.0
230
1.0
 70
    24
 71
     2
 72
     6
 73
     3
 74
     0
 42
0.0000000001
 43
0.0000000001
 40
0.0
 40
0.0
 40
0.0
 40
0.0384457612232502
 40
0.0384457612232502
 40
0.0384457612232502
 10
15.14554095823952
 20
8.721110778206377
 30
0.0
 10
15.13863399665757
 20
8.703171630492108
 30
0.0
 10
15.13172703507563
 20
8.68523248277784
 30
0.0
  0
SPLINE
  5
93
330
1F
100
AcDbEntity
  8
PARTS
 62
     1
100
AcDbSpline
210
0.0
220
0.0
230
1.0
 70
    24
 71
     2
 72
     6
 73
     3
 74
     0
 42
0.0000000001
 43
0.0000000001
 40
0.0
 40
0.0
 40
0.0
 40
0.0261307535030627
 40
0.0261307535030627
 40
0.0261307535030627
 10
15.13172703507563
 20
8.68523248277784
 30
0.0
 10
15.13463897086752
 20
8.67249573674114
 30
0.0
 10
15.1375509066594
 20
8.65975899070444
 30
0.0
  0
SPLINE
  5
94
330
1F
100
AcDbEntity
  8
PARTS
 62
     1
100
AcDbSpline
210
0.0
220
0.0
230
1.0
 70
    24
 71
     2
 72
     6
 73
     3
 74
     0
 42
0.0000000001
 43
0.0000000001
 40
0.0
 40
0.0
 40
0.0
 40
0.0265283133087442
 40
0.0265283133087442
 40
0.0265283133087442
 10
15.1375509066594
 20
8.65975899070444
 30
0.0
 10
15.14677794472141
 20
8.650230107225568
 30
0.0
 10
15.15600498278342
 20
8.640701223746696
 30
0.0
  0
SPLINE
  5
95
330
1F
100
AcDbEntity
  8
PARTS
 62
     1
100
AcDbSpline
210
0.0
220
0.0
230
1.0
 70
    24
 71
     2
 72
     6
 73
     3
 74
     0
 42
0.0000000001
 43
0.0000000001
 40
0.0
 40
0.0
 40
0.0
 40
0.0275781638138015
 40
0.0275781638138015
 40
0.0275781638138015
 10
15.15600498278342
 20
8.640701223746696
 30
0.0
 10
15.16937501290843
 20
8.637327638963178
 30
0.0
 10
15.18274504303344
 20
8.633954054179659
 30
0.0
  0
SPLINE
  5
96
330
1F
100
AcDbEntity
  8
PARTS
 62
     1
100
AcDbSpline
210
0.0
220
0.0
230
1.0
 70
    24
 71
     2
 72
     6
 73
     3
 74
     0
 42
0.0000000001
 43
0.0000000001
 40
0.0
 40
0.0
 40
0.0
 40
0.039240516440163
 40
0.039240516440163
 40
0.039240516440163
 10
15.18274504303344
 20
8.633954054179659
 30
0.0
 10
15.20103930980276
 20
8.641044493940047
 30
0.0
 10
15.21933357657208
 20
8.648134933700433
 30
0.0
  0
SPLINE
  5
97
330
1F
100
AcDbEntity
  8
PARTS
 62
     1
100
AcDbSpline
210
0.0
220
0.0
230
1.0
 70
    24
 71
     2
 72
     6
 73
     3
 74
     0
 42
0.0000000001
 43
0.0000000001
 40
0.0
 40
0.0
 40
0.0
 40
0.0386455035271477
 40
0.0386455035271477
 40
0.0386455035271477
 10
15.21933357657208
 20
8.648134933700433
 30
0.0
 10
15.22628788158143
 20
8.666162866958397
 30
0.0
 10
15.23324218659078
 20
8.68419080021636
 30
0.0
  0
SPLINE
  5
98
330
1F
100
AcDbEntity
  8
PARTS
 62
     1
100
AcDbSpline
210
0.0
220
0.0
230
1.0
 70
    24
 71
     2
 72
     6
 73
     3
 74
     0
 42
0.0000000001
 43
0.0000000001
 40
0.0
 40
0.0
 40
0.0
 40
0.0394507453263621
 40
0.0394507453263621
 40
0.0394507453263621
 10
15.23324218659078
 20
8.68419080021636
 30
0.0
 10
15.2260748101484
 20
8.702567933878456
 30
0.0
 10
15.21890743370601
 20
8.720945067540551
 30
0.0
  0
SPLINE
  5
99
330
1F
100
AcDbEntity
  8
PARTS
 62
     1
100
AcDbSpline
210
0.0
220
0.0
230
1.0
 70
    24
 71
     2
 72
     6
 73
     3
 74
     0
 42
0.0000000001
 43
0.0000000001
 40
0.0
 40
0.0
 40
0.0
 40
0.0399165708877713
 40
0.0399165708877713
 40
0.0399165708877713
 10
15.21890743370601
 20
8.720945067540551
 30
0.0
 10
15.20031723439082
 20
8.72820713661768
 30
0.0
 10
15.18172703507563
 20
8.73546920569481
 30
0.0
  0
SPLINE
  5
9A
330
1F
100
AcDbEntity
  8
PARTS
 62
     1
100
AcDbSpline
210
0.0
220
0.0
230
1.0
 70
    24
 71
     2
 72
     6
 73
     3
 74
     0
 42
0.0000000001
 43
0.0000000001
 40
0.0
 40
0.0
 40
0.0
 40
0.0389306639646622
 40
0.0389306639646622
 40
0.0389306639646622
 10
15.18172703507563
 20
8.73546920569481
 30
0.0
 10
15.16363399665757
 20
8.728289991950593
 30
0.0
 10
15.14554095823952
 20
8.721110778206377
 30
0.0
  0
SPLINE
  5
9B
330
1F
100
AcDbEntity
  8
PARTS
 62
     1
100
AcDbSpline
210
0.0
220
0.0
230
1.0
 70
    24
 71
     2
 72
     6
 73
     3
 74
     0
 42
0.0000000001
 43
0.0000000001
 40
0.0
 40
0.0
 40
0.0
 40
0.0289053226092448
 40
0.0289053226092448
 40
0.0289053226092448
 10
15.15229995354852
 20
8.827408130303683
 30
0.0
 10
15.14655894885753
 20
8.81414463589519
 30
0.0
 10
15.14081794416654
 20
8.800881141486697
 30
0.0
  0
SPLINE
  5
9C
330
1F
100
AcDbEntity
  8
PARTS
 62
     1
100
AcDbSpline
210
0.0
220
0.0
230
1.0
 70
    24
 71
     2
 72
     6
 73
     3
 74
     0
 42
0.0000000001
 43
0.0000000001
 40
0.0
 40
0.0
 40
0.0
 40
0.0307186279986153
 40
0.0307186279986153
 40
0.0307186279986153
 10
15.14081794416654
 20
8.800881141486697
 30
0.0
 10
15.1464701748737
 20
8.78659965646019
 30
0.0
 10
15.15212240558087
 20
8.772318171433684
 30
0.0
  0
SPLINE
  5
9D
330
1F
100
AcDbEntity
  8
PARTS
 62
     1
100
AcDbSpline
210
0.0
220
0.0
230
1.0
 70
    24
 71
     2
 72
     6
 73
     3
 74
     0
 42
0.0000000001
 43
0.0000000001
 40
0.0
 40
0.0
 40
0.0
 40
0.032658439253874
 40
0.032658439253874
 40
0.032658439253874
 10
15.15212240558087
 20
8.772318171433684
 30
0.0
 10
15.16748107351449
 20
8.766772476443034
 30
0.0
 10
15.18283974144812
 20
8.761226781452386
 30
0.0
  0
SPLINE
  5
9E
330
1F
100
AcDbEntity
  8
PARTS
 62
     1
100
AcDbSpline
210
0.0
220
0.0
230
1.0
 70
    24
 71
     2
 72
     6
 73
     3
 74
     0
 42
0.0000000001
 43
0.0000000001
 40
0.0
 40
0.0
 40
0.0
 40
0.0320516012809514
 40
0.0320516012809514
 40
0.0320516012809514
 10
15.18283974144812
 20
8.761226781452386
 30
0.0
 10
15.19789063375411
 20
8.766731045886612
 30
0.0
 10
15.21294152606009
 20
8.772235310320838
 30
0.0
  0
SPLINE
  5
9F
330
1F
100
AcDbEntity
  8
PARTS
 62
     1
100
AcDbSpline
210
0.0
220
0.0
230
1.0
 70
    24
 71
     2
 72
     6
 73
     3
 74
     0
 42
0.0000000001
 43
0.0000000001
 40
0.0
 40
0.0
 40
0.0
 40
0.0292021823889004
 40
0.0292021823889004
 40
0.0292021823889004
 10
15.21294152606009
 20
8.772235310320838
 30
0.0
 10
15.21854640177998
 20
8.785717789033345
 30
0.0
 10
15.22415127749987
 20
8.799200267745855
 30
0.0
  0
SPLINE
  5
A0
330
1F
100
AcDbEntity
  8
PARTS
 62
     1
100
AcDbSpline
210
0.0
220
0.0
230
1.0
 70
    24
 71
     2
 72
     6
 73
     3
 74
     0
 42
0.0000000001
 43
0.0000000001
 40
0.0
 40
0.0
 40
0.0
 40
0.0302566894528804
 40
0.0302566894528804
 40
0.0302566894528804
 10
15.22415127749987
 20
8.799200267745855
 30
0.0
 10
15.21836884803239
 20
8.8131799073555
 30
0.0
 10
15.2125864185649
 20
8.827159546965147
 30
0.0
  0
SPLINE
  5
A1
330
1F
100
AcDbEntity
  8
PARTS
 62
     1
100
AcDbSpline
210
0.0
220
0.0
230
1.0
 70
    24
 71
     2
 72
     6
 73
     3
 74
     0
 42
0.0000000001
 43
0.0000000001
 40
0.0
 40
0.0
 40
0.0
 40
0.0321669530028597
 40
0.0321669530028597
 40
0.0321669530028597
 10
15.2125864185649
 20
8.827159546965147
 30
0.0
 10
15.19753552047899
 20
8.832829527845131
 30
0.0
 10
15.18248462239307
 20
8.838499508725114
 30
0.0
  0
SPLINE
  5
A2
330
1F
100
AcDbEntity
  8
PARTS
 62
     1
100
AcDbSpline
210
0.0
220
0.0
230
1.0
 70
    24
 71
     2
 72
     6
 73
     3
 74
     0
 42
0.0000000001
 43
0.0000000001
 40
0.0
 40
0.0
 40
0.0
 40
0.0321579369447452
 40
0.0321579369447452
 40
0.0321579369447452
 10
15.18248462239307
 20
8.838499508725114
 30
0.0
 10
15.1673922879708
 20
8.832953819514398
 30
0.0
 10
15.15229995354852
 20
8.827408130303683
 30
0.0
  0
SPLINE
  5
A3
330
1F
100
AcDbEntity
  8
PARTS
 62
     1
100
AcDbSpline
210
0.0
220
0.0
230
1.0
 70
    24
 71
     2
 72
     6
 73
     3
 74
     0
 42
0.0000000001
 43
0.0000000001
 40
0.0
 40
0.0
 40
0.0
 40
0.0340283504449089
 40
0.0340283504449089
 40
0.0340283504449089
 10
15.11948746149593
 20
8.769027459322874
 30
0.0
 10
15.13328954157805
 20
8.759078351628858
 30
0.0
 10
15.14709162166017
 20
8.749129243934844
 30
0.0
  0
SPLINE
  5
A4
330
1F
100
AcDbEntity
  8
PARTS
 62
     1
100
AcDbSpline
210
0.0
220
0.0
230
1.0
 70
    24
 71
     2
 72
     6
 73
     3
 74
     0
 42
0.0000000001
 43
0.0000000001
 40
0.0
 40
0.0
 40
0.0
 40
0.0406537534442889
 40
0.0406537534442889
 40
0.0406537534442889
 10
15.14709162166017
 20
8.749129243934844
 30
0.0
 10
15.13019413338766
 20
8.7378307127313
 30
0.0
 10
15.11329664511514
 20
8.726532181527757
 30
0.0
  0
SPLINE
  5
A5
330
1F
100
AcDbEntity
  8
PARTS
 62
     1
100
AcDbSpline
210
0.0
220
0.0
230
1.0
 70
    24
 71
     2
 72
     6
 73
     3
 74
     0
 42
0.0000000001
 43
0.0000000001
 40
0.0
 40
0.0
 40
0.0
 40
0.0428358708919173
 40
0.0428358708919173
 40
0.0428358708919173
 10
15.11329664511514
 20
8.726532181527757
 30
0.0
 10
15.10736032494387
 20
8.705953355963809
 30
0.0
 10
15.1014240047726
 20
8.68537453039986
 30
0.0
  0
SPLINE
  5
A6
330
1F
100
AcDbEntity
  8
PARTS
 62
     1
100
AcDbSpline
210
0.0
220
0.0
230
1.0
 70
    12
 71
     2
 72
     6
 73
     3
 74
     0
 42
0.0000000001
 43
0.0000000001
 40
0.0
 40
0.0
 40
0.0
 40
0.0611505985179755
 40
0.0611505985179755
 40
0.0611505985179755
 10
15.1014240047726
 20
8.68537453039986
 30
0.0
 41
1.0
 10
15.10020476516281
 20
8.652811966422314
 30
0.0
 41
0.9120899313944791
 10
15.12374882079735
 20
8.630284548410131
 30
0.0
 41
1.0
  0
SPLINE
  5
A7
330
1F
100
AcDbEntity
  8
PARTS
 62
     1
100
AcDbSpline
210
0.0
220
0.0
230
1.0
 70
    12
 71
     2
 72
     6
 73
     3
 74
     0
 42
0.0000000001
 43
0.0000000001
 40
0.0
 40
0.0
 40
0.0
 40
0.0644886149392389
 40
0.0644886149392389
 40
0.0644886149392389
 10
15.12374882079735
 20
8.630284548410131
 30
0.0
 41
1.0
 10
15.14839995457604
 20
8.60669785613727
 30
0.0
 41
0.9196384828607578
 10
15.18248462239307
 20
8.608196478422084
 30
0.0
 41
1.0
  0
SPLINE
  5
A8
330
1F
100
AcDbEntity
  8
PARTS
 62
     1
100
AcDbSpline
210
0.0
220
0.0
230
1.0
 70
    12
 71
     2
 72
     6
 73
     3
 74
     0
 42
0.0000000001
 43
0.0000000001
 40
0.0
 40
0.0
 40
0.0
 40
0.0644434720864425
 40
0.0644434720864425
 40
0.0644434720864425
 10
15.18248462239307
 20
8.608196478422084
 30
0.0
 41
1.0
 10
15.21663113361633
 20
8.606431328345552
 30
0.0
 41
0.9171478523109888
 10
15.24122041242893
 20
8.63018984999545
 30
0.0
 41
1.0
  0
SPLINE
  5
A9
330
1F
100
AcDbEntity
  8
PARTS
 62
     1
100
AcDbSpline
210
0.0
220
0.0
230
1.0
 70
    12
 71
     2
 72
     6
 73
     3
 74
     0
 42
0.0000000001
 43
0.0000000001
 40
0.0
 40
0.0
 40
0.0
 40
0.0604176762393151
 40
0.0604176762393151
 40
0.0604176762393151
 10
15.24122041242893
 20
8.63018984999545
 30
0.0
 41
1.0
 10
15.26426783583877
 20
8.652458608352697
 30
0.0
 41
0.9160955218756677
 10
15.26354521689381
 20
8.68449857006407
 30
0.0
 41
1.0
  0
SPLINE
  5
AA
330
1F
100
AcDbEntity
  8
PARTS
 62
     1
100
AcDbSpline
210
0.0
220
0.0
230
1.0
 70
    24
 71
     2
 72
     6
 73
     3
 74
     0
 42
0.0000000001
 43
0.0000000001
 40
0.0
 40
0.0
 40
0.0
 40
0.0418309344053101
 40
0.0418309344053101
 40
0.0418309344053101
 10
15.26354521689381
 20
8.68449857006407
 30
0.0
 10
15.2578219739355
 20
8.704615758196251
 30
0.0
 10
15.2520987309772
 20
8.72473294632843
 30
0.0
  0
SPLINE
  5
AB
330
1F
100
AcDbEntity
  8
PARTS
 62
     1
100
AcDbSpline
210
0.0
220
0.0
230
1.0
 70
    24
 71
     2
 72
     6
 73
     3
 74
     0
 42
0.0000000001
 43
0.0000000001
 40
0.0
 40
0.0
 40
0.0
 40
0.0413168215329934
 40
0.0413168215329934
 40
0.0413168215329934
 10
15.2520987309772
 20
8.72473294632843
 30
0.0
 10
15.23542614565961
 20
8.736931095131638
 30
0.0
 10
15.21875356034203
 20
8.749129243934844
 30
0.0
  0
SPLINE
  5
AC
330
1F
100
AcDbEntity
  8
PARTS
 62
     1
100
AcDbSpline
210
0.0
220
0.0
230
1.0
 70
    24
 71
     2
 72
     6
 73
     3
 74
     0
 42
0.0000000001
 43
0.0000000001
 40
0.0
 40
0.0
 40
0.0
 40
0.0333769843113928
 40
0.0333769843113928
 40
0.0333769843113928
 10
15.21875356034203
 20
8.749129243934844
 30
0.0
 10
15.23218277119628
 20
8.759036921072436
 30
0.0
 10
15.24561198205053
 20
8.76894459821003
 30
0.0
  0
SPLINE
  5
AD
330
1F
100
AcDbEntity
  8
PARTS
 62
     1
100
AcDbSpline
210
0.0
220
0.0
230
1.0
 70
    24
 71
     2
 72
     6
 73
     3
 74
     0
 42
0.0000000001
 43
0.0000000001
 40
0.0
 40
0.0
 40
0.0
 40
0.0314531327890182
 40
0.0314531327890182
 40
0.0314531327890182
 10
15.24561198205053
 20
8.76894459821003
 30
0.0
 10
15.25003314492672
 20
8.784036921072438
 30
0.0
 10
15.2544543078029
 20
8.799129243934845
 30
0.0
  0
SPLINE
  5
AE
330
1F
100
AcDbEntity
  8
PARTS
 62
     1
100
AcDbSpline
210
0.0
220
0.0
230
1.0
 70
    12
 71
     2
 72
     6
 73
     3
 74
     0
 42
0.0000000001
 43
0.0000000001
 40
0.0
 40
0.0
 40
0.0
 40
0.0517880588370567
 40
0.0517880588370567
 40
0.0517880588370567
 10
15.2544543078029
 20
8.799129243934845
 30
0.0
 41
1.0
 10
15.25494986556657
 20
8.826708318653635
 30
0.0
 41
0.9111568217122119
 10
15.23456795283644
 20
8.845294027499492
 30
0.0
 41
1.0
  0
SPLINE
  5
AF
330
1F
100
AcDbEntity
  8
PARTS
 62
     1
100
AcDbSpline
210
0.0
220
0.0
230
1.0
 70
    12
 71
     2
 72
     6
 73
     3
 74
     0
 42
0.0000000001
 43
0.0000000001
 40
0.0
 40
0.0
 40
0.0
 40
0.0572904208453997
 40
0.0572904208453997
 40
0.0572904208453997
 10
15.23456795283644
 20
8.845294027499492
 30
0.0
 41
1.0
 10
15.21224143920126
 20
8.865652964732744
 30
0.0
 41
0.9238504090780355
 10
15.18205847952701
 20
8.86425708448269
 30
0.0
 41
1.0
  0
SPLINE
  5
B0
330
1F
100
AcDbEntity
  8
PARTS
 62
     1
100
AcDbSpline
210
0.0
220
0.0
230
1.0
 70
    12
 71
     2
 72
     6
 73
     3
 74
     0
 42
0.0000000001
 43
0.0000000001
 40
0.0
 40
0.0
 40
0.0
 40
0.0566369437475565
 40
0.0566369437475565
 40
0.0566369437475565
 10
15.18205847952701
 20
8.864257084482691
 30
0.0
 41
1.0
 10
15.15212607275325
 20
8.866019296238962
 30
0.0
 41
0.9205783192065234
 10
15.13005801019649
 20
8.845720158805687
 30
0.0
 41
1.0
  0
SPLINE
  5
B1
330
1F
100
AcDbEntity
  8
PARTS
 62
     1
100
AcDbSpline
210
0.0
220
0.0
230
1.0
 70
    12
 71
     2
 72
     6
 73
     3
 74
     0
 42
0.0000000001
 43
0.0000000001
 40
0.0
 40
0.0
 40
0.0
 40
0.05125611170738
 40
0.05125611170738
 40
0.05125611170738
 10
15.13005801019649
 20
8.845720158805687
 30
0.0
 41
1.0
 10
15.10998223434457
 20
8.827253610958573
 30
0.0
 41
0.9117269170427038
 10
15.11051491386351
 20
8.799981529666965
 30
0.0
 41
1.0
  0
SPLINE
  5
B2
330
1F
100
AcDbEntity
  8
PARTS
 62
     1
100
AcDbSpline
210
0.0
220
0.0
230
1.0
 70
    24
 71
     2
 72
     6
 73
     3
 74
     0
 42
0.0000000001
 43
0.0000000001
 40
0.0
 40
0.0
 40
0.0
 40
0.0322282652633222
 40
0.0322282652633222
 40
0.0322282652633222
 10
15.11051491386351
 20
8.799981529666965
 30
0.0
 10
15.11500118767972
 20
8.78450449449492
 30
0.0
 10
15.11948746149593
 20
8.769027459322874
 30
0.0
  0
SPLINE
  5
B3
330
1F
100
AcDbEntity
  8
PARTS
 62
     1
100
AcDbSpline
210
0.0
220
0.0
230
1.0
 70
    24
 71
     2
 72
     6
 73
     3
 74
     0
 42
0.0000000001
 43
0.0000000001
 40
0.0
 40
0.0
 40
0.0
 40
0.1148767273795525
 40
0.1148767273795525
 40
0.1148767273795525
 10
14.8824609477894
 20
8.706847049132623
 30
0.0
 10
14.84951823385676
 20
8.65979449105008
 30
0.0
 10
14.81657551992411
 20
8.612741932967538
 30
0.0
  0
SPLINE
  5
B4
330
1F
100
AcDbEntity
  8
PARTS
 62
     1
100
AcDbSpline
210
0.0
220
0.0
230
1.0
 70
    24
 71
     2
 72
     6
 73
     3
 74
     0
 42
0.0000000001
 43
0.0000000001
 40
0.0
 40
0.0
 40
0.0
 40
0.0366477316076761
 40
0.0366477316076761
 40
0.0366477316076761
 10
14.81657551992411
 20
8.612741932967538
 30
0.0
 10
14.83489938572795
 20
8.612741932967538
 30
0.0
 10
14.85322325153179
 20
8.612741932967538
 30
0.0
  0
SPLINE
  5
B5
330
1F
100
AcDbEntity
  8
PARTS
 62
     1
100
AcDbSpline
210
0.0
220
0.0
230
1.0
 70
    24
 71
     2
 72
     6
 73
     3
 74
     0
 42
0.0000000001
 43
0.0000000001
 40
0.0
 40
0.0
 40
0.0
 40
0.0845531264086819
 40
0.0845531264086819
 40
0.0845531264086819
 10
14.85322325153179
 20
8.612741932967538
 30
0.0
 10
14.87746567577421
 20
8.647377357942858
 30
0.0
 10
14.90170810001664
 20
8.682012782918177
 30
0.0
  0
SPLINE
  5
B6
330
1F
100
AcDbEntity
  8
PARTS
 62
     1
100
AcDbSpline
210
0.0
220
0.0
230
1.0
 70
    24
 71
     2
 72
     6
 73
     3
 74
     0
 42
0.0000000001
 43
0.0000000001
 40
0.0
 40
0.0
 40
0.0
 40
0.0166814106266173
 40
0.0166814106266173
 40
0.0166814106266173
 10
14.90170810001664
 20
8.682012782918177
 30
0.0
 10
14.90647846329696
 20
8.675170926496325
 30
0.0
 10
14.91124882657728
 20
8.668329070074474
 30
0.0
  0
SPLINE
  5
B7
330
1F
100
AcDbEntity
  8
PARTS
 62
     1
100
AcDbSpline
210
0.0
220
0.0
230
1.0
 70
    24
 71
     2
 72
     6
 73
     3
 74
     0
 42
0.0000000001
 43
0.0000000001
 40
0.0
 40
0.0
 40
0.0
 40
0.0667767981331349
 40
0.0667767981331349
 40
0.0667767981331349
 10
14.91124882657728
 20
8.668329070074474
 30
0.0
 10
14.92975025190864
 20
8.640535501521006
 30
0.0
 10
14.94825167724001
 20
8.612741932967538
 30
0.0
  0
SPLINE
  5
B8
330
1F
100
AcDbEntity
  8
PARTS
 62
     1
100
AcDbSpline
210
0.0
220
0.0
230
1.0
 70
    24
 71
     2
 72
     6
 73
     3
 74
     0
 42
0.0000000001
 43
0.0000000001
 40
0.0
 40
0.0
 40
0.0
 40
0.0365056608659273
 40
0.0365056608659273
 40
0.0365056608659273
 10
14.94825167724001
 20
8.612741932967538
 30
0.0
 10
14.96650450767297
 20
8.612741932967538
 30
0.0
 10
14.98475733810593
 20
8.612741932967538
 30
0.0
  0
SPLINE
  5
B9
330
1F
100
AcDbEntity
  8
PARTS
 62
     1
100
AcDbSpline
210
0.0
220
0.0
230
1.0
 70
    24
 71
     2
 72
     6
 73
     3
 74
     0
 42
0.0000000001
 43
0.0000000001
 40
0.0
 40
0.0
 40
0.0
 40
0.1146982863568729
 40
0.1146982863568729
 40
0.1146982863568729
 10
14.98475733810593
 20
8.612741932967538
 30
0.0
 10
14.95188565954416
 20
8.659735304540906
 30
0.0
 10
14.9190139809824
 20
8.706728676114272
 30
0.0
  0
SPLINE
  5
BA
330
1F
100
AcDbEntity
  8
PARTS
 62
     1
100
AcDbSpline
210
0.0
220
0.0
230
1.0
 70
    24
 71
     2
 72
     6
 73
     3
 74
     0
 42
0.0000000001
 43
0.0000000001
 40
0.0
 40
0.0
 40
0.0
 40
0.1072119287919766
 40
0.1072119287919766
 40
0.1072119287919766
 10
14.9190139809824
 20
8.706728676114272
 30
0.0
 10
14.94975497989346
 20
8.750644395449996
 30
0.0
 10
14.98049597880452
 20
8.79456011478572
 30
0.0
  0
SPLINE
  5
BB
330
1F
100
AcDbEntity
  8
PARTS
 62
     1
100
AcDbSpline
210
0.0
220
0.0
230
1.0
 70
    24
 71
     2
 72
     6
 73
     3
 74
     0
 42
0.0000000001
 43
0.0000000001
 40
0.0
 40
0.0
 40
0.0
 40
0.0366477316076796
 40
0.0366477316076796
 40
0.0366477316076796
 10
14.98049597880452
 20
8.79456011478572
 30
0.0
 10
14.96217211300068
 20
8.79456011478572
 30
0.0
 10
14.94384824719684
 20
8.79456011478572
 30
0.0
  0
SPLINE
  5
BC
330
1F
100
AcDbEntity
  8
PARTS
 62
     1
100
AcDbSpline
210
0.0
220
0.0
230
1.0
 70
    24
 71
     2
 72
     6
 73
     3
 74
     0
 42
0.0000000001
 43
0.0000000001
 40
0.0
 40
0.0
 40
0.0
 40
0.0524762129404584
 40
0.0524762129404584
 40
0.0524762129404584
 10
14.94384824719684
 20
8.79456011478572
 30
0.0
 10
14.92880326776184
 20
8.773063909889423
 30
0.0
 10
14.91375828832684
 20
8.751567704993127
 30
0.0
  0
SPLINE
  5
BD
330
1F
100
AcDbEntity
  8
PARTS
 62
     1
100
AcDbSpline
210
0.0
220
0.0
230
1.0
 70
    24
 71
     2
 72
     6
 73
     3
 74
     0
 42
0.0000000001
 43
0.0000000001
 40
0.0
 40
0.0
 40
0.0
 40
0.0243733126600181
 40
0.0243733126600181
 40
0.0243733126600181
 10
14.91375828832684
 20
8.751567704993127
 30
0.0
 10
14.906762558541
 20
8.741589009824457
 30
0.0
 10
14.89976682875516
 20
8.731610314655788
 30
0.0
  0
SPLINE
  5
BE
330
1F
100
AcDbEntity
  8
PARTS
 62
     1
100
AcDbSpline
210
0.0
220
0.0
230
1.0
 70
    24
 71
     2
 72
     6
 73
     3
 74
     0
 42
0.0000000001
 43
0.0000000001
 40
0.0
 40
0.0
 40
0.0
 40
0.0224199212100047
 40
0.0224199212100047
 40
0.0224199212100047
 10
14.89976682875516
 20
8.731610314655788
 30
0.0
 10
14.89397846907689
 20
8.741210216165737
 30
0.0
 10
14.88819010939863
 20
8.750810117675686
 30
0.0
  0
SPLINE
  5
BF
330
1F
100
AcDbEntity
  8
PARTS
 62
     1
100
AcDbSpline
210
0.0
220
0.0
230
1.0
 70
    24
 71
     2
 72
     6
 73
     3
 74
     0
 42
0.0000000001
 43
0.0000000001
 40
0.0
 40
0.0
 40
0.0
 40
0.0533819678951618
 40
0.0533819678951618
 40
0.0533819678951618
 10
14.88819010939863
 20
8.750810117675686
 30
0.0
 10
14.87289654662509
 20
8.772685116230702
 30
0.0
 10
14.85760298385156
 20
8.79456011478572
 30
0.0
  0
SPLINE
  5
C0
330
1F
100
AcDbEntity
  8
PARTS
 62
     1
100
AcDbSpline
210
0.0
220
0.0
230
1.0
 70
    24
 71
     2
 72
     6
 73
     3
 74
     0
 42
0.0000000001
 43
0.0000000001
 40
0.0
 40
0.0
 40
0.0
 40
0.036482009381988
 40
0.036482009381988
 40
0.036482009381988
 10
14.85760298385156
 20
8.79456011478572
 30
0.0
 10
14.83936197916056
 20
8.79456011478572
 30
0.0
 10
14.82112097446957
 20
8.79456011478572
 30
0.0
  0
SPLINE
  5
C1
330
1F
100
AcDbEntity
  8
PARTS
 62
     1
100
AcDbSpline
210
0.0
220
0.0
230
1.0
 70
    24
 71
     2
 72
     6
 73
     3
 74
     0
 42
0.0000000001
 43
0.0000000001
 40
0.0
 40
0.0
 40
0.0
 40
0.1070335191103333
 40
0.1070335191103333
 40
0.1070335191103333
 10
14.82112097446957
 20
8.79456011478572
 30
0.0
 10
14.85179096112948
 20
8.750703581959172
 30
0.0
 10
14.8824609477894
 20
8.706847049132623
 30
0.0
  0
SPLINE
  5
C2
330
1F
100
AcDbEntity
  8
PARTS
 62
     1
100
AcDbSpline
210
0.0
220
0.0
230
1.0
 70
    24
 71
     2
 72
     6
 73
     3
 74
     0
 42
0.0000000001
 43
0.0000000001
 40
0.0
 40
0.0
 40
0.0
 40
0.1818181818181817
 40
0.1818181818181817
 40
0.1818181818181817
 10
14.62566642901502
 20
8.79456011478572
 30
0.0
 10
14.62566642901502
 20
8.703651023876628
 30
0.0
 10
14.62566642901502
 20
8.612741932967538
 30
0.0
  0
SPLINE
  5
C3
330
1F
100
AcDbEntity
  8
PARTS
 62
     1
100
AcDbSpline
210
0.0
220
0.0
230
1.0
 70
    24
 71
     2
 72
     6
 73
     3
 74
     0
 42
0.0000000001
 43
0.0000000001
 40
0.0
 40
0.0
 40
0.0
 40
0.0303030303030312
 40
0.0303030303030312
 40
0.0303030303030312
 10
14.62566642901502
 20
8.612741932967538
 30
0.0
 10
14.64081794416654
 20
8.612741932967538
 30
0.0
 10
14.65596945931805
 20
8.612741932967538
 30
0.0
  0
SPLINE
  5
C4
330
1F
100
AcDbEntity
  8
PARTS
 62
     1
100
AcDbSpline
210
0.0
220
0.0
230
1.0
 70
    24
 71
     2
 72
     6
 73
     3
 74
     0
 42
0.0000000001
 43
0.0000000001
 40
0.0
 40
0.0
 40
0.0
 40
0.0945312590311449
 40
0.0945312590311449
 40
0.0945312590311449
 10
14.65596945931805
 20
8.612741932967538
 30
0.0
 10
14.65596945931805
 20
8.66000756248311
 30
0.0
 10
14.65596945931805
 20
8.707273191998683
 30
0.0
  0
SPLINE
  5
C5
330
1F
100
AcDbEntity
  8
PARTS
 62
     1
100
AcDbSpline
210
0.0
220
0.0
230
1.0
 70
    24
 71
     2
 72
     6
 73
     3
 74
     0
 42
0.0000000001
 43
0.0000000001
 40
0.0
 40
0.0
 40
0.0
 40
0.0360818976374967
 40
0.0360818976374967
 40
0.0360818976374967
 10
14.65596945931805
 20
8.707273191998683
 30
0.0
 10
14.65850260723115
 20
8.72513541459082
 30
0.0
 10
14.66103575514425
 20
8.742997637182958
 30
0.0
  0
SPLINE
  5
C6
330
1F
100
AcDbEntity
  8
PARTS
 62
     1
100
AcDbSpline
210
0.0
220
0.0
230
1.0
 70
    24
 71
     2
 72
     6
 73
     3
 74
     0
 42
0.0000000001
 43
0.0000000001
 40
0.0
 40
0.0
 40
0.0
 40
0.0201380994266837
 40
0.0201380994266837
 40
0.0201380994266837
 10
14.66103575514425
 20
8.742997637182958
 30
0.0
 10
14.66663471799315
 20
8.751366470861932
 30
0.0
 10
14.67223368084206
 20
8.759735304540905
 30
0.0
  0
SPLINE
  5
C7
330
1F
100
AcDbEntity
  8
PARTS
 62
     1
100
AcDbSpline
210
0.0
220
0.0
230
1.0
 70
    24
 71
     2
 72
     6
 73
     3
 74
     0
 42
0.0000000001
 43
0.0000000001
 40
0.0
 40
0.0
 40
0.0
 40
0.0186642612100302
 40
0.0186642612100302
 40
0.0186642612100302
 10
14.67223368084206
 20
8.759735304540905
 30
0.0
 10
14.6810641692926
 20
8.762753770269374
 30
0.0
 10
14.68989465774314
 20
8.765772235997842
 30
0.0
  0
SPLINE
  5
C8
330
1F
100
AcDbEntity
  8
PARTS
 62
     1
100
AcDbSpline
210
0.0
220
0.0
230
1.0
 70
    24
 71
     2
 72
     6
 73
     3
 74
     0
 42
0.0000000001
 43
0.0000000001
 40
0.0
 40
0.0
 40
0.0
 40
0.0226917927941205
 40
0.0226917927941205
 40
0.0226917927941205
 10
14.68989465774314
 20
8.765772235997842
 30
0.0
 10
14.70090318661159
 20
8.763026028211579
 30
0.0
 10
14.71191171548004
 20
8.760279820425316
 30
0.0
  0
SPLINE
  5
C9
330
1F
100
AcDbEntity
  8
PARTS
 62
     1
100
AcDbSpline
210
0.0
220
0.0
230
1.0
 70
    24
 71
     2
 72
     6
 73
     3
 74
     0
 42
0.0000000001
 43
0.0000000001
 40
0.0
 40
0.0
 40
0.0
 40
0.0302109339274704
 40
0.0302109339274704
 40
0.0302109339274704
 10
14.71191171548004
 20
8.760279820425316
 30
0.0
 10
14.71727392073238
 20
8.774401501877051
 30
0.0
 10
14.72263612598472
 20
8.788523183328785
 30
0.0
  0
SPLINE
  5
CA
330
1F
100
AcDbEntity
  8
PARTS
 62
     1
100
AcDbSpline
210
0.0
220
0.0
230
1.0
 70
    24
 71
     2
 72
     6
 73
     3
 74
     0
 42
0.0000000001
 43
0.0000000001
 40
0.0
 40
0.0
 40
0.0
 40
0.0330166137388263
 40
0.0330166137388263
 40
0.0330166137388263
 10
14.72263612598472
 20
8.788523183328785
 30
0.0
 10
14.70676254698114
 20
8.793056800572405
 30
0.0
 10
14.69088896797755
 20
8.797590417816023
 30
0.0
  0
SPLINE
  5
CB
330
1F
100
AcDbEntity
  8
PARTS
 62
     1
100
AcDbSpline
210
0.0
220
0.0
230
1.0
 70
    24
 71
     2
 72
     6
 73
     3
 74
     0
 42
0.0000000001
 43
0.0000000001
 40
0.0
 40
0.0
 40
0.0
 40
0.0207606416063762
 40
0.0207606416063762
 40
0.0207606416063762
 10
14.69088896797755
 20
8.797590417816023
 30
0.0
 10
14.6809753837489
 20
8.794512771358313
 30
0.0
 10
14.67106179952026
 20
8.791435124900602
 30
0.0
  0
SPLINE
  5
CC
330
1F
100
AcDbEntity
  8
PARTS
 62
     1
100
AcDbSpline
210
0.0
220
0.0
230
1.0
 70
    24
 71
     2
 72
     6
 73
     3
 74
     0
 42
0.0000000001
 43
0.0000000001
 40
0.0
 40
0.0
 40
0.0
 40
0.0321642935716734
 40
0.0321642935716734
 40
0.0321642935716734
 10
14.67106179952026
 20
8.791435124900602
 30
0.0
 10
14.66124290214643
 20
8.7786983788639
 30
0.0
 10
14.6514240047726
 20
8.765961632827201
 30
0.0
  0
SPLINE
  5
CD
330
1F
100
AcDbEntity
  8
PARTS
 62
     1
100
AcDbSpline
210
0.0
220
0.0
230
1.0
 70
    24
 71
     2
 72
     6
 73
     3
 74
     0
 42
0.0000000001
 43
0.0000000001
 40
0.0
 40
0.0
 40
0.0
 40
0.0285984819585181
 40
0.0285984819585181
 40
0.0285984819585181
 10
14.6514240047726
 20
8.765961632827201
 30
0.0
 10
14.6514240047726
 20
8.780260873806462
 30
0.0
 10
14.6514240047726
 20
8.794560114785721
 30
0.0
  0
SPLINE
  5
CE
330
1F
100
AcDbEntity
  8
PARTS
 62
     1
100
AcDbSpline
210
0.0
220
0.0
230
1.0
 70
    24
 71
     2
 72
     6
 73
     3
 74
     0
 42
0.0000000001
 43
0.0000000001
 40
0.0
 40
0.0
 40
0.0
 40
0.0257575757575772
 40
0.0257575757575772
 40
0.0257575757575772
 10
14.6514240047726
 20
8.794560114785721
 30
0.0
 10
14.63854521689381
 20
8.794560114785721
 30
0.0
 10
14.62566642901502
 20
8.79456011478572
 30
0.0
  0
SPLINE
  5
CF
330
1F
100
AcDbEntity
  8
PARTS
 62
     1
100
AcDbSpline
210
0.0
220
0.0
230
1.0
 70
     8
 71
     3
 72
    12
 73
     8
 74
     0
 42
0.0000000001
 43
0.0000000001
 40
7.843274299759143
 40
7.843274299759143
 40
7.843274299759143
 40
7.843274299759143
 40
8.843274299759143
 40
9.843274299759143
 40
10.84327429975914
 40
11.84327429975914
 40
12.82438370448179
 40
12.82438370448179
 40
12.82438370448179
 40
12.82438370448179
 10
9.669387654469062
 20
12.32023912748766
 30
0.0
 10
9.561749349097978
 20
12.46795208252196
 30
0.0
 10
9.153322734645995
 20
12.63624422798733
 30
0.0
 10
8.553538926231628
 20
12.61434823927476
 30
0.0
 10
7.995487247052285
 20
12.44839146902048
 30
0.0
 10
7.421925135175105
 20
12.11807995021422
 30
0.0
 10
7.070542473914292
 20
11.77193432596654
 30
0.0
 10
6.942539075612064
 20
11.58670694230574
 30
0.0
  0
SPLINE
  5
D0
330
1F
100
AcDbEntity
  8
PARTS
 62
     1
100
AcDbSpline
210
0.0
220
0.0
230
1.0
 70
    24
 71
     2
 72
     6
 73
     3
 74
     0
 42
0.0000000001
 43
0.0000000001
 40
-0.5065209522973203
 40
-0.5065209522973203
 40
-0.5065209522973203
 40
-0.3285928593423205
 40
-0.3285928593423205
 40
-0.3285928593423205
 10
6.942539075612064
 20
11.58670694230574
 30
0.0
 10
7.02568547348187
 20
11.55506396382826
 30
0.0
 10
7.108831871351676
 20
11.52342098535077
 30
0.0
  0
SPLINE
  5
D1
330
1F
100
AcDbEntity
  8
PARTS
 62
     1
100
AcDbSpline
210
0.0
220
0.0
230
1.0
 70
    24
 71
     2
 72
     6
 73
     3
 74
     0
 42
0.0000000001
 43
0.0000000001
 40
-0.3285928593423205
 40
-0.3285928593423205
 40
-0.3285928593423205
 40
-0.2035928593422843
 40
-0.2035928593422843
 40
-0.2035928593422843
 10
7.108831871351676
 20
11.52342098535077
 30
0.0
 10
7.086601698229503
 20
11.46500806380973
 30
0.0
 10
7.06437152510733
 20
11.40659514226868
 30
0.0
  0
SPLINE
  5
D2
330
1F
100
AcDbEntity
  8
PARTS
 62
     1
100
AcDbSpline
210
0.0
220
0.0
230
1.0
 70
    24
 71
     2
 72
     6
 73
     3
 74
     0
 42
0.0000000001
 43
0.0000000001
 40
-0.2035928593422843
 40
-0.2035928593422843
 40
-0.2035928593422843
 40
0.0
 40
0.0
 40
0.0
 10
7.06437152510733
 20
11.40659514226868
 30
0.0
 10
6.969231895354737
 20
11.44280237834562
 30
0.0
 10
6.874092265602144
 20
11.47900961442255
 30
0.0
  0
SPLINE
  5
D3
330
1F
100
AcDbEntity
  8
PARTS
 62
     1
100
AcDbSpline
210
0.0
220
0.0
230
1.0
 70
    12
 71
     2
 72
     6
 73
     3
 74
     0
 42
0.0000000001
 43
0.0000000001
 40
0.0
 40
0.0
 40
0.0
 40
1.080396946484979
 40
1.080396946484979
 40
1.080396946484979
 10
6.874092265602144
 20
11.47900961442255
 30
0.0
 41
1.0
 10
6.613594701101148
 20
10.99772831180172
 30
0.0
 41
0.9814438563894258
 10
6.553399249014972
 20
10.45379156831816
 30
0.0
 41
1.0
  0
SPLINE
  5
D4
330
1F
100
AcDbEntity
  8
PARTS
 62
     1
100
AcDbSpline
210
0.0
220
0.0
230
1.0
 70
    12
 71
     2
 72
     6
 73
     3
 74
     0
 42
0.0000000001
 43
0.0000000001
 40
0.0
 40
0.0
 40
0.0
 40
0.0677969163959484
 40
0.0677969163959484
 40
0.0677969163959484
 10
6.553399249014972
 20
10.45379156831816
 30
0.0
 41
1.0
 10
6.549030201738616
 20
10.41431208498051
 30
0.0
 41
0.7939659922389463
 10
6.586004506555481
 20
10.39979936772907
 30
0.0
 41
1.0
  0
SPLINE
  5
D5
330
1F
100
AcDbEntity
  8
PARTS
 62
     1
100
AcDbSpline
210
0.0
220
0.0
230
1.0
 70
    12
 71
     2
 72
     6
 73
     3
 74
     0
 42
0.0000000001
 43
0.0000000001
 40
0.0
 40
0.0
 40
0.0
 40
0.0677969163959488
 40
0.0677969163959488
 40
0.0677969163959488
 10
6.586004506555481
 20
10.39979936772907
 30
0.0
 41
1.0
 10
6.622964331691286
 20
10.38533710761704
 30
0.0
 41
0.7946039934739204
 10
6.646630993422671
 20
10.41719734559653
 30
0.0
 41
1.0
  0
SPLINE
  5
D6
330
1F
100
AcDbEntity
  8
PARTS
 62
     1
100
AcDbSpline
210
0.0
220
0.0
230
1.0
 70
     8
 71
     3
 72
    12
 73
     8
 74
     0
 42
0.0000000001
 43
0.0000000001
 40
1.663697366429222
 40
1.663697366429222
 40
1.663697366429222
 40
1.663697366429222
 40
2.566084518249017
 40
3.566084518249017
 40
4.566084518249017
 40
5.566084518249017
 40
5.670803152150217
 40
5.670803152150217
 40
5.670803152150217
 40
5.670803152150217
 10
6.646630993422671
 20
10.41719734559653
 30
0.0
 10
6.957065975276
 20
10.83510725242088
 30
0.0
 10
7.289678710183109
 20
11.16673016209207
 30
0.0
 10
7.820281582150049
 20
11.57007858090159
 30
0.0
 10
8.504940551867545
 20
11.74251942950474
 30
0.0
 10
8.993393463371715
 20
11.56879100015636
 30
0.0
 10
9.222953110033563
 20
11.58431609939154
 30
0.0
 10
9.244395027484236
 20
11.58670694230582
 30
0.0
  0
SPLINE
  5
D7
330
1F
100
AcDbEntity
  8
PARTS
 62
     1
100
AcDbSpline
210
0.0
220
0.0
230
1.0
 70
    24
 71
     2
 72
     6
 73
     3
 74
     0
 42
0.0000000001
 43
0.0000000001
 40
5.670803152150217
 40
5.670803152150217
 40
5.670803152150217
 40
5.854877461630352
 40
5.854877461630352
 40
5.854877461630352
 10
9.244395027484236
 20
11.58670694230582
 30
0.0
 10
9.221461053718654
 20
11.67584094647913
 30
0.0
 10
9.198527079953072
 20
11.76497495065243
 30
0.0
  0
SPLINE
  5
D8
330
1F
100
AcDbEntity
  8
PARTS
 62
     1
100
AcDbSpline
210
0.0
220
0.0
230
1.0
 70
    24
 71
     2
 72
     6
 73
     3
 74
     0
 42
0.0000000001
 43
0.0000000001
 40
5.854877461630352
 40
5.854877461630352
 40
5.854877461630352
 40
5.979877461630343
 40
5.979877461630343
 40
5.979877461630343
 10
9.198527079953072
 20
11.76497495065243
 30
0.0
 10
9.259055627109538
 20
11.7805488062806
 30
0.0
 10
9.319584174266003
 20
11.79612266190877
 30
0.0
  0
SPLINE
  5
D9
330
1F
100
AcDbEntity
  8
PARTS
 62
     1
100
AcDbSpline
210
0.0
220
0.0
230
1.0
 70
    24
 71
     2
 72
     6
 73
     3
 74
     0
 42
0.0000000001
 43
0.0000000001
 40
5.979877461630343
 40
5.979877461630343
 40
5.979877461630343
 40
6.170527115383306
 40
6.170527115383306
 40
6.170527115383306
 10
9.319584174266003
 20
11.79612266190877
 30
0.0
 10
9.347808068644602
 20
11.70507193755615
 30
0.0
 10
9.3760319630232
 20
11.61402121320353
 30
0.0
  0
SPLINE
  5
DA
330
1F
100
AcDbEntity
  8
PARTS
 62
     1
100
AcDbSpline
210
0.0
220
0.0
230
1.0
 70
    12
 71
     2
 72
     8
 73
     5
 74
     0
 42
0.0000000001
 43
0.0000000001
 40
0.0
 40
0.0
 40
0.0
 40
0.4521806659625722
 40
0.4521806659625722
 40
0.9043613319251443
 40
0.9043613319251443
 40
0.9043613319251443
 10
9.3760319630232
 20
11.61402121320353
 30
0.0
 41
1.0
 10
9.624549774219794
 20
11.65251251015681
 30
0.0
 41
0.8719057001700685
 10
9.721020488321425
 20
11.88475394432352
 30
0.0
 41
1.0
 10
9.817491202423058
 20
12.11699537849023
 30
0.0
 41
0.8719057001700685
 10
9.669387654469062
 20
12.32023912748766
 30
0.0
 41
1.0
  0
SPLINE
  5
DB
330
1F
100
AcDbEntity
  8
PARTS
 62
     1
100
AcDbSpline
210
0.0
220
0.0
230
1.0
 70
    12
 71
     2
 72
    12
 73
     9
 74
     0
 42
0.0000000001
 43
0.0000000001
 40
0.0
 40
0.0
 40
0.0
 40
0.0358362228293487
 40
0.0358362228293487
 40
0.0716724456586974
 40
0.0716724456586974
 40
0.1075086684880461
 40
0.1075086684880461
 40
0.1433448913173948
 40
0.1433448913173948
 40
0.1433448913173948
 10
8.56300823239236
 20
9.685368423051491
 30
0.0
 41
1.0
 10
8.575534104892892
 20
9.699867955454689
 30
0.0
 41
0.9055002609965443
 10
8.57240617786694
 20
9.718771658645633
 30
0.0
 41
1.0
 10
8.569278250840986
 20
9.737675361836578
 30
0.0
 41
0.9055002609965443
 10
8.552749498525033
 20
9.747367331125059
 30
0.0
 41
1.0
 10
8.536220746209082
 20
9.757059300413541
 30
0.0
 41
0.9055002609965443
 10
8.518196450542268
 20
9.750558632176629
 30
0.0
 41
1.0
 10
8.50017215487546
 20
9.744057963939722
 30
0.0
 41
0.9055002609965443
 10
8.493634803438582
 20
9.726046940703885
 30
0.0
 41
1.0
  0
SPLINE
  5
DC
330
1F
100
AcDbEntity
  8
PARTS
 62
     1
100
AcDbSpline
210
0.0
220
0.0
230
1.0
 70
     8
 71
     3
 72
    10
 73
     6
 74
     0
 42
0.0000000001
 43
0.0000000001
 40
0.0
 40
0.0
 40
0.0
 40
0.0
 40
1.0
 40
2.0
 40
3.0
 40
3.0
 40
3.0
 40
3.0
 10
8.493634803438582
 20
9.726046940703885
 30
0.0
 10
8.243355791849023
 20
9.37272451303986
 30
0.0
 10
7.9456629233723
 20
8.881746515947958
 30
0.0
 10
6.983277182134183
 20
8.45655224533865
 30
0.0
 10
6.367248741490444
 20
8.78333215883835
 30
0.0
 10
6.204850622934497
 20
8.880214449116126
 30
0.0
  0
SPLINE
  5
DD
330
1F
100
AcDbEntity
  8
PARTS
 62
     1
100
AcDbSpline
210
0.0
220
0.0
230
1.0
 70
    12
 71
     2
 72
    12
 73
     9
 74
     0
 42
0.0000000001
 43
0.0000000001
 40
0.0
 40
0.0
 40
0.0
 40
0.0358362228293497
 40
0.0358362228293497
 40
0.0716724456586994
 40
0.0716724456586994
 40
0.1075086684880491
 40
0.1075086684880491
 40
0.1433448913173988
 40
0.1433448913173988
 40
0.1433448913173988
 10
6.204850622934497
 20
8.880214449116126
 30
0.0
 41
1.0
 10
6.190351090531299
 20
8.892740321616657
 30
0.0
 41
0.9055002609965452
 10
6.171447387340353
 20
8.889612394590705
 30
0.0
 41
1.0
 10
6.15254368414941
 20
8.886484467564756
 30
0.0
 41
0.9055002609965452
 10
6.142851714860929
 20
8.869955715248798
 30
0.0
 41
1.0
 10
6.133159745572449
 20
8.853426962932847
 30
0.0
 41
0.9055002609965452
 10
6.139660413809359
 20
8.835402667266033
 30
0.0
 41
1.0
 10
6.14616108204627
 20
8.817378371599222
 30
0.0
 41
0.9055002609965452
 10
6.164172105282104
 20
8.810841020162346
 30
0.0
 41
1.0
  0
SPLINE
  5
DE
330
1F
100
AcDbEntity
  8
PARTS
 62
     1
100
AcDbSpline
210
0.0
220
0.0
230
1.0
 70
     8
 71
     3
 72
    10
 73
     6
 74
     0
 42
0.0000000001
 43
0.0000000001
 40
5.0
 40
5.0
 40
5.0
 40
5.0
 40
6.0
 40
7.0
 40
8.0
 40
8.0
 40
8.0
 40
8.0
 10
6.164172105282105
 20
8.81084102016235
 30
0.0
 10
6.517494532946129
 20
8.56056200857279
 30
0.0
 10
7.008472530038032
 20
8.262869140096065
 30
0.0
 10
7.433666800647337
 20
7.300483398857949
 30
0.0
 10
7.106886887147638
 20
6.684454958214211
 30
0.0
 10
7.010004596869862
 20
6.522056839658264
 30
0.0
  0
SPLINE
  5
DF
330
1F
100
AcDbEntity
  8
PARTS
 62
     1
100
AcDbSpline
210
0.0
220
0.0
230
1.0
 70
    12
 71
     2
 72
    12
 73
     9
 74
     0
 42
0.0000000001
 43
0.0000000001
 40
0.0
 40
0.0
 40
0.0
 40
0.035836222829349
 40
0.035836222829349
 40
0.0716724456586979
 40
0.0716724456586979
 40
0.1075086684880469
 40
0.1075086684880469
 40
0.1433448913173958
 40
0.1433448913173958
 40
0.1433448913173958
 10
7.010004596869862
 20
6.522056839658264
 30
0.0
 41
1.0
 10
6.997478724369333
 20
6.507557307255067
 30
0.0
 41
0.9055002609965463
 10
7.000606651395284
 20
6.488653604064121
 30
0.0
 41
1.0
 10
7.003734578421238
 20
6.469749900873179
 30
0.0
 41
0.9055002609965463
 10
7.020263330737191
 20
6.460057931584696
 30
0.0
 41
1.0
 10
7.036792083053147
 20
6.450365962296219
 30
0.0
 41
0.9055002609965463
 10
7.054816378719956
 20
6.456866630533127
 30
0.0
 41
1.0
 10
7.072840674386769
 20
6.463367298770038
 30
0.0
 41
0.9055002609965463
 10
7.07937802582364
 20
6.481378322005872
 30
0.0
 41
1.0
  0
SPLINE
  5
E0
330
1F
100
AcDbEntity
  8
PARTS
 62
     1
100
AcDbSpline
210
0.0
220
0.0
230
1.0
 70
     8
 71
     3
 72
    10
 73
     6
 74
     0
 42
0.0000000001
 43
0.0000000001
 40
10.0
 40
10.0
 40
10.0
 40
10.0
 40
11.0
 40
12.0
 40
13.0
 40
13.0
 40
13.0
 40
13.0
 10
7.07937802582364
 20
6.481378322005872
 30
0.0
 10
7.329657037413199
 20
6.834700749669896
 30
0.0
 10
7.627349905889925
 20
7.325678746761799
 30
0.0
 10
8.589735647128041
 20
7.750873017371104
 30
0.0
 10
9.205764087771774
 20
7.424093103871405
 30
0.0
 10
9.368162206327723
 20
7.327210813593627
 30
0.0
  0
SPLINE
  5
E1
330
1F
100
AcDbEntity
  8
PARTS
 62
     1
100
AcDbSpline
210
0.0
220
0.0
230
1.0
 70
    12
 71
     2
 72
    12
 73
     9
 74
     0
 42
0.0000000001
 43
0.0000000001
 40
0.0
 40
0.0
 40
0.0
 40
0.035836222829349
 40
0.035836222829349
 40
0.071672445658698
 40
0.071672445658698
 40
0.1075086684880471
 40
0.1075086684880471
 40
0.1433448913173961
 40
0.1433448913173961
 40
0.1433448913173961
 10
9.368162206327723
 20
7.327210813593627
 30
0.0
 41
1.0
 10
9.382661738730922
 20
7.314684941093096
 30
0.0
 41
0.9055002609965488
 10
9.401565441921866
 20
7.317812868119048
 30
0.0
 41
1.0
 10
9.420469145112811
 20
7.320940795144999
 30
0.0
 41
0.9055002609965488
 10
9.43016111440129
 20
7.337469547460954
 30
0.0
 41
1.0
 10
9.439853083689771
 20
7.353998299776907
 30
0.0
 41
0.9055002609965488
 10
9.43335241545286
 20
7.372022595443719
 30
0.0
 41
1.0
 10
9.426851747215954
 20
7.39004689111053
 30
0.0
 41
0.9055002609965488
 10
9.408840723980118
 20
7.396584242547405
 30
0.0
 41
1.0
  0
SPLINE
  5
E2
330
1F
100
AcDbEntity
  8
PARTS
 62
     1
100
AcDbSpline
210
0.0
220
0.0
230
1.0
 70
     8
 71
     3
 72
    10
 73
     6
 74
     0
 42
0.0000000001
 43
0.0000000001
 40
15.0
 40
15.0
 40
15.0
 40
15.0
 40
16.0
 40
17.0
 40
18.0
 40
18.0
 40
18.0
 40
18.0
 10
9.408840723980118
 20
7.396584242547405
 30
0.0
 10
9.055518296316093
 20
7.646863254136965
 30
0.0
 10
8.564540299224188
 20
7.94455612261369
 30
0.0
 10
8.139346028614884
 20
8.906941863851806
 30
0.0
 10
8.466125942114584
 20
9.522970304495544
 30
0.0
 10
8.56300823239236
 20
9.685368423051491
 30
0.0
  0
SPLINE
  5
E3
330
1F
100
AcDbEntity
  8
PARTS
 62
     1
100
AcDbSpline
210
0.0
220
0.0
230
1.0
 70
    24
 71
     2
 72
     6
 73
     3
 74
     0
 42
0.0000000001
 43
0.0000000001
 40
0.0
 40
0.0
 40
0.0
 40
0.0274387705844781
 40
0.0274387705844781
 40
0.0274387705844781
 10
14.4044543078029
 20
8.612457860843229
 30
0.0
 10
14.40218158053017
 20
8.625987688763077
 30
0.0
 10
14.39990885325745
 20
8.639517516682925
 30
0.0
  0
SPLINE
  5
E4
330
1F
100
AcDbEntity
  8
PARTS
 62
     1
100
AcDbSpline
210
0.0
220
0.0
230
1.0
 70
    24
 71
     2
 72
     6
 73
     3
 74
     0
 42
0.0000000001
 43
0.0000000001
 40
0.0
 40
0.0
 40
0.0
 40
0.0132729923894879
 40
0.0132729923894879
 40
0.0132729923894879
 10
14.39990885325745
 20
8.639517516682925
 30
0.0
 10
14.39329190557046
 20
8.63900851270402
 30
0.0
 10
14.38667495788347
 20
8.638499508725113
 30
0.0
  0
SPLINE
  5
E5
330
1F
100
AcDbEntity
  8
PARTS
 62
     1
100
AcDbSpline
210
0.0
220
0.0
230
1.0
 70
    24
 71
     2
 72
     6
 73
     3
 74
     0
 42
0.0000000001
 43
0.0000000001
 40
0.0
 40
0.0
 40
0.0
 40
0.0105384997445934
 40
0.0105384997445934
 40
0.0105384997445934
 10
14.38667495788347
 20
8.638499508725113
 30
0.0
 10
14.3815258125043
 20
8.639618122188658
 30
0.0
 10
14.37637666712513
 20
8.640736735652201
 30
0.0
  0
SPLINE
  5
E6
330
1F
100
AcDbEntity
  8
PARTS
 62
     1
100
AcDbSpline
210
0.0
220
0.0
230
1.0
 70
    24
 71
     2
 72
     6
 73
     3
 74
     0
 42
0.0000000001
 43
0.0000000001
 40
0.0
 40
0.0
 40
0.0
 40
0.0079397851378966
 40
0.0079397851378966
 40
0.0079397851378966
 10
14.37637666712513
 20
8.640736735652201
 30
0.0
 10
14.37378433270285
 20
8.643743369858766
 30
0.0
 10
14.37119199828058
 20
8.646750004065332
 30
0.0
  0
SPLINE
  5
E7
330
1F
100
AcDbEntity
  8
PARTS
 62
     1
100
AcDbSpline
210
0.0
220
0.0
230
1.0
 70
    24
 71
     2
 72
     6
 73
     3
 74
     0
 42
0.0000000001
 43
0.0000000001
 40
0.0
 40
0.0
 40
0.0
 40
0.0170601599525545
 40
0.0170601599525545
 40
0.0170601599525545
 10
14.37119199828058
 20
8.646750004065332
 30
0.0
 10
14.3703989106175
 20
8.655243135193505
 30
0.0
 10
14.36960582295442
 20
8.66373626632168
 30
0.0
  0
SPLINE
  5
E8
330
1F
100
AcDbEntity
  8
PARTS
 62
     1
100
AcDbSpline
210
0.0
220
0.0
230
1.0
 70
    24
 71
     2
 72
     6
 73
     3
 74
     0
 42
0.0000000001
 43
0.0000000001
 40
0.0
 40
0.0
 40
0.0
 40
0.1065814242216163
 40
0.1065814242216163
 40
0.1065814242216163
 10
14.36960582295442
 20
8.66373626632168
 30
0.0
 10
14.36960582295442
 20
8.717026978432488
 30
0.0
 10
14.36960582295442
 20
8.770317690543296
 30
0.0
  0
SPLINE
  5
E9
330
1F
100
AcDbEntity
  8
PARTS
 62
     1
100
AcDbSpline
210
0.0
220
0.0
230
1.0
 70
    24
 71
     2
 72
     6
 73
     3
 74
     0
 42
0.0000000001
 43
0.0000000001
 40
0.0
 40
0.0
 40
0.0
 40
0.0303030303030312
 40
0.0303030303030312
 40
0.0303030303030312
 10
14.36960582295442
 20
8.770317690543296
 30
0.0
 10
14.38475733810593
 20
8.770317690543296
 30
0.0
 10
14.39990885325745
 20
8.770317690543296
 30
0.0
  0
SPLINE
  5
EA
330
1F
100
AcDbEntity
  8
PARTS
 62
     1
100
AcDbSpline
210
0.0
220
0.0
230
1.0
 70
    24
 71
     2
 72
     6
 73
     3
 74
     0
 42
0.0000000001
 43
0.0000000001
 40
0.0
 40
0.0
 40
0.0
 40
0.0242424242424235
 40
0.0242424242424235
 40
0.0242424242424235
 10
14.39990885325745
 20
8.770317690543296
 30
0.0
 10
14.39990885325745
 20
8.782438902664508
 30
0.0
 10
14.39990885325745
 20
8.79456011478572
 30
0.0
  0
SPLINE
  5
EB
330
1F
100
AcDbEntity
  8
PARTS
 62
     1
100
AcDbSpline
210
0.0
220
0.0
230
1.0
 70
    24
 71
     2
 72
     6
 73
     3
 74
     0
 42
0.0000000001
 43
0.0000000001
 40
0.0
 40
0.0
 40
0.0
 40
0.0303030303030312
 40
0.0303030303030312
 40
0.0303030303030312
 10
14.39990885325745
 20
8.79456011478572
 30
0.0
 10
14.38475733810593
 20
8.79456011478572
 30
0.0
 10
14.36960582295442
 20
8.79456011478572
 30
0.0
  0
SPLINE
  5
EC
330
1F
100
AcDbEntity
  8
PARTS
 62
     1
100
AcDbSpline
210
0.0
220
0.0
230
1.0
 70
    24
 71
     2
 72
     6
 73
     3
 74
     0
 42
0.0000000001
 43
0.0000000001
 40
0.0
 40
0.0
 40
0.0
 40
0.0631392200790231
 40
0.0631392200790231
 40
0.0631392200790231
 10
14.36960582295442
 20
8.79456011478572
 30
0.0
 10
14.36960582295442
 20
8.82612972482523
 30
0.0
 10
14.36960582295442
 20
8.857699334864742
 30
0.0
  0
SPLINE
  5
ED
330
1F
100
AcDbEntity
  8
PARTS
 62
     1
100
AcDbSpline
210
0.0
220
0.0
230
1.0
 70
    24
 71
     2
 72
     6
 73
     3
 74
     0
 42
0.0000000001
 43
0.0000000001
 40
0.0
 40
0.0
 40
0.0
 40
0.0354491975859632
 40
0.0354491975859632
 40
0.0354491975859632
 10
14.36960582295442
 20
8.857699334864742
 30
0.0
 10
14.3544543078029
 20
8.848501890057317
 30
0.0
 10
14.33930279265139
 20
8.839304445249894
 30
0.0
  0
SPLINE
  5
EE
330
1F
100
AcDbEntity
  8
PARTS
 62
     1
100
AcDbSpline
210
0.0
220
0.0
230
1.0
 70
    24
 71
     2
 72
     6
 73
     3
 74
     0
 42
0.0000000001
 43
0.0000000001
 40
0.0
 40
0.0
 40
0.0
 40
0.0447443304641748
 40
0.0447443304641748
 40
0.0447443304641748
 10
14.33930279265139
 20
8.839304445249894
 30
0.0
 10
14.33930279265139
 20
8.816932280017806
 30
0.0
 10
14.33930279265139
 20
8.79456011478572
 30
0.0
  0
SPLINE
  5
EF
330
1F
100
AcDbEntity
  8
PARTS
 62
     1
100
AcDbSpline
210
0.0
220
0.0
230
1.0
 70
    24
 71
     2
 72
     6
 73
     3
 74
     0
 42
0.0000000001
 43
0.0000000001
 40
0.0
 40
0.0
 40
0.0
 40
0.0227272727272734
 40
0.0227272727272734
 40
0.0227272727272734
 10
14.33930279265139
 20
8.79456011478572
 30
0.0
 10
14.32793915628775
 20
8.79456011478572
 30
0.0
 10
14.31657551992411
 20
8.79456011478572
 30
0.0
  0
SPLINE
  5
F0
330
1F
100
AcDbEntity
  8
PARTS
 62
     1
100
AcDbSpline
210
0.0
220
0.0
230
1.0
 70
    24
 71
     2
 72
     6
 73
     3
 74
     0
 42
0.0000000001
 43
0.0000000001
 40
0.0
 40
0.0
 40
0.0
 40
0.0242424242424235
 40
0.0242424242424235
 40
0.0242424242424235
 10
14.31657551992411
 20
8.79456011478572
 30
0.0
 10
14.31657551992411
 20
8.782438902664508
 30
0.0
 10
14.31657551992411
 20
8.770317690543296
 30
0.0
  0
SPLINE
  5
F1
330
1F
100
AcDbEntity
  8
PARTS
 62
     1
100
AcDbSpline
210
0.0
220
0.0
230
1.0
 70
    24
 71
     2
 72
     6
 73
     3
 74
     0
 42
0.0000000001
 43
0.0000000001
 40
0.0
 40
0.0
 40
0.0
 40
0.0227272727272734
 40
0.0227272727272734
 40
0.0227272727272734
 10
14.31657551992411
 20
8.770317690543296
 30
0.0
 10
14.32793915628775
 20
8.770317690543296
 30
0.0
 10
14.33930279265139
 20
8.770317690543296
 30
0.0
  0
SPLINE
  5
F2
330
1F
100
AcDbEntity
  8
PARTS
 62
     1
100
AcDbSpline
210
0.0
220
0.0
230
1.0
 70
    24
 71
     2
 72
     6
 73
     3
 74
     0
 42
0.0000000001
 43
0.0000000001
 40
0.0
 40
0.0
 40
0.0
 40
0.1048295266697643
 40
0.1048295266697643
 40
0.1048295266697643
 10
14.33930279265139
 20
8.770317690543296
 30
0.0
 10
14.33930279265139
 20
8.717902927208414
 30
0.0
 10
14.33930279265139
 20
8.665488163873531
 30
0.0
  0
SPLINE
  5
F3
330
1F
100
AcDbEntity
  8
PARTS
 62
     1
100
AcDbSpline
210
0.0
220
0.0
230
1.0
 70
    24
 71
     2
 72
     6
 73
     3
 74
     0
 42
0.0000000001
 43
0.0000000001
 40
0.0
 40
0.0
 40
0.0
 40
0.0366708733036672
 40
0.0366708733036672
 40
0.0366708733036672
 10
14.33930279265139
 20
8.665488163873531
 30
0.0
 10
14.34116122591975
 20
8.647247153402606
 30
0.0
 10
14.34301965918812
 20
8.62900614293168
 30
0.0
  0
SPLINE
  5
F4
330
1F
100
AcDbEntity
  8
PARTS
 62
     1
100
AcDbSpline
210
0.0
220
0.0
230
1.0
 70
    24
 71
     2
 72
     6
 73
     3
 74
     0
 42
0.0000000001
 43
0.0000000001
 40
0.0
 40
0.0
 40
0.0
 40
0.0189756844476573
 40
0.0189756844476573
 40
0.0189756844476573
 10
14.34301965918812
 20
8.62900614293168
 30
0.0
 10
14.34943538430378
 20
8.62201632023689
 30
0.0
 10
14.35585110941943
 20
8.6150264975421
 30
0.0
  0
SPLINE
  5
F5
330
1F
100
AcDbEntity
  8
PARTS
 62
     1
100
AcDbSpline
210
0.0
220
0.0
230
1.0
 70
    24
 71
     2
 72
     6
 73
     3
 74
     0
 42
0.0000000001
 43
0.0000000001
 40
0.0
 40
0.0
 40
0.0
 40
0.0261842802986887
 40
0.0261842802986887
 40
0.0261842802986887
 10
14.35585110941943
 20
8.6150264975421
 30
0.0
 10
14.36867071078905
 20
8.612369063739667
 30
0.0
 10
14.38149031215866
 20
8.609711629937236
 30
0.0
  0
SPLINE
  5
F6
330
1F
100
AcDbEntity
  8
PARTS
 62
     1
100
AcDbSpline
210
0.0
220
0.0
230
1.0
 70
    24
 71
     2
 72
     6
 73
     3
 74
     0
 42
0.0000000001
 43
0.0000000001
 40
0.0
 40
0.0
 40
0.0
 40
0.0231276215841115
 40
0.0231276215841115
 40
0.0231276215841115
 10
14.38149031215866
 20
8.609711629937236
 30
0.0
 10
14.39297230998078
 20
8.611084745390233
 30
0.0
 10
14.4044543078029
 20
8.612457860843229
 30
0.0
  0
SPLINE
  5
F7
330
1F
100
AcDbEntity
  8
PARTS
 62
     1
100
AcDbSpline
210
0.0
220
0.0
230
1.0
 70
     8
 71
     5
 72
    18
 73
    12
 74
     0
 42
0.0000000001
 43
0.0000000001
 40
9.144453565190453
 40
9.144453565190453
 40
9.144453565190453
 40
9.144453565190453
 40
9.144453565190453
 40
9.144453565190453
 40
9.944453565190454
 40
9.944453565190454
 40
9.944453565190454
 40
10.94445356519045
 40
10.94445356519045
 40
10.94445356519045
 40
11.46932636706696
 40
11.46932636706696
 40
11.46932636706696
 40
11.46932636706696
 40
11.46932636706696
 40
11.46932636706696
 10
12.18433349228447
 20
8.874072662055088
 30
0.0
 10
12.29859467840489
 20
8.917854846635544
 30
0.0
 10
12.41426472369284
 20
8.970700655862679
 30
0.0
 10
12.52907880133919
 20
9.031287479577994
 30
0.0
 10
12.78038868852928
 20
9.182049242679211
 30
0.0
 10
13.0044338680912
 20
9.358608463771963
 30
0.0
 10
13.12848561110578
 20
9.460204455702877
 30
0.0
 10
13.32920640800419
 20
9.613681203092948
 30
0.0
 10
13.5661466387265
 20
9.754597602392826
 30
0.0
 10
13.6506060842935
 20
9.799957087693414
 30
0.0
 10
13.70488731309627
 20
9.827412878403242
 30
0.0
 10
13.79025580125267
 20
9.863303435843871
 30
0.0
  0
SPLINE
  5
F8
330
1F
100
AcDbEntity
  8
PARTS
 62
     1
100
AcDbSpline
210
0.0
220
0.0
230
1.0
 70
    12
 71
     2
 72
     6
 73
     3
 74
     0
 42
0.0000000001
 43
0.0000000001
 40
0.0
 40
0.0
 40
0.0
 40
1.85953492100769
 40
1.85953492100769
 40
1.85953492100769
 10
13.79025580125267
 20
9.863303435843871
 30
0.0
 41
1.0
 10
14.72823613777803
 20
10.22911304886831
 30
0.0
 41
0.8891000475328069
 10
15.570934962018
 20
9.678220612621537
 30
0.0
 41
1.0
  0
SPLINE
  5
F9
330
1F
100
AcDbEntity
  8
PARTS
 62
     1
100
AcDbSpline
210
0.0
220
0.0
230
1.0
 70
    12
 71
     2
 72
    12
 73
     9
 74
     0
 42
0.0000000001
 43
0.0000000001
 40
0.0
 40
0.0
 40
0.0
 40
0.0397789017214872
 40
0.0397789017214872
 40
0.0795578034429744
 40
0.0795578034429744
 40
0.1193367051644617
 40
0.1193367051644617
 40
0.1591156068859489
 40
0.1591156068859489
 40
0.1591156068859489
 10
15.570934962018
 20
9.678220612621537
 30
0.0
 41
1.0
 10
15.58225818021818
 20
9.660426962407604
 30
0.0
 41
0.9166972403063082
 10
15.60300102049755
 20
9.65661070304943
 30
0.0
 41
1.0
 10
15.62374386077694
 20
9.652794443691267
 30
0.0
 41
0.9166972403063082
 10
15.64065860371816
 20
9.665392885244763
 30
0.0
 41
1.0
 10
15.65757334665939
 20
9.677991326798267
 30
0.0
 41
0.9166972403063082
 10
15.65985714340068
 20
9.698958289639583
 30
0.0
 41
1.0
 10
15.66214094014197
 20
9.719925252480902
 30
0.0
 41
0.9166972403063082
 10
15.64833521037189
 20
9.73586987802872
 30
0.0
 41
1.0
  0
SPLINE
  5
FA
330
1F
100
AcDbEntity
  8
PARTS
 62
     1
100
AcDbSpline
210
0.0
220
0.0
230
1.0
 70
     8
 71
     5
 72
    18
 73
    12
 74
     0
 42
0.0000000001
 43
0.0000000001
 40
-4.2
 40
-4.2
 40
-4.2
 40
-4.2
 40
-4.2
 40
-4.2
 40
-3.399999999999999
 40
-3.399999999999999
 40
-3.399999999999999
 40
-2.399999999999999
 40
-2.399999999999999
 40
-2.399999999999999
 40
-1.875127198123494
 40
-1.875127198123494
 40
-1.875127198123494
 40
-1.875127198123494
 40
-1.875127198123494
 40
-1.875127198123494
 10
15.64833521037189
 20
9.73586987802872
 30
0.0
 10
15.55328813323183
 20
9.812931875585315
 30
0.0
 10
15.44968729731361
 20
9.88668216864801
 30
0.0
 10
15.33981053001836
 20
9.955820664744166
 30
0.0
 10
15.08359206965833
 20
10.09808052972238
 30
0.0
 10
14.81866470913865
 20
10.20382973627208
 30
0.0
 10
14.66865412769651
 20
10.26046370114098
 30
0.0
 10
14.4353789671173
 20
10.35755463662783
 30
0.0
 10
14.19487167015262
 20
10.49229269596196
 30
0.0
 10
14.11335948079622
 20
10.54275697876223
 30
0.0
 10
14.06092880461787
 20
10.57414953033501
 30
0.0
 10
13.98867507558137
 20
10.63202400720495
 30
0.0
  0
SPLINE
  5
FB
330
1F
100
AcDbEntity
  8
PARTS
 62
     1
100
AcDbSpline
210
0.0
220
0.0
230
1.0
 70
    12
 71
     2
 72
     6
 73
     3
 74
     0
 42
0.0000000001
 43
0.0000000001
 40
0.0
 40
0.0
 40
0.0
 40
1.859534921007688
 40
1.859534921007688
 40
1.859534921007688
 10
13.98867507558137
 20
10.63202400720495
 30
0.0
 41
1.0
 10
13.20288448949097
 20
11.26143400037397
 30
0.0
 41
0.8891000475328088
 10
13.25862192191338
 20
12.26667880802844
 30
0.0
 41
1.0
  0
SPLINE
  5
FC
330
1F
100
AcDbEntity
  8
PARTS
 62
     1
100
AcDbSpline
210
0.0
220
0.0
230
1.0
 70
    12
 71
     2
 72
    12
 73
     9
 74
     0
 42
0.0000000001
 43
0.0000000001
 40
0.0
 40
0.0
 40
0.0
 40
0.0397789017214884
 40
0.0397789017214884
 40
0.0795578034429767
 40
0.0795578034429767
 40
0.1193367051644651
 40
0.1193367051644651
 40
0.1591156068859535
 40
0.1591156068859535
 40
0.1591156068859535
 10
13.25862192191338
 20
12.26667880802844
 30
0.0
 41
1.0
 10
13.26837006592462
 20
12.28538182774936
 30
0.0
 41
0.9166972403063101
 10
13.26130362333653
 20
12.30525378405703
 30
0.0
 41
1.0
 10
13.25423718074845
 20
12.32512574036471
 30
0.0
 41
0.9166972403063101
 10
13.23486923884441
 20
12.33347511667354
 30
0.0
 41
1.0
 10
13.21550129694037
 20
12.34182449298238
 30
0.0
 41
0.9166972403063101
 10
13.19620147610894
 20
12.33331883755675
 30
0.0
 41
1.0
 10
13.17690165527751
 20
12.32481318213114
 30
0.0
 41
0.9166972403063101
 10
13.16999606938431
 20
12.30488475665855
 30
0.0
 41
1.0
  0
SPLINE
  5
FD
330
1F
100
AcDbEntity
  8
PARTS
 62
     1
100
AcDbSpline
210
0.0
220
0.0
230
1.0
 70
     8
 71
     5
 72
    18
 73
    12
 74
     0
 42
0.0000000001
 43
0.0000000001
 40
2.472226782595227
 40
2.472226782595227
 40
2.472226782595227
 40
2.472226782595227
 40
2.472226782595227
 40
2.472226782595227
 40
3.272226782595228
 40
3.272226782595228
 40
3.272226782595228
 40
4.272226782595228
 40
4.272226782595228
 40
4.272226782595228
 40
4.797099584471733
 40
4.797099584471733
 40
4.797099584471733
 40
4.797099584471733
 40
4.797099584471733
 40
4.797099584471733
 10
13.16999606938431
 20
12.30488475665855
 30
0.0
 10
13.15078196040396
 20
12.1840405745215
 30
0.0
 10
13.13871275103422
 20
12.05744447223167
 30
0.0
 10
13.13377544068313
 20
11.9277191524202
 30
0.0
 10
13.13868401385306
 20
11.63469752434076
 30
0.0
 10
13.17956619481081
 20
11.35238909669832
 30
0.0
 10
13.20552503323838
 20
11.1941591398985
 30
0.0
 10
13.23807939691918
 20
10.94359145702158
 30
0.0
 10
13.24164646316155
 20
10.66793699838758
 30
0.0
 10
13.23869920695095
 20
10.57211323028672
 30
0.0
 10
13.23772779788849
 20
10.51101065699228
 30
0.0
 10
13.22373389520664
 20
10.41949985369354
 30
0.0
  0
SPLINE
  5
FE
330
1F
100
AcDbEntity
  8
PARTS
 62
     1
100
AcDbSpline
210
0.0
220
0.0
230
1.0
 70
    12
 71
     2
 72
     6
 73
     3
 74
     0
 42
0.0000000001
 43
0.0000000001
 40
0.0
 40
0.0
 40
0.0
 40
1.859534921007693
 40
1.859534921007693
 40
1.859534921007693
 10
13.22373389520664
 20
10.41949985369354
 30
0.0
 41
1.0
 10
13.07154414477167
 20
9.424280247500077
 30
0.0
 41
0.8891000475328076
 10
12.17310788810928
 20
8.969927876092374
 30
0.0
 41
1.0
  0
SPLINE
  5
FF
330
1F
100
AcDbEntity
  8
PARTS
 62
     1
100
AcDbSpline
210
0.0
220
0.0
230
1.0
 70
    12
 71
     2
 72
    12
 73
     9
 74
     0
 42
0.0000000001
 43
0.0000000001
 40
0.0
 40
0.0
 40
0.0
 40
0.0397789017214879
 40
0.0397789017214879
 40
0.0795578034429758
 40
0.0795578034429758
 40
0.1193367051644637
 40
0.1193367051644637
 40
0.1591156068859516
 40
0.1591156068859516
 40
0.1591156068859516
 10
12.17310788810928
 20
8.969927876092374
 30
0.0
 41
1.0
 10
12.15203652589787
 20
8.969018506585396
 30
0.0
 41
0.9166972403063074
 10
12.13836012820657
 20
8.952962809635892
 30
0.0
 41
1.0
 10
12.12468373051528
 20
8.93690711268639
 30
0.0
 41
0.9166972403063074
 10
12.12713692947809
 20
8.915959294824054
 30
0.0
 41
1.0
 10
12.12959012844091
 20
8.895011476961718
 30
0.0
 41
0.9166972403063074
 10
12.14660615253105
 20
8.882550169546018
 30
0.0
 41
1.0
 10
12.16362217662119
 20
8.870088862130324
 30
0.0
 41
0.9166972403063074
 10
12.18433349228447
 20
8.874072662055088
 30
0.0
 41
1.0
  0
SPLINE
  5
100
330
1F
100
AcDbEntity
  8
PARTS
 62
     1
100
AcDbSpline
210
0.0
220
0.0
230
1.0
 70
    24
 71
     2
 72
     6
 73
     3
 74
     0
 42
0.0000000001
 43
0.0000000001
 40
0.0
 40
0.0
 40
0.0
 40
0.0269886551484184
 40
0.0269886551484184
 40
0.0269886551484184
 10
14.25899976234836
 20
8.639730588115956
 30
0.0
 10
14.25899976234836
 20
8.626236260541747
 30
0.0
 10
14.25899976234836
 20
8.612741932967538
 30
0.0
  0
SPLINE
  5
101
330
1F
100
AcDbEntity
  8
PARTS
 62
     1
100
AcDbSpline
210
0.0
220
0.0
230
1.0
 70
    24
 71
     2
 72
     6
 73
     3
 74
     0
 42
0.0000000001
 43
0.0000000001
 40
0.0
 40
0.0
 40
0.0
 40
0.0272727272727273
 40
0.0272727272727273
 40
0.0272727272727273
 10
14.25899976234836
 20
8.612741932967538
 30
0.0
 10
14.27263612598472
 20
8.612741932967538
 30
0.0
 10
14.28627248962108
 20
8.612741932967538
 30
0.0
  0
SPLINE
  5
102
330
1F
100
AcDbEntity
  8
PARTS
 62
     1
100
AcDbSpline
210
0.0
220
0.0
230
1.0
 70
    24
 71
     2
 72
     6
 73
     3
 74
     0
 42
0.0000000001
 43
0.0000000001
 40
0.0
 40
0.0
 40
0.0
 40
0.1818181818181817
 40
0.1818181818181817
 40
0.1818181818181817
 10
14.28627248962108
 20
8.612741932967538
 30
0.0
 10
14.28627248962108
 20
8.703651023876628
 30
0.0
 10
14.28627248962108
 20
8.79456011478572
 30
0.0
  0
SPLINE
  5
103
330
1F
100
AcDbEntity
  8
PARTS
 62
     1
100
AcDbSpline
210
0.0
220
0.0
230
1.0
 70
    24
 71
     2
 72
     6
 73
     3
 74
     0
 42
0.0000000001
 43
0.0000000001
 40
0.0
 40
0.0
 40
0.0
 40
0.0303030303030312
 40
0.0303030303030312
 40
0.0303030303030312
 10
14.28627248962108
 20
8.79456011478572
 30
0.0
 10
14.27112097446957
 20
8.79456011478572
 30
0.0
 10
14.25596945931805
 20
8.79456011478572
 30
0.0
  0
SPLINE
  5
104
330
1F
100
AcDbEntity
  8
PARTS
 62
     1
100
AcDbSpline
210
0.0
220
0.0
230
1.0
 70
    24
 71
     2
 72
     6
 73
     3
 74
     0
 42
0.0000000001
 43
0.0000000001
 40
0.0
 40
0.0
 40
0.0
 40
0.097230094490337
 40
0.097230094490337
 40
0.097230094490337
 10
14.25596945931805
 20
8.79456011478572
 30
0.0
 10
14.25596945931805
 20
8.74594506754055
 30
0.0
 10
14.25596945931805
 20
8.697330020295382
 30
0.0
  0
SPLINE
  5
105
330
1F
100
AcDbEntity
  8
PARTS
 62
     1
100
AcDbSpline
210
0.0
220
0.0
230
1.0
 70
    24
 71
     2
 72
     6
 73
     3
 74
     0
 42
0.0000000001
 43
0.0000000001
 40
0.0
 40
0.0
 40
0.0
 40
0.0358140986745058
 40
0.0358140986745058
 40
0.0358140986745058
 10
14.25596945931805
 20
8.697330020295382
 30
0.0
 10
14.25347182909039
 20
8.67959800802343
 30
0.0
 10
14.25097419886273
 20
8.661865995751477
 30
0.0
  0
SPLINE
  5
106
330
1F
100
AcDbEntity
  8
PARTS
 62
     1
100
AcDbSpline
210
0.0
220
0.0
230
1.0
 70
    24
 71
     2
 72
     6
 73
     3
 74
     0
 42
0.0000000001
 43
0.0000000001
 40
0.0
 40
0.0
 40
0.0
 40
0.0257386083030862
 40
0.0257386083030862
 40
0.0257386083030862
 10
14.25097419886273
 20
8.661865995751477
 30
0.0
 10
14.24246331178181
 20
8.652212820603337
 30
0.0
 10
14.23395242470088
 20
8.642559645455197
 30
0.0
  0
SPLINE
  5
107
330
1F
100
AcDbEntity
  8
PARTS
 62
     1
100
AcDbSpline
210
0.0
220
0.0
230
1.0
 70
    24
 71
     2
 72
     6
 73
     3
 74
     0
 42
0.0000000001
 43
0.0000000001
 40
0.0
 40
0.0
 40
0.0
 40
0.026692845569453
 40
0.026692845569453
 40
0.026692845569453
 10
14.23395242470088
 20
8.642559645455197
 30
0.0
 10
14.22108547412393
 20
8.639014425575004
 30
0.0
 10
14.20821852354698
 20
8.635469205694811
 30
0.0
  0
SPLINE
  5
108
330
1F
100
AcDbEntity
  8
PARTS
 62
     1
100
AcDbSpline
210
0.0
220
0.0
230
1.0
 70
    24
 71
     2
 72
     6
 73
     3
 74
     0
 42
0.0000000001
 43
0.0000000001
 40
0.0
 40
0.0
 40
0.0
 40
0.0240647124435698
 40
0.0240647124435698
 40
0.0240647124435698
 10
14.20821852354698
 20
8.635469205694811
 30
0.0
 10
14.19669508360857
 20
8.638931564462158
 30
0.0
 10
14.18517164367016
 20
8.642393923229507
 30
0.0
  0
SPLINE
  5
109
330
1F
100
AcDbEntity
  8
PARTS
 62
     1
100
AcDbSpline
210
0.0
220
0.0
230
1.0
 70
    24
 71
     2
 72
     6
 73
     3
 74
     0
 42
0.0000000001
 43
0.0000000001
 40
0.0
 40
0.0
 40
0.0
 40
0.0226077320236468
 40
0.0226077320236468
 40
0.0226077320236468
 10
14.18517164367016
 20
8.642393923229507
 30
0.0
 10
14.17908144435497
 20
8.651916888057462
 30
0.0
 10
14.17299124503977
 20
8.661439852885417
 30
0.0
  0
SPLINE
  5
10A
330
1F
100
AcDbEntity
  8
PARTS
 62
     1
100
AcDbSpline
210
0.0
220
0.0
230
1.0
 70
    24
 71
     2
 72
     6
 73
     3
 74
     0
 42
0.0000000001
 43
0.0000000001
 40
0.0
 40
0.0
 40
0.0
 40
0.0325348715562954
 40
0.0325348715562954
 40
0.0325348715562954
 10
14.17299124503977
 20
8.661439852885417
 30
0.0
 10
14.17205610975467
 20
8.67768038824589
 30
0.0
 10
14.17112097446957
 20
8.69392092360636
 30
0.0
  0
SPLINE
  5
10B
330
1F
100
AcDbEntity
  8
PARTS
 62
     1
100
AcDbSpline
210
0.0
220
0.0
230
1.0
 70
    24
 71
     2
 72
     6
 73
     3
 74
     0
 42
0.0000000001
 43
0.0000000001
 40
0.0
 40
0.0
 40
0.0
 40
0.1006391911793596
 40
0.1006391911793596
 40
0.1006391911793596
 10
14.17112097446957
 20
8.69392092360636
 30
0.0
 10
14.17112097446957
 20
8.74424051919604
 30
0.0
 10
14.17112097446957
 20
8.79456011478572
 30
0.0
  0
SPLINE
  5
10C
330
1F
100
AcDbEntity
  8
PARTS
 62
     1
100
AcDbSpline
210
0.0
220
0.0
230
1.0
 70
    24
 71
     2
 72
     6
 73
     3
 74
     0
 42
0.0000000001
 43
0.0000000001
 40
0.0
 40
0.0
 40
0.0
 40
0.0303030303030312
 40
0.0303030303030312
 40
0.0303030303030312
 10
14.17112097446957
 20
8.79456011478572
 30
0.0
 10
14.15596945931805
 20
8.79456011478572
 30
0.0
 10
14.14081794416654
 20
8.79456011478572
 30
0.0
  0
SPLINE
  5
10D
330
1F
100
AcDbEntity
  8
PARTS
 62
     1
100
AcDbSpline
210
0.0
220
0.0
230
1.0
 70
    24
 71
     2
 72
     6
 73
     3
 74
     0
 42
0.0000000001
 43
0.0000000001
 40
0.0
 40
0.0
 40
0.0
 40
0.1120028391028622
 40
0.1120028391028622
 40
0.1120028391028622
 10
14.14081794416654
 20
8.79456011478572
 30
0.0
 10
14.14081794416654
 20
8.738558695234289
 30
0.0
 10
14.14081794416654
 20
8.682557275682857
 30
0.0
  0
SPLINE
  5
10E
330
1F
100
AcDbEntity
  8
PARTS
 62
     1
100
AcDbSpline
210
0.0
220
0.0
230
1.0
 70
    24
 71
     2
 72
     6
 73
     3
 74
     0
 42
0.0000000001
 43
0.0000000001
 40
0.0
 40
0.0
 40
0.0
 40
0.0286580370401619
 40
0.0286580370401619
 40
0.0286580370401619
 10
14.14081794416654
 20
8.682557275682857
 30
0.0
 10
14.1417412421498
 20
8.668258034703598
 30
0.0
 10
14.14266454013307
 20
8.653958793724339
 30
0.0
  0
SPLINE
  5
10F
330
1F
100
AcDbEntity
  8
PARTS
 62
     1
100
AcDbSpline
210
0.0
220
0.0
230
1.0
 70
    24
 71
     2
 72
     6
 73
     3
 74
     0
 42
0.0000000001
 43
0.0000000001
 40
0.0
 40
0.0
 40
0.0
 40
0.0245785231956954
 40
0.0245785231956954
 40
0.0245785231956954
 10
14.14266454013307
 20
8.653958793724339
 30
0.0
 10
14.14735796095146
 20
8.64260107601162
 30
0.0
 10
14.15205138176985
 20
8.631243358298901
 30
0.0
  0
SPLINE
  5
110
330
1F
100
AcDbEntity
  8
PARTS
 62
     1
100
AcDbSpline
210
0.0
220
0.0
230
1.0
 70
    24
 71
     2
 72
     6
 73
     3
 74
     0
 42
0.0000000001
 43
0.0000000001
 40
0.0
 40
0.0
 40
0.0
 40
0.0255753873218519
 40
0.0255753873218519
 40
0.0255753873218519
 10
14.15205138176985
 20
8.631243358298901
 30
0.0
 10
14.16226090432431
 20
8.623543309053876
 30
0.0
 10
14.17247042687876
 20
8.615843259808852
 30
0.0
  0
SPLINE
  5
111
330
1F
100
AcDbEntity
  8
PARTS
 62
     1
100
AcDbSpline
210
0.0
220
0.0
230
1.0
 70
    24
 71
     2
 72
     6
 73
     3
 74
     0
 42
0.0000000001
 43
0.0000000001
 40
0.0
 40
0.0
 40
0.0
 40
0.0302677198862151
 40
0.0302677198862151
 40
0.0302677198862151
 10
14.17247042687876
 20
8.615843259808852
 30
0.0
 10
14.18729049757889
 20
8.612777444873045
 30
0.0
 10
14.20211056827903
 20
8.609711629937237
 30
0.0
  0
SPLINE
  5
112
330
1F
100
AcDbEntity
  8
PARTS
 62
     1
100
AcDbSpline
210
0.0
220
0.0
230
1.0
 70
    12
 71
     2
 72
     6
 73
     3
 74
     0
 42
0.0000000001
 43
0.0000000001
 40
0.0
 40
0.0
 40
0.0
 40
0.0672042397902508
 40
0.0672042397902508
 40
0.0672042397902508
 10
14.20211056827903
 20
8.609711629937237
 30
0.0
 41
1.0
 10
14.23895978081267
 20
8.608793447601686
 30
0.0
 41
0.8725231841549776
 10
14.25899976234836
 20
8.639730588115956
 30
0.0
 41
1.0
  0
SPLINE
  5
113
330
1F
100
AcDbEntity
  8
PARTS
 62
     1
100
AcDbSpline
210
0.0
220
0.0
230
1.0
 70
    24
 71
     2
 72
     6
 73
     3
 74
     0
 42
0.0000000001
 43
0.0000000001
 40
0.0
 40
0.0
 40
0.0
 40
0.0533924789773837
 40
0.0533924789773837
 40
0.0533924789773837
 10
13.98037760578617
 20
8.754893929009441
 30
0.0
 10
13.97271898709756
 20
8.729319825650375
 30
0.0
 10
13.96506036840896
 20
8.703745722291309
 30
0.0
  0
SPLINE
  5
114
330
1F
100
AcDbEntity
  8
PARTS
 62
     1
100
AcDbSpline
210
0.0
220
0.0
230
1.0
 70
    24
 71
     2
 72
     6
 73
     3
 74
     0
 42
0.0000000001
 43
0.0000000001
 40
0.0
 40
0.0
 40
0.0
 40
0.0534945342807643
 40
0.0534945342807643
 40
0.0534945342807643
 10
13.96506036840896
 20
8.703745722291309
 30
0.0
 10
13.97271898709756
 20
8.678118356853918
 30
0.0
 10
13.98037760578617
 20
8.652490991416528
 30
0.0
  0
SPLINE
  5
115
330
1F
100
AcDbEntity
  8
PARTS
 62
     1
100
AcDbSpline
210
0.0
220
0.0
230
1.0
 70
    24
 71
     2
 72
     6
 73
     3
 74
     0
 42
0.0000000001
 43
0.0000000001
 40
0.0
 40
0.0
 40
0.0
 40
0.0421548041938462
 40
0.0421548041938462
 40
0.0421548041938462
 10
13.98037760578617
 20
8.652490991416528
 30
0.0
 10
13.99966028147878
 20
8.64398009855567
 30
0.0
 10
14.01894295717139
 20
8.635469205694811
 30
0.0
  0
SPLINE
  5
116
330
1F
100
AcDbEntity
  8
PARTS
 62
     1
100
AcDbSpline
210
0.0
220
0.0
230
1.0
 70
    24
 71
     2
 72
     6
 73
     3
 74
     0
 42
0.0000000001
 43
0.0000000001
 40
0.0
 40
0.0
 40
0.0
 40
0.0420152584684056
 40
0.0420152584684056
 40
0.0420152584684056
 10
14.01894295717139
 20
8.635469205694811
 30
0.0
 10
14.03813092866938
 20
8.644021529112091
 30
0.0
 10
14.05731890016738
 20
8.652573852529374
 30
0.0
  0
SPLINE
  5
117
330
1F
100
AcDbEntity
  8
PARTS
 62
     1
100
AcDbSpline
210
0.0
220
0.0
230
1.0
 70
    24
 71
     2
 72
     6
 73
     3
 74
     0
 42
0.0000000001
 43
0.0000000001
 40
0.0
 40
0.0
 40
0.0
 40
0.0543684665434577
 40
0.0543684665434577
 40
0.0543684665434577
 10
14.05731890016738
 20
8.652573852529374
 30
0.0
 10
14.06497751307605
 20
8.678656954087412
 30
0.0
 10
14.07263612598472
 20
8.70474005564545
 30
0.0
  0
SPLINE
  5
118
330
1F
100
AcDbEntity
  8
PARTS
 62
     1
100
AcDbSpline
210
0.0
220
0.0
230
1.0
 70
    24
 71
     2
 72
     6
 73
     3
 74
     0
 42
0.0000000001
 43
0.0000000001
 40
0.0
 40
0.0
 40
0.0
 40
0.0523857704468644
 40
0.0523857704468644
 40
0.0523857704468644
 10
14.07263612598472
 20
8.70474005564545
 30
0.0
 10
14.06493608251963
 20
8.729775561771023
 30
0.0
 10
14.05723603905453
 20
8.754811067896595
 30
0.0
  0
SPLINE
  5
119
330
1F
100
AcDbEntity
  8
PARTS
 62
     1
100
AcDbSpline
210
0.0
220
0.0
230
1.0
 70
    24
 71
     2
 72
     6
 73
     3
 74
     0
 42
0.0000000001
 43
0.0000000001
 40
0.0
 40
0.0
 40
0.0
 40
0.0419058577734247
 40
0.0419058577734247
 40
0.0419058577734247
 10
14.05723603905453
 20
8.754811067896595
 30
0.0
 10
14.03808949811296
 20
8.76332195497752
 30
0.0
 10
14.01894295717139
 20
8.771832842058448
 30
0.0
  0
SPLINE
  5
11A
330
1F
100
AcDbEntity
  8
PARTS
 62
     1
100
AcDbSpline
210
0.0
220
0.0
230
1.0
 70
    24
 71
     2
 72
     6
 73
     3
 74
     0
 42
0.0000000001
 43
0.0000000001
 40
0.0
 40
0.0
 40
0.0
 40
0.0421214090783687
 40
0.0421214090783687
 40
0.0421214090783687
 10
14.01894295717139
 20
8.771832842058448
 30
0.0
 10
13.99966028147878
 20
8.763363385533944
 30
0.0
 10
13.98037760578617
 20
8.754893929009441
 30
0.0
  0
SPLINE
  5
11B
330
1F
100
AcDbEntity
  8
PARTS
 62
     1
100
AcDbSpline
210
0.0
220
0.0
230
1.0
 70
    12
 71
     2
 72
     6
 73
     3
 74
     0
 42
0.0000000001
 43
0.0000000001
 40
0.0
 40
0.0
 40
0.0
 40
0.0815920653384368
 40
0.0815920653384368
 40
0.0815920653384368
 10
13.96247988284839
 20
8.777609375994743
 30
0.0
 41
1.0
 10
13.93120441689974
 20
8.747157735322531
 30
0.0
 41
0.9047034081835127
 10
13.93475733810593
 20
8.70365102387663
 30
0.0
 41
1.0
  0
SPLINE
  5
11C
330
1F
100
AcDbEntity
  8
PARTS
 62
     1
100
AcDbSpline
210
0.0
220
0.0
230
1.0
 70
    12
 71
     2
 72
     6
 73
     3
 74
     0
 42
0.0000000001
 43
0.0000000001
 40
0.0
 40
0.0
 40
0.0
 40
0.0753941585356218
 40
0.0753941585356218
 40
0.0753941585356218
 10
13.93475733810593
 20
8.70365102387663
 30
0.0
 41
1.0
 10
13.93206291367902
 20
8.664015551957117
 30
0.0
 41
0.9250897173340074
 10
13.95799361481211
 20
8.63391855383402
 30
0.0
 41
1.0
  0
SPLINE
  5
11D
330
1F
100
AcDbEntity
  8
PARTS
 62
     1
100
AcDbSpline
210
0.0
220
0.0
230
1.0
 70
    12
 71
     2
 72
     6
 73
     3
 74
     0
 42
0.0000000001
 43
0.0000000001
 40
0.0
 40
0.0
 40
0.0
 40
0.0675373709236409
 40
0.0675373709236409
 40
0.0675373709236409
 10
13.95799361481211
 20
8.63391855383402
 30
0.0
 41
1.0
 10
13.98308081446315
 20
8.608250260267715
 30
0.0
 41
0.9135829500271909
 10
14.01894295717139
 20
8.609711629937234
 30
0.0
 41
1.0
  0
SPLINE
  5
11E
330
1F
100
AcDbEntity
  8
PARTS
 62
     1
100
AcDbSpline
210
0.0
220
0.0
230
1.0
 70
    24
 71
     2
 72
     6
 73
     3
 74
     0
 42
0.0000000001
 43
0.0000000001
 40
0.0
 40
0.0
 40
0.0
 40
0.0447206382178138
 40
0.0447206382178138
 40
0.0447206382178138
 10
14.01894295717139
 20
8.609711629937234
 30
0.0
 10
14.04061672159521
 20
8.615209975720543
 30
0.0
 10
14.06229048601903
 20
8.620708321503852
 30
0.0
  0
SPLINE
  5
11F
330
1F
100
AcDbEntity
  8
PARTS
 62
     1
100
AcDbSpline
210
0.0
220
0.0
230
1.0
 70
    24
 71
     2
 72
     6
 73
     3
 74
     0
 42
0.0000000001
 43
0.0000000001
 40
0.0
 40
0.0
 40
0.0
 40
0.0432423496126013
 40
0.0432423496126013
 40
0.0432423496126013
 10
14.06229048601903
 20
8.620708321503852
 30
0.0
 10
14.07741832656687
 20
8.636155769201242
 30
0.0
 10
14.09254616711472
 20
8.651603216898632
 30
0.0
  0
SPLINE
  5
120
330
1F
100
AcDbEntity
  8
PARTS
 62
     1
100
AcDbSpline
210
0.0
220
0.0
230
1.0
 70
    24
 71
     2
 72
     6
 73
     3
 74
     0
 42
0.0000000001
 43
0.0000000001
 40
0.0
 40
0.0
 40
0.0
 40
0.0555616425483583
 40
0.0555616425483583
 40
0.0555616425483583
 10
14.09254616711472
 20
8.651603216898632
 30
0.0
 10
14.09774266170123
 20
8.678893700124112
 30
0.0
 10
14.10293915628775
 20
8.706184183349592
 30
0.0
  0
SPLINE
  5
121
330
1F
100
AcDbEntity
  8
PARTS
 62
     1
100
AcDbSpline
210
0.0
220
0.0
230
1.0
 70
    12
 71
     2
 72
     6
 73
     3
 74
     0
 42
0.0000000001
 43
0.0000000001
 40
0.0
 40
0.0
 40
0.0
 40
0.0729900803208092
 40
0.0729900803208092
 40
0.0729900803208092
 10
14.10293915628775
 20
8.70618418334959
 30
0.0
 41
1.0
 10
14.10679213529452
 20
8.745204253794405
 30
0.0
 41
0.9067951416356725
 10
14.07944248206093
 20
8.773300655926123
 30
0.0
 41
1.0
  0
SPLINE
  5
122
330
1F
100
AcDbEntity
  8
PARTS
 62
     1
100
AcDbSpline
210
0.0
220
0.0
230
1.0
 70
    12
 71
     2
 72
     6
 73
     3
 74
     0
 42
0.0000000001
 43
0.0000000001
 40
0.0
 40
0.0
 40
0.0
 40
0.06712262857863
 40
0.06712262857863
 40
0.06712262857863
 10
14.07944248206093
 20
8.773300655926123
 30
0.0
 41
1.0
 10
14.05457377963741
 20
8.798848367914186
 30
0.0
 41
0.9142765517096084
 10
14.01894295717139
 20
8.797590417816023
 30
0.0
 41
1.0
  0
SPLINE
  5
123
330
1F
100
AcDbEntity
  8
PARTS
 62
     1
100
AcDbSpline
210
0.0
220
0.0
230
1.0
 70
    12
 71
     2
 72
     6
 73
     3
 74
     0
 42
0.0000000001
 43
0.0000000001
 40
0.0
 40
0.0
 40
0.0
 40
0.0612609218805497
 40
0.0612609218805497
 40
0.0612609218805497
 10
14.01894295717139
 20
8.797590417816023
 30
0.0
 41
1.0
 10
13.98686980241947
 20
8.798455664160574
 30
0.0
 41
0.9333734767628046
 10
13.96247988284839
 20
8.777609375994743
 30
0.0
 41
1.0
  0
SPLINE
  5
124
330
1F
100
AcDbEntity
  8
PARTS
 62
     1
100
AcDbSpline
210
0.0
220
0.0
230
1.0
 70
     8
 71
     3
 72
    13
 73
     9
 74
     0
 42
0.0000000001
 43
0.0000000001
 40
42.1910512155001
 40
42.1910512155001
 40
42.1910512155001
 40
42.1910512155001
 40
43.01109703748371
 40
44.01109703748371
 40
45.01109703748371
 40
46.01109703748371
 40
47.01109703748371
 40
47.5625592929896
 40
47.5625592929896
 40
47.5625592929896
 40
47.5625592929896
 10
16.76655303945962
 20
7.927873234795712
 30
0.0
 10
16.80262413078508
 20
8.242183734972992
 30
0.0
 10
16.77841713505568
 20
8.929420011801776
 30
0.0
 10
16.23041485238194
 20
9.952412585324616
 30
0.0
 10
15.24332657799197
 20
10.5604475779372
 30
0.0
 10
14.19179509973966
 20
11.05387951052952
 30
0.0
 10
13.66016476147009
 20
11.94533301145393
 30
0.0
 10
13.64344624169564
 20
12.55481649103162
 30
0.0
 10
13.66755492401356
 20
12.76854091260397
 30
0.0
  0
SPLINE
  5
125
330
1F
100
AcDbEntity
  8
PARTS
 62
     1
100
AcDbSpline
210
0.0
220
0.0
230
1.0
 70
    24
 71
     2
 72
     6
 73
     3
 74
     0
 42
0.0000000001
 43
0.0000000001
 40
25.86041872264827
 40
25.86041872264827
 40
25.86041872264827
 40
26.16912736275575
 40
26.16912736275575
 40
26.16912736275575
 10
13.66755492401356
 20
12.76854091260397
 30
0.0
 10
13.578878152359
 20
12.89488047999351
 30
0.0
 10
13.49020138070444
 20
13.02122004738305
 30
0.0
  0
SPLINE
  5
126
330
1F
100
AcDbEntity
  8
PARTS
 62
     1
100
AcDbSpline
210
0.0
220
0.0
230
1.0
 70
    24
 71
     2
 72
     6
 73
     3
 74
     0
 42
0.0000000001
 43
0.0000000001
 40
26.16912736275575
 40
26.16912736275575
 40
26.16912736275575
 40
26.29412736275575
 40
26.29412736275575
 40
26.29412736275575
 10
13.49020138070444
 20
13.02122004738305
 30
0.0
 10
13.54135785600813
 20
13.05712638435166
 30
0.0
 10
13.59251433131181
 20
13.09303272132027
 30
0.0
  0
SPLINE
  5
127
330
1F
100
AcDbEntity
  8
PARTS
 62
     1
100
AcDbSpline
210
0.0
220
0.0
230
1.0
 70
    24
 71
     2
 72
     6
 73
     3
 74
     0
 42
0.0000000001
 43
0.0000000001
 40
26.29412736275575
 40
26.29412736275575
 40
26.29412736275575
 40
26.47205545571072
 40
26.47205545571072
 40
26.47205545571072
 10
13.59251433131181
 20
13.09303272132027
 30
0.0
 10
13.6436242998064
 20
13.02021532857561
 30
0.0
 10
13.69473426830098
 20
12.94739793583094
 30
0.0
  0
SPLINE
  5
128
330
1F
100
AcDbEntity
  8
PARTS
 62
     1
100
AcDbSpline
210
0.0
220
0.0
230
1.0
 70
    12
 71
     2
 72
     6
 73
     3
 74
     0
 42
0.0000000001
 43
0.0000000001
 40
0.0
 40
0.0
 40
0.0
 40
1.286125204703714
 40
1.286125204703714
 40
1.286125204703714
 10
13.69473426830098
 20
12.94739793583094
 30
0.0
 41
1.0
 10
13.82043269004085
 20
13.59142196474607
 30
0.0
 41
0.9699315533954648
 10
14.23529662652133
 20
14.0998066195655
 30
0.0
 41
1.0
  0
SPLINE
  5
129
330
1F
100
AcDbEntity
  8
PARTS
 62
     1
100
AcDbSpline
210
0.0
220
0.0
230
1.0
 70
    12
 71
     2
 72
     6
 73
     3
 74
     0
 42
0.0000000001
 43
0.0000000001
 40
0.0
 40
0.0
 40
0.0
 40
0.0666144901769073
 40
0.0666144901769073
 40
0.0666144901769073
 10
14.23529662652133
 20
14.0998066195655
 30
0.0
 41
1.0
 10
14.26014379915494
 20
14.13025496701583
 30
0.0
 41
0.7862097974448473
 10
14.23642757328374
 20
14.16159223685171
 30
0.0
 41
1.0
  0
SPLINE
  5
12A
330
1F
100
AcDbEntity
  8
PARTS
 62
     1
100
AcDbSpline
210
0.0
220
0.0
230
1.0
 70
    12
 71
     2
 72
     6
 73
     3
 74
     0
 42
0.0000000001
 43
0.0000000001
 40
0.0
 40
0.0
 40
0.0
 40
0.066614490176906
 40
0.066614490176906
 40
0.066614490176906
 10
14.23642757328374
 20
14.16159223685171
 30
0.0
 41
1.0
 10
14.21271134741254
 20
14.19292950668757
 30
0.0
 41
0.7862097974449264
 10
14.17665817783721
 20
14.17728812522967
 30
0.0
 41
1.0
  0
SPLINE
  5
12B
330
1F
100
AcDbEntity
  8
PARTS
 62
     1
100
AcDbSpline
210
0.0
220
0.0
230
1.0
 70
     8
 71
     3
 72
    13
 73
     9
 74
     0
 42
0.0000000001
 43
0.0000000001
 40
27.72295750193921
 40
27.72295750193921
 40
27.72295750193921
 40
27.72295750193921
 40
28.54300332392282
 40
29.54300332392282
 40
30.54300332392283
 40
31.54300332392283
 40
32.54300332392283
 40
33.09446557942868
 40
33.09446557942868
 40
33.09446557942868
 40
33.09446557942868
 10
14.17665817783721
 20
14.17728812522967
 30
0.0
 10
13.88642175434476
 20
14.0513713565711
 30
0.0
 10
13.3033611780735
 20
13.68678934490575
 30
0.0
 10
12.69142476285676
 20
12.70070916001701
 30
0.0
 10
12.65839515005937
 20
11.54184814231126
 30
0.0
 10
12.75683630052212
 20
10.3844792029696
 30
0.0
 10
12.2506300915638
 20
9.478347074143437
 30
0.0
 10
11.73116117494982
 20
9.159126671516248
 30
0.0
 10
11.53401605530008
 20
9.073143192069185
 30
0.0
  0
SPLINE
  5
12C
330
1F
100
AcDbEntity
  8
PARTS
 62
     1
100
AcDbSpline
210
0.0
220
0.0
230
1.0
 70
    24
 71
     2
 72
     6
 73
     3
 74
     0
 42
0.0000000001
 43
0.0000000001
 40
33.09446557942868
 40
33.09446557942868
 40
33.09446557942868
 40
33.40317421953615
 40
33.40317421953615
 40
33.40317421953615
 10
11.53401605530008
 20
9.073143192069185
 30
0.0
 10
11.46894116626488
 20
8.93317707139598
 30
0.0
 10
11.40386627722968
 20
8.793210950722774
 30
0.0
  0
SPLINE
  5
12D
330
1F
100
AcDbEntity
  8
PARTS
 62
     1
100
AcDbSpline
210
0.0
220
0.0
230
1.0
 70
    24
 71
     2
 72
     6
 73
     3
 74
     0
 42
0.0000000001
 43
0.0000000001
 40
33.40317421953615
 40
33.40317421953615
 40
33.40317421953615
 40
33.52817421953615
 40
33.52817421953615
 40
33.52817421953615
 10
11.40386627722968
 20
8.793210950722774
 30
0.0
 10
11.34719223960617
 20
8.819560589419535
 30
0.0
 10
11.29051820198267
 20
8.845910228116294
 30
0.0
  0
SPLINE
  5
12E
330
1F
100
AcDbEntity
  8
PARTS
 62
     1
100
AcDbSpline
210
0.0
220
0.0
230
1.0
 70
    24
 71
     2
 72
     6
 73
     3
 74
     0
 42
0.0000000001
 43
0.0000000001
 40
33.52817421953615
 40
33.52817421953615
 40
33.52817421953615
 40
33.70610231249113
 40
33.70610231249113
 40
33.70610231249113
 10
11.29051820198267
 20
8.845910228116294
 30
0.0
 10
11.32802492968961
 20
8.926581455591549
 30
0.0
 10
11.36553165739655
 20
9.007252683066802
 30
0.0
  0
SPLINE
  5
12F
330
1F
100
AcDbEntity
  8
PARTS
 62
     1
100
AcDbSpline
210
0.0
220
0.0
230
1.0
 70
    12
 71
     2
 72
     6
 73
     3
 74
     0
 42
0.0000000001
 43
0.0000000001
 40
0.0
 40
0.0
 40
0.0
 40
1.286125204703755
 40
1.286125204703755
 40
1.286125204703755
 10
11.36553165739655
 20
9.007252683066802
 30
0.0
 41
1.0
 10
10.74494127683849
 20
8.794098695051645
 30
0.0
 41
0.9699315533954965
 10
10.09723528263043
 20
8.899189075747946
 30
0.0
 41
1.0
  0
SPLINE
  5
130
330
1F
100
AcDbEntity
  8
PARTS
 62
     1
100
AcDbSpline
210
0.0
220
0.0
230
1.0
 70
    12
 71
     2
 72
     6
 73
     3
 74
     0
 42
0.0000000001
 43
0.0000000001
 40
0.0
 40
0.0
 40
0.0
 40
0.0666144901769044
 40
0.0666144901769044
 40
0.0666144901769044
 10
10.09723528263043
 20
8.899189075747946
 30
0.0
 41
1.0
 10
10.05844265391838
 20
8.905483184735694
 30
0.0
 41
0.7862097974448568
 10
10.04316189509086
 20
8.869275695731412
 30
0.0
 41
1.0
  0
SPLINE
  5
131
330
1F
100
AcDbEntity
  8
PARTS
 62
     1
100
AcDbSpline
210
0.0
220
0.0
230
1.0
 70
    12
 71
     2
 72
     6
 73
     3
 74
     0
 42
0.0000000001
 43
0.0000000001
 40
0.0
 40
0.0
 40
0.0
 40
0.0666144901769032
 40
0.0666144901769032
 40
0.0666144901769032
 10
10.04316189509086
 20
8.869275695731412
 30
0.0
 41
1.0
 10
10.02788113626335
 20
8.833068206727136
 30
0.0
 41
0.7862097974448923
 10
10.05945355474385
 20
8.8096659367169
 30
0.0
 41
1.0
  0
SPLINE
  5
132
330
1F
100
AcDbEntity
  8
PARTS
 62
     1
100
AcDbSpline
210
0.0
220
0.0
230
1.0
 70
     8
 71
     3
 72
    13
 73
     9
 74
     0
 42
0.0000000001
 43
0.0000000001
 40
34.95700435871966
 40
34.95700435871966
 40
34.95700435871966
 40
34.95700435871966
 40
35.77705018070327
 40
36.77705018070327
 40
37.77705018070327
 40
38.77705018070328
 40
39.77705018070328
 40
40.32851243620912
 40
40.32851243620912
 40
40.32851243620912
 40
40.32851243620912
 10
10.05945355474385
 20
8.8096659367169
 30
0.0
 10
10.31361888691084
 20
8.621272205198178
 30
0.0
 10
10.9208864589115
 20
8.298617940034747
 30
0.0
 10
12.08082515680197
 20
8.261705551400643
 30
0.0
 10
13.10094304398934
 20
8.81253157649381
 30
0.0
 10
14.0540333717789
 20
9.476468583243154
 30
0.0
 10
15.09186991900679
 20
9.491147211144916
 30
0.0
 10
15.62805735539521
 20
9.200884134194435
 30
0.0
 10
15.80109379272703
 20
9.073143192069185
 30
0.0
  0
SPLINE
  5
133
330
1F
100
AcDbEntity
  8
PARTS
 62
     1
100
AcDbSpline
210
0.0
220
0.0
230
1.0
 70
    24
 71
     2
 72
     6
 73
     3
 74
     0
 42
0.0000000001
 43
0.0000000001
 40
40.32851243620912
 40
40.32851243620912
 40
40.32851243620912
 40
40.63722107631659
 40
40.63722107631659
 40
40.63722107631659
 10
15.80109379272703
 20
9.073143192069185
 30
0.0
 10
15.95484545341679
 20
9.086769745352857
 30
0.0
 10
16.10859711410655
 20
9.10039629863653
 30
0.0
  0
SPLINE
  5
134
330
1F
100
AcDbEntity
  8
PARTS
 62
     1
100
AcDbSpline
210
0.0
220
0.0
230
1.0
 70
    24
 71
     2
 72
     6
 73
     3
 74
     0
 42
0.0000000001
 43
0.0000000001
 40
40.63722107631659
 40
40.63722107631659
 40
40.63722107631659
 40
40.76222107631659
 40
40.76222107631659
 40
40.76222107631659
 10
16.10859711410655
 20
9.10039629863653
 30
0.0
 10
16.11411467642637
 20
9.03814032297116
 30
0.0
 10
16.11963223874619
 20
8.975884347305788
 30
0.0
  0
SPLINE
  5
135
330
1F
100
AcDbEntity
  8
PARTS
 62
     1
100
AcDbSpline
210
0.0
220
0.0
230
1.0
 70
    24
 71
     2
 72
     6
 73
     3
 74
     0
 42
0.0000000001
 43
0.0000000001
 40
40.76222107631659
 40
40.76222107631659
 40
40.76222107631659
 40
40.94014916927156
 40
40.94014916927156
 40
40.94014916927156
 10
16.11963223874619
 20
8.975884347305788
 30
0.0
 10
16.03101554254467
 20
8.968030512575192
 30
0.0
 10
15.94239884634315
 20
8.960176677844595
 30
0.0
  0
SPLINE
  5
136
330
1F
100
AcDbEntity
  8
PARTS
 62
     1
100
AcDbSpline
210
0.0
220
0.0
230
1.0
 70
    12
 71
     2
 72
     6
 73
     3
 74
     0
 42
0.0000000001
 43
0.0000000001
 40
0.0
 40
0.0
 40
0.0
 40
1.286125204703759
 40
1.286125204703759
 40
1.286125204703759
 10
15.94239884634315
 20
8.960176677844595
 30
0.0
 41
1.0
 10
16.4372908051614
 20
8.529306636944726
 30
0.0
 41
0.9699315533954381
 10
16.67013286288892
 20
7.915831601428835
 30
0.0
 41
1.0
  0
SPLINE
  5
137
330
1F
100
AcDbEntity
  8
PARTS
 62
     1
100
AcDbSpline
210
0.0
220
0.0
230
1.0
 70
    12
 71
     2
 72
     6
 73
     3
 74
     0
 42
0.0000000001
 43
0.0000000001
 40
0.0
 40
0.0
 40
0.0
 40
0.0666144901769028
 40
0.0666144901769028
 40
0.0666144901769028
 10
16.67013286288892
 20
7.915831601428835
 30
0.0
 41
1.0
 10
16.68407831896736
 20
7.879089144990756
 30
0.0
 41
0.786209797444823
 10
16.72307530366607
 20
7.883959364159163
 30
0.0
 41
1.0
  0
SPLINE
  5
138
330
1F
100
AcDbEntity
  8
PARTS
 62
     1
100
AcDbSpline
210
0.0
220
0.0
230
1.0
 70
    12
 71
     2
 72
     6
 73
     3
 74
     0
 42
0.0000000001
 43
0.0000000001
 40
0.0
 40
0.0
 40
0.0
 40
0.0666144901769031
 40
0.0666144901769031
 40
0.0666144901769031
 10
16.72307530366607
 20
7.883959364159163
 30
0.0
 41
1.0
 10
16.76207228836478
 20
7.888829583327566
 30
0.0
 41
0.7862097974448337
 10
16.76655303945962
 20
7.927873234795712
 30
0.0
 41
1.0
  0
SPLINE
  5
139
330
1F
100
AcDbEntity
  8
PARTS
 62
     1
100
AcDbSpline
210
0.0
220
0.0
230
1.0
 70
    24
 71
     2
 72
     6
 73
     3
 74
     0
 42
0.0000000001
 43
0.0000000001
 40
0.0
 40
0.0
 40
0.0
 40
0.1818181818181817
 40
0.1818181818181817
 40
0.1818181818181817
 10
8.779007124145423
 20
6.09084959126562
 30
0.0
 10
8.779007124145423
 20
5.999940500356529
 30
0.0
 10
8.779007124145423
 20
5.909031409447438
 30
0.0
  0
SPLINE
  5
13A
330
1F
100
AcDbEntity
  8
PARTS
 62
     1
100
AcDbSpline
210
0.0
220
0.0
230
1.0
 70
    24
 71
     2
 72
     6
 73
     3
 74
     0
 42
0.0000000001
 43
0.0000000001
 40
0.0
 40
0.0
 40
0.0
 40
0.0303030303030294
 40
0.0303030303030294
 40
0.0303030303030294
 10
8.779007124145423
 20
5.909031409447438
 30
0.0
 10
8.794158639296938
 20
5.909031409447438
 30
0.0
 10
8.809310154448452
 20
5.909031409447438
 30
0.0
  0
SPLINE
  5
13B
330
1F
100
AcDbEntity
  8
PARTS
 62
     1
100
AcDbSpline
210
0.0
220
0.0
230
1.0
 70
    24
 71
     2
 72
     6
 73
     3
 74
     0
 42
0.0000000001
 43
0.0000000001
 40
0.0
 40
0.0
 40
0.0
 40
0.094531259031144
 40
0.094531259031144
 40
0.094531259031144
 10
8.809310154448452
 20
5.909031409447438
 30
0.0
 10
8.809310154448452
 20
5.95629703896301
 30
0.0
 10
8.809310154448452
 20
6.003562668478581
 30
0.0
  0
SPLINE
  5
13C
330
1F
100
AcDbEntity
  8
PARTS
 62
     1
100
AcDbSpline
210
0.0
220
0.0
230
1.0
 70
    24
 71
     2
 72
     6
 73
     3
 74
     0
 42
0.0000000001
 43
0.0000000001
 40
0.0
 40
0.0
 40
0.0
 40
0.0360818976374979
 40
0.0360818976374979
 40
0.0360818976374979
 10
8.809310154448452
 20
6.003562668478581
 30
0.0
 10
8.811843302361549
 20
6.02142489107072
 30
0.0
 10
8.814376450274647
 20
6.039287113662859
 30
0.0
  0
SPLINE
  5
13D
330
1F
100
AcDbEntity
  8
PARTS
 62
     1
100
AcDbSpline
210
0.0
220
0.0
230
1.0
 70
    24
 71
     2
 72
     6
 73
     3
 74
     0
 42
0.0000000001
 43
0.0000000001
 40
0.0
 40
0.0
 40
0.0
 40
0.0201380994266832
 40
0.0201380994266832
 40
0.0201380994266832
 10
8.814376450274647
 20
6.039287113662859
 30
0.0
 10
8.819975413123554
 20
6.047655947341831
 30
0.0
 10
8.82557437597246
 20
6.056024781020804
 30
0.0
  0
SPLINE
  5
13E
330
1F
100
AcDbEntity
  8
PARTS
 62
     1
100
AcDbSpline
210
0.0
220
0.0
230
1.0
 70
    24
 71
     2
 72
     6
 73
     3
 74
     0
 42
0.0000000001
 43
0.0000000001
 40
0.0
 40
0.0
 40
0.0
 40
0.0186642612100269
 40
0.0186642612100269
 40
0.0186642612100269
 10
8.82557437597246
 20
6.056024781020804
 30
0.0
 10
8.834404864422998
 20
6.059043246749273
 30
0.0
 10
8.843235352873537
 20
6.062061712477741
 30
0.0
  0
SPLINE
  5
13F
330
1F
100
AcDbEntity
  8
PARTS
 62
     1
100
AcDbSpline
210
0.0
220
0.0
230
1.0
 70
    24
 71
     2
 72
     6
 73
     3
 74
     0
 42
0.0000000001
 43
0.0000000001
 40
0.0
 40
0.0
 40
0.0
 40
0.0226917927941237
 40
0.0226917927941237
 40
0.0226917927941237
 10
8.843235352873537
 20
6.062061712477741
 30
0.0
 10
8.854243881741988
 20
6.059315504691478
 30
0.0
 10
8.86525241061044
 20
6.056569296905216
 30
0.0
  0
SPLINE
  5
140
330
1F
100
AcDbEntity
  8
PARTS
 62
     1
100
AcDbSpline
210
0.0
220
0.0
230
1.0
 70
    24
 71
     2
 72
     6
 73
     3
 74
     0
 42
0.0000000001
 43
0.0000000001
 40
0.0
 40
0.0
 40
0.0
 40
0.030210933927469
 40
0.030210933927469
 40
0.030210933927469
 10
8.86525241061044
 20
6.056569296905216
 30
0.0
 10
8.870614615862781
 20
6.07069097835695
 30
0.0
 10
8.87597682111512
 20
6.084812659808684
 30
0.0
  0
SPLINE
  5
141
330
1F
100
AcDbEntity
  8
PARTS
 62
     1
100
AcDbSpline
210
0.0
220
0.0
230
1.0
 70
    24
 71
     2
 72
     6
 73
     3
 74
     0
 42
0.0000000001
 43
0.0000000001
 40
0.0
 40
0.0
 40
0.0
 40
0.0330166137388283
 40
0.0330166137388283
 40
0.0330166137388283
 10
8.87597682111512
 20
6.084812659808684
 30
0.0
 10
8.860103242111535
 20
6.089346277052304
 30
0.0
 10
8.844229663107948
 20
6.093879894295923
 30
0.0
  0
SPLINE
  5
142
330
1F
100
AcDbEntity
  8
PARTS
 62
     1
100
AcDbSpline
210
0.0
220
0.0
230
1.0
 70
    24
 71
     2
 72
     6
 73
     3
 74
     0
 42
0.0000000001
 43
0.0000000001
 40
0.0
 40
0.0
 40
0.0
 40
0.0207606416063762
 40
0.0207606416063762
 40
0.0207606416063762
 10
8.844229663107948
 20
6.093879894295923
 30
0.0
 10
8.834316078879302
 20
6.090802247838212
 30
0.0
 10
8.824402494650657
 20
6.087724601380502
 30
0.0
  0
SPLINE
  5
143
330
1F
100
AcDbEntity
  8
PARTS
 62
     1
100
AcDbSpline
210
0.0
220
0.0
230
1.0
 70
    24
 71
     2
 72
     6
 73
     3
 74
     0
 42
0.0000000001
 43
0.0000000001
 40
0.0
 40
0.0
 40
0.0
 40
0.0321642935716734
 40
0.0321642935716734
 40
0.0321642935716734
 10
8.824402494650657
 20
6.087724601380502
 30
0.0
 10
8.814583597276828
 20
6.074987855343801
 30
0.0
 10
8.804764699902998
 20
6.062251109307101
 30
0.0
  0
SPLINE
  5
144
330
1F
100
AcDbEntity
  8
PARTS
 62
     1
100
AcDbSpline
210
0.0
220
0.0
230
1.0
 70
    24
 71
     2
 72
     6
 73
     3
 74
     0
 42
0.0000000001
 43
0.0000000001
 40
0.0
 40
0.0
 40
0.0
 40
0.028598481958519
 40
0.028598481958519
 40
0.028598481958519
 10
8.804764699902998
 20
6.062251109307101
 30
0.0
 10
8.804764699902998
 20
6.076550350286361
 30
0.0
 10
8.804764699902998
 20
6.09084959126562
 30
0.0
  0
SPLINE
  5
145
330
1F
100
AcDbEntity
  8
PARTS
 62
     1
100
AcDbSpline
210
0.0
220
0.0
230
1.0
 70
    24
 71
     2
 72
     6
 73
     3
 74
     0
 42
0.0000000001
 43
0.0000000001
 40
0.0
 40
0.0
 40
0.0
 40
0.0257575757575754
 40
0.0257575757575754
 40
0.0257575757575754
 10
8.804764699902998
 20
6.09084959126562
 30
0.0
 10
8.79188591202421
 20
6.09084959126562
 30
0.0
 10
8.779007124145423
 20
6.09084959126562
 30
0.0
  0
SPLINE
  5
146
330
1F
100
AcDbEntity
  8
PARTS
 62
     1
100
AcDbSpline
210
0.0
220
0.0
230
1.0
 70
    24
 71
     2
 72
     6
 73
     3
 74
     0
 42
0.0000000001
 43
0.0000000001
 40
0.0
 40
0.0
 40
0.0
 40
0.0300568543802719
 40
0.0300568543802719
 40
0.0300568543802719
 10
14.58684068010917
 20
8.668802539028144
 30
0.0
 10
14.57198509750352
 20
8.671075266300871
 30
0.0
 10
14.55712951489788
 20
8.673347993573598
 30
0.0
  0
SPLINE
  5
147
330
1F
100
AcDbEntity
  8
PARTS
 62
     1
100
AcDbSpline
210
0.0
220
0.0
230
1.0
 70
    24
 71
     2
 72
     6
 73
     3
 74
     0
 42
0.0000000001
 43
0.0000000001
 40
0.0
 40
0.0
 40
0.0
 40
0.0349904463529422
 40
0.0349904463529422
 40
0.0349904463529422
 10
14.55712951489788
 20
8.673347993573598
 30
0.0
 10
14.54722776219114
 20
8.658924466705004
 30
0.0
 10
14.5373260094844
 20
8.64450093983641
 30
0.0
  0
SPLINE
  5
148
330
1F
100
AcDbEntity
  8
PARTS
 62
     1
100
AcDbSpline
210
0.0
220
0.0
230
1.0
 70
    24
 71
     2
 72
     6
 73
     3
 74
     0
 42
0.0000000001
 43
0.0000000001
 40
0.0
 40
0.0
 40
0.0
 40
0.0314728960964678
 40
0.0314728960964678
 40
0.0314728960964678
 10
14.5373260094844
 20
8.64450093983641
 30
0.0
 10
14.52225143679481
 20
8.639985072765612
 30
0.0
 10
14.50717686410523
 20
8.635469205694811
 30
0.0
  0
SPLINE
  5
149
330
1F
100
AcDbEntity
  8
PARTS
 62
     1
100
AcDbSpline
210
0.0
220
0.0
230
1.0
 70
    24
 71
     2
 72
     6
 73
     3
 74
     0
 42
0.0000000001
 43
0.0000000001
 40
0.0
 40
0.0
 40
0.0
 40
0.0425733167300632
 40
0.0425733167300632
 40
0.0425733167300632
 10
14.50717686410523
 20
8.635469205694811
 30
0.0
 10
14.48737335291181
 20
8.64327579065635
 30
0.0
 10
14.46756984171839
 20
8.651082375617891
 30
0.0
  0
SPLINE
  5
14A
330
1F
100
AcDbEntity
  8
PARTS
 62
     1
100
AcDbSpline
210
0.0
220
0.0
230
1.0
 70
    24
 71
     2
 72
     6
 73
     3
 74
     0
 42
0.0000000001
 43
0.0000000001
 40
0.0
 40
0.0
 40
0.0
 40
0.0483349844877204
 40
0.0483349844877204
 40
0.0483349844877204
 10
14.46756984171839
 20
8.651082375617891
 30
0.0
 10
14.45873934748792
 20
8.673578820959381
 30
0.0
 10
14.44990885325745
 20
8.696075266300872
 30
0.0
  0
SPLINE
  5
14B
330
1F
100
AcDbEntity
  8
PARTS
 62
     1
100
AcDbSpline
210
0.0
220
0.0
230
1.0
 70
    24
 71
     2
 72
     6
 73
     3
 74
     0
 42
0.0000000001
 43
0.0000000001
 40
0.0
 40
0.0
 40
0.0
 40
0.1377130887728271
 40
0.1377130887728271
 40
0.1377130887728271
 10
14.44990885325745
 20
8.696075266300872
 30
0.0
 10
14.51876539764386
 20
8.696075266300872
 30
0.0
 10
14.58762194203027
 20
8.696075266300872
 30
0.0
  0
SPLINE
  5
14C
330
1F
100
AcDbEntity
  8
PARTS
 62
     1
100
AcDbSpline
210
0.0
220
0.0
230
1.0
 70
    24
 71
     2
 72
     6
 73
     3
 74
     0
 42
0.0000000001
 43
0.0000000001
 40
0.0
 40
0.0
 40
0.0
 40
0.0080982942177209
 40
0.0080982942177209
 40
0.0080982942177209
 10
14.58762194203027
 20
8.696075266300872
 30
0.0
 10
14.58770479158325
 20
8.700123565729122
 30
0.0
 10
14.58778764113623
 20
8.70417186515737
 30
0.0
  0
SPLINE
  5
14D
330
1F
100
AcDbEntity
  8
PARTS
 62
     1
100
AcDbSpline
210
0.0
220
0.0
230
1.0
 70
    12
 71
     2
 72
     6
 73
     3
 74
     0
 42
0.0000000001
 43
0.0000000001
 40
0.0
 40
0.0
 40
0.0
 40
0.074572449534089
 40
0.074572449534089
 40
0.074572449534089
 10
14.58778764113623
 20
8.70417186515737
 30
0.0
 41
1.0
 10
14.59217614184335
 20
8.744012701699129
 30
0.0
 41
0.9071906744073939
 10
14.56459872519726
 20
8.773099421794928
 30
0.0
 41
1.0
  0
SPLINE
  5
14E
330
1F
100
AcDbEntity
  8
PARTS
 62
     1
100
AcDbSpline
210
0.0
220
0.0
230
1.0
 70
    12
 71
     2
 72
     6
 73
     3
 74
     0
 42
0.0000000001
 43
0.0000000001
 40
0.0
 40
0.0
 40
0.0
 40
0.0665811129379204
 40
0.0665811129379204
 40
0.0665811129379204
 10
14.56459872519726
 20
8.773099421794928
 30
0.0
 41
1.0
 10
14.54022044922267
 20
8.79881191324367
 30
0.0
 41
0.9117570648235249
 10
14.50480942685795
 20
8.797590417816021
 30
0.0
 41
1.0
  0
SPLINE
  5
14F
330
1F
100
AcDbEntity
  8
PARTS
 62
     1
100
AcDbSpline
210
0.0
220
0.0
230
1.0
 70
    12
 71
     2
 72
     6
 73
     3
 74
     0
 42
0.0000000001
 43
0.0000000001
 40
0.0
 40
0.0
 40
0.0
 40
0.068423295795713
 40
0.068423295795713
 40
0.068423295795713
 10
14.50480942685795
 20
8.797590417816021
 30
0.0
 41
1.0
 10
14.46766874795786
 20
8.80076409094383
 30
0.0
 41
0.8906429773031466
 10
14.44331558017413
 20
8.772543080168548
 30
0.0
 41
1.0
  0
SPLINE
  5
150
330
1F
100
AcDbEntity
  8
PARTS
 62
     1
100
AcDbSpline
210
0.0
220
0.0
230
1.0
 70
    12
 71
     2
 72
     6
 73
     3
 74
     0
 42
0.0000000001
 43
0.0000000001
 40
0.0
 40
0.0
 40
0.0
 40
0.0761809049772343
 40
0.0761809049772343
 40
0.0761809049772343
 10
14.44331558017413
 20
8.772543080168548
 30
0.0
 41
1.0
 10
14.41710776018492
 20
8.74217285577391
 30
0.0
 41
0.9259936877868072
 10
14.41960582295441
 20
8.702135872361477
 30
0.0
 41
1.0
  0
SPLINE
  5
151
330
1F
100
AcDbEntity
  8
PARTS
 62
     1
100
AcDbSpline
210
0.0
220
0.0
230
1.0
 70
    12
 71
     2
 72
     6
 73
     3
 74
     0
 42
0.0000000001
 43
0.0000000001
 40
0.0
 40
0.0
 40
0.0
 40
0.073951643845701
 40
0.073951643845701
 40
0.073951643845701
 10
14.41960582295441
 20
8.702135872361477
 30
0.0
 41
1.0
 10
14.41720474264392
 20
8.66320258686418
 30
0.0
 41
0.9236822965720484
 10
14.44306700839546
 20
8.634001403387
 30
0.0
 41
1.0
  0
SPLINE
  5
152
330
1F
100
AcDbEntity
  8
PARTS
 62
     1
100
AcDbSpline
210
0.0
220
0.0
230
1.0
 70
    12
 71
     2
 72
     6
 73
     3
 74
     0
 42
0.0000000001
 43
0.0000000001
 40
0.0
 40
0.0
 40
0.0
 40
0.0700028053891597
 40
0.0700028053891597
 40
0.0700028053891597
 10
14.44306700839546
 20
8.634001403387
 30
0.0
 41
1.0
 10
14.46946477565896
 20
8.607836853885106
 30
0.0
 41
0.9148290466380133
 10
14.50658499901347
 20
8.609711629937237
 30
0.0
 41
1.0
  0
SPLINE
  5
153
330
1F
100
AcDbEntity
  8
PARTS
 62
     1
100
AcDbSpline
210
0.0
220
0.0
230
1.0
 70
    24
 71
     2
 72
     6
 73
     3
 74
     0
 42
0.0000000001
 43
0.0000000001
 40
0.0
 40
0.0
 40
0.0
 40
0.0545015523561506
 40
0.0545015523561506
 40
0.0545015523561506
 10
14.50658499901347
 20
8.609711629937236
 30
0.0
 10
14.532709525348
 20
8.617464947040517
 30
0.0
 10
14.55883405168253
 20
8.6252182641438
 30
0.0
  0
SPLINE
  5
154
330
1F
100
AcDbEntity
  8
PARTS
 62
     1
100
AcDbSpline
210
0.0
220
0.0
230
1.0
 70
    24
 71
     2
 72
     6
 73
     3
 74
     0
 42
0.0000000001
 43
0.0000000001
 40
0.0
 40
0.0
 40
0.0
 40
0.0518069517827639
 40
0.0518069517827639
 40
0.0518069517827639
 10
14.55883405168253
 20
8.6252182641438
 30
0.0
 10
14.57283736589585
 20
8.647010401585973
 30
0.0
 10
14.58684068010917
 20
8.668802539028144
 30
0.0
  0
SPLINE
  5
155
330
1F
100
AcDbEntity
  8
PARTS
 62
     1
100
AcDbSpline
210
0.0
220
0.0
230
1.0
 70
     8
 71
     3
 72
    15
 73
    11
 74
     0
 42
0.0000000001
 43
0.0000000001
 40
41.33250137684222
 40
41.33250137684222
 40
41.33250137684222
 40
41.33250137684222
 40
42.16392018650959
 40
43.14405934365296
 40
44.1241985007963
 40
44.59401084518216
 40
44.59401084518216
 40
45.14509937270062
 40
46.14509937270062
 40
47.11551639118687
 40
47.11551639118687
 40
47.11551639118687
 40
47.11551639118687
 10
5.397264385720635
 20
11.06538983380306
 30
0.0
 10
5.212882771824555
 20
10.79784296511217
 30
0.0
 10
5.002102488220713
 20
10.30816390838995
 30
0.0
 10
5.269777499963292
 20
9.090172481914564
 30
0.0
 10
5.919877909861691
 20
8.501237684200124
 30
0.0
 10
6.323697584543723
 20
8.148128273211837
 30
0.0
 10
6.578343696430053
 20
7.872186088641298
 30
0.0
 10
6.912340101718479
 20
7.404248508663992
 30
0.0
 10
6.673698812860856
 20
6.401549274828291
 30
0.0
 10
6.024390696583911
 20
6.04877443797753
 30
0.0
 10
5.716355349158722
 20
5.937915304470208
 30
0.0
  0
SPLINE
  5
156
330
1F
100
AcDbEntity
  8
PARTS
 62
     1
100
AcDbSpline
210
0.0
220
0.0
230
1.0
 70
    24
 71
     2
 72
     6
 73
     3
 74
     0
 42
0.0000000001
 43
0.0000000001
 40
18.27062946499955
 40
18.27062946499955
 40
18.27062946499955
 40
18.53837113396449
 40
18.53837113396449
 40
18.53837113396449
 10
5.716355349158722
 20
5.937915304470208
 30
0.0
 10
5.680543983017335
 20
5.808923264482773
 30
0.0
 10
5.644732616875947
 20
5.679931224495338
 30
0.0
  0
SPLINE
  5
157
330
1F
100
AcDbEntity
  8
PARTS
 62
     1
100
AcDbSpline
210
0.0
220
0.0
230
1.0
 70
    24
 71
     2
 72
     6
 73
     3
 74
     0
 42
0.0000000001
 43
0.0000000001
 40
18.53837113396449
 40
18.53837113396449
 40
18.53837113396449
 40
18.66337113396451
 40
18.66337113396451
 40
18.66337113396451
 10
5.644732616875947
 20
5.679931224495338
 30
0.0
 10
5.584510369585249
 20
5.696650403041517
 30
0.0
 10
5.524288122294552
 20
5.713369581587695
 30
0.0
  0
SPLINE
  5
158
330
1F
100
AcDbEntity
  8
PARTS
 62
     1
100
AcDbSpline
210
0.0
220
0.0
230
1.0
 70
    24
 71
     2
 72
     6
 73
     3
 74
     0
 42
0.0000000001
 43
0.0000000001
 40
18.66337113396451
 40
18.66337113396451
 40
18.66337113396451
 40
18.84744544344464
 40
18.84744544344464
 40
18.84744544344464
 10
5.524288122294552
 20
5.713369581587695
 30
0.0
 10
5.548908692262247
 20
5.802052530270702
 30
0.0
 10
5.573529262229943
 20
5.890735478953708
 30
0.0
  0
SPLINE
  5
159
330
1F
100
AcDbEntity
  8
PARTS
 62
     1
100
AcDbSpline
210
0.0
220
0.0
230
1.0
 70
    12
 71
     2
 72
     6
 73
     3
 74
     0
 42
0.0000000001
 43
0.0000000001
 40
0.0
 40
0.0
 40
0.0
 40
0.7264929009774199
 40
0.7264929009774199
 40
0.7264929009774199
 10
5.573529262229943
 20
5.890735478953708
 30
0.0
 41
1.0
 10
5.222200562567101
 20
5.785332740620809
 30
0.0
 41
0.9850164623703261
 10
4.855959850080367
 20
5.805564719566751
 30
0.0
 41
1.0
  0
SPLINE
  5
15A
330
1F
100
AcDbEntity
  8
PARTS
 62
     1
100
AcDbSpline
210
0.0
220
0.0
230
1.0
 70
    12
 71
     2
 72
     6
 73
     3
 74
     0
 42
0.0000000001
 43
0.0000000001
 40
0.0
 40
0.0
 40
0.0
 40
0.0648341918016381
 40
0.0648341918016381
 40
0.0648341918016381
 10
4.855959850080367
 20
5.805564719566751
 30
0.0
 41
1.0
 10
4.81813794763528
 20
5.807654088410452
 30
0.0
 41
0.79708615245456
 10
4.805888471951633
 20
5.771809812546563
 30
0.0
 41
1.0
  0
SPLINE
  5
15B
330
1F
100
AcDbEntity
  8
PARTS
 62
     1
100
AcDbSpline
210
0.0
220
0.0
230
1.0
 70
    12
 71
     2
 72
     6
 73
     3
 74
     0
 42
0.0000000001
 43
0.0000000001
 40
0.0
 40
0.0
 40
0.0
 40
0.0648341918016376
 40
0.0648341918016376
 40
0.0648341918016376
 10
4.805888471951633
 20
5.771809812546563
 30
0.0
 41
1.0
 10
4.793638996267982
 20
5.735965536682671
 30
0.0
 41
0.7970861524544872
 10
4.824829212182959
 20
5.714470602444385
 30
0.0
 41
1.0
  0
SPLINE
  5
15C
330
1F
100
AcDbEntity
  8
PARTS
 62
     1
100
AcDbSpline
210
0.0
220
0.0
230
1.0
 70
     8
 71
     3
 72
    15
 73
    11
 74
     0
 42
0.0000000001
 43
0.0000000001
 40
19.69883618220173
 40
19.69883618220173
 40
19.69883618220173
 40
19.69883618220173
 40
20.53025499186911
 40
21.51039414901247
 40
22.49053330615582
 40
22.96034565054168
 40
22.96034565054168
 40
23.51143417806014
 40
24.51143417806014
 40
25.48185119654637
 40
25.48185119654637
 40
25.48185119654637
 40
25.48185119654637
 10
4.824829212182959
 20
5.714470602444385
 30
0.0
 10
5.092376080873844
 20
5.530088988548304
 30
0.0
 10
5.582055137596061
 20
5.31930870494446
 30
0.0
 10
6.800046564071442
 20
5.58698371668704
 30
0.0
 10
7.388981361785874
 20
6.237084126585442
 30
0.0
 10
7.742090772774159
 20
6.640903801267475
 30
0.0
 10
8.018032957344698
 20
6.895549913153808
 30
0.0
 10
8.485970537322
 20
7.229546318442235
 30
0.0
 10
9.488669771157687
 20
6.99090502958461
 30
0.0
 10
9.84144460800845
 20
6.341596913307669
 30
0.0
 10
9.952303741515776
 20
6.033561565882485
 30
0.0
  0
SPLINE
  5
15D
330
1F
100
AcDbEntity
  8
PARTS
 62
     1
100
AcDbSpline
210
0.0
220
0.0
230
1.0
 70
    24
 71
     2
 72
     6
 73
     3
 74
     0
 42
0.0000000001
 43
0.0000000001
 40
25.48185119654637
 40
25.48185119654637
 40
25.48185119654637
 40
25.74959286551131
 40
25.74959286551131
 40
25.74959286551131
 10
9.952303741515776
 20
6.033561565882485
 30
0.0
 10
10.08129578150321
 20
5.997750199741098
 30
0.0
 10
10.21028782149065
 20
5.961938833599712
 30
0.0
  0
SPLINE
  5
15E
330
1F
100
AcDbEntity
  8
PARTS
 62
     1
100
AcDbSpline
210
0.0
220
0.0
230
1.0
 70
    24
 71
     2
 72
     6
 73
     3
 74
     0
 42
0.0000000001
 43
0.0000000001
 40
25.74959286551131
 40
25.74959286551131
 40
25.74959286551131
 40
25.87459286551132
 40
25.87459286551132
 40
25.87459286551132
 10
10.21028782149065
 20
5.961938833599712
 30
0.0
 10
10.19356864294447
 20
5.901716586309015
 30
0.0
 10
10.17684946439829
 20
5.841494339018318
 30
0.0
  0
SPLINE
  5
15F
330
1F
100
AcDbEntity
  8
PARTS
 62
     1
100
AcDbSpline
210
0.0
220
0.0
230
1.0
 70
    24
 71
     2
 72
     6
 73
     3
 74
     0
 42
0.0000000001
 43
0.0000000001
 40
25.87459286551132
 40
25.87459286551132
 40
25.87459286551132
 40
26.05866717499146
 40
26.05866717499146
 40
26.05866717499146
 10
10.17684946439829
 20
5.841494339018318
 30
0.0
 10
10.08816651571528
 20
5.866114908986014
 30
0.0
 10
9.999483567032277
 20
5.89073547895371
 30
0.0
  0
SPLINE
  5
160
330
1F
100
AcDbEntity
  8
PARTS
 62
     1
100
AcDbSpline
210
0.0
220
0.0
230
1.0
 70
    12
 71
     2
 72
     6
 73
     3
 74
     0
 42
0.0000000001
 43
0.0000000001
 40
0.0
 40
0.0
 40
0.0
 40
0.7264929009774409
 40
0.7264929009774409
 40
0.7264929009774409
 10
9.999483567032277
 20
5.89073547895371
 30
0.0
 41
1.0
 10
10.10488630536519
 20
5.539406779290854
 30
0.0
 41
0.9850164623703187
 10
10.08465432641923
 20
5.173166066804111
 30
0.0
 41
1.0
  0
SPLINE
  5
161
330
1F
100
AcDbEntity
  8
PARTS
 62
     1
100
AcDbSpline
210
0.0
220
0.0
230
1.0
 70
    12
 71
     2
 72
     6
 73
     3
 74
     0
 42
0.0000000001
 43
0.0000000001
 40
0.0
 40
0.0
 40
0.0
 40
0.0648341918016347
 40
0.0648341918016347
 40
0.0648341918016347
 10
10.08465432641923
 20
5.173166066804111
 30
0.0
 41
1.0
 10
10.08256495757552
 20
5.135344164359022
 30
0.0
 41
0.7970861524545307
 10
10.11840923343941
 20
5.123094688675375
 30
0.0
 41
1.0
  0
SPLINE
  5
162
330
1F
100
AcDbEntity
  8
PARTS
 62
     1
100
AcDbSpline
210
0.0
220
0.0
230
1.0
 70
    12
 71
     2
 72
     6
 73
     3
 74
     0
 42
0.0000000001
 43
0.0000000001
 40
0.0
 40
0.0
 40
0.0
 40
0.0648341918016373
 40
0.0648341918016373
 40
0.0648341918016373
 10
10.11840923343941
 20
5.123094688675375
 30
0.0
 41
1.0
 10
10.15425350930331
 20
5.110845212991727
 30
0.0
 41
0.7970861524544975
 10
10.1757484435416
 20
5.142035428906702
 30
0.0
 41
1.0
  0
SPLINE
  5
163
330
1F
100
AcDbEntity
  8
PARTS
 62
     1
100
AcDbSpline
210
0.0
220
0.0
230
1.0
 70
     8
 71
     3
 72
    15
 73
    11
 74
     0
 42
0.0000000001
 43
0.0000000001
 40
26.91005791374857
 40
26.91005791374857
 40
26.91005791374857
 40
26.91005791374857
 40
27.74147672341594
 40
28.72161588055931
 40
29.70175503770265
 40
30.17156738208851
 40
30.17156738208851
 40
30.72265590960697
 40
31.72265590960697
 40
32.69307292809322
 40
32.69307292809322
 40
32.69307292809322
 40
32.69307292809322
 10
10.1757484435416
 20
5.142035428906702
 30
0.0
 10
10.36013005743768
 20
5.409582297597588
 30
0.0
 10
10.57091034104152
 20
5.899261354319808
 30
0.0
 10
10.30323532929894
 20
7.117252780795194
 30
0.0
 10
9.653134919400541
 20
7.706187578509633
 30
0.0
 10
9.249315244718515
 20
8.059296989497918
 30
0.0
 10
8.994669132832177
 20
8.335239174068459
 30
0.0
 10
8.660672727543755
 20
8.803176754045767
 30
0.0
 10
8.899314016401377
 20
9.805875987881462
 30
0.0
 10
9.548622132678323
 20
10.15865082473223
 30
0.0
 10
9.856657480103506
 20
10.26950995823955
 30
0.0
  0
SPLINE
  5
164
330
1F
100
AcDbEntity
  8
PARTS
 62
     1
100
AcDbSpline
210
0.0
220
0.0
230
1.0
 70
    24
 71
     2
 72
     6
 73
     3
 74
     0
 42
0.0000000001
 43
0.0000000001
 40
32.69307292809322
 40
32.69307292809322
 40
32.69307292809322
 40
32.96081459705815
 40
32.96081459705815
 40
32.96081459705815
 10
9.856657480103506
 20
10.26950995823955
 30
0.0
 10
9.89246884624489
 20
10.39850199822698
 30
0.0
 10
9.928280212386275
 20
10.52749403821442
 30
0.0
  0
SPLINE
  5
165
330
1F
100
AcDbEntity
  8
PARTS
 62
     1
100
AcDbSpline
210
0.0
220
0.0
230
1.0
 70
    24
 71
     2
 72
     6
 73
     3
 74
     0
 42
0.0000000001
 43
0.0000000001
 40
32.96081459705815
 40
32.96081459705815
 40
32.96081459705815
 40
33.08581459705817
 40
33.08581459705817
 40
33.08581459705817
 10
9.928280212386275
 20
10.52749403821442
 30
0.0
 10
9.98850245967697
 20
10.51077485966824
 30
0.0
 10
10.04872470696767
 20
10.49405568112206
 30
0.0
  0
SPLINE
  5
166
330
1F
100
AcDbEntity
  8
PARTS
 62
     1
100
AcDbSpline
210
0.0
220
0.0
230
1.0
 70
    24
 71
     2
 72
     6
 73
     3
 74
     0
 42
0.0000000001
 43
0.0000000001
 40
33.08581459705817
 40
33.08581459705817
 40
33.08581459705817
 40
33.2698889065383
 40
33.2698889065383
 40
33.2698889065383
 10
10.04872470696767
 20
10.49405568112206
 30
0.0
 10
10.02410413699998
 20
10.40537273243905
 30
0.0
 10
9.999483567032284
 20
10.31668978375604
 30
0.0
  0
SPLINE
  5
167
330
1F
100
AcDbEntity
  8
PARTS
 62
     1
100
AcDbSpline
210
0.0
220
0.0
230
1.0
 70
    12
 71
     2
 72
     6
 73
     3
 74
     0
 42
0.0000000001
 43
0.0000000001
 40
0.0
 40
0.0
 40
0.0
 40
0.7264929009774285
 40
0.7264929009774285
 40
0.7264929009774285
 10
9.999483567032284
 20
10.31668978375604
 30
0.0
 41
1.0
 10
10.35081226669515
 20
10.42209252208886
 30
0.0
 41
0.9850164623703661
 10
10.71705297918188
 20
10.40186054314301
 30
0.0
 41
1.0
  0
SPLINE
  5
168
330
1F
100
AcDbEntity
  8
PARTS
 62
     1
100
AcDbSpline
210
0.0
220
0.0
230
1.0
 70
    12
 71
     2
 72
     6
 73
     3
 74
     0
 42
0.0000000001
 43
0.0000000001
 40
0.0
 40
0.0
 40
0.0
 40
0.064834191801633
 40
0.064834191801633
 40
0.064834191801633
 10
10.71705297918188
 20
10.40186054314301
 30
0.0
 41
1.0
 10
10.75487488162696
 20
10.39977117429932
 30
0.0
 41
0.797086152454612
 10
10.7671243573106
 20
10.4356154501632
 30
0.0
 41
1.0
  0
SPLINE
  5
169
330
1F
100
AcDbEntity
  8
PARTS
 62
     1
100
AcDbSpline
210
0.0
220
0.0
230
1.0
 70
    12
 71
     2
 72
     6
 73
     3
 74
     0
 42
0.0000000001
 43
0.0000000001
 40
0.0
 40
0.0
 40
0.0
 40
0.0648341918016343
 40
0.0648341918016343
 40
0.0648341918016343
 10
10.76712435731061
 20
10.4356154501632
 30
0.0
 41
1.0
 10
10.77937383299424
 20
10.47145972602709
 30
0.0
 41
0.7970861524545986
 10
10.74818361707927
 20
10.49295466026538
 30
0.0
 41
1.0
  0
SPLINE
  5
16A
330
1F
100
AcDbEntity
  8
PARTS
 62
     1
100
AcDbSpline
210
0.0
220
0.0
230
1.0
 70
     8
 71
     3
 72
    15
 73
    11
 74
     0
 42
0.0000000001
 43
0.0000000001
 40
34.1212796452954
 40
34.1212796452954
 40
34.1212796452954
 40
34.1212796452954
 40
34.95269845496276
 40
35.93283761210613
 40
36.91297676924948
 40
37.38278911363533
 40
37.38278911363533
 40
37.93387764115379
 40
38.93387764115379
 40
39.90429465964003
 40
39.90429465964003
 40
39.90429465964003
 40
39.90429465964003
 10
10.74818361707927
 20
10.49295466026538
 30
0.0
 10
10.48063674838839
 20
10.67733627416146
 30
0.0
 10
9.990957691666173
 20
10.8881165577653
 30
0.0
 10
8.772966265190792
 20
10.62044154602272
 30
0.0
 10
8.184031467476359
 20
9.970341136124313
 30
0.0
 10
7.830922056488077
 20
9.566521461442283
 30
0.0
 10
7.554979871917539
 20
9.31187534955595
 30
0.0
 10
7.087042291940232
 20
8.977878944267523
 30
0.0
 10
6.084343058104544
 20
9.216520233125147
 30
0.0
 10
5.731568221253784
 20
9.86582834940209
 30
0.0
 10
5.620709087746453
 20
10.17386369682727
 30
0.0
  0
SPLINE
  5
16B
330
1F
100
AcDbEntity
  8
PARTS
 62
     1
100
AcDbSpline
210
0.0
220
0.0
230
1.0
 70
    24
 71
     2
 72
     6
 73
     3
 74
     0
 42
0.0000000001
 43
0.0000000001
 40
39.90429465964003
 40
39.90429465964003
 40
39.90429465964003
 40
40.17203632860497
 40
40.17203632860497
 40
40.17203632860497
 10
5.620709087746453
 20
10.17386369682727
 30
0.0
 10
5.491717047759013
 20
10.20967506296866
 30
0.0
 10
5.362725007771573
 20
10.24548642911004
 30
0.0
  0
SPLINE
  5
16C
330
1F
100
AcDbEntity
  8
PARTS
 62
     1
100
AcDbSpline
210
0.0
220
0.0
230
1.0
 70
    24
 71
     2
 72
     6
 73
     3
 74
     0
 42
0.0000000001
 43
0.0000000001
 40
40.17203632860497
 40
40.17203632860497
 40
40.17203632860497
 40
40.29703632860498
 40
40.29703632860498
 40
40.29703632860498
 10
5.362725007771573
 20
10.24548642911004
 30
0.0
 10
5.379444186317752
 20
10.30570867640074
 30
0.0
 10
5.396163364863931
 20
10.36593092369144
 30
0.0
  0
SPLINE
  5
16D
330
1F
100
AcDbEntity
  8
PARTS
 62
     1
100
AcDbSpline
210
0.0
220
0.0
230
1.0
 70
    24
 71
     2
 72
     6
 73
     3
 74
     0
 42
0.0000000001
 43
0.0000000001
 40
40.29703632860498
 40
40.29703632860498
 40
40.29703632860498
 40
40.48111063808511
 40
40.48111063808511
 40
40.48111063808511
 10
5.396163364863931
 20
10.36593092369144
 30
0.0
 10
5.484846313546941
 20
10.34131035372375
 30
0.0
 10
5.573529262229952
 20
10.31668978375605
 30
0.0
  0
SPLINE
  5
16E
330
1F
100
AcDbEntity
  8
PARTS
 62
     1
100
AcDbSpline
210
0.0
220
0.0
230
1.0
 70
    12
 71
     2
 72
     6
 73
     3
 74
     0
 42
0.0000000001
 43
0.0000000001
 40
0.0
 40
0.0
 40
0.0
 40
0.7264929009774337
 40
0.7264929009774337
 40
0.7264929009774337
 10
5.573529262229952
 20
10.31668978375605
 30
0.0
 41
1.0
 10
5.468126523897025
 20
10.6680184834189
 30
0.0
 41
0.9850164623703113
 10
5.488358502843002
 20
11.03425919590565
 30
0.0
 41
1.0
  0
SPLINE
  5
16F
330
1F
100
AcDbEntity
  8
PARTS
 62
     1
100
AcDbSpline
210
0.0
220
0.0
230
1.0
 70
    12
 71
     2
 72
     6
 73
     3
 74
     0
 42
0.0000000001
 43
0.0000000001
 40
0.0
 40
0.0
 40
0.0
 40
0.0648341918016371
 40
0.0648341918016371
 40
0.0648341918016371
 10
5.488358502843002
 20
11.03425919590565
 30
0.0
 41
1.0
 10
5.490447871686701
 20
11.07208109835073
 30
0.0
 41
0.7970861524545824
 10
5.454603595822816
 20
11.08433057403438
 30
0.0
 41
1.0
  0
SPLINE
  5
170
330
1F
100
AcDbEntity
  8
PARTS
 62
     1
100
AcDbSpline
210
0.0
220
0.0
230
1.0
 70
    12
 71
     2
 72
     6
 73
     3
 74
     0
 42
0.0000000001
 43
0.0000000001
 40
0.0
 40
0.0
 40
0.0
 40
0.0648341918016398
 40
0.0648341918016398
 40
0.0648341918016398
 10
5.454603595822816
 20
11.08433057403438
 30
0.0
 41
1.0
 10
5.418759319958923
 20
11.09658004971803
 30
0.0
 41
0.7970861524544839
 10
5.397264385720635
 20
11.06538983380306
 30
0.0
 41
1.0
  0
SPLINE
  5
171
330
1F
100
AcDbEntity
  8
PARTS
 62
     1
100
AcDbSpline
210
0.0
220
0.0
230
1.0
 70
    24
 71
     2
 72
     6
 73
     3
 74
     0
 42
0.0000000001
 43
0.0000000001
 40
0.0
 40
0.0
 40
0.0
 40
0.040058109780403
 40
0.040058109780403
 40
0.040058109780403
 10
14.46814985794844
 20
8.75823199032759
 30
0.0
 10
14.45978693136052
 20
8.740032416193017
 30
0.0
 10
14.4514240047726
 20
8.721832842058447
 30
0.0
  0
SPLINE
  5
172
330
1F
100
AcDbEntity
  8
PARTS
 62
     1
100
AcDbSpline
210
0.0
220
0.0
230
1.0
 70
    24
 71
     2
 72
     6
 73
     3
 74
     0
 42
0.0000000001
 43
0.0000000001
 40
0.0
 40
0.0
 40
0.0
 40
0.1060606060606091
 40
0.1060606060606091
 40
0.1060606060606091
 10
14.4514240047726
 20
8.721832842058447
 30
0.0
 10
14.5044543078029
 20
8.721832842058447
 30
0.0
 10
14.55748461083321
 20
8.721832842058447
 30
0.0
  0
SPLINE
  5
173
330
1F
100
AcDbEntity
  8
PARTS
 62
     1
100
AcDbSpline
210
0.0
220
0.0
230
1.0
 70
    24
 71
     2
 72
     6
 73
     3
 74
     0
 42
0.0000000001
 43
0.0000000001
 40
0.0
 40
0.0
 40
0.0
 40
0.0351294254309098
 40
0.0351294254309098
 40
0.0351294254309098
 10
14.55748461083321
 20
8.721832842058447
 30
0.0
 10
14.5514003417288
 20
8.73831012345562
 30
0.0
 10
14.54531607262438
 20
8.75478740485279
 30
0.0
  0
SPLINE
  5
174
330
1F
100
AcDbEntity
  8
PARTS
 62
     1
100
AcDbSpline
210
0.0
220
0.0
230
1.0
 70
    24
 71
     2
 72
     6
 73
     3
 74
     0
 42
0.0000000001
 43
0.0000000001
 40
0.0
 40
0.0
 40
0.0
 40
0.0433584942235694
 40
0.0433584942235694
 40
0.0433584942235694
 10
14.54531607262438
 20
8.75478740485279
 30
0.0
 10
14.52538235689071
 20
8.763310123455618
 30
0.0
 10
14.50544864115704
 20
8.771832842058448
 30
0.0
  0
SPLINE
  5
175
330
1F
100
AcDbEntity
  8
PARTS
 62
     1
100
AcDbSpline
210
0.0
220
0.0
230
1.0
 70
    24
 71
     2
 72
     6
 73
     3
 74
     0
 42
0.0000000001
 43
0.0000000001
 40
0.0
 40
0.0
 40
0.0
 40
0.0397011636686769
 40
0.0397011636686769
 40
0.0397011636686769
 10
14.50544864115704
 20
8.771832842058448
 30
0.0
 10
14.48679924955274
 20
8.76503241619302
 30
0.0
 10
14.46814985794844
 20
8.75823199032759
 30
0.0
  0
SPLINE
  5
176
330
1F
100
AcDbEntity
  8
PARTS
 62
     1
100
AcDbSpline
210
0.0
220
0.0
230
1.0
 70
    24
 71
     2
 72
     6
 73
     3
 74
     0
 42
0.0000000001
 43
0.0000000001
 40
0.0
 40
0.0
 40
0.0
 40
0.1148767273795511
 40
0.1148767273795511
 40
0.1148767273795511
 10
9.0358016429198
 20
6.003136525612522
 30
0.0
 10
9.002858928987157
 20
5.95608396752998
 30
0.0
 10
8.969916215054514
 20
5.909031409447438
 30
0.0
  0
SPLINE
  5
177
330
1F
100
AcDbEntity
  8
PARTS
 62
     1
100
AcDbSpline
210
0.0
220
0.0
230
1.0
 70
    24
 71
     2
 72
     6
 73
     3
 74
     0
 42
0.0000000001
 43
0.0000000001
 40
0.0
 40
0.0
 40
0.0
 40
0.0366477316076761
 40
0.0366477316076761
 40
0.0366477316076761
 10
8.969916215054514
 20
5.909031409447438
 30
0.0
 10
8.988240080858352
 20
5.909031409447438
 30
0.0
 10
9.00656394666219
 20
5.909031409447438
 30
0.0
  0
SPLINE
  5
178
330
1F
100
AcDbEntity
  8
PARTS
 62
     1
100
AcDbSpline
210
0.0
220
0.0
230
1.0
 70
    24
 71
     2
 72
     6
 73
     3
 74
     0
 42
0.0000000001
 43
0.0000000001
 40
0.0
 40
0.0
 40
0.0
 40
0.0845531264086829
 40
0.0845531264086829
 40
0.0845531264086829
 10
9.00656394666219
 20
5.909031409447438
 30
0.0
 10
9.030806370904614
 20
5.943666834422758
 30
0.0
 10
9.055048795147039
 20
5.978302259398077
 30
0.0
  0
SPLINE
  5
179
330
1F
100
AcDbEntity
  8
PARTS
 62
     1
100
AcDbSpline
210
0.0
220
0.0
230
1.0
 70
    24
 71
     2
 72
     6
 73
     3
 74
     0
 42
0.0000000001
 43
0.0000000001
 40
0.0
 40
0.0
 40
0.0
 40
0.0166814106266178
 40
0.0166814106266178
 40
0.0166814106266178
 10
9.055048795147039
 20
5.978302259398077
 30
0.0
 10
9.05981915842736
 20
5.971460402976225
 30
0.0
 10
9.064589521707678
 20
5.964618546554373
 30
0.0
  0
SPLINE
  5
17A
330
1F
100
AcDbEntity
  8
PARTS
 62
     1
100
AcDbSpline
210
0.0
220
0.0
230
1.0
 70
    24
 71
     2
 72
     6
 73
     3
 74
     0
 42
0.0000000001
 43
0.0000000001
 40
0.0
 40
0.0
 40
0.0
 40
0.0667767981331334
 40
0.0667767981331334
 40
0.0667767981331334
 10
9.064589521707678
 20
5.964618546554373
 30
0.0
 10
9.083090947039041
 20
5.936824978000906
 30
0.0
 10
9.101592372370405
 20
5.909031409447438
 30
0.0
  0
SPLINE
  5
17B
330
1F
100
AcDbEntity
  8
PARTS
 62
     1
100
AcDbSpline
210
0.0
220
0.0
230
1.0
 70
    24
 71
     2
 72
     6
 73
     3
 74
     0
 42
0.0000000001
 43
0.0000000001
 40
0.0
 40
0.0
 40
0.0
 40
0.0365056608659273
 40
0.0365056608659273
 40
0.0365056608659273
 10
9.101592372370405
 20
5.909031409447438
 30
0.0
 10
9.119845202803369
 20
5.909031409447438
 30
0.0
 10
9.138098033236332
 20
5.909031409447438
 30
0.0
  0
SPLINE
  5
17C
330
1F
100
AcDbEntity
  8
PARTS
 62
     1
100
AcDbSpline
210
0.0
220
0.0
230
1.0
 70
    24
 71
     2
 72
     6
 73
     3
 74
     0
 42
0.0000000001
 43
0.0000000001
 40
0.0
 40
0.0
 40
0.0
 40
0.1146982863568711
 40
0.1146982863568711
 40
0.1146982863568711
 10
9.138098033236332
 20
5.909031409447438
 30
0.0
 10
9.105226354674564
 20
5.956024781020805
 30
0.0
 10
9.072354676112797
 20
6.003018152594171
 30
0.0
  0
SPLINE
  5
17D
330
1F
100
AcDbEntity
  8
PARTS
 62
     1
100
AcDbSpline
210
0.0
220
0.0
230
1.0
 70
    24
 71
     2
 72
     6
 73
     3
 74
     0
 42
0.0000000001
 43
0.0000000001
 40
0.0
 40
0.0
 40
0.0
 40
0.1072119287919753
 40
0.1072119287919753
 40
0.1072119287919753
 10
9.072354676112797
 20
6.003018152594171
 30
0.0
 10
9.103095675023857
 20
6.046933871929896
 30
0.0
 10
9.133836673934917
 20
6.09084959126562
 30
0.0
  0
SPLINE
  5
17E
330
1F
100
AcDbEntity
  8
PARTS
 62
     1
100
AcDbSpline
210
0.0
220
0.0
230
1.0
 70
    24
 71
     2
 72
     6
 73
     3
 74
     0
 42
0.0000000001
 43
0.0000000001
 40
0.0
 40
0.0
 40
0.0
 40
0.0366477316076761
 40
0.0366477316076761
 40
0.0366477316076761
 10
9.133836673934917
 20
6.09084959126562
 30
0.0
 10
9.11551280813108
 20
6.09084959126562
 30
0.0
 10
9.097188942327241
 20
6.09084959126562
 30
0.0
  0
SPLINE
  5
17F
330
1F
100
AcDbEntity
  8
PARTS
 62
     1
100
AcDbSpline
210
0.0
220
0.0
230
1.0
 70
    24
 71
     2
 72
     6
 73
     3
 74
     0
 42
0.0000000001
 43
0.0000000001
 40
0.0
 40
0.0
 40
0.0
 40
0.0524762129404604
 40
0.0524762129404604
 40
0.0524762129404604
 10
9.097188942327241
 20
6.09084959126562
 30
0.0
 10
9.082143962892241
 20
6.069353386369324
 30
0.0
 10
9.06709898345724
 20
6.047857181473027
 30
0.0
  0
SPLINE
  5
180
330
1F
100
AcDbEntity
  8
PARTS
 62
     1
100
AcDbSpline
210
0.0
220
0.0
230
1.0
 70
    24
 71
     2
 72
     6
 73
     3
 74
     0
 42
0.0000000001
 43
0.0000000001
 40
0.0
 40
0.0
 40
0.0
 40
0.0243733126600196
 40
0.0243733126600196
 40
0.0243733126600196
 10
9.06709898345724
 20
6.047857181473027
 30
0.0
 10
9.060103253671398
 20
6.037878486304357
 30
0.0
 10
9.053107523885556
 20
6.027899791135686
 30
0.0
  0
SPLINE
  5
181
330
1F
100
AcDbEntity
  8
PARTS
 62
     1
100
AcDbSpline
210
0.0
220
0.0
230
1.0
 70
    24
 71
     2
 72
     6
 73
     3
 74
     0
 42
0.0000000001
 43
0.0000000001
 40
0.0
 40
0.0
 40
0.0
 40
0.0224199212100053
 40
0.0224199212100053
 40
0.0224199212100053
 10
9.053107523885556
 20
6.027899791135686
 30
0.0
 10
9.047319164207291
 20
6.037499692645636
 30
0.0
 10
9.041530804529025
 20
6.047099594155586
 30
0.0
  0
SPLINE
  5
182
330
1F
100
AcDbEntity
  8
PARTS
 62
     1
100
AcDbSpline
210
0.0
220
0.0
230
1.0
 70
    24
 71
     2
 72
     6
 73
     3
 74
     0
 42
0.0000000001
 43
0.0000000001
 40
0.0
 40
0.0
 40
0.0
 40
0.0533819678951628
 40
0.0533819678951628
 40
0.0533819678951628
 10
9.041530804529025
 20
6.047099594155586
 30
0.0
 10
9.026237241755489
 20
6.068974592710603
 30
0.0
 10
9.010943678981954
 20
6.09084959126562
 30
0.0
  0
SPLINE
  5
183
330
1F
100
AcDbEntity
  8
PARTS
 62
     1
100
AcDbSpline
210
0.0
220
0.0
230
1.0
 70
    24
 71
     2
 72
     6
 73
     3
 74
     0
 42
0.0000000001
 43
0.0000000001
 40
0.0
 40
0.0
 40
0.0
 40
0.0364820093819862
 40
0.0364820093819862
 40
0.0364820093819862
 10
9.010943678981954
 20
6.09084959126562
 30
0.0
 10
8.99270267429096
 20
6.09084959126562
 30
0.0
 10
8.974461669599968
 20
6.09084959126562
 30
0.0
  0
SPLINE
  5
184
330
1F
100
AcDbEntity
  8
PARTS
 62
     1
100
AcDbSpline
210
0.0
220
0.0
230
1.0
 70
    24
 71
     2
 72
     6
 73
     3
 74
     0
 42
0.0000000001
 43
0.0000000001
 40
0.0
 40
0.0
 40
0.0
 40
0.1070335191103347
 40
0.1070335191103347
 40
0.1070335191103347
 10
8.974461669599968
 20
6.09084959126562
 30
0.0
 10
9.005131656259884
 20
6.046993058439071
 30
0.0
 10
9.0358016429198
 20
6.003136525612522
 30
0.0
  0
ENDSEC
  0
SECTION
  2
OBJECTS
  0
DICTIONARY
  5
C
330
0
100
AcDbDictionary
281
     1
  3
ACAD_GROUP
350
D
  3
ACAD_LAYOUT
350
1A
  3
ACAD_MLINESTYLE
350
17
  3
ACAD_PLOTSETTINGS
350
19
  3
ACAD_PLOTSTYLENAME
350
E
  0
DICTIONARY
  5
D
102
{ACAD_REACTORS
330
C
102
}
330
C
100
AcDbDictionary
281
     1
  0
DICTIONARY
  5
1A
102
{ACAD_REACTORS
330
C
102
}
330
C
100
AcDbDictionary
281
     1
  3
Layout1
350
1E
  3
Layout2
350
26
  3
Model
350
22
  0
DICTIONARY
  5
17
102
{ACAD_REACTORS
330
C
102
}
330
C
100
AcDbDictionary
281
     1
  3
Standard
350
18
  0
DICTIONARY
  5
19
102
{ACAD_REACTORS
330
C
102
}
330
C
100
AcDbDictionary
281
     1
  0
ACDBDICTIONARYWDFLT
  5
E
102
{ACAD_REACTORS
330
C
102
}
330
C
100
AcDbDictionary
281
     1
  3
Normal
350
F
100
AcDbDictionaryWithDefault
340
F
  0
LAYOUT
  5
1E
102
{ACAD_REACTORS
330
1A
102
}
330
1A
100
AcDbPlotSettings
  1

  2
none_device
  4

  6

 40
0.0
 41
0.0
 42
0.0
 43
0.0
 44
0.0
 45
0.0
 46
0.0
 47
0.0
 48
0.0
 49
0.0
140
0.0
141
0.0
142
1.0
143
1.0
 70
   688
 72
     0
 73
     0
 74
     5
  7

 75
    16
 76
     0
 77
     2
 78
   300
147
1.0
148
0.0
149
0.0
100
AcDbLayout
  1
Layout1
 70
     1
 71
     1
 10
0.0
 20
0.0
 11
12.0
 21
9.0
 12
0.0
 22
0.0
 32
0.0
 14
1.000000000000000E+20
 24
1.000000000000000E+20
 34
1.000000000000000E+20
 15
-1.000000000000000E+20
 25
-1.000000000000000E+20
 35
-1.000000000000000E+20
146
0.0
 13
0.0
 23
0.0
 33
0.0
 16
1.0
 26
0.0
 36
0.0
 17
0.0
 27
1.0
 37
0.0
 76
     0
330
1B
  0
LAYOUT
  5
26
102
{ACAD_REACTORS
330
1A
102
}
330
1A
100
AcDbPlotSettings
  1

  2
none_device
  4

  6

 40
0.0
 41
0.0
 42
0.0
 43
0.0
 44
0.0
 45
0.0
 46
0.0
 47
0.0
 48
0.0
 49
0.0
140
0.0
141
0.0
142
1.0
143
1.0
 70
   688
 72
     0
 73
     0
 74
     5
  7

 75
    16
 76
     0
 77
     2
 78
   300
147
1.0
148
0.0
149
0.0
100
AcDbLayout
  1
Layout2
 70
     1
 71
     2
 10
0.0
 20
0.0
 11
0.0
 21
0.0
 12
0.0
 22
0.0
 32
0.0
 14
0.0
 24
0.0
 34
0.0
 15
0.0
 25
0.0
 35
0.0
146
0.0
 13
0.0
 23
0.0
 33
0.0
 16
1.0
 26
0.0
 36
0.0
 17
0.0
 27
1.0
 37
0.0
 76
     0
330
23
  0
LAYOUT
  5
22
102
{ACAD_REACTORS
330
1A
102
}
330
1A
100
AcDbPlotSettings
  1

  2
none_device
  4

  6

 40
0.0
 41
0.0
 42
0.0
 43
0.0
 44
0.0
 45
0.0
 46
0.0
 47
0.0
 48
0.0
 49
0.0
140
0.0
141
0.0
142
1.0
143
1.0
 70
  1712
 72
     0
 73
     0
 74
     0
  7

 75
     0
 76
     0
 77
     2
 78
   300
147
1.0
148
0.0
149
0.0
100
AcDbLayout
  1
Model
 70
     1
 71
     0
 10
0.0
 20
0.0
 11
12.0
 21
9.0
 12
0.0
 22
0.0
 32
0.0
 14
4.803206751061626
 24
5.120412967785369
 34
0.0
 15
16.78293786855788
 25
14.18123509365999
 35
0.0
146
0.0
 13
0.0
 23
0.0
 33
0.0
 16
1.0
 26
0.0
 36
0.0
 17
0.0
 27
1.0
 37
0.0
 76
     0
330
1F
  0
MLINESTYLE
  5
18
102
{ACAD_REACTORS
330
17
102
}
330
17
100
AcDbMlineStyle
  2
Standard
 70
     0
  3

 62
   256
 51
90.0
 52
90.0
 71
     2
 49
0.5
 62
   256
  6
BYLAYER
 49
-0.5
 62
   256
  6
BYLAYER
  0
ACDBPLACEHOLDER
  5
F
102
{ACAD_REACTORS
330
E
102
}
330
E
  0
ENDSEC
  0
EOF
