  0
SECTION
  2
HEADER
  9
$ACADVER
  1
AC1009
  9
$DWGCODEPAGE
  3
ansi_1252
  9
$INSBASE
 10
0.0
 20
0.0
 30
0.0
  9
$EXTMIN
 10
1.100953590726667
 20
0.5281525358645447
 30
0.0
  9
$EXTMAX
 10
27.52403051380359
 20
8.096822728172238
 30
0.0
  9
$LIMMIN
 10
0.0
 20
0.0
  9
$LIMMAX
 10
12.0
 20
9.0
  9
$ORTHOMODE
 70
     0
  9
$REGENMODE
 70
     1
  9
$FILLMODE
 70
     1
  9
$QTEXTMODE
 70
     0
  9
$MIRRTEXT
 70
     1
  9
$DRAGMODE
 70
     2
  9
$LTSCALE
 40
1.0
  9
$OSMODE
 70
    37
  9
$ATTMODE
 70
     1
  9
$TEXTSIZE
 40
0.2
  9
$TRACEWID
 40
0.05
  9
$TEXTSTYLE
  7
STANDARD
  9
$CLAYER
  8
0
  9
$CELTYPE
  6
BYLAYER
  9
$CECOLOR
 62
   256
  9
$DIMSCALE
 40
1.0
  9
$DIMASZ
 40
0.18
  9
$DIMEXO
 40
0.0625
  9
$DIMDLI
 40
0.38
  9
$DIMRND
 40
0.0
  9
$DIMDLE
 40
0.0
  9
$DIMEXE
 40
0.18
  9
$DIMTP
 40
0.0
  9
$DIMTM
 40
0.0
  9
$DIMTXT
 40
0.18
  9
$DIMCEN
 40
0.09
  9
$DIMTSZ
 40
0.0
  9
$DIMTOL
 70
     0
  9
$DIMLIM
 70
     0
  9
$DIMTIH
 70
     1
  9
$DIMTOH
 70
     1
  9
$DIMSE1
 70
     0
  9
$DIMSE2
 70
     0
  9
$DIMTAD
 70
     0
  9
$DIMZIN
 70
     0
  9
$DIMBLK
  1

  9
$DIMASO
 70
     1
  9
$DIMSHO
 70
     1
  9
$DIMPOST
  1

  9
$DIMAPOST
  1

  9
$DIMALT
 70
     0
  9
$DIMALTD
 70
     2
  9
$DIMALTF
 40
25.4
  9
$DIMLFAC
 40
1.0
  9
$DIMTOFL
 70
     0
  9
$DIMTVP
 40
0.0
  9
$DIMTIX
 70
     0
  9
$DIMSOXD
 70
     0
  9
$DIMSAH
 70
     0
  9
$DIMBLK1
  1

  9
$DIMBLK2
  1

  9
$DIMSTYLE
  2
STANDARD
  9
$DIMCLRD
 70
     0
  9
$DIMCLRE
 70
     0
  9
$DIMCLRT
 70
     0
  9
$DIMTFAC
 40
1.0
  9
$DIMGAP
 40
0.09
  9
$LUNITS
 70
     2
  9
$LUPREC
 70
     4
  9
$SKETCHINC
 40
0.1
  9
$FILLETRAD
 40
0.5
  9
$AUNITS
 70
     0
  9
$AUPREC
 70
     0
  9
$MENU
  1
.
  9
$ELEVATION
 40
0.0
  9
$PELEVATION
 40
0.0
  9
$THICKNESS
 40
0.0
  9
$LIMCHECK
 70
     0
  9
$CHAMFERA
 40
0.0
  9
$CHAMFERB
 40
0.0
  9
$SKPOLY
 70
     0
  9
$TDCREATE
 40
2454910.5
  9
$TDUPDATE
 40
2458077.479126493
  9
$TDINDWG
 40
0.0000000116
  9
$TDUSRTIMER
 40
0.0000000116
  9
$USRTIMER
 70
     1
  9
$ANGBASE
 50
0.0
  9
$ANGDIR
 70
     0
  9
$PDMODE
 70
     0
  9
$PDSIZE
 40
0.0
  9
$PLINEWID
 40
0.0
  9
$COORDS
 70
     1
  9
$SPLFRAME
 70
     0
  9
$SPLINETYPE
 70
     6
  9
$SPLINESEGS
 70
     8
  9
$ATTDIA
 70
     0
  9
$ATTREQ
 70
     1
  9
$HANDLING
 70
     1
  9
$HANDSEED
  5
CC7
  9
$SURFTAB1
 70
     6
  9
$SURFTAB2
 70
     6
  9
$SURFTYPE
 70
     6
  9
$SURFU
 70
     6
  9
$SURFV
 70
     6
  9
$UCSNAME
  2

  9
$UCSORG
 10
0.0
 20
0.0
 30
0.0
  9
$UCSXDIR
 10
1.0
 20
0.0
 30
0.0
  9
$UCSYDIR
 10
0.0
 20
1.0
 30
0.0
  9
$PUCSNAME
  2

  9
$PUCSORG
 10
0.0
 20
0.0
 30
0.0
  9
$PUCSXDIR
 10
1.0
 20
0.0
 30
0.0
  9
$PUCSYDIR
 10
0.0
 20
1.0
 30
0.0
  9
$USERI1
 70
     0
  9
$USERI2
 70
     0
  9
$USERI3
 70
     0
  9
$USERI4
 70
     0
  9
$USERI5
 70
     0
  9
$USERR1
 40
0.0
  9
$USERR2
 40
0.0
  9
$USERR3
 40
0.0
  9
$USERR4
 40
0.0
  9
$USERR5
 40
0.0
  9
$WORLDVIEW
 70
     1
  9
$SHADEDGE
 70
     3
  9
$SHADEDIF
 70
    70
  9
$TILEMODE
 70
     1
  9
$MAXACTVP
 70
    64
  9
$PLIMCHECK
 70
     0
  9
$PEXTMIN
 10
1.000000000000000E+20
 20
1.000000000000000E+20
 30
1.000000000000000E+20
  9
$PEXTMAX
 10
-1.000000000000000E+20
 20
-1.000000000000000E+20
 30
-1.000000000000000E+20
  9
$PLIMMIN
 10
0.0
 20
0.0
  9
$PLIMMAX
 10
12.0
 20
9.0
  9
$UNITMODE
 70
     0
  9
$VISRETAIN
 70
     1
  9
$PLINEGEN
 70
     0
  9
$PSLTSCALE
 70
     1
  0
ENDSEC
  0
SECTION
  2
TABLES
  0
TABLE
  2
VPORT
 70
     1
  0
VPORT
  2
*ACTIVE
 70
     0
 10
0.0
 20
0.0
 11
1.0
 21
1.0
 12
10.42990654205607
 22
4.5
 13
0.0
 23
0.0
 14
0.5
 24
0.5
 15
0.5
 25
0.5
 16
0.0
 26
0.0
 36
1.0
 17
0.0
 27
0.0
 37
0.0
 40
9.0
 41
1.972972972850329
 42
50.0
 43
0.0
 44
0.0
 50
0.0
 51
0.0
 71
     0
 72
   100
 73
     1
 74
     3
 75
     0
 76
     0
 77
     0
 78
     0
  0
ENDTAB
  0
TABLE
  2
LTYPE
 70
     2
  0
LTYPE
  2
CONTINUOUS
 70
     0
  3
Solid line
 72
    65
 73
     0
 40
0.0
  0
LTYPE
  2
CONTINUOUS2
 70
     0
  3
Solid Line
 72
    65
 73
     0
 40
0.0
  0
ENDTAB
  0
TABLE
  2
LAYER
 70
     5
  0
LAYER
  2
0
 70
     0
 62
     7
  6
CONTINUOUS
  0
LAYER
  2
GARAGE
 70
     0
 62
    18
  6
CONTINUOUS
  0
LAYER
  2
OUTER_LAYER
 70
     0
 62
     1
  6
CONTINUOUS
  0
LAYER
  2
ENDS
 70
     0
 62
    16
  6
CONTINUOUS
  0
LAYER
  2
MIDDLE
 70
     0
 62
    18
  6
CONTINUOUS
  0
ENDTAB
  0
TABLE
  2
STYLE
 70
     1
  0
STYLE
  2
STANDARD
 70
     0
 40
0.0
 41
1.0
 50
0.0
 71
     0
 42
0.2
  3
txt
  4

  0
ENDTAB
  0
TABLE
  2
VIEW
 70
     0
  0
ENDTAB
  0
TABLE
  2
UCS
 70
     0
  0
ENDTAB
  0
TABLE
  2
APPID
 70
     1
  0
APPID
  2
ACAD
 70
     0
  0
ENDTAB
  0
TABLE
  2
DIMSTYLE
 70
     1
  0
DIMSTYLE
  2
STANDARD
 70
     0
  3

  4

  5

  6

  7

 40
1.0
 41
0.18
 42
0.0625
 43
0.38
 44
0.18
 45
0.0
 46
0.0
 47
0.0
 48
0.0
140
0.18
141
0.09
142
0.0
143
25.4
144
1.0
145
0.0
146
1.0
147
0.09
 71
     0
 72
     0
 73
     1
 74
     1
 75
     0
 76
     0
 77
     0
 78
     0
170
     0
171
     2
172
     0
173
     0
174
     0
175
     0
176
     0
177
     0
178
     0
  0
ENDTAB
  0
ENDSEC
  0
SECTION
  2
BLOCKS
  0
BLOCK
  8
0
  2
$MODEL_SPACE
 70
     0
 10
0.0
 20
0.0
 30
0.0
  3
$MODEL_SPACE
  1

  0
ENDBLK
  5
21
  8
0
  0
BLOCK
 67
     1
  8
0
  2
$PAPER_SPACE
 70
     0
 10
0.0
 20
0.0
 30
0.0
  3
$PAPER_SPACE
  1

  0
ENDBLK
  5
1D
 67
     1
  8
0
  0
ENDSEC
  0
SECTION
  2
ENTITIES
  0
POLYLINE
  5
70
  8
GARAGE
 66
     1
 10
0.0
 20
0.0
 30
0.0
 70
     1
  0
VERTEX
  5
87
  8
GARAGE
 10
14.23253196722982
 20
3.216315415030206
 30
0.0
  0
VERTEX
  5
88
  8
GARAGE
 10
14.2376183705879
 20
3.224856444916468
 30
0.0
  0
VERTEX
  5
89
  8
GARAGE
 10
14.46270504927401
 20
3.637936254027984
 30
0.0
  0
VERTEX
  5
8A
  8
GARAGE
 10
14.45943371716114
 20
3.640266099745325
 30
0.0
  0
VERTEX
  5
8B
  8
GARAGE
 10
13.64512221427583
 20
4.180871429997101
 30
0.0
  0
VERTEX
  5
8C
  8
GARAGE
 10
13.87997563992986
 20
4.181736226814033
 30
0.0
  0
VERTEX
  5
8D
  8
GARAGE
 10
13.941218935027
 20
4.191608914134467
 30
0.0
  0
VERTEX
  5
8E
  8
GARAGE
 10
13.97019663919447
 20
4.196666379987115
 30
0.0
  0
VERTEX
  5
8F
  8
GARAGE
 10
13.99823490501046
 20
4.202345403578531
 30
0.0
  0
VERTEX
  5
90
  8
GARAGE
 10
14.02533501444309
 20
4.20864729134887
 30
0.0
  0
VERTEX
  5
91
  8
GARAGE
 10
14.05149824946047
 20
4.215573349738292
 30
0.0
  0
VERTEX
  5
92
  8
GARAGE
 10
14.07672589203072
 20
4.223124885186955
 30
0.0
  0
VERTEX
  5
93
  8
GARAGE
 10
14.10101922412194
 20
4.231303204135021
 30
0.0
  0
VERTEX
  5
94
  8
GARAGE
 10
14.12437952770227
 20
4.240109613022647
 30
0.0
  0
VERTEX
  5
95
  8
GARAGE
 10
14.13571019441588
 20
4.244748759456345
 30
0.0
  0
VERTEX
  5
96
  8
GARAGE
 10
14.14680808473981
 20
4.249545418289991
 30
0.0
  0
VERTEX
  5
97
  8
GARAGE
 10
14.15767335892007
 20
4.254499752828609
 30
0.0
  0
VERTEX
  5
98
  8
GARAGE
 10
14.16830617720268
 20
4.259611926377215
 30
0.0
  0
VERTEX
  5
99
  8
GARAGE
 10
14.17870669983364
 20
4.26488210224083
 30
0.0
  0
VERTEX
  5
9A
  8
GARAGE
 10
14.18887508705898
 20
4.270310443724473
 30
0.0
  0
VERTEX
  5
9B
  8
GARAGE
 10
14.19881149912471
 20
4.275897114133167
 30
0.0
  0
VERTEX
  5
9C
  8
GARAGE
 10
14.20851609627685
 20
4.281642276771928
 30
0.0
  0
VERTEX
  5
9D
  8
GARAGE
 10
14.21798903876139
 20
4.287546094945775
 30
0.0
  0
VERTEX
  5
9E
  8
GARAGE
 10
14.22723048682438
 20
4.293608731959736
 30
0.0
  0
VERTEX
  5
9F
  8
GARAGE
 10
14.2362406007118
 20
4.299830351118822
 30
0.0
  0
VERTEX
  5
A0
  8
GARAGE
 10
14.24501954066969
 20
4.306211115728058
 30
0.0
  0
VERTEX
  5
A1
  8
GARAGE
 10
14.25356746694406
 20
4.312751189092461
 30
0.0
  0
VERTEX
  5
A2
  8
GARAGE
 10
14.2618845397809
 20
4.319450734517051
 30
0.0
  0
VERTEX
  5
A3
  8
GARAGE
 10
14.26997091942627
 20
4.326309915306853
 30
0.0
  0
VERTEX
  5
A4
  8
GARAGE
 10
14.27782676612614
 20
4.333328894766877
 30
0.0
  0
VERTEX
  5
A5
  8
GARAGE
 10
14.28545224012655
 20
4.340507836202152
 30
0.0
  0
VERTEX
  5
A6
  8
GARAGE
 10
14.2928475016735
 20
4.347846902917692
 30
0.0
  0
VERTEX
  5
A7
  8
GARAGE
 10
14.30001271101302
 20
4.355346258218522
 30
0.0
  0
VERTEX
  5
A8
  8
GARAGE
 10
14.30694802839111
 20
4.363006065409656
 30
0.0
  0
VERTEX
  5
A9
  8
GARAGE
 10
14.31365361405379
 20
4.37082648779612
 30
0.0
  0
VERTEX
  5
AA
  8
GARAGE
 10
14.32012962824707
 20
4.37880768868293
 30
0.0
  0
VERTEX
  5
AB
  8
GARAGE
 10
14.32637623121698
 20
4.386949831375108
 30
0.0
  0
VERTEX
  5
AC
  8
GARAGE
 10
14.33239358320951
 20
4.395253079177668
 30
0.0
  0
VERTEX
  5
AD
  8
GARAGE
 10
14.3381818444707
 20
4.403717595395637
 30
0.0
  0
VERTEX
  5
AE
  8
GARAGE
 10
14.34374117524654
 20
4.412343543334033
 30
0.0
  0
VERTEX
  5
AF
  8
GARAGE
 10
14.34907173578306
 20
4.421131086297875
 30
0.0
  0
VERTEX
  5
B0
  8
GARAGE
 10
14.35417368632627
 20
4.430080387592182
 30
0.0
  0
VERTEX
  5
B1
  8
GARAGE
 10
14.35904718712219
 20
4.439191610521976
 30
0.0
  0
VERTEX
  5
B2
  8
GARAGE
 10
14.36369239841682
 20
4.448464918392275
 30
0.0
  0
VERTEX
  5
B3
  8
GARAGE
 10
14.36810948045619
 20
4.4579004745081
 30
0.0
  0
VERTEX
  5
B4
  8
GARAGE
 10
14.37229859348631
 20
4.467498442174469
 30
0.0
  0
VERTEX
  5
B5
  8
GARAGE
 10
14.37625989775318
 20
4.477258984696405
 30
0.0
  0
VERTEX
  5
B6
  8
GARAGE
 10
14.37999355350283
 20
4.487182265378928
 30
0.0
  0
VERTEX
  5
B7
  8
GARAGE
 10
14.38349972098128
 20
4.497268447527053
 30
0.0
  0
VERTEX
  5
B8
  8
GARAGE
 10
14.38677856043453
 20
4.507517694445801
 30
0.0
  0
VERTEX
  5
B9
  8
GARAGE
 10
14.38983023210859
 20
4.517930169440196
 30
0.0
  0
VERTEX
  5
BA
  8
GARAGE
 10
14.3926548962495
 20
4.528506035815256
 30
0.0
  0
VERTEX
  5
BB
  8
GARAGE
 10
14.39525271310325
 20
4.539245456876001
 30
0.0
  0
VERTEX
  5
BC
  8
GARAGE
 10
14.39762384291586
 20
4.550148595927449
 30
0.0
  0
VERTEX
  5
BD
  8
GARAGE
 10
14.39976844593335
 20
4.561215616274622
 30
0.0
  0
VERTEX
  5
BE
  8
GARAGE
 10
14.40168668240173
 20
4.57244668122254
 30
0.0
  0
VERTEX
  5
BF
  8
GARAGE
 10
14.40337871256702
 20
4.583841954076221
 30
0.0
  0
VERTEX
  5
C0
  8
GARAGE
 10
14.40484469667522
 20
4.595401598140685
 30
0.0
  0
VERTEX
  5
C1
  8
GARAGE
 10
14.40608479497236
 20
4.607125776720952
 30
0.0
  0
VERTEX
  5
C2
  8
GARAGE
 10
14.40709916770445
 20
4.619014653122045
 30
0.0
  0
VERTEX
  5
C3
  8
GARAGE
 10
14.4078879751175
 20
4.631068390648982
 30
0.0
  0
VERTEX
  5
C4
  8
GARAGE
 10
14.40845137745753
 20
4.643287152606779
 30
0.0
  0
VERTEX
  5
C5
  8
GARAGE
 10
14.40878953497055
 20
4.65567110230046
 30
0.0
  0
VERTEX
  5
C6
  8
GARAGE
 10
14.40890260790257
 20
4.668220403035046
 30
0.0
  0
VERTEX
  5
C7
  8
GARAGE
 10
14.40848760865502
 20
4.690607407738226
 30
0.0
  0
VERTEX
  5
C8
  8
GARAGE
 10
14.40735613112205
 20
4.718490909569844
 30
0.0
  0
VERTEX
  5
C9
  8
GARAGE
 10
14.40568101535996
 20
4.748316948539227
 30
0.0
  0
VERTEX
  5
CA
  8
GARAGE
 10
14.40363510142504
 20
4.776531564655689
 30
0.0
  0
VERTEX
  5
CB
  8
GARAGE
 10
14.40075535234942
 20
4.807481503418803
 30
0.0
  0
VERTEX
  5
CC
  8
GARAGE
 10
14.39732937332137
 20
4.837342276423534
 30
0.0
  0
VERTEX
  5
CD
  8
GARAGE
 10
14.39334408226225
 20
4.866130103649838
 30
0.0
  0
VERTEX
  5
CE
  8
GARAGE
 10
14.38878639709344
 20
4.893861205077687
 30
0.0
  0
VERTEX
  5
CF
  8
GARAGE
 10
14.38364323573632
 20
4.920551800687043
 30
0.0
  0
VERTEX
  5
D0
  8
GARAGE
 10
14.37790151611225
 20
4.946218110457863
 30
0.0
  0
VERTEX
  5
D1
  8
GARAGE
 10
14.37480210880053
 20
4.958672226897564
 30
0.0
  0
VERTEX
  5
D2
  8
GARAGE
 10
14.3715481561426
 20
4.970876354370115
 30
0.0
  0
VERTEX
  5
D3
  8
GARAGE
 10
14.36813802287863
 20
4.982832520373015
 30
0.0
  0
VERTEX
  5
D4
  8
GARAGE
 10
14.36457007374877
 20
4.994542752403762
 30
0.0
  0
VERTEX
  5
D5
  8
GARAGE
 10
14.36084267349321
 20
5.006009077959847
 30
0.0
  0
VERTEX
  5
D6
  8
GARAGE
 10
14.35695418685211
 20
5.017233524538768
 30
0.0
  0
VERTEX
  5
D7
  8
GARAGE
 10
14.35290297856566
 20
5.028218119638018
 30
0.0
  0
VERTEX
  5
D8
  8
GARAGE
 10
14.34868741337401
 20
5.038964890755097
 30
0.0
  0
VERTEX
  5
D9
  8
GARAGE
 10
14.34430585601734
 20
5.049475865387493
 30
0.0
  0
VERTEX
  5
DA
  8
GARAGE
 10
14.33975667123583
 20
5.059753071032707
 30
0.0
  0
VERTEX
  5
DB
  8
GARAGE
 10
14.33503822376965
 20
5.069798535188232
 30
0.0
  0
VERTEX
  5
DC
  8
GARAGE
 10
14.33014887835895
 20
5.079614285351568
 30
0.0
  0
VERTEX
  5
DD
  8
GARAGE
 10
14.32508699974394
 20
5.089202349020204
 30
0.0
  0
VERTEX
  5
DE
  8
GARAGE
 10
14.31985095266476
 20
5.098564753691639
 30
0.0
  0
VERTEX
  5
DF
  8
GARAGE
 10
14.31443910186159
 20
5.107703526863369
 30
0.0
  0
VERTEX
  5
E0
  8
GARAGE
 10
14.3088498120746
 20
5.116620696032886
 30
0.0
  0
VERTEX
  5
E1
  8
GARAGE
 10
14.30308144804397
 20
5.125318288697689
 30
0.0
  0
VERTEX
  5
E2
  8
GARAGE
 10
14.29713237450986
 20
5.133798332355275
 30
0.0
  0
VERTEX
  5
E3
  8
GARAGE
 10
14.29100095621246
 20
5.142062854503131
 30
0.0
  0
VERTEX
  5
E4
  8
GARAGE
 10
14.28468555789193
 20
5.15011388263876
 30
0.0
  0
VERTEX
  5
E5
  8
GARAGE
 10
14.27818454428844
 20
5.157953444259654
 30
0.0
  0
VERTEX
  5
E6
  8
GARAGE
 10
14.27149628014216
 20
5.165583566863313
 30
0.0
  0
VERTEX
  5
E7
  8
GARAGE
 10
14.26461913019327
 20
5.173006277947227
 30
0.0
  0
VERTEX
  5
E8
  8
GARAGE
 10
14.25755145918194
 20
5.180223605008895
 30
0.0
  0
VERTEX
  5
E9
  8
GARAGE
 10
14.25029163184833
 20
5.187237575545812
 30
0.0
  0
VERTEX
  5
EA
  8
GARAGE
 10
14.24283801293263
 20
5.19405021705547
 30
0.0
  0
VERTEX
  5
EB
  8
GARAGE
 10
14.235188967175
 20
5.200663557035366
 30
0.0
  0
VERTEX
  5
EC
  8
GARAGE
 10
14.22734285931562
 20
5.207079622982997
 30
0.0
  0
VERTEX
  5
ED
  8
GARAGE
 10
14.21929805409465
 20
5.213300442395861
 30
0.0
  0
VERTEX
  5
EE
  8
GARAGE
 10
14.21105291625226
 20
5.219328042771445
 30
0.0
  0
VERTEX
  5
EF
  8
GARAGE
 10
14.20260581052865
 20
5.225164451607252
 30
0.0
  0
VERTEX
  5
F0
  8
GARAGE
 10
14.19395510166395
 20
5.230811696400774
 30
0.0
  0
VERTEX
  5
F1
  8
GARAGE
 10
14.18509915439837
 20
5.236271804649511
 30
0.0
  0
VERTEX
  5
F2
  8
GARAGE
 10
14.17603633347206
 20
5.24154680385095
 30
0.0
  0
VERTEX
  5
F3
  8
GARAGE
 10
14.16676500362519
 20
5.246638721502593
 30
0.0
  0
VERTEX
  5
F4
  8
GARAGE
 10
14.15728352959795
 20
5.251549585101937
 30
0.0
  0
VERTEX
  5
F5
  8
GARAGE
 10
14.14759027613049
 20
5.256281422146471
 30
0.0
  0
VERTEX
  5
F6
  8
GARAGE
 10
14.137683607963
 20
5.260836260133694
 30
0.0
  0
VERTEX
  5
F7
  8
GARAGE
 10
14.12756188983564
 20
5.265216126561099
 30
0.0
  0
VERTEX
  5
F8
  8
GARAGE
 10
14.11722348648858
 20
5.269423048926185
 30
0.0
  0
VERTEX
  5
F9
  8
GARAGE
 10
14.106666762662
 20
5.273459054726446
 30
0.0
  0
VERTEX
  5
FA
  8
GARAGE
 10
14.09589008309608
 20
5.277326171459377
 30
0.0
  0
VERTEX
  5
FB
  8
GARAGE
 10
14.07367031570685
 20
5.284561847713232
 30
0.0
  0
VERTEX
  5
FC
  8
GARAGE
 10
14.05055110224228
 20
5.291146297667711
 30
0.0
  0
VERTEX
  5
FD
  8
GARAGE
 10
14.02651936062374
 20
5.29709574130278
 30
0.0
  0
VERTEX
  5
FE
  8
GARAGE
 10
14.00156200877261
 20
5.302426398598405
 30
0.0
  0
VERTEX
  5
FF
  8
GARAGE
 10
13.97566596461026
 20
5.307154489534541
 30
0.0
  0
VERTEX
  5
100
  8
GARAGE
 10
13.92782080227006
 20
5.315196280228403
 30
0.0
  0
VERTEX
  5
101
  8
GARAGE
 10
13.24204014206057
 20
5.320680524442222
 30
0.0
  0
VERTEX
  5
102
  8
GARAGE
 10
12.22931753919306
 20
5.322971051883688
 30
0.0
  0
VERTEX
  5
103
  8
GARAGE
 10
12.22931753919306
 20
3.552144520248412
 30
0.0
  0
VERTEX
  5
104
  8
GARAGE
 10
12.71840142089286
 20
3.55214452024841
 30
0.0
  0
VERTEX
  5
105
  8
GARAGE
 10
12.71840142089286
 20
4.178465585272133
 30
0.0
  0
VERTEX
  5
106
  8
GARAGE
 10
12.90374146076887
 20
4.178465585272133
 30
0.0
  0
VERTEX
  5
107
  8
GARAGE
 10
14.17777272054559
 20
3.243693168676577
 30
0.0
  0
VERTEX
  5
108
  8
GARAGE
 10
14.20260914220866
 20
3.225733776910263
 30
0.0
  0
VERTEX
  5
109
  8
GARAGE
 10
14.21022030224259
 20
3.220297162942289
 30
0.0
  0
VERTEX
  5
10A
  8
GARAGE
 10
14.21620557520195
 20
3.216241151658509
 30
0.0
  0
VERTEX
  5
10B
  8
GARAGE
 10
14.22082493220884
 20
3.213483915821535
 30
0.0
  0
VERTEX
  5
10C
  8
GARAGE
 10
14.22433834438536
 20
3.211943628193985
 30
0.0
  0
VERTEX
  5
10D
  8
GARAGE
 10
14.22576156213789
 20
3.211604268947057
 30
0.0
  0
VERTEX
  5
10E
  8
GARAGE
 10
14.22700578285362
 20
3.211538461538461
 30
0.0
  0
VERTEX
  5
10F
  8
GARAGE
 10
14.2281035029228
 20
3.211735977563528
 30
0.0
  0
VERTEX
  5
110
  8
GARAGE
 10
14.22908721873571
 20
3.212186588617581
 30
0.0
  0
VERTEX
  5
111
  8
GARAGE
 10
14.23084262315374
 20
3.213806182193961
 30
0.0
  0
SEQEND
  5
CBA
  8
GARAGE
  0
POLYLINE
  5
71
  8
GARAGE
 66
     1
 10
0.0
 20
0.0
 30
0.0
 70
     1
  0
VERTEX
  5
112
  8
GARAGE
 10
8.271459387828989
 20
3.542877037299013
 30
0.0
  0
VERTEX
  5
113
  8
GARAGE
 10
8.30164166725141
 20
3.545132351231648
 30
0.0
  0
VERTEX
  5
114
  8
GARAGE
 10
8.33666286458012
 20
3.54846643166424
 30
0.0
  0
VERTEX
  5
115
  8
GARAGE
 10
8.372179036268607
 20
3.552429871208204
 30
0.0
  0
VERTEX
  5
116
  8
GARAGE
 10
8.403846238770353
 20
3.556573262474954
 30
0.0
  0
VERTEX
  5
117
  8
GARAGE
 10
8.432639333288291
 20
3.560975592451267
 30
0.0
  0
VERTEX
  5
118
  8
GARAGE
 10
8.461325478532663
 20
3.565854798996653
 30
0.0
  0
VERTEX
  5
119
  8
GARAGE
 10
8.489890067010348
 20
3.571206718205101
 30
0.0
  0
VERTEX
  5
11A
  8
GARAGE
 10
8.518318491228223
 20
3.577027186170601
 30
0.0
  0
VERTEX
  5
11B
  8
GARAGE
 10
8.546596143693174
 20
3.583312038987145
 30
0.0
  0
VERTEX
  5
11C
  8
GARAGE
 10
8.57470841691207
 20
3.590057112748724
 30
0.0
  0
VERTEX
  5
11D
  8
GARAGE
 10
8.602640703391794
 20
3.597258243549327
 30
0.0
  0
VERTEX
  5
11E
  8
GARAGE
 10
8.630378395639228
 20
3.604911267482949
 30
0.0
  0
VERTEX
  5
11F
  8
GARAGE
 10
8.657906886161246
 20
3.613012020643575
 30
0.0
  0
VERTEX
  5
120
  8
GARAGE
 10
8.685211567464732
 20
3.621556339125202
 30
0.0
  0
VERTEX
  5
121
  8
GARAGE
 10
8.712277832056557
 20
3.630540059021815
 30
0.0
  0
VERTEX
  5
122
  8
GARAGE
 10
8.73909107244361
 20
3.63995901642741
 30
0.0
  0
VERTEX
  5
123
  8
GARAGE
 10
8.765636681132765
 20
3.649809047435975
 30
0.0
  0
VERTEX
  5
124
  8
GARAGE
 10
8.791900050630897
 20
3.6600859881415
 30
0.0
  0
VERTEX
  5
125
  8
GARAGE
 10
8.817866573444892
 20
3.670785674637981
 30
0.0
  0
VERTEX
  5
126
  8
GARAGE
 10
8.843521642081623
 20
3.681903943019403
 30
0.0
  0
VERTEX
  5
127
  8
GARAGE
 10
8.902541707361506
 20
3.708124190400681
 30
0.0
  0
VERTEX
  5
128
  8
GARAGE
 10
8.908929212137165
 20
3.70246595394679
 30
0.0
  0
VERTEX
  5
129
  8
GARAGE
 10
8.913345738037192
 20
3.556853701188444
 30
0.0
  0
VERTEX
  5
12A
  8
GARAGE
 10
9.42240134856817
 20
3.556853701188444
 30
0.0
  0
VERTEX
  5
12B
  8
GARAGE
 10
9.42240134856817
 20
4.484562346373955
 30
0.0
  0
VERTEX
  5
12C
  8
GARAGE
 10
9.270891667824218
 20
4.484615336997351
 30
0.0
  0
VERTEX
  5
12D
  8
GARAGE
 10
8.93863359601729
 20
4.49078417677728
 30
0.0
  0
VERTEX
  5
12E
  8
GARAGE
 10
8.93863359601729
 20
4.17553171964512
 30
0.0
  0
VERTEX
  5
12F
  8
GARAGE
 10
8.903739010494503
 20
4.14996153929135
 30
0.0
  0
VERTEX
  5
130
  8
GARAGE
 10
8.883721899523962
 20
4.135744029528801
 30
0.0
  0
VERTEX
  5
131
  8
GARAGE
 10
8.863311560850722
 20
4.122139474011883
 30
0.0
  0
VERTEX
  5
132
  8
GARAGE
 10
8.842509414206727
 20
4.109148467451593
 30
0.0
  0
VERTEX
  5
133
  8
GARAGE
 10
8.821316879323925
 20
4.09677160455893
 30
0.0
  0
VERTEX
  5
134
  8
GARAGE
 10
8.799735375934254
 20
4.08500948004489
 30
0.0
  0
VERTEX
  5
135
  8
GARAGE
 10
8.777766323769665
 20
4.073862688620474
 30
0.0
  0
VERTEX
  5
136
  8
GARAGE
 10
8.755411142562103
 20
4.063331824996681
 30
0.0
  0
VERTEX
  5
137
  8
GARAGE
 10
8.732671252043508
 20
4.053417483884513
 30
0.0
  0
VERTEX
  5
138
  8
GARAGE
 10
8.709548071945827
 20
4.044120259994965
 30
0.0
  0
VERTEX
  5
139
  8
GARAGE
 10
8.686043022001005
 20
4.035440748039038
 30
0.0
  0
VERTEX
  5
13A
  8
GARAGE
 10
8.662157521940989
 20
4.02737954272773
 30
0.0
  0
VERTEX
  5
13B
  8
GARAGE
 10
8.637892991497724
 20
4.019937238772037
 30
0.0
  0
VERTEX
  5
13C
  8
GARAGE
 10
8.613250850403148
 20
4.013114430882963
 30
0.0
  0
VERTEX
  5
13D
  8
GARAGE
 10
8.588232518389214
 20
4.006911713771506
 30
0.0
  0
VERTEX
  5
13E
  8
GARAGE
 10
8.562839415187863
 20
4.001329682148663
 30
0.0
  0
VERTEX
  5
13F
  8
GARAGE
 10
8.537072960531038
 20
3.996368930725437
 30
0.0
  0
VERTEX
  5
140
  8
GARAGE
 10
8.48942068293433
 20
3.987831117121438
 30
0.0
  0
VERTEX
  5
141
  8
GARAGE
 10
8.26614325868008
 20
3.987831117121438
 30
0.0
  0
VERTEX
  5
142
  8
GARAGE
 10
8.218298096339883
 20
3.996220127797402
 30
0.0
  0
VERTEX
  5
143
  8
GARAGE
 10
8.198635382044193
 20
3.999861205416542
 30
0.0
  0
VERTEX
  5
144
  8
GARAGE
 10
8.17907830402079
 20
4.003864917506696
 30
0.0
  0
VERTEX
  5
145
  8
GARAGE
 10
8.159680742198455
 20
4.008213102257224
 30
0.0
  0
VERTEX
  5
146
  8
GARAGE
 10
8.140496576505967
 20
4.012887597857492
 30
0.0
  0
VERTEX
  5
147
  8
GARAGE
 10
8.12157968687212
 20
4.017870242496863
 30
0.0
  0
VERTEX
  5
148
  8
GARAGE
 10
8.102983953225689
 20
4.023142874364693
 30
0.0
  0
VERTEX
  5
149
  8
GARAGE
 10
8.08476325549546
 20
4.028687331650349
 30
0.0
  0
VERTEX
  5
14A
  8
GARAGE
 10
8.066971473610218
 20
4.034485452543191
 30
0.0
  0
VERTEX
  5
14B
  8
GARAGE
 10
8.049662487498743
 20
4.040519075232584
 30
0.0
  0
VERTEX
  5
14C
  8
GARAGE
 10
8.03289017708982
 20
4.046770037907887
 30
0.0
  0
VERTEX
  5
14D
  8
GARAGE
 10
8.016708422312236
 20
4.053220178758464
 30
0.0
  0
VERTEX
  5
14E
  8
GARAGE
 10
8.00117110309477
 20
4.059851335973681
 30
0.0
  0
VERTEX
  5
14F
  8
GARAGE
 10
7.986332099366207
 20
4.066645347742893
 30
0.0
  0
VERTEX
  5
150
  8
GARAGE
 10
7.972245291055329
 20
4.073584052255468
 30
0.0
  0
VERTEX
  5
151
  8
GARAGE
 10
7.958964558090923
 20
4.080649287700763
 30
0.0
  0
VERTEX
  5
152
  8
GARAGE
 10
7.946543780401771
 20
4.087822892268145
 30
0.0
  0
VERTEX
  5
153
  8
GARAGE
 10
7.938879993721512
 20
4.092729553744229
 30
0.0
  0
VERTEX
  5
154
  8
GARAGE
 10
7.930344069901779
 20
4.098701969183264
 30
0.0
  0
VERTEX
  5
155
  8
GARAGE
 10
7.921075654544454
 20
4.105613322250907
 30
0.0
  0
VERTEX
  5
156
  8
GARAGE
 10
7.911214393251416
 20
4.113336796612804
 30
0.0
  0
VERTEX
  5
157
  8
GARAGE
 10
7.90089993162455
 20
4.121745575934595
 30
0.0
  0
VERTEX
  5
158
  8
GARAGE
 10
7.890271915265735
 20
4.13071284388193
 30
0.0
  0
VERTEX
  5
159
  8
GARAGE
 10
7.868633800759789
 20
4.149815580315819
 30
0.0
  0
VERTEX
  5
15A
  8
GARAGE
 10
7.847417214548638
 20
4.169630475239638
 30
0.0
  0
VERTEX
  5
15B
  8
GARAGE
 10
7.837316108558312
 20
4.179487941299389
 30
0.0
  0
VERTEX
  5
15C
  8
GARAGE
 10
7.827739321447328
 20
4.189142997978563
 30
0.0
  0
VERTEX
  5
15D
  8
GARAGE
 10
7.818826498817573
 20
4.198468828942803
 30
0.0
  0
VERTEX
  5
15E
  8
GARAGE
 10
7.810717286270924
 20
4.207338617857761
 30
0.0
  0
VERTEX
  5
15F
  8
GARAGE
 10
7.803551329409262
 20
4.215625548389077
 30
0.0
  0
VERTEX
  5
160
  8
GARAGE
 10
7.797468273834474
 20
4.223202804202402
 30
0.0
  0
VERTEX
  5
161
  8
GARAGE
 10
7.787154522474927
 20
4.237141177032496
 30
0.0
  0
VERTEX
  5
162
  8
GARAGE
 10
7.777454105523565
 20
4.251199146403874
 30
0.0
  0
VERTEX
  5
163
  8
GARAGE
 10
7.768367243934569
 20
4.26537238884618
 30
0.0
  0
VERTEX
  5
164
  8
GARAGE
 10
7.759894158662118
 20
4.279656580889045
 30
0.0
  0
VERTEX
  5
165
  8
GARAGE
 10
7.752035070660391
 20
4.294047399062113
 30
0.0
  0
VERTEX
  5
166
  8
GARAGE
 10
7.744790200883561
 20
4.308540519895021
 30
0.0
  0
VERTEX
  5
167
  8
GARAGE
 10
7.738159770285807
 20
4.323131619917404
 30
0.0
  0
VERTEX
  5
168
  8
GARAGE
 10
7.732143999821312
 20
4.337816375658905
 30
0.0
  0
VERTEX
  5
169
  8
GARAGE
 10
7.726743110444248
 20
4.352590463649158
 30
0.0
  0
VERTEX
  5
16A
  8
GARAGE
 10
7.721957323108791
 20
4.367449560417803
 30
0.0
  0
VERTEX
  5
16B
  8
GARAGE
 10
7.717786858769129
 20
4.382389342494482
 30
0.0
  0
VERTEX
  5
16C
  8
GARAGE
 10
7.71423193837943
 20
4.397405486408826
 30
0.0
  0
VERTEX
  5
16D
  8
GARAGE
 10
7.711292782893875
 20
4.412493668690481
 30
0.0
  0
VERTEX
  5
16E
  8
GARAGE
 10
7.708969613266644
 20
4.427649565869078
 30
0.0
  0
VERTEX
  5
16F
  8
GARAGE
 10
7.707262650451915
 20
4.44286885447426
 30
0.0
  0
VERTEX
  5
170
  8
GARAGE
 10
7.706172115403861
 20
4.458147211035666
 30
0.0
  0
VERTEX
  5
171
  8
GARAGE
 10
7.705698229076665
 20
4.473480312082928
 30
0.0
  0
VERTEX
  5
172
  8
GARAGE
 10
7.705841212424501
 20
4.488863834145693
 30
0.0
  0
VERTEX
  5
173
  8
GARAGE
 10
7.706601286401547
 20
4.504293453753593
 30
0.0
  0
VERTEX
  5
174
  8
GARAGE
 10
7.707978671961988
 20
4.519764847436265
 30
0.0
  0
VERTEX
  5
175
  8
GARAGE
 10
7.70997359005999
 20
4.535273691723353
 30
0.0
  0
VERTEX
  5
176
  8
GARAGE
 10
7.712586261649744
 20
4.550815663144494
 30
0.0
  0
VERTEX
  5
177
  8
GARAGE
 10
7.715816907685412
 20
4.566386438229323
 30
0.0
  0
VERTEX
  5
178
  8
GARAGE
 10
7.71966574912119
 20
4.581981693507482
 30
0.0
  0
VERTEX
  5
179
  8
GARAGE
 10
7.724133006911243
 20
4.597597105508609
 30
0.0
  0
VERTEX
  5
17A
  8
GARAGE
 10
7.729218902009753
 20
4.613228350762336
 30
0.0
  0
VERTEX
  5
17B
  8
GARAGE
 10
7.734923655370896
 20
4.628871105798308
 30
0.0
  0
VERTEX
  5
17C
  8
GARAGE
 10
7.741247487948852
 20
4.644521047146164
 30
0.0
  0
VERTEX
  5
17D
  8
GARAGE
 10
7.748190620697802
 20
4.660173851335535
 30
0.0
  0
VERTEX
  5
17E
  8
GARAGE
 10
7.755753274571917
 20
4.675825194896065
 30
0.0
  0
VERTEX
  5
17F
  8
GARAGE
 10
7.763935670525377
 20
4.691470754357392
 30
0.0
  0
VERTEX
  5
180
  8
GARAGE
 10
7.772738029512364
 20
4.707106206249153
 30
0.0
  0
VERTEX
  5
181
  8
GARAGE
 10
7.781307989599492
 20
4.721363763365348
 30
0.0
  0
VERTEX
  5
182
  8
GARAGE
 10
7.790132328864762
 20
4.735174384785766
 30
0.0
  0
VERTEX
  5
183
  8
GARAGE
 10
7.799213683894444
 20
4.748540814730064
 30
0.0
  0
VERTEX
  5
184
  8
GARAGE
 10
7.808554691274813
 20
4.761465797417896
 30
0.0
  0
VERTEX
  5
185
  8
GARAGE
 10
7.818157987592145
 20
4.773952077068929
 30
0.0
  0
VERTEX
  5
186
  8
GARAGE
 10
7.828026209432711
 20
4.786002397902809
 30
0.0
  0
VERTEX
  5
187
  8
GARAGE
 10
7.838161993382785
 20
4.797619504139196
 30
0.0
  0
VERTEX
  5
188
  8
GARAGE
 10
7.848567976028642
 20
4.808806139997747
 30
0.0
  0
VERTEX
  5
189
  8
GARAGE
 10
7.859246793956554
 20
4.819565049698119
 30
0.0
  0
VERTEX
  5
18A
  8
GARAGE
 10
7.870201083752796
 20
4.829898977459967
 30
0.0
  0
VERTEX
  5
18B
  8
GARAGE
 10
7.881433482003645
 20
4.83981066750295
 30
0.0
  0
VERTEX
  5
18C
  8
GARAGE
 10
7.892946625295369
 20
4.849302864046726
 30
0.0
  0
VERTEX
  5
18D
  8
GARAGE
 10
7.904743150214246
 20
4.858378311310947
 30
0.0
  0
VERTEX
  5
18E
  8
GARAGE
 10
7.916825693346548
 20
4.867039753515273
 30
0.0
  0
VERTEX
  5
18F
  8
GARAGE
 10
7.929196891278547
 20
4.875289934879358
 30
0.0
  0
VERTEX
  5
190
  8
GARAGE
 10
7.941859380596521
 20
4.883131599622859
 30
0.0
  0
VERTEX
  5
191
  8
GARAGE
 10
7.961293813411376
 20
4.894350781371136
 30
0.0
  0
VERTEX
  5
192
  8
GARAGE
 10
7.981078613297356
 20
4.905036953789247
 30
0.0
  0
VERTEX
  5
193
  8
GARAGE
 10
8.00122421551157
 20
4.915193532648243
 30
0.0
  0
VERTEX
  5
194
  8
GARAGE
 10
8.021741055311118
 20
4.924823933719156
 30
0.0
  0
VERTEX
  5
195
  8
GARAGE
 10
8.04263956795311
 20
4.93393157277304
 30
0.0
  0
VERTEX
  5
196
  8
GARAGE
 10
8.063930188694645
 20
4.942519865580929
 30
0.0
  0
VERTEX
  5
197
  8
GARAGE
 10
8.08562335279283
 20
4.95059222791387
 30
0.0
  0
VERTEX
  5
198
  8
GARAGE
 10
8.10772949550477
 20
4.958152075542904
 30
0.0
  0
VERTEX
  5
199
  8
GARAGE
 10
8.130259052087572
 20
4.965202824239071
 30
0.0
  0
VERTEX
  5
19A
  8
GARAGE
 10
8.153222457798332
 20
4.971747889773414
 30
0.0
  0
VERTEX
  5
19B
  8
GARAGE
 10
8.176630147894166
 20
4.977790687916979
 30
0.0
  0
VERTEX
  5
19C
  8
GARAGE
 10
8.200492557632167
 20
4.983334634440805
 30
0.0
  0
VERTEX
  5
19D
  8
GARAGE
 10
8.22482012226945
 20
4.988383145115932
 30
0.0
  0
VERTEX
  5
19E
  8
GARAGE
 10
8.249623277063112
 20
4.99293963571341
 30
0.0
  0
VERTEX
  5
19F
  8
GARAGE
 10
8.27491245727026
 20
4.997007522004274
 30
0.0
  0
VERTEX
  5
1A0
  8
GARAGE
 10
8.300698098147997
 20
5.000590219759568
 30
0.0
  0
VERTEX
  5
1A1
  8
GARAGE
 10
8.31771245666657
 20
5.002606713629488
 30
0.0
  0
VERTEX
  5
1A2
  8
GARAGE
 10
8.334296692306705
 20
5.004203910853182
 30
0.0
  0
VERTEX
  5
1A3
  8
GARAGE
 10
8.350940773875394
 20
5.005399154416357
 30
0.0
  0
VERTEX
  5
1A4
  8
GARAGE
 10
8.36813467017963
 20
5.006209787304725
 30
0.0
  0
VERTEX
  5
1A5
  8
GARAGE
 10
8.386368350026409
 20
5.006653152503995
 30
0.0
  0
VERTEX
  5
1A6
  8
GARAGE
 10
8.40613178222273
 20
5.006746592999889
 30
0.0
  0
VERTEX
  5
1A7
  8
GARAGE
 10
8.42791493557558
 20
5.006507451778105
 30
0.0
  0
VERTEX
  5
1A8
  8
GARAGE
 10
8.452207778891959
 20
5.005953071824361
 30
0.0
  0
VERTEX
  5
1A9
  8
GARAGE
 10
8.542581974423436
 20
5.003470714659773
 30
0.0
  0
VERTEX
  5
1AA
  8
GARAGE
 10
8.587769072189182
 20
4.995645894059711
 30
0.0
  0
VERTEX
  5
1AB
  8
GARAGE
 10
8.616942799439485
 20
4.990365625973348
 30
0.0
  0
VERTEX
  5
1AC
  8
GARAGE
 10
8.64570106325188
 20
4.984701760854057
 30
0.0
  0
VERTEX
  5
1AD
  8
GARAGE
 10
8.674030324199606
 20
4.978658537150149
 30
0.0
  0
VERTEX
  5
1AE
  8
GARAGE
 10
8.701917042855891
 20
4.972240193309934
 30
0.0
  0
VERTEX
  5
1AF
  8
GARAGE
 10
8.729347679793971
 20
4.965450967781717
 30
0.0
  0
VERTEX
  5
1B0
  8
GARAGE
 10
8.756308695587073
 20
4.958295099013804
 30
0.0
  0
VERTEX
  5
1B1
  8
GARAGE
 10
8.78278655080843
 20
4.950776825454505
 30
0.0
  0
VERTEX
  5
1B2
  8
GARAGE
 10
8.808767706031276
 20
4.942900385552126
 30
0.0
  0
VERTEX
  5
1B3
  8
GARAGE
 10
8.834238621828833
 20
4.934670017754974
 30
0.0
  0
VERTEX
  5
1B4
  8
GARAGE
 10
8.859185758774345
 20
4.926089960511356
 30
0.0
  0
VERTEX
  5
1B5
  8
GARAGE
 10
8.883595577441037
 20
4.917164452269579
 30
0.0
  0
VERTEX
  5
1B6
  8
GARAGE
 10
8.90745453840214
 20
4.907897731477955
 30
0.0
  0
VERTEX
  5
1B7
  8
GARAGE
 10
8.930749102230886
 20
4.898294036584785
 30
0.0
  0
VERTEX
  5
1B8
  8
GARAGE
 10
8.953465729500515
 20
4.888357606038377
 30
0.0
  0
VERTEX
  5
1B9
  8
GARAGE
 10
8.975590880784244
 20
4.878092678287044
 30
0.0
  0
VERTEX
  5
1BA
  8
GARAGE
 10
8.99711101665531
 20
4.867503491779082
 30
0.0
  0
VERTEX
  5
1BB
  8
GARAGE
 10
9.047614243569964
 20
4.841910607684135
 30
0.0
  0
VERTEX
  5
1BC
  8
GARAGE
 10
9.072848926346534
 20
4.823527099453862
 30
0.0
  0
VERTEX
  5
1BD
  8
GARAGE
 10
9.028743180487155
 20
4.756043450818001
 30
0.0
  0
VERTEX
  5
1BE
  8
GARAGE
 10
9.03211557579574
 20
4.747081354940762
 30
0.0
  0
VERTEX
  5
1BF
  8
GARAGE
 10
9.163341615814987
 20
4.682045481779686
 30
0.0
  0
VERTEX
  5
1C0
  8
GARAGE
 10
9.16691059862054
 20
4.685206989962054
 30
0.0
  0
VERTEX
  5
1C1
  8
GARAGE
 10
9.454589022993625
 20
5.143748896130956
 30
0.0
  0
VERTEX
  5
1C2
  8
GARAGE
 10
9.460285943788989
 20
5.156899857010199
 30
0.0
  0
VERTEX
  5
1C3
  8
GARAGE
 10
9.22836263463293
 20
5.259839625999159
 30
0.0
  0
VERTEX
  5
1C4
  8
GARAGE
 10
9.159252955697088
 20
5.284925189133549
 30
0.0
  0
VERTEX
  5
1C5
  8
GARAGE
 10
9.13176390993243
 20
5.294720509879827
 30
0.0
  0
VERTEX
  5
1C6
  8
GARAGE
 10
9.104181187879703
 20
5.304185957509846
 30
0.0
  0
VERTEX
  5
1C7
  8
GARAGE
 10
9.076527084596071
 20
5.313315742069064
 30
0.0
  0
VERTEX
  5
1C8
  8
GARAGE
 10
9.048823895138721
 20
5.322104073602949
 30
0.0
  0
VERTEX
  5
1C9
  8
GARAGE
 10
9.021093914564823
 20
5.330545162156955
 30
0.0
  0
VERTEX
  5
1CA
  8
GARAGE
 10
8.993359437931547
 20
5.338633217776547
 30
0.0
  0
VERTEX
  5
1CB
  8
GARAGE
 10
8.965642760296076
 20
5.346362450507186
 30
0.0
  0
VERTEX
  5
1CC
  8
GARAGE
 10
8.937966176715584
 20
5.353727070394327
 30
0.0
  0
VERTEX
  5
1CD
  8
GARAGE
 10
8.910351982247246
 20
5.360721287483436
 30
0.0
  0
VERTEX
  5
1CE
  8
GARAGE
 10
8.882822471948241
 20
5.367339311819969
 30
0.0
  0
VERTEX
  5
1CF
  8
GARAGE
 10
8.855399940875738
 20
5.37357535344939
 30
0.0
  0
VERTEX
  5
1D0
  8
GARAGE
 10
8.828106684086919
 20
5.379423622417159
 30
0.0
  0
VERTEX
  5
1D1
  8
GARAGE
 10
8.800964996638953
 20
5.384878328768733
 30
0.0
  0
VERTEX
  5
1D2
  8
GARAGE
 10
8.773997173589018
 20
5.389933682549575
 30
0.0
  0
VERTEX
  5
1D3
  8
GARAGE
 10
8.747225509994292
 20
5.394583893805144
 30
0.0
  0
VERTEX
  5
1D4
  8
GARAGE
 10
8.72067230091195
 20
5.398823172580903
 30
0.0
  0
VERTEX
  5
1D5
  8
GARAGE
 10
8.648904557401655
 20
5.409768591375995
 30
0.0
  0
VERTEX
  5
1D6
  8
GARAGE
 10
8.250194871233344
 20
5.409738480277244
 30
0.0
  0
VERTEX
  5
1D7
  8
GARAGE
 10
8.170452933999684
 20
5.401278814682176
 30
0.0
  0
VERTEX
  5
1D8
  8
GARAGE
 10
8.139011966848201
 20
5.397746483505011
 30
0.0
  0
VERTEX
  5
1D9
  8
GARAGE
 10
8.108090863898104
 20
5.393875629720942
 30
0.0
  0
VERTEX
  5
1DA
  8
GARAGE
 10
8.07768944359421
 20
5.389666185163077
 30
0.0
  0
VERTEX
  5
1DB
  8
GARAGE
 10
8.04780752438134
 20
5.385118081664526
 30
0.0
  0
VERTEX
  5
1DC
  8
GARAGE
 10
8.018444924704323
 20
5.380231251058404
 30
0.0
  0
VERTEX
  5
1DD
  8
GARAGE
 10
7.989601463007983
 20
5.375005625177826
 30
0.0
  0
VERTEX
  5
1DE
  8
GARAGE
 10
7.961276957737142
 20
5.369441135855901
 30
0.0
  0
VERTEX
  5
1DF
  8
GARAGE
 10
7.933471227336617
 20
5.363537714925736
 30
0.0
  0
VERTEX
  5
1E0
  8
GARAGE
 10
7.906184090251239
 20
5.357295294220449
 30
0.0
  0
VERTEX
  5
1E1
  8
GARAGE
 10
7.879415364925831
 20
5.35071380557315
 30
0.0
  0
VERTEX
  5
1E2
  8
GARAGE
 10
7.853164869805209
 20
5.343793180816952
 30
0.0
  0
VERTEX
  5
1E3
  8
GARAGE
 10
7.8274324233342
 20
5.336533351784968
 30
0.0
  0
VERTEX
  5
1E4
  8
GARAGE
 10
7.80221784395763
 20
5.328934250310309
 30
0.0
  0
VERTEX
  5
1E5
  8
GARAGE
 10
7.777520950120318
 20
5.320995808226083
 30
0.0
  0
VERTEX
  5
1E6
  8
GARAGE
 10
7.753341560267089
 20
5.312717957365405
 30
0.0
  0
VERTEX
  5
1E7
  8
GARAGE
 10
7.729679492842766
 20
5.304100629561388
 30
0.0
  0
VERTEX
  5
1E8
  8
GARAGE
 10
7.706534566292173
 20
5.295143756647144
 30
0.0
  0
VERTEX
  5
1E9
  8
GARAGE
 10
7.683906599060133
 20
5.285847270455781
 30
0.0
  0
VERTEX
  5
1EA
  8
GARAGE
 10
7.661795409591468
 20
5.276211102820415
 30
0.0
  0
VERTEX
  5
1EB
  8
GARAGE
 10
7.640200816331003
 20
5.266235185574157
 30
0.0
  0
VERTEX
  5
1EC
  8
GARAGE
 10
7.61912263772356
 20
5.255919450550119
 30
0.0
  0
VERTEX
  5
1ED
  8
GARAGE
 10
7.598560692213962
 20
5.245263829581412
 30
0.0
  0
VERTEX
  5
1EE
  8
GARAGE
 10
7.578514798247025
 20
5.234268254501147
 30
0.0
  0
VERTEX
  5
1EF
  8
GARAGE
 10
7.55898477426759
 20
5.222932657142437
 30
0.0
  0
VERTEX
  5
1F0
  8
GARAGE
 10
7.539970438720465
 20
5.211256969338399
 30
0.0
  0
VERTEX
  5
1F1
  8
GARAGE
 10
7.521471610050479
 20
5.199241122922138
 30
0.0
  0
VERTEX
  5
1F2
  8
GARAGE
 10
7.503488106702453
 20
5.186885049726766
 30
0.0
  0
VERTEX
  5
1F3
  8
GARAGE
 10
7.486019747121212
 20
5.1741886815854
 30
0.0
  0
VERTEX
  5
1F4
  8
GARAGE
 10
7.469066349751573
 20
5.161151950331147
 30
0.0
  0
VERTEX
  5
1F5
  8
GARAGE
 10
7.452627733038372
 20
5.147774787797124
 30
0.0
  0
VERTEX
  5
1F6
  8
GARAGE
 10
7.436703715426423
 20
5.134057125816437
 30
0.0
  0
VERTEX
  5
1F7
  8
GARAGE
 10
7.421294115360549
 20
5.119998896222201
 30
0.0
  0
VERTEX
  5
1F8
  8
GARAGE
 10
7.410346840455825
 20
5.10954232071558
 30
0.0
  0
VERTEX
  5
1F9
  8
GARAGE
 10
7.399772583168233
 20
5.099076776145728
 30
0.0
  0
VERTEX
  5
1FA
  8
GARAGE
 10
7.389547381033339
 20
5.088571319165537
 30
0.0
  0
VERTEX
  5
1FB
  8
GARAGE
 10
7.379647271586683
 20
5.077995006427888
 30
0.0
  0
VERTEX
  5
1FC
  8
GARAGE
 10
7.370048292363824
 20
5.067316894585677
 30
0.0
  0
VERTEX
  5
1FD
  8
GARAGE
 10
7.360726480900318
 20
5.056506040291797
 30
0.0
  0
VERTEX
  5
1FE
  8
GARAGE
 10
7.351657874731715
 20
5.045531500199129
 30
0.0
  0
VERTEX
  5
1FF
  8
GARAGE
 10
7.342818511393568
 20
5.034362330960566
 30
0.0
  0
VERTEX
  5
200
  8
GARAGE
 10
7.334184428421437
 20
5.022967589229001
 30
0.0
  0
VERTEX
  5
201
  8
GARAGE
 10
7.325731663350863
 20
5.011316331657321
 30
0.0
  0
VERTEX
  5
202
  8
GARAGE
 10
7.317436253717413
 20
4.999377614898411
 30
0.0
  0
VERTEX
  5
203
  8
GARAGE
 10
7.309274237056631
 20
4.98712049560517
 30
0.0
  0
VERTEX
  5
204
  8
GARAGE
 10
7.30122165090408
 20
4.97451403043048
 30
0.0
  0
VERTEX
  5
205
  8
GARAGE
 10
7.2932545327953
 20
4.961527276027236
 30
0.0
  0
VERTEX
  5
206
  8
GARAGE
 10
7.285348920265856
 20
4.94812928904832
 30
0.0
  0
VERTEX
  5
207
  8
GARAGE
 10
7.277480850851298
 20
4.934289126146629
 30
0.0
  0
VERTEX
  5
208
  8
GARAGE
 10
7.238038140426871
 20
4.863651412046211
 30
0.0
  0
VERTEX
  5
209
  8
GARAGE
 10
7.224221146214305
 20
4.825977964525987
 30
0.0
  0
VERTEX
  5
20A
  8
GARAGE
 10
7.216094443274987
 20
4.802963561653739
 30
0.0
  0
VERTEX
  5
20B
  8
GARAGE
 10
7.208408717398723
 20
4.779455210358249
 30
0.0
  0
VERTEX
  5
20C
  8
GARAGE
 10
7.201187103620666
 20
4.755539863501795
 30
0.0
  0
VERTEX
  5
20D
  8
GARAGE
 10
7.19445273697598
 20
4.73130447394666
 30
0.0
  0
VERTEX
  5
20E
  8
GARAGE
 10
7.188228752499821
 20
4.706835994555115
 30
0.0
  0
VERTEX
  5
20F
  8
GARAGE
 10
7.182538285227342
 20
4.682221378189447
 30
0.0
  0
VERTEX
  5
210
  8
GARAGE
 10
7.177404470193702
 20
4.657547577711928
 30
0.0
  0
VERTEX
  5
211
  8
GARAGE
 10
7.172850442434056
 20
4.632901545984836
 30
0.0
  0
VERTEX
  5
212
  8
GARAGE
 10
7.162259307297047
 20
4.571682193764474
 30
0.0
  0
VERTEX
  5
213
  8
GARAGE
 10
7.15625
 20
4.366640734650548
 30
0.0
  0
VERTEX
  5
214
  8
GARAGE
 10
7.162939296883469
 20
4.323176855066644
 30
0.0
  0
VERTEX
  5
215
  8
GARAGE
 10
7.166119089488363
 20
4.304120686027622
 30
0.0
  0
VERTEX
  5
216
  8
GARAGE
 10
7.16979614137748
 20
4.285009220364276
 30
0.0
  0
VERTEX
  5
217
  8
GARAGE
 10
7.173959665468955
 20
4.265862188019852
 30
0.0
  0
VERTEX
  5
218
  8
GARAGE
 10
7.178598874680935
 20
4.2466993189376
 30
0.0
  0
VERTEX
  5
219
  8
GARAGE
 10
7.183702981931544
 20
4.227540343060774
 30
0.0
  0
VERTEX
  5
21A
  8
GARAGE
 10
7.189261200138928
 20
4.208404990332621
 30
0.0
  0
VERTEX
  5
21B
  8
GARAGE
 10
7.195262742221209
 20
4.189312990696396
 30
0.0
  0
VERTEX
  5
21C
  8
GARAGE
 10
7.201696821096539
 20
4.170284074095344
 30
0.0
  0
VERTEX
  5
21D
  8
GARAGE
 10
7.208552649683042
 20
4.151337970472721
 30
0.0
  0
VERTEX
  5
21E
  8
GARAGE
 10
7.215819440898851
 20
4.132494409771773
 30
0.0
  0
VERTEX
  5
21F
  8
GARAGE
 10
7.223486407662114
 20
4.113773121935756
 30
0.0
  0
VERTEX
  5
220
  8
GARAGE
 10
7.231542762890959
 20
4.095193836907918
 30
0.0
  0
VERTEX
  5
221
  8
GARAGE
 10
7.239977719503523
 20
4.076776284631507
 30
0.0
  0
VERTEX
  5
222
  8
GARAGE
 10
7.248780490417939
 20
4.058540195049778
 30
0.0
  0
VERTEX
  5
223
  8
GARAGE
 10
7.257940288552349
 20
4.040505298105977
 30
0.0
  0
VERTEX
  5
224
  8
GARAGE
 10
7.267446326824883
 20
4.022691323743359
 30
0.0
  0
VERTEX
  5
225
  8
GARAGE
 10
7.277287818153678
 20
4.005118001905176
 30
0.0
  0
VERTEX
  5
226
  8
GARAGE
 10
7.287453975456873
 20
3.987805062534675
 30
0.0
  0
VERTEX
  5
227
  8
GARAGE
 10
7.297934011652597
 20
3.970772235575105
 30
0.0
  0
VERTEX
  5
228
  8
GARAGE
 10
7.308717139658993
 20
3.95403925096972
 30
0.0
  0
VERTEX
  5
229
  8
GARAGE
 10
7.31979257239419
 20
3.937625838661771
 30
0.0
  0
VERTEX
  5
22A
  8
GARAGE
 10
7.331149522776331
 20
3.921551728594508
 30
0.0
  0
VERTEX
  5
22B
  8
GARAGE
 10
7.342777203723543
 20
3.905836650711181
 30
0.0
  0
VERTEX
  5
22C
  8
GARAGE
 10
7.354664828153973
 20
3.890500334955043
 30
0.0
  0
VERTEX
  5
22D
  8
GARAGE
 10
7.366801608985742
 20
3.875562511269337
 30
0.0
  0
VERTEX
  5
22E
  8
GARAGE
 10
7.379176759136996
 20
3.861042909597323
 30
0.0
  0
VERTEX
  5
22F
  8
GARAGE
 10
7.391779491525875
 20
3.846961259882248
 30
0.0
  0
VERTEX
  5
230
  8
GARAGE
 10
7.404599019070501
 20
3.833337292067363
 30
0.0
  0
VERTEX
  5
231
  8
GARAGE
 10
7.41762455468902
 20
3.820190736095918
 30
0.0
  0
VERTEX
  5
232
  8
GARAGE
 10
7.430845311299564
 20
3.807541321911164
 30
0.0
  0
VERTEX
  5
233
  8
GARAGE
 10
7.444250501820268
 20
3.795408779456351
 30
0.0
  0
VERTEX
  5
234
  8
GARAGE
 10
7.457829339169269
 20
3.78381283867473
 30
0.0
  0
VERTEX
  5
235
  8
GARAGE
 10
7.477912630795634
 20
3.767613656151638
 30
0.0
  0
VERTEX
  5
236
  8
GARAGE
 10
7.498412222681101
 20
3.751952618051805
 30
0.0
  0
VERTEX
  5
237
  8
GARAGE
 10
7.519320953492623
 20
3.736831845021485
 30
0.0
  0
VERTEX
  5
238
  8
GARAGE
 10
7.540631661897157
 20
3.72225345770694
 30
0.0
  0
VERTEX
  5
239
  8
GARAGE
 10
7.562337186561657
 20
3.70821957675442
 30
0.0
  0
VERTEX
  5
23A
  8
GARAGE
 10
7.584430366153081
 20
3.694732322810183
 30
0.0
  0
VERTEX
  5
23B
  8
GARAGE
 10
7.606904039338385
 20
3.681793816520482
 30
0.0
  0
VERTEX
  5
23C
  8
GARAGE
 10
7.629751044784524
 20
3.669406178531576
 30
0.0
  0
VERTEX
  5
23D
  8
GARAGE
 10
7.652964221158459
 20
3.657571529489715
 30
0.0
  0
VERTEX
  5
23E
  8
GARAGE
 10
7.676536407127145
 20
3.646291990041155
 30
0.0
  0
VERTEX
  5
23F
  8
GARAGE
 10
7.700460441357532
 20
3.635569680832157
 30
0.0
  0
VERTEX
  5
240
  8
GARAGE
 10
7.724729162516583
 20
3.625406722508969
 30
0.0
  0
VERTEX
  5
241
  8
GARAGE
 10
7.749335409271248
 20
3.61580523571785
 30
0.0
  0
VERTEX
  5
242
  8
GARAGE
 10
7.77427202028849
 20
3.606767341105055
 30
0.0
  0
VERTEX
  5
243
  8
GARAGE
 10
7.799531834235259
 20
3.598295159316836
 30
0.0
  0
VERTEX
  5
244
  8
GARAGE
 10
7.825107689778516
 20
3.590390810999455
 30
0.0
  0
VERTEX
  5
245
  8
GARAGE
 10
7.850992425585215
 20
3.583056416799162
 30
0.0
  0
VERTEX
  5
246
  8
GARAGE
 10
7.877178880322313
 20
3.576294097362212
 30
0.0
  0
VERTEX
  5
247
  8
GARAGE
 10
7.903659892656762
 20
3.570105973334865
 30
0.0
  0
VERTEX
  5
248
  8
GARAGE
 10
7.930428301255528
 20
3.564494165363371
 30
0.0
  0
VERTEX
  5
249
  8
GARAGE
 10
7.957476944785559
 20
3.559460794093984
 30
0.0
  0
VERTEX
  5
24A
  8
GARAGE
 10
7.984798661913808
 20
3.555007980172965
 30
0.0
  0
VERTEX
  5
24B
  8
GARAGE
 10
8.012386291307243
 20
3.551137844246566
 30
0.0
  0
VERTEX
  5
24C
  8
GARAGE
 10
8.04023267163281
 20
3.547852506961044
 30
0.0
  0
VERTEX
  5
24D
  8
GARAGE
 10
8.06833064155747
 20
3.545154088962651
 30
0.0
  0
VERTEX
  5
24E
  8
GARAGE
 10
8.096673039748179
 20
3.543044710897646
 30
0.0
  0
VERTEX
  5
24F
  8
GARAGE
 10
8.125252704871892
 20
3.541526493412283
 30
0.0
  0
VERTEX
  5
250
  8
GARAGE
 10
8.154062475595564
 20
3.540601557152813
 30
0.0
  0
VERTEX
  5
251
  8
GARAGE
 10
8.183095190586155
 20
3.5402720227655
 30
0.0
  0
VERTEX
  5
252
  8
GARAGE
 10
8.212343688510618
 20
3.540540010896587
 30
0.0
  0
VERTEX
  5
253
  8
GARAGE
 10
8.24180080803591
 20
3.541407642192342
 30
0.0
  0
SEQEND
  5
CBB
  8
GARAGE
  0
POLYLINE
  5
72
  8
GARAGE
 66
     1
 10
0.0
 20
0.0
 30
0.0
 70
     1
  0
VERTEX
  5
254
  8
GARAGE
 10
10.09035734477248
 20
3.552144520248412
 30
0.0
  0
VERTEX
  5
255
  8
GARAGE
 10
10.30281087693267
 20
3.968907033440889
 30
0.0
  0
VERTEX
  5
256
  8
GARAGE
 10
11.30516299942914
 20
3.968907033440889
 30
0.0
  0
VERTEX
  5
257
  8
GARAGE
 10
11.49949376351655
 20
3.554499110718427
 30
0.0
  0
VERTEX
  5
258
  8
GARAGE
 10
12.05288161309143
 20
3.554499110718427
 30
0.0
  0
VERTEX
  5
259
  8
GARAGE
 10
11.13182390746503
 20
5.332307594139569
 30
0.0
  0
VERTEX
  5
25A
  8
GARAGE
 10
10.643799505852
 20
5.329860325108979
 30
0.0
  0
VERTEX
  5
25B
  8
GARAGE
 10
9.550213818084282
 20
3.559208291658456
 30
0.0
  0
VERTEX
  5
25C
  8
GARAGE
 10
9.549988448142035
 20
3.552144520248412
 30
0.0
  0
SEQEND
  5
CBC
  8
GARAGE
  0
POLYLINE
  5
73
  8
GARAGE
 66
     1
 10
0.0
 20
0.0
 30
0.0
 70
     1
  0
VERTEX
  5
25D
  8
GARAGE
 10
10.54410569905871
 20
4.406860860863492
 30
0.0
  0
VERTEX
  5
25E
  8
GARAGE
 10
10.54410459898834
 20
4.399716665966893
 30
0.0
  0
VERTEX
  5
25F
  8
GARAGE
 10
11.12169901855622
 20
4.402151679923466
 30
0.0
  0
VERTEX
  5
260
  8
GARAGE
 10
10.86069895921373
 20
4.950552515456798
 30
0.0
  0
VERTEX
  5
261
  8
GARAGE
 10
10.85245370914943
 20
4.943248634501131
 30
0.0
  0
SEQEND
  5
CBD
  8
GARAGE
  0
POLYLINE
  5
74
  8
GARAGE
 66
     1
 10
0.0
 20
0.0
 30
0.0
 70
     1
  0
VERTEX
  5
262
  8
GARAGE
 10
12.68650464599939
 20
4.566188149334439
 30
0.0
  0
VERTEX
  5
263
  8
GARAGE
 10
12.69385278617725
 20
4.559678954260179
 30
0.0
  0
VERTEX
  5
264
  8
GARAGE
 10
13.69391111971798
 20
4.562275068401547
 30
0.0
  0
VERTEX
  5
265
  8
GARAGE
 10
13.71913191110204
 20
4.570943886612465
 30
0.0
  0
VERTEX
  5
266
  8
GARAGE
 10
13.72602481646757
 20
4.573548803166278
 30
0.0
  0
VERTEX
  5
267
  8
GARAGE
 10
13.73297364886913
 20
4.576631213751222
 30
0.0
  0
VERTEX
  5
268
  8
GARAGE
 10
13.73993915780511
 20
4.580157913157889
 30
0.0
  0
VERTEX
  5
269
  8
GARAGE
 10
13.74688209277391
 20
4.584095696176878
 30
0.0
  0
VERTEX
  5
26A
  8
GARAGE
 10
13.75376320327392
 20
4.588411357598782
 30
0.0
  0
VERTEX
  5
26B
  8
GARAGE
 10
13.76054323880354
 20
4.593071692214195
 30
0.0
  0
VERTEX
  5
26C
  8
GARAGE
 10
13.76718294886115
 20
4.598043494813712
 30
0.0
  0
VERTEX
  5
26D
  8
GARAGE
 10
13.77364308294514
 20
4.603293560187926
 30
0.0
  0
VERTEX
  5
26E
  8
GARAGE
 10
13.77988439055394
 20
4.608788683127435
 30
0.0
  0
VERTEX
  5
26F
  8
GARAGE
 10
13.78586762118591
 20
4.614495658422827
 30
0.0
  0
VERTEX
  5
270
  8
GARAGE
 10
13.79155352433946
 20
4.620381280864703
 30
0.0
  0
VERTEX
  5
271
  8
GARAGE
 10
13.79690284951298
 20
4.626412345243656
 30
0.0
  0
VERTEX
  5
272
  8
GARAGE
 10
13.80187634620486
 20
4.632555646350279
 30
0.0
  0
VERTEX
  5
273
  8
GARAGE
 10
13.8064347639135
 20
4.638777978975166
 30
0.0
  0
VERTEX
  5
274
  8
GARAGE
 10
13.8105388521373
 20
4.645046137908913
 30
0.0
  0
VERTEX
  5
275
  8
GARAGE
 10
13.81414936037464
 20
4.651326917942114
 30
0.0
  0
VERTEX
  5
276
  8
GARAGE
 10
13.81785603908194
 20
4.658517968522751
 30
0.0
  0
VERTEX
  5
277
  8
GARAGE
 10
13.82124710536879
 20
4.665627057554581
 30
0.0
  0
VERTEX
  5
278
  8
GARAGE
 10
13.82432895778181
 20
4.672685597000201
 30
0.0
  0
VERTEX
  5
279
  8
GARAGE
 10
13.82710799486757
 20
4.679724998822205
 30
0.0
  0
VERTEX
  5
27A
  8
GARAGE
 10
13.82959061517269
 20
4.686776674983199
 30
0.0
  0
VERTEX
  5
27B
  8
GARAGE
 10
13.83178321724377
 20
4.693872037445778
 30
0.0
  0
VERTEX
  5
27C
  8
GARAGE
 10
13.8336921996274
 20
4.701042498172541
 30
0.0
  0
VERTEX
  5
27D
  8
GARAGE
 10
13.83532396087018
 20
4.70831946912608
 30
0.0
  0
VERTEX
  5
27E
  8
GARAGE
 10
13.83668489951871
 20
4.715734362268999
 30
0.0
  0
VERTEX
  5
27F
  8
GARAGE
 10
13.8377814141196
 20
4.723318589563897
 30
0.0
  0
VERTEX
  5
280
  8
GARAGE
 10
13.83861990321943
 20
4.73110356297337
 30
0.0
  0
VERTEX
  5
281
  8
GARAGE
 10
13.83920676536483
 20
4.739120694460015
 30
0.0
  0
VERTEX
  5
282
  8
GARAGE
 10
13.83954839910236
 20
4.747401395986433
 30
0.0
  0
VERTEX
  5
283
  8
GARAGE
 10
13.83965120297865
 20
4.755977079515217
 30
0.0
  0
VERTEX
  5
284
  8
GARAGE
 10
13.83952157554029
 20
4.764879157008971
 30
0.0
  0
VERTEX
  5
285
  8
GARAGE
 10
13.83916591533388
 20
4.774139040430287
 30
0.0
  0
VERTEX
  5
286
  8
GARAGE
 10
13.83844324252608
 20
4.786485678787636
 30
0.0
  0
VERTEX
  5
287
  8
GARAGE
 10
13.83754052870799
 20
4.796828018598633
 30
0.0
  0
VERTEX
  5
288
  8
GARAGE
 10
13.836359345188
 20
4.805553977831162
 30
0.0
  0
VERTEX
  5
289
  8
GARAGE
 10
13.8348012632745
 20
4.813051474453117
 30
0.0
  0
VERTEX
  5
28A
  8
GARAGE
 10
13.83276785427588
 20
4.81970842643238
 30
0.0
  0
VERTEX
  5
28B
  8
GARAGE
 10
13.83016068950052
 20
4.825912751736833
 30
0.0
  0
VERTEX
  5
28C
  8
GARAGE
 10
13.8268813402568
 20
4.832052368334371
 30
0.0
  0
VERTEX
  5
28D
  8
GARAGE
 10
13.82283137785313
 20
4.83851519419287
 30
0.0
  0
VERTEX
  5
28E
  8
GARAGE
 10
13.81755374036364
 20
4.845982596334051
 30
0.0
  0
VERTEX
  5
28F
  8
GARAGE
 10
13.81180741300751
 20
4.853131702298246
 30
0.0
  0
VERTEX
  5
290
  8
GARAGE
 10
13.80558164143218
 20
4.859968725576493
 30
0.0
  0
VERTEX
  5
291
  8
GARAGE
 10
13.79886567128511
 20
4.866499879659839
 30
0.0
  0
VERTEX
  5
292
  8
GARAGE
 10
13.79164874821378
 20
4.872731378039327
 30
0.0
  0
VERTEX
  5
293
  8
GARAGE
 10
13.78392011786564
 20
4.878669434206001
 30
0.0
  0
VERTEX
  5
294
  8
GARAGE
 10
13.77566902588814
 20
4.884320261650909
 30
0.0
  0
VERTEX
  5
295
  8
GARAGE
 10
13.76688471792874
 20
4.889690073865087
 30
0.0
  0
VERTEX
  5
296
  8
GARAGE
 10
13.75755643963492
 20
4.89478508433959
 30
0.0
  0
VERTEX
  5
297
  8
GARAGE
 10
13.74767343665411
 20
4.89961150656545
 30
0.0
  0
VERTEX
  5
298
  8
GARAGE
 10
13.73722495463379
 20
4.904175554033722
 30
0.0
  0
VERTEX
  5
299
  8
GARAGE
 10
13.72620023922141
 20
4.908483440235448
 30
0.0
  0
VERTEX
  5
29A
  8
GARAGE
 10
13.71458853606444
 20
4.912541378661662
 30
0.0
  0
VERTEX
  5
29B
  8
GARAGE
 10
13.70237909081032
 20
4.916355582803419
 30
0.0
  0
VERTEX
  5
29C
  8
GARAGE
 10
13.68956114910653
 20
4.919932266151759
 30
0.0
  0
VERTEX
  5
29D
  8
GARAGE
 10
13.67612395660051
 20
4.923277642197728
 30
0.0
  0
VERTEX
  5
29E
  8
GARAGE
 10
13.63543369907997
 20
4.932841181179046
 30
0.0
  0
VERTEX
  5
29F
  8
GARAGE
 10
13.28456917525185
 20
4.940536637302755
 30
0.0
  0
VERTEX
  5
2A0
  8
GARAGE
 10
12.68650464599939
 20
4.947323941802066
 30
0.0
  0
SEQEND
  5
CBE
  8
GARAGE
  0
POLYLINE
  5
75
  8
GARAGE
 66
     1
 10
0.0
 20
0.0
 30
0.0
 70
     1
  0
VERTEX
  5
2A1
  8
GARAGE
 10
15.17999715960364
 20
3.55214452024841
 30
0.0
  0
VERTEX
  5
2A2
  8
GARAGE
 10
15.19045190662719
 20
3.573335834478537
 30
0.0
  0
VERTEX
  5
2A3
  8
GARAGE
 10
15.39179556177656
 20
3.968907033440889
 30
0.0
  0
VERTEX
  5
2A4
  8
GARAGE
 10
16.39396410808017
 20
3.968907033440889
 30
0.0
  0
VERTEX
  5
2A5
  8
GARAGE
 10
16.58672626033601
 20
3.554499110718425
 30
0.0
  0
VERTEX
  5
2A6
  8
GARAGE
 10
17.14009701579626
 20
3.554499110718425
 30
0.0
  0
VERTEX
  5
2A7
  8
GARAGE
 10
16.22204161750911
 20
5.329860325108976
 30
0.0
  0
VERTEX
  5
2A8
  8
GARAGE
 10
15.73422354228208
 20
5.332308057358944
 30
0.0
  0
VERTEX
  5
2A9
  8
GARAGE
 10
14.64018210822411
 20
3.560628052619461
 30
0.0
  0
VERTEX
  5
2AA
  8
GARAGE
 10
14.63663802212483
 20
3.55214452024841
 30
0.0
  0
SEQEND
  5
CBF
  8
GARAGE
  0
POLYLINE
  5
76
  8
GARAGE
 66
     1
 10
0.0
 20
0.0
 30
0.0
 70
     1
  0
VERTEX
  5
2AB
  8
GARAGE
 10
15.63164019449596
 20
4.405091497221814
 30
0.0
  0
VERTEX
  5
2AC
  8
GARAGE
 10
15.63164019449596
 20
4.399716665966893
 30
0.0
  0
VERTEX
  5
2AD
  8
GARAGE
 10
16.2105647629751
 20
4.402151679923466
 30
0.0
  0
VERTEX
  5
2AE
  8
GARAGE
 10
16.02483555412817
 20
4.793013697945788
 30
0.0
  0
VERTEX
  5
2AF
  8
GARAGE
 10
15.94920795366426
 20
4.951414780390663
 30
0.0
  0
VERTEX
  5
2B0
  8
GARAGE
 10
15.94144817468072
 20
4.943707488026682
 30
0.0
  0
SEQEND
  5
CC0
  8
GARAGE
  0
POLYLINE
  5
77
  8
GARAGE
 66
     1
 10
0.0
 20
0.0
 30
0.0
 70
     1
  0
VERTEX
  5
2B1
  8
GARAGE
 10
18.17540799224977
 20
3.542877037299011
 30
0.0
  0
VERTEX
  5
2B2
  8
GARAGE
 10
18.20546102007188
 20
3.545113741808689
 30
0.0
  0
VERTEX
  5
2B3
  8
GARAGE
 10
18.24013029472646
 20
3.54839715302036
 30
0.0
  0
VERTEX
  5
2B4
  8
GARAGE
 10
18.27512562085724
 20
3.55228560211736
 30
0.0
  0
VERTEX
  5
2B5
  8
GARAGE
 10
18.30615680310794
 20
3.556337420283025
 30
0.0
  0
VERTEX
  5
2B6
  8
GARAGE
 10
18.33333784485867
 20
3.560489900420952
 30
0.0
  0
VERTEX
  5
2B7
  8
GARAGE
 10
18.36049995896198
 20
3.565097123284058
 30
0.0
  0
VERTEX
  5
2B8
  8
GARAGE
 10
18.38762806547881
 20
3.570154870891435
 30
0.0
  0
VERTEX
  5
2B9
  8
GARAGE
 10
18.41470708447009
 20
3.575658925262165
 30
0.0
  0
VERTEX
  5
2BA
  8
GARAGE
 10
18.4417219359967
 20
3.581605068415326
 30
0.0
  0
VERTEX
  5
2BB
  8
GARAGE
 10
18.46865754011959
 20
3.58798908237001
 30
0.0
  0
VERTEX
  5
2BC
  8
GARAGE
 10
18.49549881689967
 20
3.594806749145295
 30
0.0
  0
VERTEX
  5
2BD
  8
GARAGE
 10
18.52223068639783
 20
3.602053850760262
 30
0.0
  0
VERTEX
  5
2BE
  8
GARAGE
 10
18.54883806867502
 20
3.609726169234
 30
0.0
  0
VERTEX
  5
2BF
  8
GARAGE
 10
18.57530588379213
 20
3.61781948658559
 30
0.0
  0
VERTEX
  5
2C0
  8
GARAGE
 10
18.60161905181011
 20
3.626329584834112
 30
0.0
  0
VERTEX
  5
2C1
  8
GARAGE
 10
18.62776249278983
 20
3.635252245998656
 30
0.0
  0
VERTEX
  5
2C2
  8
GARAGE
 10
18.65372112679226
 20
3.6445832520983
 30
0.0
  0
VERTEX
  5
2C3
  8
GARAGE
 10
18.67947987387826
 20
3.654318385152127
 30
0.0
  0
VERTEX
  5
2C4
  8
GARAGE
 10
18.70502365410879
 20
3.664453427179228
 30
0.0
  0
VERTEX
  5
2C5
  8
GARAGE
 10
18.73033738754474
 20
3.674984160198674
 30
0.0
  0
VERTEX
  5
2C6
  8
GARAGE
 10
18.80681515943774
 20
3.707547491269335
 30
0.0
  0
VERTEX
  5
2C7
  8
GARAGE
 10
18.80965228531407
 20
3.707547491269335
 30
0.0
  0
VERTEX
  5
2C8
  8
GARAGE
 10
18.81736157990081
 20
3.556853701188441
 30
0.0
  0
VERTEX
  5
2C9
  8
GARAGE
 10
19.32103382384005
 20
3.556853701188437
 30
0.0
  0
VERTEX
  5
2CA
  8
GARAGE
 10
19.32117270089127
 20
3.973616214380916
 30
0.0
  0
VERTEX
  5
2CB
  8
GARAGE
 10
19.32804061527833
 20
4.484562346373953
 30
0.0
  0
VERTEX
  5
2CC
  8
GARAGE
 10
19.174840272245
 20
4.484615336997346
 30
0.0
  0
VERTEX
  5
2CD
  8
GARAGE
 10
18.84258220043807
 20
4.490784176777279
 30
0.0
  0
VERTEX
  5
2CE
  8
GARAGE
 10
18.84258220043807
 20
4.178441072567491
 30
0.0
  0
VERTEX
  5
2CF
  8
GARAGE
 10
18.82071348384135
 20
4.160793900394709
 30
0.0
  0
VERTEX
  5
2D0
  8
GARAGE
 10
18.81156412480308
 20
4.153565609565353
 30
0.0
  0
VERTEX
  5
2D1
  8
GARAGE
 10
18.80215553153261
 20
4.146435778787469
 30
0.0
  0
VERTEX
  5
2D2
  8
GARAGE
 10
18.7924961047859
 20
4.139408045994788
 30
0.0
  0
VERTEX
  5
2D3
  8
GARAGE
 10
18.78259424531888
 20
4.132486049121049
 30
0.0
  0
VERTEX
  5
2D4
  8
GARAGE
 10
18.7620968312478
 20
4.118973814865357
 30
0.0
  0
VERTEX
  5
2D5
  8
GARAGE
 10
18.74073049536689
 20
4.105928179490301
 30
0.0
  0
VERTEX
  5
2D6
  8
GARAGE
 10
18.71856244372378
 20
4.093378246465787
 30
0.0
  0
VERTEX
  5
2D7
  8
GARAGE
 10
18.69565988236601
 20
4.081353119261724
 30
0.0
  0
VERTEX
  5
2D8
  8
GARAGE
 10
18.67209001734122
 20
4.069881901348015
 30
0.0
  0
VERTEX
  5
2D9
  8
GARAGE
 10
18.64792005469693
 20
4.058993696194572
 30
0.0
  0
VERTEX
  5
2DA
  8
GARAGE
 10
18.62321720048078
 20
4.048717607271302
 30
0.0
  0
VERTEX
  5
2DB
  8
GARAGE
 10
18.5980486607403
 20
4.039082738048111
 30
0.0
  0
VERTEX
  5
2DC
  8
GARAGE
 10
18.57248164152312
 20
4.030118191994903
 30
0.0
  0
VERTEX
  5
2DD
  8
GARAGE
 10
18.54658334887681
 20
4.021853072581593
 30
0.0
  0
VERTEX
  5
2DE
  8
GARAGE
 10
18.52042098884893
 20
4.014316483278083
 30
0.0
  0
VERTEX
  5
2DF
  8
GARAGE
 10
18.49406176748708
 20
4.007537527554281
 30
0.0
  0
VERTEX
  5
2E0
  8
GARAGE
 10
18.46757289083885
 20
4.001545308880095
 30
0.0
  0
VERTEX
  5
2E1
  8
GARAGE
 10
18.44102156495182
 20
3.996368930725434
 30
0.0
  0
VERTEX
  5
2E2
  8
GARAGE
 10
18.39336928735511
 20
3.987831117121437
 30
0.0
  0
VERTEX
  5
2E3
  8
GARAGE
 10
18.17009186310086
 20
3.987761815729462
 30
0.0
  0
VERTEX
  5
2E4
  8
GARAGE
 10
18.11040365210466
 20
3.998470622930036
 30
0.0
  0
VERTEX
  5
2E5
  8
GARAGE
 10
18.0815494042813
 20
4.004046330080604
 30
0.0
  0
VERTEX
  5
2E6
  8
GARAGE
 10
18.05353546598229
 20
4.010267246820838
 30
0.0
  0
VERTEX
  5
2E7
  8
GARAGE
 10
18.02637151007004
 20
4.017128906094443
 30
0.0
  0
VERTEX
  5
2E8
  8
GARAGE
 10
18.00006720940689
 20
4.024626840845124
 30
0.0
  0
VERTEX
  5
2E9
  8
GARAGE
 10
17.97463223685528
 20
4.032756584016584
 30
0.0
  0
VERTEX
  5
2EA
  8
GARAGE
 10
17.95007626527755
 20
4.041513668552531
 30
0.0
  0
VERTEX
  5
2EB
  8
GARAGE
 10
17.92640896753612
 20
4.050893627396666
 30
0.0
  0
VERTEX
  5
2EC
  8
GARAGE
 10
17.91491159412349
 20
4.055815788729216
 30
0.0
  0
VERTEX
  5
2ED
  8
GARAGE
 10
17.90364001649335
 20
4.060891993492703
 30
0.0
  0
VERTEX
  5
2EE
  8
GARAGE
 10
17.89259544375344
 20
4.066121683305088
 30
0.0
  0
VERTEX
  5
2EF
  8
GARAGE
 10
17.88177908501162
 20
4.07150429978434
 30
0.0
  0
VERTEX
  5
2F0
  8
GARAGE
 10
17.87119214937564
 20
4.077039284548418
 30
0.0
  0
VERTEX
  5
2F1
  8
GARAGE
 10
17.86083584595333
 20
4.082726079215284
 30
0.0
  0
VERTEX
  5
2F2
  8
GARAGE
 10
17.85071138385248
 20
4.088564125402907
 30
0.0
  0
VERTEX
  5
2F3
  8
GARAGE
 10
17.84081997218086
 20
4.094552864729245
 30
0.0
  0
VERTEX
  5
2F4
  8
GARAGE
 10
17.83116282004631
 20
4.100691738812259
 30
0.0
  0
VERTEX
  5
2F5
  8
GARAGE
 10
17.8217411365566
 20
4.106980189269921
 30
0.0
  0
VERTEX
  5
2F6
  8
GARAGE
 10
17.81255613081954
 20
4.113417657720184
 30
0.0
  0
VERTEX
  5
2F7
  8
GARAGE
 10
17.80360901194293
 20
4.120003585781019
 30
0.0
  0
VERTEX
  5
2F8
  8
GARAGE
 10
17.79490098903455
 20
4.126737415070385
 30
0.0
  0
VERTEX
  5
2F9
  8
GARAGE
 10
17.78643327120223
 20
4.133618587206245
 30
0.0
  0
VERTEX
  5
2FA
  8
GARAGE
 10
17.77820706755374
 20
4.140646543806566
 30
0.0
  0
VERTEX
  5
2FB
  8
GARAGE
 10
17.7702235871969
 20
4.14782072648931
 30
0.0
  0
VERTEX
  5
2FC
  8
GARAGE
 10
17.76248403923947
 20
4.155140576872438
 30
0.0
  0
VERTEX
  5
2FD
  8
GARAGE
 10
17.75498963278929
 20
4.162605536573912
 30
0.0
  0
VERTEX
  5
2FE
  8
GARAGE
 10
17.74491019073604
 20
4.173076316185135
 30
0.0
  0
VERTEX
  5
2FF
  8
GARAGE
 10
17.7352243677168
 20
4.183476637122574
 30
0.0
  0
VERTEX
  5
300
  8
GARAGE
 10
17.72592876639614
 20
4.193814508362937
 30
0.0
  0
VERTEX
  5
301
  8
GARAGE
 10
17.71701998943857
 20
4.204097938882916
 30
0.0
  0
VERTEX
  5
302
  8
GARAGE
 10
17.70849463950866
 20
4.214334937659217
 30
0.0
  0
VERTEX
  5
303
  8
GARAGE
 10
17.70034931927098
 20
4.224533513668535
 30
0.0
  0
VERTEX
  5
304
  8
GARAGE
 10
17.69258063139004
 20
4.234701675887576
 30
0.0
  0
VERTEX
  5
305
  8
GARAGE
 10
17.68518517853042
 20
4.244847433293035
 30
0.0
  0
VERTEX
  5
306
  8
GARAGE
 10
17.67815956335666
 20
4.254978794861613
 30
0.0
  0
VERTEX
  5
307
  8
GARAGE
 10
17.67150038853332
 20
4.265103769570012
 30
0.0
  0
VERTEX
  5
308
  8
GARAGE
 10
17.66520425672493
 20
4.275230366394927
 30
0.0
  0
VERTEX
  5
309
  8
GARAGE
 10
17.65926777059604
 20
4.285366594313067
 30
0.0
  0
VERTEX
  5
30A
  8
GARAGE
 10
17.65368753281122
 20
4.295520462301123
 30
0.0
  0
VERTEX
  5
30B
  8
GARAGE
 10
17.64846014603501
 20
4.3056999793358
 30
0.0
  0
VERTEX
  5
30C
  8
GARAGE
 10
17.64358221293195
 20
4.315913154393798
 30
0.0
  0
VERTEX
  5
30D
  8
GARAGE
 10
17.6390503361666
 20
4.326167996451812
 30
0.0
  0
VERTEX
  5
30E
  8
GARAGE
 10
17.63486111840352
 20
4.336472514486547
 30
0.0
  0
VERTEX
  5
30F
  8
GARAGE
 10
17.63101116230725
 20
4.346834717474702
 30
0.0
  0
VERTEX
  5
310
  8
GARAGE
 10
17.62749707054233
 20
4.357262614392975
 30
0.0
  0
VERTEX
  5
311
  8
GARAGE
 10
17.62431544577333
 20
4.367764214218072
 30
0.0
  0
VERTEX
  5
312
  8
GARAGE
 10
17.62146289066477
 20
4.378347525926684
 30
0.0
  0
VERTEX
  5
313
  8
GARAGE
 10
17.61893600788122
 20
4.389020558495518
 30
0.0
  0
VERTEX
  5
314
  8
GARAGE
 10
17.61673140008724
 20
4.39979132090127
 30
0.0
  0
VERTEX
  5
315
  8
GARAGE
 10
17.61484566994736
 20
4.410667822120644
 30
0.0
  0
VERTEX
  5
316
  8
GARAGE
 10
17.61327542012613
 20
4.421658071130334
 30
0.0
  0
VERTEX
  5
317
  8
GARAGE
 10
17.61201725328812
 20
4.432770076907047
 30
0.0
  0
VERTEX
  5
318
  8
GARAGE
 10
17.61106777209786
 20
4.444011848427477
 30
0.0
  0
VERTEX
  5
319
  8
GARAGE
 10
17.6104235792199
 20
4.455391394668329
 30
0.0
  0
VERTEX
  5
31A
  8
GARAGE
 10
17.61008127731881
 20
4.466916724606298
 30
0.0
  0
VERTEX
  5
31B
  8
GARAGE
 10
17.61003746905911
 20
4.478595847218087
 30
0.0
  0
VERTEX
  5
31C
  8
GARAGE
 10
17.61028875710538
 20
4.490436771480394
 30
0.0
  0
VERTEX
  5
31D
  8
GARAGE
 10
17.61083174412215
 20
4.502447506369924
 30
0.0
  0
VERTEX
  5
31E
  8
GARAGE
 10
17.61189022879002
 20
4.516608708037802
 30
0.0
  0
VERTEX
  5
31F
  8
GARAGE
 10
17.61345049955511
 20
4.530768767786064
 30
0.0
  0
VERTEX
  5
320
  8
GARAGE
 10
17.61550399491667
 20
4.544913981757375
 30
0.0
  0
VERTEX
  5
321
  8
GARAGE
 10
17.61804215337402
 20
4.559030646094406
 30
0.0
  0
VERTEX
  5
322
  8
GARAGE
 10
17.62105641342643
 20
4.57310505693982
 30
0.0
  0
VERTEX
  5
323
  8
GARAGE
 10
17.62453821357319
 20
4.587123510436288
 30
0.0
  0
VERTEX
  5
324
  8
GARAGE
 10
17.62847899231357
 20
4.601072302726474
 30
0.0
  0
VERTEX
  5
325
  8
GARAGE
 10
17.6328701881469
 20
4.614937729953048
 30
0.0
  0
VERTEX
  5
326
  8
GARAGE
 10
17.63770323957241
 20
4.628706088258679
 30
0.0
  0
VERTEX
  5
327
  8
GARAGE
 10
17.64296958508942
 20
4.642363673786032
 30
0.0
  0
VERTEX
  5
328
  8
GARAGE
 10
17.64866066319721
 20
4.655896782677777
 30
0.0
  0
VERTEX
  5
329
  8
GARAGE
 10
17.65476791239507
 20
4.669291711076579
 30
0.0
  0
VERTEX
  5
32A
  8
GARAGE
 10
17.66128277118227
 20
4.682534755125107
 30
0.0
  0
VERTEX
  5
32B
  8
GARAGE
 10
17.66819667805812
 20
4.69561221096603
 30
0.0
  0
VERTEX
  5
32C
  8
GARAGE
 10
17.67550107152187
 20
4.708510374742011
 30
0.0
  0
VERTEX
  5
32D
  8
GARAGE
 10
17.68318739007285
 20
4.721215542595724
 30
0.0
  0
VERTEX
  5
32E
  8
GARAGE
 10
17.69124707221032
 20
4.733714010669829
 30
0.0
  0
VERTEX
  5
32F
  8
GARAGE
 10
17.69967155643356
 20
4.745992075107002
 30
0.0
  0
VERTEX
  5
330
  8
GARAGE
 10
17.70845228124188
 20
4.758036032049907
 30
0.0
  0
VERTEX
  5
331
  8
GARAGE
 10
17.71758068513454
 20
4.769832177641208
 30
0.0
  0
VERTEX
  5
332
  8
GARAGE
 10
17.72704820661085
 20
4.78136680802358
 30
0.0
  0
VERTEX
  5
333
  8
GARAGE
 10
17.73684628417008
 20
4.792626219339684
 30
0.0
  0
VERTEX
  5
334
  8
GARAGE
 10
17.74696635631152
 20
4.803596707732192
 30
0.0
  0
VERTEX
  5
335
  8
GARAGE
 10
17.75739986153447
 20
4.814264569343766
 30
0.0
  0
VERTEX
  5
336
  8
GARAGE
 10
17.76813823833819
 20
4.824616100317081
 30
0.0
  0
VERTEX
  5
337
  8
GARAGE
 10
17.77917292522199
 20
4.834637596794797
 30
0.0
  0
VERTEX
  5
338
  8
GARAGE
 10
17.79049536068514
 20
4.84431535491959
 30
0.0
  0
VERTEX
  5
339
  8
GARAGE
 10
17.80209698322692
 20
4.853635670834118
 30
0.0
  0
VERTEX
  5
33A
  8
GARAGE
 10
17.81396923134664
 20
4.862584840681057
 30
0.0
  0
VERTEX
  5
33B
  8
GARAGE
 10
17.82610354354357
 20
4.871149160603072
 30
0.0
  0
VERTEX
  5
33C
  8
GARAGE
 10
17.83849135831701
 20
4.879314926742829
 30
0.0
  0
VERTEX
  5
33D
  8
GARAGE
 10
17.85112411416622
 20
4.887068435242996
 30
0.0
  0
VERTEX
  5
33E
  8
GARAGE
 10
17.86616156079434
 20
4.895659457145
 30
0.0
  0
VERTEX
  5
33F
  8
GARAGE
 10
17.88191200591447
 20
4.90407342795084
 30
0.0
  0
VERTEX
  5
340
  8
GARAGE
 10
17.89832463571813
 20
4.912292242734881
 30
0.0
  0
VERTEX
  5
341
  8
GARAGE
 10
17.91534863639683
 20
4.920297796571497
 30
0.0
  0
VERTEX
  5
342
  8
GARAGE
 10
17.93293319414208
 20
4.928071984535053
 30
0.0
  0
VERTEX
  5
343
  8
GARAGE
 10
17.9510274951454
 20
4.935596701699919
 30
0.0
  0
VERTEX
  5
344
  8
GARAGE
 10
17.96958072559831
 20
4.942853843140464
 30
0.0
  0
VERTEX
  5
345
  8
GARAGE
 10
17.9885420716923
 20
4.949825303931052
 30
0.0
  0
VERTEX
  5
346
  8
GARAGE
 10
18.0078607196189
 20
4.956492979146061
 30
0.0
  0
VERTEX
  5
347
  8
GARAGE
 10
18.02748585556963
 20
4.962838763859853
 30
0.0
  0
VERTEX
  5
348
  8
GARAGE
 10
18.04736666573599
 20
4.968844553146797
 30
0.0
  0
VERTEX
  5
349
  8
GARAGE
 10
18.06745233630949
 20
4.974492242081264
 30
0.0
  0
VERTEX
  5
34A
  8
GARAGE
 10
18.08769205348165
 20
4.979763725737619
 30
0.0
  0
VERTEX
  5
34B
  8
GARAGE
 10
18.10803500344398
 20
4.98464089919023
 30
0.0
  0
VERTEX
  5
34C
  8
GARAGE
 10
18.128430372388
 20
4.989105657513472
 30
0.0
  0
VERTEX
  5
34D
  8
GARAGE
 10
18.14882734650522
 20
4.993139895781709
 30
0.0
  0
VERTEX
  5
34E
  8
GARAGE
 10
18.16382873261944
 20
4.995681461847187
 30
0.0
  0
VERTEX
  5
34F
  8
GARAGE
 10
18.18019819247875
 20
4.997968997372356
 30
0.0
  0
VERTEX
  5
350
  8
GARAGE
 10
18.19775087007854
 20
4.999997845916679
 30
0.0
  0
VERTEX
  5
351
  8
GARAGE
 10
18.21630190941426
 20
5.001763351039607
 30
0.0
  0
VERTEX
  5
352
  8
GARAGE
 10
18.23566645448127
 20
5.003260856300606
 30
0.0
  0
VERTEX
  5
353
  8
GARAGE
 10
18.25565964927499
 20
5.004485705259138
 30
0.0
  0
VERTEX
  5
354
  8
GARAGE
 10
18.27609663779082
 20
5.005433241474655
 30
0.0
  0
VERTEX
  5
355
  8
GARAGE
 10
18.29679256402419
 20
5.006098808506624
 30
0.0
  0
VERTEX
  5
356
  8
GARAGE
 10
18.31756257197048
 20
5.006477749914506
 30
0.0
  0
VERTEX
  5
357
  8
GARAGE
 10
18.33822180562511
 20
5.006565409257751
 30
0.0
  0
VERTEX
  5
358
  8
GARAGE
 10
18.35858540898348
 20
5.006357130095825
 30
0.0
  0
VERTEX
  5
359
  8
GARAGE
 10
18.378468526041
 20
5.005848255988193
 30
0.0
  0
VERTEX
  5
35A
  8
GARAGE
 10
18.39768630079306
 20
5.005034130494303
 30
0.0
  0
VERTEX
  5
35B
  8
GARAGE
 10
18.41605387723509
 20
5.003910097173622
 30
0.0
  0
VERTEX
  5
35C
  8
GARAGE
 10
18.43338639936248
 20
5.002471499585611
 30
0.0
  0
VERTEX
  5
35D
  8
GARAGE
 10
18.44949901117064
 20
5.000713681289722
 30
0.0
  0
VERTEX
  5
35E
  8
GARAGE
 10
18.48113573328997
 20
4.996355717898637
 30
0.0
  0
VERTEX
  5
35F
  8
GARAGE
 10
18.51328827449586
 20
4.991099933051938
 30
0.0
  0
VERTEX
  5
360
  8
GARAGE
 10
18.54580740176825
 20
4.984992946086745
 30
0.0
  0
VERTEX
  5
361
  8
GARAGE
 10
18.57854388208705
 20
4.978081376340177
 30
0.0
  0
VERTEX
  5
362
  8
GARAGE
 10
18.61134848243218
 20
4.970411843149362
 30
0.0
  0
VERTEX
  5
363
  8
GARAGE
 10
18.64407196978355
 20
4.96203096585142
 30
0.0
  0
VERTEX
  5
364
  8
GARAGE
 10
18.6765651111211
 20
4.952985363783464
 30
0.0
  0
VERTEX
  5
365
  8
GARAGE
 10
18.70867867342474
 20
4.943321656282627
 30
0.0
  0
VERTEX
  5
366
  8
GARAGE
 10
18.7402634236744
 20
4.933086462686026
 30
0.0
  0
VERTEX
  5
367
  8
GARAGE
 10
18.77117012885002
 20
4.922326402330779
 30
0.0
  0
VERTEX
  5
368
  8
GARAGE
 10
18.8012495559315
 20
4.911088094554015
 30
0.0
  0
VERTEX
  5
369
  8
GARAGE
 10
18.83035247189878
 20
4.899418158692851
 30
0.0
  0
VERTEX
  5
36A
  8
GARAGE
 10
18.85832964373174
 20
4.887363214084411
 30
0.0
  0
VERTEX
  5
36B
  8
GARAGE
 10
18.88503183841034
 20
4.874969880065811
 30
0.0
  0
VERTEX
  5
36C
  8
GARAGE
 10
18.91030982291451
 20
4.862284775974176
 30
0.0
  0
VERTEX
  5
36D
  8
GARAGE
 10
18.92236810103239
 20
4.855847378693823
 30
0.0
  0
VERTEX
  5
36E
  8
GARAGE
 10
18.93401436422413
 20
4.849354521146633
 30
0.0
  0
VERTEX
  5
36F
  8
GARAGE
 10
18.9728273645864
 20
4.827226889091119
 30
0.0
  0
VERTEX
  5
370
  8
GARAGE
 10
18.97643485373953
 20
4.82435207328733
 30
0.0
  0
VERTEX
  5
371
  8
GARAGE
 10
18.93208395189729
 20
4.757082901745187
 30
0.0
  0
VERTEX
  5
372
  8
GARAGE
 10
18.93699383129374
 20
4.745748773330073
 30
0.0
  0
VERTEX
  5
373
  8
GARAGE
 10
19.06699148009057
 20
4.681780849119635
 30
0.0
  0
VERTEX
  5
374
  8
GARAGE
 10
19.07016507949453
 20
4.684702536325141
 30
0.0
  0
VERTEX
  5
375
  8
GARAGE
 10
19.36415703255017
 20
5.154739492232112
 30
0.0
  0
VERTEX
  5
376
  8
GARAGE
 10
19.35027253415905
 20
5.162931883887772
 30
0.0
  0
VERTEX
  5
377
  8
GARAGE
 10
19.10573059330916
 20
5.270355689647151
 30
0.0
  0
VERTEX
  5
378
  8
GARAGE
 10
19.03130478522441
 20
5.296079220402691
 30
0.0
  0
VERTEX
  5
379
  8
GARAGE
 10
18.99744805565498
 20
5.307569184186512
 30
0.0
  0
VERTEX
  5
37A
  8
GARAGE
 10
18.96428100097835
 20
5.318392197450753
 30
0.0
  0
VERTEX
  5
37B
  8
GARAGE
 10
18.9317415462158
 20
5.328562300421881
 30
0.0
  0
VERTEX
  5
37C
  8
GARAGE
 10
18.89976761638847
 20
5.338093533326363
 30
0.0
  0
VERTEX
  5
37D
  8
GARAGE
 10
18.8682971365176
 20
5.346999936390673
 30
0.0
  0
VERTEX
  5
37E
  8
GARAGE
 10
18.83726803162443
 20
5.355295549841269
 30
0.0
  0
VERTEX
  5
37F
  8
GARAGE
 10
18.80661822673015
 20
5.362994413904626
 30
0.0
  0
VERTEX
  5
380
  8
GARAGE
 10
18.77628564685597
 20
5.370110568807207
 30
0.0
  0
VERTEX
  5
381
  8
GARAGE
 10
18.7462082170231
 20
5.376658054775485
 30
0.0
  0
VERTEX
  5
382
  8
GARAGE
 10
18.71632386225279
 20
5.382650912035921
 30
0.0
  0
VERTEX
  5
383
  8
GARAGE
 10
18.68657050756619
 20
5.388103180814985
 30
0.0
  0
VERTEX
  5
384
  8
GARAGE
 10
18.65688607798459
 20
5.393028901339151
 30
0.0
  0
VERTEX
  5
385
  8
GARAGE
 10
18.62720849852916
 20
5.397442113834875
 30
0.0
  0
VERTEX
  5
386
  8
GARAGE
 10
18.59747569422109
 20
5.401356858528635
 30
0.0
  0
VERTEX
  5
387
  8
GARAGE
 10
18.56762559008165
 20
5.404787175646895
 30
0.0
  0
VERTEX
  5
388
  8
GARAGE
 10
18.53759611113202
 20
5.407747105416123
 30
0.0
  0
VERTEX
  5
389
  8
GARAGE
 10
18.4744938981014
 20
5.413461538461538
 30
0.0
  0
VERTEX
  5
38A
  8
GARAGE
 10
18.14351121735631
 20
5.408475458021866
 30
0.0
  0
VERTEX
  5
38B
  8
GARAGE
 10
18.07174347384601
 20
5.40078275086079
 30
0.0
  0
VERTEX
  5
38C
  8
GARAGE
 10
18.03954227734484
 20
5.397141944678061
 30
0.0
  0
VERTEX
  5
38D
  8
GARAGE
 10
18.00798315542124
 20
5.393190106155482
 30
0.0
  0
VERTEX
  5
38E
  8
GARAGE
 10
17.97705805472105
 20
5.388924172422453
 30
0.0
  0
VERTEX
  5
38F
  8
GARAGE
 10
17.94675892189012
 20
5.384341080608365
 30
0.0
  0
VERTEX
  5
390
  8
GARAGE
 10
17.91707770357426
 20
5.379437767842616
 30
0.0
  0
VERTEX
  5
391
  8
GARAGE
 10
17.88800634641933
 20
5.374211171254606
 30
0.0
  0
VERTEX
  5
392
  8
GARAGE
 10
17.85953679707116
 20
5.368658227973728
 30
0.0
  0
VERTEX
  5
393
  8
GARAGE
 10
17.83166100217559
 20
5.362775875129382
 30
0.0
  0
VERTEX
  5
394
  8
GARAGE
 10
17.80437090837847
 20
5.356561049850961
 30
0.0
  0
VERTEX
  5
395
  8
GARAGE
 10
17.77765846232563
 20
5.350010689267863
 30
0.0
  0
VERTEX
  5
396
  8
GARAGE
 10
17.75151561066289
 20
5.343121730509486
 30
0.0
  0
VERTEX
  5
397
  8
GARAGE
 10
17.7259343000361
 20
5.335891110705226
 30
0.0
  0
VERTEX
  5
398
  8
GARAGE
 10
17.7009064770911
 20
5.328315766984475
 30
0.0
  0
VERTEX
  5
399
  8
GARAGE
 10
17.67642408847374
 20
5.320392636476639
 30
0.0
  0
VERTEX
  5
39A
  8
GARAGE
 10
17.65247908082984
 20
5.312118656311107
 30
0.0
  0
VERTEX
  5
39B
  8
GARAGE
 10
17.62906340080523
 20
5.303490763617274
 30
0.0
  0
VERTEX
  5
39C
  8
GARAGE
 10
17.60616899504578
 20
5.294505895524543
 30
0.0
  0
VERTEX
  5
39D
  8
GARAGE
 10
17.58378781019729
 20
5.285160989162311
 30
0.0
  0
VERTEX
  5
39E
  8
GARAGE
 10
17.56191179290563
 20
5.275452981659967
 30
0.0
  0
VERTEX
  5
39F
  8
GARAGE
 10
17.54053288981661
 20
5.265378810146918
 30
0.0
  0
VERTEX
  5
3A0
  8
GARAGE
 10
17.51964304757609
 20
5.254935411752547
 30
0.0
  0
VERTEX
  5
3A1
  8
GARAGE
 10
17.4992342128299
 20
5.244119723606266
 30
0.0
  0
VERTEX
  5
3A2
  8
GARAGE
 10
17.47929833222388
 20
5.232928682837458
 30
0.0
  0
VERTEX
  5
3A3
  8
GARAGE
 10
17.45982735240386
 20
5.221359226575527
 30
0.0
  0
VERTEX
  5
3A4
  8
GARAGE
 10
17.44081322001568
 20
5.209408291949869
 30
0.0
  0
VERTEX
  5
3A5
  8
GARAGE
 10
17.42224788170519
 20
5.19707281608988
 30
0.0
  0
VERTEX
  5
3A6
  8
GARAGE
 10
17.40412328411821
 20
5.184349736124958
 30
0.0
  0
VERTEX
  5
3A7
  8
GARAGE
 10
17.38643137390057
 20
5.171235989184495
 30
0.0
  0
VERTEX
  5
3A8
  8
GARAGE
 10
17.36916409769815
 20
5.15772851239789
 30
0.0
  0
VERTEX
  5
3A9
  8
GARAGE
 10
17.35231340215675
 20
5.143824242894543
 30
0.0
  0
VERTEX
  5
3AA
  8
GARAGE
 10
17.33587123392222
 20
5.129520117803844
 30
0.0
  0
VERTEX
  5
3AB
  8
GARAGE
 10
17.31982953964039
 20
5.114813074255196
 30
0.0
  0
VERTEX
  5
3AC
  8
GARAGE
 10
17.30775405885493
 20
5.103204371278983
 30
0.0
  0
VERTEX
  5
3AD
  8
GARAGE
 10
17.29597732848476
 20
5.091384774731349
 30
0.0
  0
VERTEX
  5
3AE
  8
GARAGE
 10
17.28449799494451
 20
5.079351579649718
 30
0.0
  0
VERTEX
  5
3AF
  8
GARAGE
 10
17.27331470464875
 20
5.067102081071504
 30
0.0
  0
VERTEX
  5
3B0
  8
GARAGE
 10
17.26242610401214
 20
5.054633574034129
 30
0.0
  0
VERTEX
  5
3B1
  8
GARAGE
 10
17.25183083944924
 20
5.041943353575019
 30
0.0
  0
VERTEX
  5
3B2
  8
GARAGE
 10
17.24152755737467
 20
5.029028714731587
 30
0.0
  0
VERTEX
  5
3B3
  8
GARAGE
 10
17.23151490420304
 20
5.015886952541254
 30
0.0
  0
VERTEX
  5
3B4
  8
GARAGE
 10
17.22179152634893
 20
5.002515362041441
 30
0.0
  0
VERTEX
  5
3B5
  8
GARAGE
 10
17.21235607022699
 20
4.98891123826957
 30
0.0
  0
VERTEX
  5
3B6
  8
GARAGE
 10
17.20320718225178
 20
4.975071876263055
 30
0.0
  0
VERTEX
  5
3B7
  8
GARAGE
 10
17.19434350883794
 20
4.960994571059323
 30
0.0
  0
VERTEX
  5
3B8
  8
GARAGE
 10
17.18576369640005
 20
4.94667661769579
 30
0.0
  0
VERTEX
  5
3B9
  8
GARAGE
 10
17.17746639135273
 20
4.932115311209873
 30
0.0
  0
VERTEX
  5
3BA
  8
GARAGE
 10
17.16945024011058
 20
4.917307946638998
 30
0.0
  0
VERTEX
  5
3BB
  8
GARAGE
 10
17.16171388908822
 20
4.902251819020582
 30
0.0
  0
VERTEX
  5
3BC
  8
GARAGE
 10
17.15425598470023
 20
4.886944223392045
 30
0.0
  0
VERTEX
  5
3BD
  8
GARAGE
 10
17.14707517336122
 20
4.871382454790806
 30
0.0
  0
VERTEX
  5
3BE
  8
GARAGE
 10
17.14017010148581
 20
4.855563808254287
 30
0.0
  0
VERTEX
  5
3BF
  8
GARAGE
 10
17.13353941548859
 20
4.839485578819907
 30
0.0
  0
VERTEX
  5
3C0
  8
GARAGE
 10
17.12718176178417
 20
4.823145061525087
 30
0.0
  0
VERTEX
  5
3C1
  8
GARAGE
 10
17.12109578678718
 20
4.806539551407242
 30
0.0
  0
VERTEX
  5
3C2
  8
GARAGE
 10
17.11528013691218
 20
4.789666343503797
 30
0.0
  0
VERTEX
  5
3C3
  8
GARAGE
 10
17.10973345857381
 20
4.772522732852171
 30
0.0
  0
VERTEX
  5
3C4
  8
GARAGE
 10
17.10445439818667
 20
4.755106014489784
 30
0.0
  0
VERTEX
  5
3C5
  8
GARAGE
 10
17.09944160216535
 20
4.737413483454053
 30
0.0
  0
VERTEX
  5
3C6
  8
GARAGE
 10
17.09469371692447
 20
4.719442434782401
 30
0.0
  0
VERTEX
  5
3C7
  8
GARAGE
 10
17.09020938887862
 20
4.701190163512248
 30
0.0
  0
VERTEX
  5
3C8
  8
GARAGE
 10
17.08598726444242
 20
4.682653964681014
 30
0.0
  0
VERTEX
  5
3C9
  8
GARAGE
 10
17.08202599003047
 20
4.663831133326114
 30
0.0
  0
VERTEX
  5
3CA
  8
GARAGE
 10
17.07832421205737
 20
4.644718964484977
 30
0.0
  0
VERTEX
  5
3CB
  8
GARAGE
 10
17.07488057693772
 20
4.625314753195012
 30
0.0
  0
VERTEX
  5
3CC
  8
GARAGE
 10
17.06669261531718
 20
4.577024189919403
 30
0.0
  0
VERTEX
  5
3CD
  8
GARAGE
 10
17.05738679529259
 20
4.408467976052183
 30
0.0
  0
VERTEX
  5
3CE
  8
GARAGE
 10
17.06227632588698
 20
4.358586552306231
 30
0.0
  0
VERTEX
  5
3CF
  8
GARAGE
 10
17.06451525462369
 20
4.338601153710799
 30
0.0
  0
VERTEX
  5
3D0
  8
GARAGE
 10
17.06731488483143
 20
4.318549420830954
 30
0.0
  0
VERTEX
  5
3D1
  8
GARAGE
 10
17.0706648699036
 20
4.298451245999131
 30
0.0
  0
VERTEX
  5
3D2
  8
GARAGE
 10
17.07455486323356
 20
4.278326521547772
 30
0.0
  0
VERTEX
  5
3D3
  8
GARAGE
 10
17.07897451821473
 20
4.258195139809313
 30
0.0
  0
VERTEX
  5
3D4
  8
GARAGE
 10
17.08391348824051
 20
4.238076993116199
 30
0.0
  0
VERTEX
  5
3D5
  8
GARAGE
 10
17.08936142670429
 20
4.217991973800862
 30
0.0
  0
VERTEX
  5
3D6
  8
GARAGE
 10
17.09530798699946
 20
4.197959974195744
 30
0.0
  0
VERTEX
  5
3D7
  8
GARAGE
 10
17.10174282251941
 20
4.178000886633286
 30
0.0
  0
VERTEX
  5
3D8
  8
GARAGE
 10
17.10865558665754
 20
4.158134603445925
 30
0.0
  0
VERTEX
  5
3D9
  8
GARAGE
 10
17.11603593280724
 20
4.138381016966101
 30
0.0
  0
VERTEX
  5
3DA
  8
GARAGE
 10
17.12387351436191
 20
4.118760019526256
 30
0.0
  0
VERTEX
  5
3DB
  8
GARAGE
 10
17.13215798471495
 20
4.099291503458823
 30
0.0
  0
VERTEX
  5
3DC
  8
GARAGE
 10
17.14087899725973
 20
4.079995361096246
 30
0.0
  0
VERTEX
  5
3DD
  8
GARAGE
 10
17.15002620538967
 20
4.060891484770965
 30
0.0
  0
VERTEX
  5
3DE
  8
GARAGE
 10
17.15958926249815
 20
4.041999766815416
 30
0.0
  0
VERTEX
  5
3DF
  8
GARAGE
 10
17.16955782197857
 20
4.023340099562041
 30
0.0
  0
VERTEX
  5
3E0
  8
GARAGE
 10
17.17992153722433
 20
4.004932375343277
 30
0.0
  0
VERTEX
  5
3E1
  8
GARAGE
 10
17.1906700616288
 20
3.986796486491563
 30
0.0
  0
VERTEX
  5
3E2
  8
GARAGE
 10
17.2017930485854
 20
3.968952325339339
 30
0.0
  0
VERTEX
  5
3E3
  8
GARAGE
 10
17.2132801514875
 20
3.951419784219045
 30
0.0
  0
VERTEX
  5
3E4
  8
GARAGE
 10
17.22512102372852
 20
3.934218755463119
 30
0.0
  0
VERTEX
  5
3E5
  8
GARAGE
 10
17.23730531870186
 20
3.917369131404001
 30
0.0
  0
VERTEX
  5
3E6
  8
GARAGE
 10
17.24982268980087
 20
3.900890804374131
 30
0.0
  0
VERTEX
  5
3E7
  8
GARAGE
 10
17.26266279041898
 20
3.884803666705948
 30
0.0
  0
VERTEX
  5
3E8
  8
GARAGE
 10
17.27581527394958
 20
3.869127610731888
 30
0.0
  0
VERTEX
  5
3E9
  8
GARAGE
 10
17.28926979378606
 20
3.853882528784394
 30
0.0
  0
VERTEX
  5
3EA
  8
GARAGE
 10
17.3030160033218
 20
3.839088313195903
 30
0.0
  0
VERTEX
  5
3EB
  8
GARAGE
 10
17.31704355595021
 20
3.824764856298856
 30
0.0
  0
VERTEX
  5
3EC
  8
GARAGE
 10
17.3313421050647
 20
3.810932050425692
 30
0.0
  0
VERTEX
  5
3ED
  8
GARAGE
 10
17.34590130405862
 20
3.797609787908851
 30
0.0
  0
VERTEX
  5
3EE
  8
GARAGE
 10
17.36071080632541
 20
3.78481796108077
 30
0.0
  0
VERTEX
  5
3EF
  8
GARAGE
 10
17.38061646475677
 20
3.768579505490312
 30
0.0
  0
VERTEX
  5
3F0
  8
GARAGE
 10
17.40095835324866
 20
3.752877764747207
 30
0.0
  0
VERTEX
  5
3F1
  8
GARAGE
 10
17.42172867865716
 20
3.737715053184278
 30
0.0
  0
VERTEX
  5
3F2
  8
GARAGE
 10
17.44291964783833
 20
3.723093685134357
 30
0.0
  0
VERTEX
  5
3F3
  8
GARAGE
 10
17.46452346764825
 20
3.70901597493027
 30
0.0
  0
VERTEX
  5
3F4
  8
GARAGE
 10
17.48653234494298
 20
3.695484236904846
 30
0.0
  0
VERTEX
  5
3F5
  8
GARAGE
 10
17.50893848657857
 20
3.682500785390916
 30
0.0
  0
VERTEX
  5
3F6
  8
GARAGE
 10
17.53173409941111
 20
3.6700679347213
 30
0.0
  0
VERTEX
  5
3F7
  8
GARAGE
 10
17.55491139029667
 20
3.658187999228832
 30
0.0
  0
VERTEX
  5
3F8
  8
GARAGE
 10
17.5784625660913
 20
3.646863293246341
 30
0.0
  0
VERTEX
  5
3F9
  8
GARAGE
 10
17.60237983365107
 20
3.636096131106651
 30
0.0
  0
VERTEX
  5
3FA
  8
GARAGE
 10
17.62665539983207
 20
3.62588882714259
 30
0.0
  0
VERTEX
  5
3FB
  8
GARAGE
 10
17.65128147149034
 20
3.616243695686991
 30
0.0
  0
VERTEX
  5
3FC
  8
GARAGE
 10
17.67625025548195
 20
3.607163051072677
 30
0.0
  0
VERTEX
  5
3FD
  8
GARAGE
 10
17.70155395866298
 20
3.598649207632479
 30
0.0
  0
VERTEX
  5
3FE
  8
GARAGE
 10
17.72718478788948
 20
3.590704479699223
 30
0.0
  0
VERTEX
  5
3FF
  8
GARAGE
 10
17.75313495001755
 20
3.583331181605739
 30
0.0
  0
VERTEX
  5
400
  8
GARAGE
 10
17.77939665190321
 20
3.576531627684853
 30
0.0
  0
VERTEX
  5
401
  8
GARAGE
 10
17.80596210040256
 20
3.570308132269393
 30
0.0
  0
VERTEX
  5
402
  8
GARAGE
 10
17.83282350237166
 20
3.564663009692188
 30
0.0
  0
VERTEX
  5
403
  8
GARAGE
 10
17.85997306466658
 20
3.559598574286068
 30
0.0
  0
VERTEX
  5
404
  8
GARAGE
 10
17.88740299414338
 20
3.555117140383855
 30
0.0
  0
VERTEX
  5
405
  8
GARAGE
 10
17.91510549765814
 20
3.551221022318383
 30
0.0
  0
VERTEX
  5
406
  8
GARAGE
 10
17.94307278206691
 20
3.547912534422479
 30
0.0
  0
VERTEX
  5
407
  8
GARAGE
 10
17.97129705422577
 20
3.545193991028971
 30
0.0
  0
VERTEX
  5
408
  8
GARAGE
 10
17.99977052099077
 20
3.543067706470681
 30
0.0
  0
VERTEX
  5
409
  8
GARAGE
 10
18.028485389218
 20
3.541535995080447
 30
0.0
  0
VERTEX
  5
40A
  8
GARAGE
 10
18.05743386576351
 20
3.540601171191089
 30
0.0
  0
VERTEX
  5
40B
  8
GARAGE
 10
18.08660815748338
 20
3.540265549135438
 30
0.0
  0
VERTEX
  5
40C
  8
GARAGE
 10
18.11600047123366
 20
3.540531443246323
 30
0.0
  0
VERTEX
  5
40D
  8
GARAGE
 10
18.14560301387045
 20
3.541401167856573
 30
0.0
  0
SEQEND
  5
CC1
  8
GARAGE
  0
POLYLINE
  5
78
  8
GARAGE
 66
     1
 10
0.0
 20
0.0
 30
0.0
 70
     1
  0
VERTEX
  5
40E
  8
GARAGE
 10
20.22743384372934
 20
3.554499110718425
 30
0.0
  0
VERTEX
  5
40F
  8
GARAGE
 10
21.46875
 20
3.551876867498813
 30
0.0
  0
VERTEX
  5
410
  8
GARAGE
 10
21.46875
 20
3.957100085249167
 30
0.0
  0
VERTEX
  5
411
  8
GARAGE
 10
20.03605319436855
 20
3.95948867156083
 30
0.0
  0
VERTEX
  5
412
  8
GARAGE
 10
20.03605319436855
 20
4.279712975482735
 30
0.0
  0
VERTEX
  5
413
  8
GARAGE
 10
21.05075004406779
 20
4.284422156422761
 30
0.0
  0
VERTEX
  5
414
  8
GARAGE
 10
21.19740010679605
 20
4.684702536325139
 30
0.0
  0
VERTEX
  5
415
  8
GARAGE
 10
21.19762741340556
 20
4.696475488675214
 30
0.0
  0
VERTEX
  5
416
  8
GARAGE
 10
20.02258030477732
 20
4.696475488675214
 30
0.0
  0
VERTEX
  5
417
  8
GARAGE
 10
20.02542093607072
 20
4.934289126146624
 30
0.0
  0
VERTEX
  5
418
  8
GARAGE
 10
21.33584677127724
 20
4.936680789676034
 30
0.0
  0
VERTEX
  5
419
  8
GARAGE
 10
21.33584677127724
 20
5.313378191818877
 30
0.0
  0
VERTEX
  5
41A
  8
GARAGE
 10
20.79094353351388
 20
5.31340013422655
 30
0.0
  0
VERTEX
  5
41B
  8
GARAGE
 10
20.009472548624
 20
5.31813169217643
 30
0.0
  0
VERTEX
  5
41C
  8
GARAGE
 10
19.58141588667807
 20
5.322621082738791
 30
0.0
  0
VERTEX
  5
41D
  8
GARAGE
 10
19.58254023853633
 20
3.592172558238649
 30
0.0
  0
VERTEX
  5
41E
  8
GARAGE
 10
19.58798446433041
 20
3.556998248428108
 30
0.0
  0
SEQEND
  5
CC2
  8
GARAGE
  0
POLYLINE
  5
7A
  8
OUTER_LAYER
 66
     1
 10
0.0
 20
0.0
 30
0.0
 70
     1
  0
VERTEX
  5
41F
  8
OUTER_LAYER
 10
1.784754693717136
 20
6.827381200620674
 30
0.0
  0
VERTEX
  5
420
  8
OUTER_LAYER
 10
1.736410541774118
 20
6.755572346339231
 30
0.0
  0
VERTEX
  5
421
  8
OUTER_LAYER
 10
1.70780823167709
 20
6.711332057057835
 30
0.0
  0
VERTEX
  5
422
  8
OUTER_LAYER
 10
1.679950602482507
 20
6.666852378674273
 30
0.0
  0
VERTEX
  5
423
  8
OUTER_LAYER
 10
1.652674770551194
 20
6.621888549992387
 30
0.0
  0
VERTEX
  5
424
  8
OUTER_LAYER
 10
1.625983724565799
 20
6.576452213461114
 30
0.0
  0
VERTEX
  5
425
  8
OUTER_LAYER
 10
1.599880530202321
 20
6.530554979977111
 30
0.0
  0
VERTEX
  5
426
  8
OUTER_LAYER
 10
1.574368328181362
 20
6.484208432455671
 30
0.0
  0
VERTEX
  5
427
  8
OUTER_LAYER
 10
1.549450332241818
 20
6.437424129042408
 30
0.0
  0
VERTEX
  5
428
  8
OUTER_LAYER
 10
1.525129827089535
 20
6.390213606034989
 30
0.0
  0
VERTEX
  5
429
  8
OUTER_LAYER
 10
1.501410166333548
 20
6.342588380517969
 30
0.0
  0
VERTEX
  5
42A
  8
OUTER_LAYER
 10
1.478294770434158
 20
6.294559952744135
 30
0.0
  0
VERTEX
  5
42B
  8
OUTER_LAYER
 10
1.455787124670654
 20
6.246139808261827
 30
0.0
  0
VERTEX
  5
42C
  8
OUTER_LAYER
 10
1.433890777160041
 20
6.197339419845862
 30
0.0
  0
VERTEX
  5
42D
  8
OUTER_LAYER
 10
1.41260933692022
 20
6.14817024921457
 30
0.0
  0
VERTEX
  5
42E
  8
OUTER_LAYER
 10
1.391946472001907
 20
6.098643748580165
 30
0.0
  0
VERTEX
  5
42F
  8
OUTER_LAYER
 10
1.37190590768097
 20
6.048771362014569
 30
0.0
  0
VERTEX
  5
430
  8
OUTER_LAYER
 10
1.352491424741169
 20
5.998564526702418
 30
0.0
  0
VERTEX
  5
431
  8
OUTER_LAYER
 10
1.333706857820128
 20
5.948034674018333
 30
0.0
  0
VERTEX
  5
432
  8
OUTER_LAYER
 10
1.315556093857996
 20
5.897193230532216
 30
0.0
  0
VERTEX
  5
433
  8
OUTER_LAYER
 10
1.29804307061566
 20
5.846051618862774
 30
0.0
  0
VERTEX
  5
434
  8
OUTER_LAYER
 10
1.281171775298855
 20
5.794621258484788
 30
0.0
  0
VERTEX
  5
435
  8
OUTER_LAYER
 10
1.264946243254875
 20
5.742913566404913
 30
0.0
  0
VERTEX
  5
436
  8
OUTER_LAYER
 10
1.249370556772355
 20
5.690939957802352
 30
0.0
  0
VERTEX
  5
437
  8
OUTER_LAYER
 10
1.234448843967285
 20
5.638711846597702
 30
0.0
  0
VERTEX
  5
438
  8
OUTER_LAYER
 10
1.220185277755139
 20
5.58624064595621
 30
0.0
  0
VERTEX
  5
439
  8
OUTER_LAYER
 10
1.206584074915659
 20
5.53353776876066
 30
0.0
  0
VERTEX
  5
43A
  8
OUTER_LAYER
 10
1.193649495243557
 20
5.480614628042604
 30
0.0
  0
VERTEX
  5
43B
  8
OUTER_LAYER
 10
1.181385840784275
 20
5.427482637381048
 30
0.0
  0
VERTEX
  5
43C
  8
OUTER_LAYER
 10
1.169797455155939
 20
5.374153211288279
 30
0.0
  0
VERTEX
  5
43D
  8
OUTER_LAYER
 10
1.158888722951831
 20
5.320637765573962
 30
0.0
  0
VERTEX
  5
43E
  8
OUTER_LAYER
 10
1.148664069224202
 20
5.266947717706566
 30
0.0
  0
VERTEX
  5
43F
  8
OUTER_LAYER
 10
1.139127959044192
 20
5.213094487164369
 30
0.0
  0
VERTEX
  5
440
  8
OUTER_LAYER
 10
1.130279888630511
 20
5.159058908604631
 30
0.0
  0
VERTEX
  5
441
  8
OUTER_LAYER
 10
1.116579231840941
 20
5.067691900034951
 30
0.0
  0
VERTEX
  5
442
  8
OUTER_LAYER
 10
1.111205440963254
 20
5.027460538047571
 30
0.0
  0
VERTEX
  5
443
  8
OUTER_LAYER
 10
1.106918579406523
 20
4.990815158086011
 30
0.0
  0
VERTEX
  5
444
  8
OUTER_LAYER
 10
1.103721966033653
 20
4.956973941625062
 30
0.0
  0
VERTEX
  5
445
  8
OUTER_LAYER
 10
1.10168940752333
 20
4.925384796667697
 30
0.0
  0
VERTEX
  5
446
  8
OUTER_LAYER
 10
1.100953590726667
 20
4.895448109169401
 30
0.0
  0
VERTEX
  5
447
  8
OUTER_LAYER
 10
1.101743084088507
 20
4.866538090048892
 30
0.0
  0
VERTEX
  5
448
  8
OUTER_LAYER
 10
1.104423944874127
 20
4.838064440161339
 30
0.0
  0
VERTEX
  5
449
  8
OUTER_LAYER
 10
1.109517201906455
 20
4.809598078499578
 30
0.0
  0
VERTEX
  5
44A
  8
OUTER_LAYER
 10
1.117628551871429
 20
4.781059739027935
 30
0.0
  0
VERTEX
  5
44B
  8
OUTER_LAYER
 10
1.129218403314363
 20
4.752889229641388
 30
0.0
  0
VERTEX
  5
44C
  8
OUTER_LAYER
 10
1.144248443406436
 20
4.72601512162753
 30
0.0
  0
VERTEX
  5
44D
  8
OUTER_LAYER
 10
1.16195917683115
 20
4.701503365697845
 30
0.0
  0
VERTEX
  5
44E
  8
OUTER_LAYER
 10
1.181063948363461
 20
4.680062358518313
 30
0.0
  0
VERTEX
  5
44F
  8
OUTER_LAYER
 10
1.198623042844895
 20
4.663346962796588
 30
0.0
  0
VERTEX
  5
450
  8
OUTER_LAYER
 10
1.24370890502853
 20
4.623208401107152
 30
0.0
  0
VERTEX
  5
451
  8
OUTER_LAYER
 10
1.254610009642934
 20
4.61426513456148
 30
0.0
  0
VERTEX
  5
452
  8
OUTER_LAYER
 10
1.266207360285533
 20
4.606190676093782
 30
0.0
  0
VERTEX
  5
453
  8
OUTER_LAYER
 10
1.278430692023541
 20
4.598995603635858
 30
0.0
  0
VERTEX
  5
454
  8
OUTER_LAYER
 10
1.291209739924171
 20
4.592690495119511
 30
0.0
  0
VERTEX
  5
455
  8
OUTER_LAYER
 10
1.304474239054636
 20
4.587285928476542
 30
0.0
  0
VERTEX
  5
456
  8
OUTER_LAYER
 10
1.318153924482151
 20
4.582792481638753
 30
0.0
  0
VERTEX
  5
457
  8
OUTER_LAYER
 10
1.332178531273929
 20
4.579220732537947
 30
0.0
  0
VERTEX
  5
458
  8
OUTER_LAYER
 10
1.346477794497184
 20
4.576581259105924
 30
0.0
  0
VERTEX
  5
459
  8
OUTER_LAYER
 10
1.36098144921913
 20
4.574884639274486
 30
0.0
  0
VERTEX
  5
45A
  8
OUTER_LAYER
 10
1.37561923050698
 20
4.574141450975434
 30
0.0
  0
VERTEX
  5
45B
  8
OUTER_LAYER
 10
1.390320873427948
 20
4.57436227214057
 30
0.0
  0
VERTEX
  5
45C
  8
OUTER_LAYER
 10
1.405016113049247
 20
4.575557680701697
 30
0.0
  0
VERTEX
  5
45D
  8
OUTER_LAYER
 10
1.419634684438092
 20
4.577738254590614
 30
0.0
  0
VERTEX
  5
45E
  8
OUTER_LAYER
 10
1.434106322661696
 20
4.580914571739125
 30
0.0
  0
VERTEX
  5
45F
  8
OUTER_LAYER
 10
1.448360762787272
 20
4.585097210079031
 30
0.0
  0
VERTEX
  5
460
  8
OUTER_LAYER
 10
1.462327739882035
 20
4.590296747542133
 30
0.0
  0
VERTEX
  5
461
  8
OUTER_LAYER
 10
3.151966118536827
 20
5.289609406435514
 30
0.0
  0
VERTEX
  5
462
  8
OUTER_LAYER
 10
3.23528407448557
 20
5.29151329087361
 30
0.0
  0
VERTEX
  5
463
  8
OUTER_LAYER
 10
3.252334037035436
 20
5.291506803893327
 30
0.0
  0
VERTEX
  5
464
  8
OUTER_LAYER
 10
3.266773345844086
 20
5.290832389320851
 30
0.0
  0
VERTEX
  5
465
  8
OUTER_LAYER
 10
3.281276740693973
 20
5.289486169891866
 30
0.0
  0
VERTEX
  5
466
  8
OUTER_LAYER
 10
3.29590678750784
 20
5.287455902709582
 30
0.0
  0
VERTEX
  5
467
  8
OUTER_LAYER
 10
3.310716030859644
 20
5.284721867182237
 30
0.0
  0
VERTEX
  5
468
  8
OUTER_LAYER
 10
3.325745626259474
 20
5.281259011192213
 30
0.0
  0
VERTEX
  5
469
  8
OUTER_LAYER
 10
3.341024801009815
 20
5.277039143945192
 30
0.0
  0
VERTEX
  5
46A
  8
OUTER_LAYER
 10
3.356571056955377
 20
5.272032986028216
 30
0.0
  0
VERTEX
  5
46B
  8
OUTER_LAYER
 10
3.372390965896046
 20
5.266211939096586
 30
0.0
  0
VERTEX
  5
46C
  8
OUTER_LAYER
 10
3.388481379951141
 20
5.259549496459387
 30
0.0
  0
VERTEX
  5
46D
  8
OUTER_LAYER
 10
3.404830880537359
 20
5.252022270161197
 30
0.0
  0
VERTEX
  5
46E
  8
OUTER_LAYER
 10
3.421421312152787
 20
5.243610652737347
 30
0.0
  0
VERTEX
  5
46F
  8
OUTER_LAYER
 10
3.438229281052394
 20
5.234299159897128
 30
0.0
  0
VERTEX
  5
470
  8
OUTER_LAYER
 10
3.45522753571633
 20
5.224076514688285
 30
0.0
  0
VERTEX
  5
471
  8
OUTER_LAYER
 10
3.472386179848642
 20
5.21293553697658
 30
0.0
  0
VERTEX
  5
472
  8
OUTER_LAYER
 10
3.489673696264205
 20
5.200872897808676
 30
0.0
  0
VERTEX
  5
473
  8
OUTER_LAYER
 10
3.507057780363119
 20
5.187888789679494
 30
0.0
  0
VERTEX
  5
474
  8
OUTER_LAYER
 10
3.524505995338403
 20
5.173986553477756
 30
0.0
  0
VERTEX
  5
475
  8
OUTER_LAYER
 10
3.541986268967607
 20
5.159172292702582
 30
0.0
  0
VERTEX
  5
476
  8
OUTER_LAYER
 10
3.559467255211198
 20
5.14345449646265
 30
0.0
  0
VERTEX
  5
477
  8
OUTER_LAYER
 10
3.576918584228933
 20
5.12684368525668
 30
0.0
  0
VERTEX
  5
478
  8
OUTER_LAYER
 10
3.594311022953567
 20
5.109352087682925
 30
0.0
  0
VERTEX
  5
479
  8
OUTER_LAYER
 10
3.611616565886815
 20
5.09099335190514
 30
0.0
  0
VERTEX
  5
47A
  8
OUTER_LAYER
 10
3.628808472902755
 20
5.071782292679433
 30
0.0
  0
VERTEX
  5
47B
  8
OUTER_LAYER
 10
3.645861267945167
 20
5.051734672756579
 30
0.0
  0
VERTEX
  5
47C
  8
OUTER_LAYER
 10
3.662750709815133
 20
5.030867016265691
 30
0.0
  0
VERTEX
  5
47D
  8
OUTER_LAYER
 10
3.679453743874086
 20
5.009196451044065
 30
0.0
  0
VERTEX
  5
47E
  8
OUTER_LAYER
 10
3.695948441476379
 20
4.986740576628295
 30
0.0
  0
VERTEX
  5
47F
  8
OUTER_LAYER
 10
3.712213932286261
 20
4.963517354631287
 30
0.0
  0
VERTEX
  5
480
  8
OUTER_LAYER
 10
3.728230333297574
 20
4.939545018398322
 30
0.0
  0
VERTEX
  5
481
  8
OUTER_LAYER
 10
3.743978677317494
 20
4.914841999093627
 30
0.0
  0
VERTEX
  5
482
  8
OUTER_LAYER
 10
3.759440842854505
 20
4.889426865668266
 30
0.0
  0
VERTEX
  5
483
  8
OUTER_LAYER
 10
3.774599486722749
 20
4.863318276468814
 30
0.0
  0
VERTEX
  5
484
  8
OUTER_LAYER
 10
3.789437980201754
 20
4.836534940545282
 30
0.0
  0
VERTEX
  5
485
  8
OUTER_LAYER
 10
3.803940349240221
 20
4.809095586993798
 30
0.0
  0
VERTEX
  5
486
  8
OUTER_LAYER
 10
3.818091218937379
 20
4.781018940919719
 30
0.0
  0
VERTEX
  5
487
  8
OUTER_LAYER
 10
3.831875762353818
 20
4.752323704828084
 30
0.0
  0
VERTEX
  5
488
  8
OUTER_LAYER
 10
3.845279653577733
 20
4.723028544440218
 30
0.0
  0
VERTEX
  5
489
  8
OUTER_LAYER
 10
3.858289024888109
 20
4.693152078101473
 30
0.0
  0
VERTEX
  5
48A
  8
OUTER_LAYER
 10
3.870890427803405
 20
4.662712869085057
 30
0.0
  0
VERTEX
  5
48B
  8
OUTER_LAYER
 10
3.883070797773393
 20
4.631729420216799
 30
0.0
  0
VERTEX
  5
48C
  8
OUTER_LAYER
 10
3.894817422257507
 20
4.600220170345197
 30
0.0
  0
VERTEX
  5
48D
  8
OUTER_LAYER
 10
3.90611791193002
 20
4.568203492264963
 30
0.0
  0
VERTEX
  5
48E
  8
OUTER_LAYER
 10
3.916960174757138
 20
4.53569769177185
 30
0.0
  0
VERTEX
  5
48F
  8
OUTER_LAYER
 10
3.927332392701196
 20
4.50272100758384
 30
0.0
  0
VERTEX
  5
490
  8
OUTER_LAYER
 10
3.937223000820011
 20
4.469291611912052
 30
0.0
  0
VERTEX
  5
491
  8
OUTER_LAYER
 10
3.94662066854463
 20
4.435427611503183
 30
0.0
  0
VERTEX
  5
492
  8
OUTER_LAYER
 10
3.955514282934128
 20
4.401147049008042
 30
0.0
  0
VERTEX
  5
493
  8
OUTER_LAYER
 10
3.963892933721938
 20
4.366467904556728
 30
0.0
  0
VERTEX
  5
494
  8
OUTER_LAYER
 10
3.971745899983277
 20
4.331408097442704
 30
0.0
  0
VERTEX
  5
495
  8
OUTER_LAYER
 10
3.979062638267815
 20
4.295985487835234
 30
0.0
  0
VERTEX
  5
496
  8
OUTER_LAYER
 10
3.985832772055146
 20
4.260217878454048
 30
0.0
  0
VERTEX
  5
497
  8
OUTER_LAYER
 10
3.992046082402994
 20
4.224123016151335
 30
0.0
  0
VERTEX
  5
498
  8
OUTER_LAYER
 10
3.997692499669429
 20
4.187718593355342
 30
0.0
  0
VERTEX
  5
499
  8
OUTER_LAYER
 10
4.002762096200382
 20
4.151022249337133
 30
0.0
  0
VERTEX
  5
49A
  8
OUTER_LAYER
 10
4.007245079882756
 20
4.114051571268104
 30
0.0
  0
VERTEX
  5
49B
  8
OUTER_LAYER
 10
4.011131788471293
 20
4.076824095040006
 30
0.0
  0
VERTEX
  5
49C
  8
OUTER_LAYER
 10
4.014412684604144
 20
4.039357305823367
 30
0.0
  0
VERTEX
  5
49D
  8
OUTER_LAYER
 10
4.017078351427882
 20
4.001668638342489
 30
0.0
  0
VERTEX
  5
49E
  8
OUTER_LAYER
 10
4.019119488757536
 20
3.963775476847865
 30
0.0
  0
VERTEX
  5
49F
  8
OUTER_LAYER
 10
4.020526909701177
 20
3.925695154768396
 30
0.0
  0
VERTEX
  5
4A0
  8
OUTER_LAYER
 10
4.021291537681584
 20
3.88744495402726
 30
0.0
  0
VERTEX
  5
4A1
  8
OUTER_LAYER
 10
4.021404403789918
 20
3.849042104006552
 30
0.0
  0
VERTEX
  5
4A2
  8
OUTER_LAYER
 10
4.020856306297541
 20
3.810479991963592
 30
0.0
  0
VERTEX
  5
4A3
  8
OUTER_LAYER
 10
4.019557808994859
 20
3.768751280829316
 30
0.0
  0
VERTEX
  5
4A4
  8
OUTER_LAYER
 10
4.017584992963968
 20
3.727624862952222
 30
0.0
  0
VERTEX
  5
4A5
  8
OUTER_LAYER
 10
4.014946079239933
 20
3.687142422443606
 30
0.0
  0
VERTEX
  5
4A6
  8
OUTER_LAYER
 10
4.011648776951622
 20
3.647320784671512
 30
0.0
  0
VERTEX
  5
4A7
  8
OUTER_LAYER
 10
4.007701088760133
 20
3.608176904594781
 30
0.0
  0
VERTEX
  5
4A8
  8
OUTER_LAYER
 10
4.003111341892871
 20
3.569727868620397
 30
0.0
  0
VERTEX
  5
4A9
  8
OUTER_LAYER
 10
3.997888222560816
 20
3.531990895153507
 30
0.0
  0
VERTEX
  5
4AA
  8
OUTER_LAYER
 10
3.992040814066876
 20
3.494983333432866
 30
0.0
  0
VERTEX
  5
4AB
  8
OUTER_LAYER
 10
3.985578638914409
 20
3.458722660150419
 30
0.0
  0
VERTEX
  5
4AC
  8
OUTER_LAYER
 10
3.978511705213986
 20
3.423226473241776
 30
0.0
  0
VERTEX
  5
4AD
  8
OUTER_LAYER
 10
3.970850557658375
 20
3.388512482100483
 30
0.0
  0
VERTEX
  5
4AE
  8
OUTER_LAYER
 10
3.962606333283348
 20
3.354598493310728
 30
0.0
  0
VERTEX
  5
4AF
  8
OUTER_LAYER
 10
3.95379082214667
 20
3.32150239080784
 30
0.0
  0
VERTEX
  5
4B0
  8
OUTER_LAYER
 10
3.944416532927444
 20
3.289242109160412
 30
0.0
  0
VERTEX
  5
4B1
  8
OUTER_LAYER
 10
3.934496763258759
 20
3.257835598422094
 30
0.0
  0
VERTEX
  5
4B2
  8
OUTER_LAYER
 10
3.9240456743391
 20
3.227300778723547
 30
0.0
  0
VERTEX
  5
4B3
  8
OUTER_LAYER
 10
3.913078369000335
 20
3.197655482471077
 30
0.0
  0
VERTEX
  5
4B4
  8
OUTER_LAYER
 10
3.901610971914107
 20
3.168917381694182
 30
0.0
  0
VERTEX
  5
4B5
  8
OUTER_LAYER
 10
3.889660709962666
 20
3.141103897755002
 30
0.0
  0
VERTEX
  5
4B6
  8
OUTER_LAYER
 10
3.877245989948315
 20
3.114232090322662
 30
0.0
  0
VERTEX
  5
4B7
  8
OUTER_LAYER
 10
3.864386469729237
 20
3.088318522261145
 30
0.0
  0
VERTEX
  5
4B8
  8
OUTER_LAYER
 10
3.851103117511921
 20
3.063379096937195
 30
0.0
  0
VERTEX
  5
4B9
  8
OUTER_LAYER
 10
3.837418252372176
 20
3.039428864501835
 30
0.0
  0
VERTEX
  5
4BA
  8
OUTER_LAYER
 10
3.82335555710556
 20
3.016481794041846
 30
0.0
  0
VERTEX
  5
4BB
  8
OUTER_LAYER
 10
3.808940052245164
 20
2.994550509275075
 30
0.0
  0
VERTEX
  5
4BC
  8
OUTER_LAYER
 10
3.794198017603394
 20
2.973645986847408
 30
0.0
  0
VERTEX
  5
4BD
  8
OUTER_LAYER
 10
3.77915684515089
 20
2.953777218482403
 30
0.0
  0
VERTEX
  5
4BE
  8
OUTER_LAYER
 10
3.763844804709734
 20
2.934950841453329
 30
0.0
  0
VERTEX
  5
4BF
  8
OUTER_LAYER
 10
3.748290702232707
 20
2.917170746294911
 30
0.0
  0
VERTEX
  5
4C0
  8
OUTER_LAYER
 10
3.732523409969319
 20
2.900437676483454
 30
0.0
  0
VERTEX
  5
4C1
  8
OUTER_LAYER
 10
3.716571249383
 20
2.884748841980356
 30
0.0
  0
VERTEX
  5
4C2
  8
OUTER_LAYER
 10
3.699178469686291
 20
2.868930987215125
 30
0.0
  0
VERTEX
  5
4C3
  8
OUTER_LAYER
 10
3.622157128978702
 20
2.801634947094165
 30
0.0
  0
VERTEX
  5
4C4
  8
OUTER_LAYER
 10
3.239850368574755
 20
2.639442737275192
 30
0.0
  0
VERTEX
  5
4C5
  8
OUTER_LAYER
 10
3.048637704585698
 20
2.55897754951266
 30
0.0
  0
VERTEX
  5
4C6
  8
OUTER_LAYER
 10
2.83067234235291
 20
2.468293265629972
 30
0.0
  0
VERTEX
  5
4C7
  8
OUTER_LAYER
 10
2.612839232749327
 20
2.378522635788091
 30
0.0
  0
VERTEX
  5
4C8
  8
OUTER_LAYER
 10
2.422021119381802
 20
2.300796878162733
 30
0.0
  0
VERTEX
  5
4C9
  8
OUTER_LAYER
 10
2.012643980997946
 20
2.135457307203745
 30
0.0
  0
VERTEX
  5
4CA
  8
OUTER_LAYER
 10
2.00148176898269
 20
2.130552938692056
 30
0.0
  0
VERTEX
  5
4CB
  8
OUTER_LAYER
 10
1.990780194654047
 20
2.125049374434114
 30
0.0
  0
VERTEX
  5
4CC
  8
OUTER_LAYER
 10
1.980571566322606
 20
2.118970301219462
 30
0.0
  0
VERTEX
  5
4CD
  8
OUTER_LAYER
 10
1.970888192298955
 20
2.112339405837647
 30
0.0
  0
VERTEX
  5
4CE
  8
OUTER_LAYER
 10
1.961762380893684
 20
2.105180375078214
 30
0.0
  0
VERTEX
  5
4CF
  8
OUTER_LAYER
 10
1.953226440417382
 20
2.097516895730707
 30
0.0
  0
VERTEX
  5
4D0
  8
OUTER_LAYER
 10
1.945312679180638
 20
2.089372654584673
 30
0.0
  0
VERTEX
  5
4D1
  8
OUTER_LAYER
 10
1.938053405494041
 20
2.080771338429656
 30
0.0
  0
VERTEX
  5
4D2
  8
OUTER_LAYER
 10
1.897527664215483
 20
2.02911652911565
 30
0.0
  0
VERTEX
  5
4D3
  8
OUTER_LAYER
 10
1.881595069355126
 20
2.005529618278656
 30
0.0
  0
VERTEX
  5
4D4
  8
OUTER_LAYER
 10
1.867458277740395
 20
1.977675357085631
 30
0.0
  0
VERTEX
  5
4D5
  8
OUTER_LAYER
 10
1.857040217939104
 20
1.950296858608307
 30
0.0
  0
VERTEX
  5
4D6
  8
OUTER_LAYER
 10
1.849509662590644
 20
1.923029932708511
 30
0.0
  0
VERTEX
  5
4D7
  8
OUTER_LAYER
 10
1.844459768943349
 20
1.895614596586649
 30
0.0
  0
VERTEX
  5
4D8
  8
OUTER_LAYER
 10
1.841744601463219
 20
1.867866391851792
 30
0.0
  0
VERTEX
  5
4D9
  8
OUTER_LAYER
 10
1.84140707007956
 20
1.839636142963926
 30
0.0
  0
VERTEX
  5
4DA
  8
OUTER_LAYER
 10
1.843517997356904
 20
1.812662756296266
 30
0.0
  0
VERTEX
  5
4DB
  8
OUTER_LAYER
 10
1.84642883618789
 20
1.793036794291969
 30
0.0
  0
VERTEX
  5
4DC
  8
OUTER_LAYER
 10
1.850250773400332
 20
1.774158570821038
 30
0.0
  0
VERTEX
  5
4DD
  8
OUTER_LAYER
 10
1.85558761994544
 20
1.754347455363716
 30
0.0
  0
VERTEX
  5
4DE
  8
OUTER_LAYER
 10
1.862584749164012
 20
1.734072464853224
 30
0.0
  0
VERTEX
  5
4DF
  8
OUTER_LAYER
 10
1.871193647842811
 20
1.713791854944183
 30
0.0
  0
VERTEX
  5
4E0
  8
OUTER_LAYER
 10
1.881247611026832
 20
1.693778066985359
 30
0.0
  0
VERTEX
  5
4E1
  8
OUTER_LAYER
 10
1.892582962373351
 20
1.674046748307783
 30
0.0
  0
VERTEX
  5
4E2
  8
OUTER_LAYER
 10
1.905126789117194
 20
1.654390430486498
 30
0.0
  0
VERTEX
  5
4E3
  8
OUTER_LAYER
 10
1.918921291824892
 20
1.634460263538452
 30
0.0
  0
VERTEX
  5
4E4
  8
OUTER_LAYER
 10
1.934515384895546
 20
1.613284297168323
 30
0.0
  0
VERTEX
  5
4E5
  8
OUTER_LAYER
 10
1.969288446871609
 20
1.569050343519805
 30
0.0
  0
VERTEX
  5
4E6
  8
OUTER_LAYER
 10
2.012883960955056
 20
1.516400565345728
 30
0.0
  0
VERTEX
  5
4E7
  8
OUTER_LAYER
 10
2.066612783357346
 20
1.453217716458233
 30
0.0
  0
VERTEX
  5
4E8
  8
OUTER_LAYER
 10
2.104589368426255
 20
1.409302038582826
 30
0.0
  0
VERTEX
  5
4E9
  8
OUTER_LAYER
 10
2.141440015682639
 20
1.367565289824208
 30
0.0
  0
VERTEX
  5
4EA
  8
OUTER_LAYER
 10
2.177385747882629
 20
1.327820072896509
 30
0.0
  0
VERTEX
  5
4EB
  8
OUTER_LAYER
 10
2.212665163797058
 20
1.289860798995733
 30
0.0
  0
VERTEX
  5
4EC
  8
OUTER_LAYER
 10
2.24750991298456
 20
1.253490934470599
 30
0.0
  0
VERTEX
  5
4ED
  8
OUTER_LAYER
 10
2.282142565725576
 20
1.218523700290061
 30
0.0
  0
VERTEX
  5
4EE
  8
OUTER_LAYER
 10
2.316774874133022
 20
1.184781783705565
 30
0.0
  0
VERTEX
  5
4EF
  8
OUTER_LAYER
 10
2.351606885237809
 20
1.152095853300286
 30
0.0
  0
VERTEX
  5
4F0
  8
OUTER_LAYER
 10
2.386827335733808
 20
1.120301891252748
 30
0.0
  0
VERTEX
  5
4F1
  8
OUTER_LAYER
 10
2.422615574997707
 20
1.089237637066533
 30
0.0
  0
VERTEX
  5
4F2
  8
OUTER_LAYER
 10
2.459144944371482
 20
1.058738683444223
 30
0.0
  0
VERTEX
  5
4F3
  8
OUTER_LAYER
 10
2.496587175449098
 20
1.028634878309821
 30
0.0
  0
VERTEX
  5
4F4
  8
OUTER_LAYER
 10
2.535117091146198
 20
0.9987476138297833
 30
0.0
  0
VERTEX
  5
4F5
  8
OUTER_LAYER
 10
2.574916813032474
 20
0.9688883491324337
 30
0.0
  0
VERTEX
  5
4F6
  8
OUTER_LAYER
 10
2.616178826264344
 20
0.9388584111968326
 30
0.0
  0
VERTEX
  5
4F7
  8
OUTER_LAYER
 10
2.659381745584961
 20
0.9082556395443506
 30
0.0
  0
VERTEX
  5
4F8
  8
OUTER_LAYER
 10
2.688152085898726
 20
0.8885072227941953
 30
0.0
  0
VERTEX
  5
4F9
  8
OUTER_LAYER
 10
2.717512968418616
 20
0.8691150198056409
 30
0.0
  0
VERTEX
  5
4FA
  8
OUTER_LAYER
 10
2.747212154070232
 20
0.8502463564119916
 30
0.0
  0
VERTEX
  5
4FB
  8
OUTER_LAYER
 10
2.777239242161247
 20
0.8319025274986214
 30
0.0
  0
VERTEX
  5
4FC
  8
OUTER_LAYER
 10
2.807583856226242
 20
0.8140847865915636
 30
0.0
  0
VERTEX
  5
4FD
  8
OUTER_LAYER
 10
2.83823564628015
 20
0.7967943487449384
 30
0.0
  0
VERTEX
  5
4FE
  8
OUTER_LAYER
 10
2.869184290772824
 20
0.7800323935177673
 30
0.0
  0
VERTEX
  5
4FF
  8
OUTER_LAYER
 10
2.900419498199489
 20
0.7638000680439854
 30
0.0
  0
VERTEX
  5
500
  8
OUTER_LAYER
 10
2.931931008384209
 20
0.7480984901621482
 30
0.0
  0
VERTEX
  5
501
  8
OUTER_LAYER
 10
2.963708593443873
 20
0.7329287515812418
 30
0.0
  0
VERTEX
  5
502
  8
OUTER_LAYER
 10
2.99574205842992
 20
0.7182919210653965
 30
0.0
  0
VERTEX
  5
503
  8
OUTER_LAYER
 10
3.028021241646381
 20
0.704189047620372
 30
0.0
  0
VERTEX
  5
504
  8
OUTER_LAYER
 10
3.060536014666
 20
0.6906211636564679
 30
0.0
  0
VERTEX
  5
505
  8
OUTER_LAYER
 10
3.093276282035092
 20
0.6775892881170523
 30
0.0
  0
VERTEX
  5
506
  8
OUTER_LAYER
 10
3.126231980688078
 20
0.6650944295508603
 30
0.0
  0
VERTEX
  5
507
  8
OUTER_LAYER
 10
3.159393079076824
 20
0.6531375891139131
 30
0.0
  0
VERTEX
  5
508
  8
OUTER_LAYER
 10
3.192749576007679
 20
0.6417197634921091
 30
0.0
  0
VERTEX
  5
509
  8
OUTER_LAYER
 10
3.226291499238279
 20
0.6308419477152907
 30
0.0
  0
VERTEX
  5
50A
  8
OUTER_LAYER
 10
3.260008903791049
 20
0.6205051378688787
 30
0.0
  0
VERTEX
  5
50B
  8
OUTER_LAYER
 10
3.293891870022344
 20
0.6107103336795111
 30
0.0
  0
VERTEX
  5
50C
  8
OUTER_LAYER
 10
3.327930501471513
 20
0.6014585409595937
 30
0.0
  0
VERTEX
  5
50D
  8
OUTER_LAYER
 10
3.362114922462885
 20
0.5927507739110616
 30
0.0
  0
VERTEX
  5
50E
  8
OUTER_LAYER
 10
3.396435275496345
 20
0.5845880572690889
 30
0.0
  0
VERTEX
  5
50F
  8
OUTER_LAYER
 10
3.430881718438503
 20
0.5769714282761383
 30
0.0
  0
VERTEX
  5
510
  8
OUTER_LAYER
 10
3.465444421504905
 20
0.5699019384804609
 30
0.0
  0
VERTEX
  5
511
  8
OUTER_LAYER
 10
3.500113564066117
 20
0.5633806553441625
 30
0.0
  0
VERTEX
  5
512
  8
OUTER_LAYER
 10
3.534879331276791
 20
0.5574086636535402
 30
0.0
  0
VERTEX
  5
513
  8
OUTER_LAYER
 10
3.569731910539554
 20
0.5519870667219882
 30
0.0
  0
VERTEX
  5
514
  8
OUTER_LAYER
 10
3.604661487815091
 20
0.5471169873749764
 30
0.0
  0
VERTEX
  5
515
  8
OUTER_LAYER
 10
3.639658243796898
 20
0.5427995687068811
 30
0.0
  0
VERTEX
  5
516
  8
OUTER_LAYER
 10
3.674712349952935
 20
0.5390359746009596
 30
0.0
  0
VERTEX
  5
517
  8
OUTER_LAYER
 10
3.7098139644565
 20
0.5358273900012188
 30
0.0
  0
VERTEX
  5
518
  8
OUTER_LAYER
 10
3.744953228016967
 20
0.5331750209268722
 30
0.0
  0
VERTEX
  5
519
  8
OUTER_LAYER
 10
3.780120259627253
 20
0.5310800942189846
 30
0.0
  0
VERTEX
  5
51A
  8
OUTER_LAYER
 10
3.815305152238707
 20
0.5295438570099114
 30
0.0
  0
VERTEX
  5
51B
  8
OUTER_LAYER
 10
3.850497968394201
 20
0.5285675759044896
 30
0.0
  0
VERTEX
  5
51C
  8
OUTER_LAYER
 10
3.885688735824842
 20
0.5281525358645447
 30
0.0
  0
VERTEX
  5
51D
  8
OUTER_LAYER
 10
3.92086744304453
 20
0.5283000387865422
 30
0.0
  0
VERTEX
  5
51E
  8
OUTER_LAYER
 10
3.956024034955582
 20
0.5290114017643639
 30
0.0
  0
VERTEX
  5
51F
  8
OUTER_LAYER
 10
3.99114840850308
 20
0.5302879550287607
 30
0.0
  0
VERTEX
  5
520
  8
OUTER_LAYER
 10
4.026230408388222
 20
0.5321310395568
 30
0.0
  0
VERTEX
  5
521
  8
OUTER_LAYER
 10
4.061259822893486
 20
0.5345420043458191
 30
0.0
  0
VERTEX
  5
522
  8
OUTER_LAYER
 10
4.096226379828902
 20
0.5375222033469674
 30
0.0
  0
VERTEX
  5
523
  8
OUTER_LAYER
 10
4.131119742652099
 20
0.541072992056875
 30
0.0
  0
VERTEX
  5
524
  8
OUTER_LAYER
 10
4.165929506794543
 20
0.5451957237671838
 30
0.0
  0
VERTEX
  5
525
  8
OUTER_LAYER
 10
4.20064519622384
 20
0.5498917454734681
 30
0.0
  0
VERTEX
  5
526
  8
OUTER_LAYER
 10
4.235256260295238
 20
0.5551623934495244
 30
0.0
  0
VERTEX
  5
527
  8
OUTER_LAYER
 10
4.269752070937651
 20
0.561008988496684
 30
0.0
  0
VERTEX
  5
528
  8
OUTER_LAYER
 10
4.304121920200849
 20
0.5674328308772125
 30
0.0
  0
VERTEX
  5
529
  8
OUTER_LAYER
 10
4.338355018232201
 20
0.5744351949514159
 30
0.0
  0
VERTEX
  5
52A
  8
OUTER_LAYER
 10
4.372440491717001
 20
0.5820173235373336
 30
0.0
  0
VERTEX
  5
52B
  8
OUTER_LAYER
 10
4.406367382828007
 20
0.5901804220173889
 30
0.0
  0
VERTEX
  5
52C
  8
OUTER_LAYER
 10
4.440124648741362
 20
0.5989256522246229
 30
0.0
  0
VERTEX
  5
52D
  8
OUTER_LAYER
 10
4.473701161749467
 20
0.6082541261403747
 30
0.0
  0
VERTEX
  5
52E
  8
OUTER_LAYER
 10
4.507085710030386
 20
0.6181668994479155
 30
0.0
  0
VERTEX
  5
52F
  8
OUTER_LAYER
 10
4.540266999092554
 20
0.6286649649820215
 30
0.0
  0
VERTEX
  5
530
  8
OUTER_LAYER
 10
4.573233653956706
 20
0.639749246132508
 30
0.0
  0
VERTEX
  5
531
  8
OUTER_LAYER
 10
4.605974222088251
 20
0.6514205902531067
 30
0.0
  0
VERTEX
  5
532
  8
OUTER_LAYER
 10
4.638477177108941
 20
0.6636797621367176
 30
0.0
  0
VERTEX
  5
533
  8
OUTER_LAYER
 10
4.670730923310174
 20
0.676527437623966
 30
0.0
  0
VERTEX
  5
534
  8
OUTER_LAYER
 10
4.702723800972534
 20
0.6899641974109221
 30
0.0
  0
VERTEX
  5
535
  8
OUTER_LAYER
 10
4.734444092511593
 20
0.7039905211359689
 30
0.0
  0
VERTEX
  5
536
  8
OUTER_LAYER
 10
4.765880029420807
 20
0.7186067818120032
 30
0.0
  0
VERTEX
  5
537
  8
OUTER_LAYER
 10
4.797563900290697
 20
0.7340789407337462
 30
0.0
  0
VERTEX
  5
538
  8
OUTER_LAYER
 10
4.843421614821054
 20
0.7579327538800715
 30
0.0
  0
VERTEX
  5
539
  8
OUTER_LAYER
 10
4.889668630169806
 20
0.7837906325906272
 30
0.0
  0
VERTEX
  5
53A
  8
OUTER_LAYER
 10
4.935721421848247
 20
0.8112819690457721
 30
0.0
  0
VERTEX
  5
53B
  8
OUTER_LAYER
 10
4.981584407333335
 20
0.8403499710772363
 30
0.0
  0
VERTEX
  5
53C
  8
OUTER_LAYER
 10
5.027255469249829
 20
0.8709408715262186
 30
0.0
  0
VERTEX
  5
53D
  8
OUTER_LAYER
 10
5.072726680817008
 20
0.9030030305960639
 30
0.0
  0
VERTEX
  5
53E
  8
OUTER_LAYER
 10
5.117985013484439
 20
0.9364862757650316
 30
0.0
  0
VERTEX
  5
53F
  8
OUTER_LAYER
 10
5.16301299437986
 20
0.9713414215333708
 30
0.0
  0
VERTEX
  5
540
  8
OUTER_LAYER
 10
5.207789299050045
 20
1.007519923897212
 30
0.0
  0
VERTEX
  5
541
  8
OUTER_LAYER
 10
5.252289275509571
 20
1.044973634983938
 30
0.0
  0
VERTEX
  5
542
  8
OUTER_LAYER
 10
5.296485401552538
 20
1.083654631754709
 30
0.0
  0
VERTEX
  5
543
  8
OUTER_LAYER
 10
5.34034768031339
 20
1.123515099256132
 30
0.0
  0
VERTEX
  5
544
  8
OUTER_LAYER
 10
5.383843980350383
 20
1.164507253913374
 30
0.0
  0
VERTEX
  5
545
  8
OUTER_LAYER
 10
5.426940326860347
 20
1.206583296185774
 30
0.0
  0
VERTEX
  5
546
  8
OUTER_LAYER
 10
5.469601150338632
 20
1.249695384713537
 30
0.0
  0
VERTEX
  5
547
  8
OUTER_LAYER
 10
5.511789498465022
 20
1.293795626198782
 30
0.0
  0
VERTEX
  5
548
  8
OUTER_LAYER
 10
5.553467216391812
 20
1.338836076882108
 30
0.0
  0
VERTEX
  5
549
  8
OUTER_LAYER
 10
5.594595099833449
 20
1.384768752534421
 30
0.0
  0
VERTEX
  5
54A
  8
OUTER_LAYER
 10
5.635133024851657
 20
1.431545644890529
 30
0.0
  0
VERTEX
  5
54B
  8
OUTER_LAYER
 10
5.675040057465412
 20
1.479118742911393
 30
0.0
  0
VERTEX
  5
54C
  8
OUTER_LAYER
 10
5.714274545863879
 20
1.527440057935676
 30
0.0
  0
VERTEX
  5
54D
  8
OUTER_LAYER
 10
5.752794197358003
 20
1.576461651954204
 30
0.0
  0
VERTEX
  5
54E
  8
OUTER_LAYER
 10
5.790556141868914
 20
1.626135668595762
 30
0.0
  0
VERTEX
  5
54F
  8
OUTER_LAYER
 10
5.827516983376119
 20
1.676414366617081
 30
0.0
  0
VERTEX
  5
550
  8
OUTER_LAYER
 10
5.863632840375944
 20
1.72725015579824
 30
0.0
  0
VERTEX
  5
551
  8
OUTER_LAYER
 10
5.898859376076595
 20
1.778595635231583
 30
0.0
  0
VERTEX
  5
552
  8
OUTER_LAYER
 10
5.93315181882655
 20
1.830403634153678
 30
0.0
  0
VERTEX
  5
553
  8
OUTER_LAYER
 10
5.966464972931084
 20
1.882627255444028
 30
0.0
  0
VERTEX
  5
554
  8
OUTER_LAYER
 10
5.998753219734703
 20
1.935219921935308
 30
0.0
  0
VERTEX
  5
555
  8
OUTER_LAYER
 10
6.029970508612188
 20
1.988135425760246
 30
0.0
  0
VERTEX
  5
556
  8
OUTER_LAYER
 10
6.060070337134471
 20
2.041327980813902
 30
0.0
  0
VERTEX
  5
557
  8
OUTER_LAYER
 10
6.071542769209203
 20
2.062509889513636
 30
0.0
  0
VERTEX
  5
558
  8
OUTER_LAYER
 10
6.075717542134905
 20
2.065527637248589
 30
0.0
  0
VERTEX
  5
559
  8
OUTER_LAYER
 10
6.109887923600364
 20
2.089556100805421
 30
0.0
  0
VERTEX
  5
55A
  8
OUTER_LAYER
 10
6.143899511425356
 20
2.11279628656204
 30
0.0
  0
VERTEX
  5
55B
  8
OUTER_LAYER
 10
6.177749276837559
 20
2.135247982547566
 30
0.0
  0
VERTEX
  5
55C
  8
OUTER_LAYER
 10
6.211428639931261
 20
2.156907399943903
 30
0.0
  0
VERTEX
  5
55D
  8
OUTER_LAYER
 10
6.244928827817521
 20
2.177770963403636
 30
0.0
  0
VERTEX
  5
55E
  8
OUTER_LAYER
 10
6.278240880173597
 20
2.197835337619708
 30
0.0
  0
VERTEX
  5
55F
  8
OUTER_LAYER
 10
6.311355658378148
 20
2.217097456194456
 30
0.0
  0
VERTEX
  5
560
  8
OUTER_LAYER
 10
6.344263858946662
 20
2.235554552798219
 30
0.0
  0
VERTEX
  5
561
  8
OUTER_LAYER
 10
6.376956032071337
 20
2.253204194538873
 30
0.0
  0
VERTEX
  5
562
  8
OUTER_LAYER
 10
6.409422606159229
 20
2.2700443173739
 30
0.0
  0
VERTEX
  5
563
  8
OUTER_LAYER
 10
6.441653919347131
 20
2.28607326328278
 30
0.0
  0
VERTEX
  5
564
  8
OUTER_LAYER
 10
6.47364025904586
 20
2.301289818776033
 30
0.0
  0
VERTEX
  5
565
  8
OUTER_LAYER
 10
6.505371910621205
 20
2.315693254145068
 30
0.0
  0
VERTEX
  5
566
  8
OUTER_LAYER
 10
6.536839216343993
 20
2.329283362651567
 30
0.0
  0
VERTEX
  5
567
  8
OUTER_LAYER
 10
6.568032645723966
 20
2.342060498615725
 30
0.0
  0
VERTEX
  5
568
  8
OUTER_LAYER
 10
6.59894287826588
 20
2.354025613089982
 30
0.0
  0
VERTEX
  5
569
  8
OUTER_LAYER
 10
6.629560899533604
 20
2.365180285503448
 30
0.0
  0
VERTEX
  5
56A
  8
OUTER_LAYER
 10
6.65987811115838
 20
2.375526749339941
 30
0.0
  0
VERTEX
  5
56B
  8
OUTER_LAYER
 10
6.689886455060885
 20
2.385067909583274
 30
0.0
  0
VERTEX
  5
56C
  8
OUTER_LAYER
 10
6.719578551652705
 20
2.393807349347149
 30
0.0
  0
VERTEX
  5
56D
  8
OUTER_LAYER
 10
6.748947851125535
 20
2.401749322831315
 30
0.0
  0
VERTEX
  5
56E
  8
OUTER_LAYER
 10
6.777988796116092
 20
2.408898731546252
 30
0.0
  0
VERTEX
  5
56F
  8
OUTER_LAYER
 10
6.806696993053431
 20
2.415261080668676
 30
0.0
  0
VERTEX
  5
570
  8
OUTER_LAYER
 10
6.835069388370872
 20
2.42084241247933
 30
0.0
  0
VERTEX
  5
571
  8
OUTER_LAYER
 10
6.863104444536208
 20
2.425649214145121
 30
0.0
  0
VERTEX
  5
572
  8
OUTER_LAYER
 10
6.890802309586102
 20
2.429688297690102
 30
0.0
  0
VERTEX
  5
573
  8
OUTER_LAYER
 10
6.918164972636724
 20
2.432966650894956
 30
0.0
  0
VERTEX
  5
574
  8
OUTER_LAYER
 10
6.945196396803405
 20
2.435491259094564
 30
0.0
  0
VERTEX
  5
575
  8
OUTER_LAYER
 10
6.971902620242231
 20
2.437268899401263
 30
0.0
  0
VERTEX
  5
576
  8
OUTER_LAYER
 10
6.998291815781693
 20
2.438305910721665
 30
0.0
  0
VERTEX
  5
577
  8
OUTER_LAYER
 10
7.025954945649312
 20
2.43862624878559
 30
0.0
  0
VERTEX
  5
578
  8
OUTER_LAYER
 10
7.273380235660976
 20
2.438020777055983
 30
0.0
  0
VERTEX
  5
579
  8
OUTER_LAYER
 10
9.607123755487274
 20
2.436839259100326
 30
0.0
  0
VERTEX
  5
57A
  8
OUTER_LAYER
 10
14.48826834844694
 20
2.433531445846312
 30
0.0
  0
VERTEX
  5
57B
  8
OUTER_LAYER
 10
17.09880867225038
 20
2.431290008409495
 30
0.0
  0
VERTEX
  5
57C
  8
OUTER_LAYER
 10
19.40377751296574
 20
2.428768838654228
 30
0.0
  0
VERTEX
  5
57D
  8
OUTER_LAYER
 10
21.08896456981407
 20
2.426052029956954
 30
0.0
  0
VERTEX
  5
57E
  8
OUTER_LAYER
 10
21.60061478668793
 20
2.424647594583877
 30
0.0
  0
VERTEX
  5
57F
  8
OUTER_LAYER
 10
21.82543997348775
 20
2.423311041502463
 30
0.0
  0
VERTEX
  5
580
  8
OUTER_LAYER
 10
21.90891977980847
 20
2.412102815801871
 30
0.0
  0
VERTEX
  5
581
  8
OUTER_LAYER
 10
21.98949676727728
 20
2.401771774006789
 30
0.0
  0
VERTEX
  5
582
  8
OUTER_LAYER
 10
22.04610777411269
 20
2.395409162568267
 30
0.0
  0
VERTEX
  5
583
  8
OUTER_LAYER
 10
22.05303119810049
 20
2.394813943423842
 30
0.0
  0
VERTEX
  5
584
  8
OUTER_LAYER
 10
22.23598067617201
 20
2.327268388532431
 30
0.0
  0
VERTEX
  5
585
  8
OUTER_LAYER
 10
22.27115571067504
 20
2.313570480094775
 30
0.0
  0
VERTEX
  5
586
  8
OUTER_LAYER
 10
22.30856253715258
 20
2.297726499019968
 30
0.0
  0
VERTEX
  5
587
  8
OUTER_LAYER
 10
22.34922081068666
 20
2.279390342143721
 30
0.0
  0
VERTEX
  5
588
  8
OUTER_LAYER
 10
22.39234700662664
 20
2.258971397919906
 30
0.0
  0
VERTEX
  5
589
  8
OUTER_LAYER
 10
22.43726925593197
 20
2.236859922680745
 30
0.0
  0
VERTEX
  5
58A
  8
OUTER_LAYER
 10
22.48338282534716
 20
2.21343167252426
 30
0.0
  0
VERTEX
  5
58B
  8
OUTER_LAYER
 10
22.53012521121683
 20
2.189051686412189
 30
0.0
  0
VERTEX
  5
58C
  8
OUTER_LAYER
 10
22.57667592016508
 20
2.164229384672998
 30
0.0
  0
VERTEX
  5
58D
  8
OUTER_LAYER
 10
22.66894457732568
 20
2.11369703722546
 30
0.0
  0
VERTEX
  5
58E
  8
OUTER_LAYER
 10
22.75517840236581
 20
2.065148399262952
 30
0.0
  0
VERTEX
  5
58F
  8
OUTER_LAYER
 10
22.83191998145488
 20
2.02107000682953
 30
0.0
  0
VERTEX
  5
590
  8
OUTER_LAYER
 10
22.86156411748802
 20
2.003818028467507
 30
0.0
  0
VERTEX
  5
591
  8
OUTER_LAYER
 10
22.89741585517732
 20
1.951843978582628
 30
0.0
  0
VERTEX
  5
592
  8
OUTER_LAYER
 10
22.95608256594571
 20
1.869814598772605
 30
0.0
  0
VERTEX
  5
593
  8
OUTER_LAYER
 10
23.01545382284277
 20
1.789765104100557
 30
0.0
  0
VERTEX
  5
594
  8
OUTER_LAYER
 10
23.07488815959716
 20
1.712622106943672
 30
0.0
  0
VERTEX
  5
595
  8
OUTER_LAYER
 10
23.1334722687212
 20
1.639666893083985
 30
0.0
  0
VERTEX
  5
596
  8
OUTER_LAYER
 10
23.16279682589099
 20
1.604386420478346
 30
0.0
  0
VERTEX
  5
597
  8
OUTER_LAYER
 10
23.19150988881714
 20
1.570706102009809
 30
0.0
  0
VERTEX
  5
598
  8
OUTER_LAYER
 10
23.21982971413681
 20
1.538395979387886
 30
0.0
  0
VERTEX
  5
599
  8
OUTER_LAYER
 10
23.24771528912783
 20
1.50754462074258
 30
0.0
  0
VERTEX
  5
59A
  8
OUTER_LAYER
 10
23.27514313923537
 20
1.478229741884552
 30
0.0
  0
VERTEX
  5
59B
  8
OUTER_LAYER
 10
23.30194637021484
 20
1.450688249816654
 30
0.0
  0
VERTEX
  5
59C
  8
OUTER_LAYER
 10
23.34511760771331
 20
1.408056898072342
 30
0.0
  0
VERTEX
  5
59D
  8
OUTER_LAYER
 10
23.38846804116477
 20
1.366787947000899
 30
0.0
  0
VERTEX
  5
59E
  8
OUTER_LAYER
 10
23.43213621747679
 20
1.326757703149427
 30
0.0
  0
VERTEX
  5
59F
  8
OUTER_LAYER
 10
23.47613620001365
 20
1.287965883155906
 30
0.0
  0
VERTEX
  5
5A0
  8
OUTER_LAYER
 10
23.52048186531598
 20
1.250412828837153
 30
0.0
  0
VERTEX
  5
5A1
  8
OUTER_LAYER
 10
23.56518680656076
 20
1.214099542923275
 30
0.0
  0
VERTEX
  5
5A2
  8
OUTER_LAYER
 10
23.6102642248749
 20
1.179027717768323
 30
0.0
  0
VERTEX
  5
5A3
  8
OUTER_LAYER
 10
23.65572680923187
 20
1.145199754570361
 30
0.0
  0
VERTEX
  5
5A4
  8
OUTER_LAYER
 10
23.7015866059951
 20
1.112618770713035
 30
0.0
  0
VERTEX
  5
5A5
  8
OUTER_LAYER
 10
23.7478548802252
 20
1.081288592480373
 30
0.0
  0
VERTEX
  5
5A6
  8
OUTER_LAYER
 10
23.79454197143644
 20
1.051213730657992
 30
0.0
  0
VERTEX
  5
5A7
  8
OUTER_LAYER
 10
23.84165714756417
 20
1.022399336584143
 30
0.0
  0
VERTEX
  5
5A8
  8
OUTER_LAYER
 10
23.88920846159963
 20
0.9948511367467314
 30
0.0
  0
VERTEX
  5
5A9
  8
OUTER_LAYER
 10
23.93720261638342
 20
0.9685753445032421
 30
0.0
  0
VERTEX
  5
5AA
  8
OUTER_LAYER
 10
23.98564484348887
 20
0.9435785484854359
 30
0.0
  0
VERTEX
  5
5AB
  8
OUTER_LAYER
 10
24.03453880275595
 20
0.9198675781967705
 30
0.0
  0
VERTEX
  5
5AC
  8
OUTER_LAYER
 10
24.08388650895152
 20
0.8974493486362698
 30
0.0
  0
VERTEX
  5
5AD
  8
OUTER_LAYER
 10
24.13368829192897
 20
0.8763306870290293
 30
0.0
  0
VERTEX
  5
5AE
  8
OUTER_LAYER
 10
24.18394279565659
 20
0.8565181462079864
 30
0.0
  0
VERTEX
  5
5AF
  8
OUTER_LAYER
 10
24.23464702036816
 20
0.8380178103834094
 30
0.0
  0
VERTEX
  5
5B0
  8
OUTER_LAYER
 10
24.28579641033835
 20
0.820835100094184
 30
0.0
  0
VERTEX
  5
5B1
  8
OUTER_LAYER
 10
24.33738498752973
 20
0.8049745838871367
 30
0.0
  0
VERTEX
  5
5B2
  8
OUTER_LAYER
 10
24.38940552927255
 20
0.7904398044233318
 30
0.0
  0
VERTEX
  5
5B3
  8
OUTER_LAYER
 10
24.44184978535746
 20
0.7772331265682402
 30
0.0
  0
VERTEX
  5
5B4
  8
OUTER_LAYER
 10
24.49470872802049
 20
0.7653556140977328
 30
0.0
  0
VERTEX
  5
5B5
  8
OUTER_LAYER
 10
24.54797282598714
 20
0.7548069404618603
 30
0.0
  0
VERTEX
  5
5B6
  8
OUTER_LAYER
 10
24.60163233259444
 20
0.7455853372623601
 30
0.0
  0
VERTEX
  5
5B7
  8
OUTER_LAYER
 10
24.65567757716119
 20
0.7376875821546534
 30
0.0
  0
VERTEX
  5
5B8
  8
OUTER_LAYER
 10
24.71009924865934
 20
0.7311090258216425
 30
0.0
  0
VERTEX
  5
5B9
  8
OUTER_LAYER
 10
24.76488866159033
 20
0.7258436556383546
 30
0.0
  0
VERTEX
  5
5BA
  8
OUTER_LAYER
 10
24.82003799519084
 20
0.72188419191546
 30
0.0
  0
VERTEX
  5
5BB
  8
OUTER_LAYER
 10
24.87513562437992
 20
0.7192416295945799
 30
0.0
  0
VERTEX
  5
5BC
  8
OUTER_LAYER
 10
24.91392030703877
 20
0.7181465209749129
 30
0.0
  0
VERTEX
  5
5BD
  8
OUTER_LAYER
 10
24.9521378121058
 20
0.7176824433860881
 30
0.0
  0
VERTEX
  5
5BE
  8
OUTER_LAYER
 10
24.99020740019038
 20
0.7178392782056827
 30
0.0
  0
VERTEX
  5
5BF
  8
OUTER_LAYER
 10
25.02812526760356
 20
0.7186187121084784
 30
0.0
  0
VERTEX
  5
5C0
  8
OUTER_LAYER
 10
25.06588737096619
 20
0.7200222797885395
 30
0.0
  0
VERTEX
  5
5C1
  8
OUTER_LAYER
 10
25.103489440226
 20
0.7220513455727414
 30
0.0
  0
VERTEX
  5
5C2
  8
OUTER_LAYER
 10
25.1409269946101
 20
0.7247070858127898
 30
0.0
  0
VERTEX
  5
5C3
  8
OUTER_LAYER
 10
25.1781953615163
 20
0.7279904723736156
 30
0.0
  0
VERTEX
  5
5C4
  8
OUTER_LAYER
 10
25.21528969808467
 20
0.731902257522195
 30
0.0
  0
VERTEX
  5
5C5
  8
OUTER_LAYER
 10
25.25220501549167
 20
0.7364429605391029
 30
0.0
  0
VERTEX
  5
5C6
  8
OUTER_LAYER
 10
25.28893620548095
 20
0.7416128563195471
 30
0.0
  0
VERTEX
  5
5C7
  8
OUTER_LAYER
 10
25.32547806898779
 20
0.7474119662351988
 30
0.0
  0
VERTEX
  5
5C8
  8
OUTER_LAYER
 10
25.36182534634079
 20
0.753840051459272
 30
0.0
  0
VERTEX
  5
5C9
  8
OUTER_LAYER
 10
25.39797274885966
 20
0.7608966089662408
 30
0.0
  0
VERTEX
  5
5CA
  8
OUTER_LAYER
 10
25.43391499108186
 20
0.768580870280406
 30
0.0
  0
VERTEX
  5
5CB
  8
OUTER_LAYER
 10
25.46964682346004
 20
0.7768918030983931
 30
0.0
  0
VERTEX
  5
5CC
  8
OUTER_LAYER
 10
25.50516306480197
 20
0.7858281157519484
 30
0.0
  0
VERTEX
  5
5CD
  8
OUTER_LAYER
 10
25.54045863409533
 20
0.7953882644912428
 30
0.0
  0
VERTEX
  5
5CE
  8
OUTER_LAYER
 10
25.57552858115123
 20
0.8055704634550167
 30
0.0
  0
VERTEX
  5
5CF
  8
OUTER_LAYER
 10
25.61036811571187
 20
0.8163726971927172
 30
0.0
  0
VERTEX
  5
5D0
  8
OUTER_LAYER
 10
25.64497263446231
 20
0.8277927354789785
 30
0.0
  0
VERTEX
  5
5D1
  8
OUTER_LAYER
 10
25.67933774578031
 20
0.8398281502204257
 30
0.0
  0
VERTEX
  5
5D2
  8
OUTER_LAYER
 10
25.71345929165388
 20
0.8524763340749639
 30
0.0
  0
VERTEX
  5
5D3
  8
OUTER_LAYER
 10
25.74733336674379
 20
0.8657345205268088
 30
0.0
  0
VERTEX
  5
5D4
  8
OUTER_LAYER
 10
25.78095633429098
 20
0.8795998050349197
 30
0.0
  0
VERTEX
  5
5D5
  8
OUTER_LAYER
 10
25.81432483883325
 20
0.8940691669306646
 30
0.0
  0
VERTEX
  5
5D6
  8
OUTER_LAYER
 10
25.8474358155165
 20
0.9091394916378929
 30
0.0
  0
VERTEX
  5
5D7
  8
OUTER_LAYER
 10
25.88028649630868
 20
0.9248075929940253
 30
0.0
  0
VERTEX
  5
5D8
  8
OUTER_LAYER
 10
25.91287441298407
 20
0.9410702352610485
 30
0.0
  0
VERTEX
  5
5D9
  8
OUTER_LAYER
 10
25.94519739699076
 20
0.957924154503742
 30
0.0
  0
VERTEX
  5
5DA
  8
OUTER_LAYER
 10
25.97725357658877
 20
0.9753660791685442
 30
0.0
  0
VERTEX
  5
5DB
  8
OUTER_LAYER
 10
26.00904137135964
 20
0.9933927495686302
 30
0.0
  0
VERTEX
  5
5DC
  8
OUTER_LAYER
 10
26.04055948432396
 20
1.012000936074851
 30
0.0
  0
VERTEX
  5
5DD
  8
OUTER_LAYER
 10
26.07180689197589
 20
1.031187455863304
 30
0.0
  0
VERTEX
  5
5DE
  8
OUTER_LAYER
 10
26.10278283260452
 20
1.050949188159023
 30
0.0
  0
VERTEX
  5
5DF
  8
OUTER_LAYER
 10
26.1334867930339
 20
1.071283087795136
 30
0.0
  0
VERTEX
  5
5E0
  8
OUTER_LAYER
 10
26.16391849429412
 20
1.092186197185598
 30
0.0
  0
VERTEX
  5
5E1
  8
OUTER_LAYER
 10
26.1940778762752
 20
1.113655656552832
 30
0.0
  0
VERTEX
  5
5E2
  8
OUTER_LAYER
 10
26.22396508176212
 20
1.13568871250535
 30
0.0
  0
VERTEX
  5
5E3
  8
OUTER_LAYER
 10
26.25358044019157
 20
1.158282725090294
 30
0.0
  0
VERTEX
  5
5E4
  8
OUTER_LAYER
 10
26.28292445120775
 20
1.18143517327374
 30
0.0
  0
VERTEX
  5
5E5
  8
OUTER_LAYER
 10
26.31199776818944
 20
1.205143658901127
 30
0.0
  0
VERTEX
  5
5E6
  8
OUTER_LAYER
 10
26.3408011821255
 20
1.22940590938734
 30
0.0
  0
VERTEX
  5
5E7
  8
OUTER_LAYER
 10
26.36933560593985
 20
1.254219779212439
 30
0.0
  0
VERTEX
  5
5E8
  8
OUTER_LAYER
 10
26.39760205916141
 20
1.279583250135411
 30
0.0
  0
VERTEX
  5
5E9
  8
OUTER_LAYER
 10
26.4256016534103
 20
1.305494430542161
 30
0.0
  0
VERTEX
  5
5EA
  8
OUTER_LAYER
 10
26.45333557861113
 20
1.331951553920171
 30
0.0
  0
VERTEX
  5
5EB
  8
OUTER_LAYER
 10
26.4808050897698
 20
1.358952976345757
 30
0.0
  0
VERTEX
  5
5EC
  8
OUTER_LAYER
 10
26.50801149491917
 20
1.386497173626251
 30
0.0
  0
VERTEX
  5
5ED
  8
OUTER_LAYER
 10
26.53495614365239
 20
1.41458273763106
 30
0.0
  0
VERTEX
  5
5EE
  8
OUTER_LAYER
 10
26.5616404166377
 20
1.443208372272187
 30
0.0
  0
VERTEX
  5
5EF
  8
OUTER_LAYER
 10
26.58806571605047
 20
1.472372889179854
 30
0.0
  0
VERTEX
  5
5F0
  8
OUTER_LAYER
 10
26.614233456721
 20
1.502075202952564
 30
0.0
  0
VERTEX
  5
5F1
  8
OUTER_LAYER
 10
26.64048920607907
 20
1.532715950640202
 30
0.0
  0
VERTEX
  5
5F2
  8
OUTER_LAYER
 10
26.69120481166227
 20
1.594382500808404
 30
0.0
  0
VERTEX
  5
5F3
  8
OUTER_LAYER
 10
26.74125766737604
 20
1.658606089763227
 30
0.0
  0
VERTEX
  5
5F4
  8
OUTER_LAYER
 10
26.79031372522658
 20
1.724962412060901
 30
0.0
  0
VERTEX
  5
5F5
  8
OUTER_LAYER
 10
26.83838344698978
 20
1.793447678661066
 30
0.0
  0
VERTEX
  5
5F6
  8
OUTER_LAYER
 10
26.88527341450366
 20
1.863754135167831
 30
0.0
  0
VERTEX
  5
5F7
  8
OUTER_LAYER
 10
26.91637557723807
 20
1.912268793595983
 30
0.0
  0
VERTEX
  5
5F8
  8
OUTER_LAYER
 10
26.94650658461284
 20
1.960652330436017
 30
0.0
  0
VERTEX
  5
5F9
  8
OUTER_LAYER
 10
26.97587553617981
 20
2.00923489139061
 30
0.0
  0
VERTEX
  5
5FA
  8
OUTER_LAYER
 10
27.0044837912449
 20
2.058022450163776
 30
0.0
  0
VERTEX
  5
5FB
  8
OUTER_LAYER
 10
27.0323327521064
 20
2.107020911785683
 30
0.0
  0
VERTEX
  5
5FC
  8
OUTER_LAYER
 10
27.0594238703071
 20
2.156236116120636
 30
0.0
  0
VERTEX
  5
5FD
  8
OUTER_LAYER
 10
27.08575865277027
 20
2.205673842119879
 30
0.0
  0
VERTEX
  5
5FE
  8
OUTER_LAYER
 10
27.11133866760247
 20
2.255339812534692
 30
0.0
  0
VERTEX
  5
5FF
  8
OUTER_LAYER
 10
27.1361655494167
 20
2.305239698879809
 30
0.0
  0
VERTEX
  5
600
  8
OUTER_LAYER
 10
27.1602410044212
 20
2.355379127200907
 30
0.0
  0
VERTEX
  5
601
  8
OUTER_LAYER
 10
27.18356681481005
 20
2.405763683799417
 30
0.0
  0
VERTEX
  5
602
  8
OUTER_LAYER
 10
27.20614484278541
 20
2.456398921608205
 30
0.0
  0
VERTEX
  5
603
  8
OUTER_LAYER
 10
27.22797703389681
 20
2.507290366617141
 30
0.0
  0
VERTEX
  5
604
  8
OUTER_LAYER
 10
27.24906541983224
 20
2.558443524626036
 30
0.0
  0
VERTEX
  5
605
  8
OUTER_LAYER
 10
27.26941212051739
 20
2.609863888011506
 30
0.0
  0
VERTEX
  5
606
  8
OUTER_LAYER
 10
27.28901934562176
 20
2.661556942691632
 30
0.0
  0
VERTEX
  5
607
  8
OUTER_LAYER
 10
27.30788939537703
 20
2.71352817504743
 30
0.0
  0
VERTEX
  5
608
  8
OUTER_LAYER
 10
27.32602466067824
 20
2.765783078606863
 30
0.0
  0
VERTEX
  5
609
  8
OUTER_LAYER
 10
27.34342762263445
 20
2.818327160847309
 30
0.0
  0
VERTEX
  5
60A
  8
OUTER_LAYER
 10
27.36010085146289
 20
2.871165949766043
 30
0.0
  0
VERTEX
  5
60B
  8
OUTER_LAYER
 10
27.37604700470202
 20
2.924304999932427
 30
0.0
  0
VERTEX
  5
60C
  8
OUTER_LAYER
 10
27.39126882496498
 20
2.977749898575879
 30
0.0
  0
VERTEX
  5
60D
  8
OUTER_LAYER
 10
27.40576913711143
 20
3.03150627114886
 30
0.0
  0
VERTEX
  5
60E
  8
OUTER_LAYER
 10
27.41955084493468
 20
3.085579786473463
 30
0.0
  0
VERTEX
  5
60F
  8
OUTER_LAYER
 10
27.43261692745349
 20
3.139976161585493
 30
0.0
  0
VERTEX
  5
610
  8
OUTER_LAYER
 10
27.44497043477543
 20
3.194701165914986
 30
0.0
  0
VERTEX
  5
611
  8
OUTER_LAYER
 10
27.45661448370868
 20
3.249760625259773
 30
0.0
  0
VERTEX
  5
612
  8
OUTER_LAYER
 10
27.46755225306581
 20
3.30516042507715
 30
0.0
  0
VERTEX
  5
613
  8
OUTER_LAYER
 10
27.47778697874722
 20
3.360906513179348
 30
0.0
  0
VERTEX
  5
614
  8
OUTER_LAYER
 10
27.48732194877315
 20
3.417004902415944
 30
0.0
  0
VERTEX
  5
615
  8
OUTER_LAYER
 10
27.49616049807948
 20
3.473461672110269
 30
0.0
  0
VERTEX
  5
616
  8
OUTER_LAYER
 10
27.5043018368469
 20
3.530253904662561
 30
0.0
  0
VERTEX
  5
617
  8
OUTER_LAYER
 10
27.51334349866344
 20
3.599367081358792
 30
0.0
  0
VERTEX
  5
618
  8
OUTER_LAYER
 10
27.51977158376771
 20
3.657528909646052
 30
0.0
  0
VERTEX
  5
619
  8
OUTER_LAYER
 10
27.52335688748123
 20
3.70667791024661
 30
0.0
  0
VERTEX
  5
61A
  8
OUTER_LAYER
 10
27.52403051380359
 20
3.730760586550125
 30
0.0
  0
VERTEX
  5
61B
  8
OUTER_LAYER
 10
27.52374079346129
 20
3.753313531639353
 30
0.0
  0
VERTEX
  5
61C
  8
OUTER_LAYER
 10
27.5223196954928
 20
3.775543502783795
 30
0.0
  0
VERTEX
  5
61D
  8
OUTER_LAYER
 10
27.51952049151014
 20
3.797696409658978
 30
0.0
  0
VERTEX
  5
61E
  8
OUTER_LAYER
 10
27.51508838834665
 20
3.819808804450092
 30
0.0
  0
VERTEX
  5
61F
  8
OUTER_LAYER
 10
27.50886121652479
 20
3.841651240494476
 30
0.0
  0
VERTEX
  5
620
  8
OUTER_LAYER
 10
27.5008941236856
 20
3.862762083599696
 30
0.0
  0
VERTEX
  5
621
  8
OUTER_LAYER
 10
27.49152451059097
 20
3.88259944462502
 30
0.0
  0
VERTEX
  5
622
  8
OUTER_LAYER
 10
27.48130046766909
 20
3.900750033375797
 30
0.0
  0
VERTEX
  5
623
  8
OUTER_LAYER
 10
27.47158697267594
 20
3.915848054599342
 30
0.0
  0
VERTEX
  5
624
  8
OUTER_LAYER
 10
27.42815414578133
 20
3.979899187871533
 30
0.0
  0
VERTEX
  5
625
  8
OUTER_LAYER
 10
27.42340370235488
 20
3.986520855598479
 30
0.0
  0
VERTEX
  5
626
  8
OUTER_LAYER
 10
27.41832044115257
 20
3.992877280150656
 30
0.0
  0
VERTEX
  5
627
  8
OUTER_LAYER
 10
27.41291876779034
 20
3.998964811976866
 30
0.0
  0
VERTEX
  5
628
  8
OUTER_LAYER
 10
27.40721308788416
 20
4.004779801525912
 30
0.0
  0
VERTEX
  5
629
  8
OUTER_LAYER
 10
27.40121780704997
 20
4.010318599246595
 30
0.0
  0
VERTEX
  5
62A
  8
OUTER_LAYER
 10
27.39494733090373
 20
4.015577555587719
 30
0.0
  0
VERTEX
  5
62B
  8
OUTER_LAYER
 10
27.3884160650614
 20
4.020553020998086
 30
0.0
  0
VERTEX
  5
62C
  8
OUTER_LAYER
 10
27.38163841513892
 20
4.025241345926496
 30
0.0
  0
VERTEX
  5
62D
  8
OUTER_LAYER
 10
27.37462878675225
 20
4.029638880821752
 30
0.0
  0
VERTEX
  5
62E
  8
OUTER_LAYER
 10
27.36740158551735
 20
4.033741976132657
 30
0.0
  0
VERTEX
  5
62F
  8
OUTER_LAYER
 10
27.35997121705017
 20
4.037546982308013
 30
0.0
  0
VERTEX
  5
630
  8
OUTER_LAYER
 10
27.35235208696666
 20
4.041050249796623
 30
0.0
  0
VERTEX
  5
631
  8
OUTER_LAYER
 10
27.34455860088278
 20
4.044248129047286
 30
0.0
  0
VERTEX
  5
632
  8
OUTER_LAYER
 10
27.33660516441448
 20
4.047136970508808
 30
0.0
  0
VERTEX
  5
633
  8
OUTER_LAYER
 10
27.32850618317772
 20
4.049713124629989
 30
0.0
  0
VERTEX
  5
634
  8
OUTER_LAYER
 10
27.32027606278843
 20
4.051972941859632
 30
0.0
  0
VERTEX
  5
635
  8
OUTER_LAYER
 10
27.3119292088626
 20
4.053912772646539
 30
0.0
  0
VERTEX
  5
636
  8
OUTER_LAYER
 10
27.30348002701616
 20
4.055528967439512
 30
0.0
  0
VERTEX
  5
637
  8
OUTER_LAYER
 10
27.29494292286507
 20
4.056817876687353
 30
0.0
  0
VERTEX
  5
638
  8
OUTER_LAYER
 10
27.28633230202529
 20
4.057775850838864
 30
0.0
  0
VERTEX
  5
639
  8
OUTER_LAYER
 10
27.27766257011277
 20
4.058399240342847
 30
0.0
  0
VERTEX
  5
63A
  8
OUTER_LAYER
 10
27.26894813274345
 20
4.058684395648106
 30
0.0
  0
VERTEX
  5
63B
  8
OUTER_LAYER
 10
27.26020339553331
 20
4.058627667203441
 30
0.0
  0
VERTEX
  5
63C
  8
OUTER_LAYER
 10
27.25144276409828
 20
4.058225405457655
 30
0.0
  0
VERTEX
  5
63D
  8
OUTER_LAYER
 10
27.24268064405432
 20
4.05747396085955
 30
0.0
  0
VERTEX
  5
63E
  8
OUTER_LAYER
 10
27.2339314410174
 20
4.05636968385793
 30
0.0
  0
VERTEX
  5
63F
  8
OUTER_LAYER
 10
27.22520956060346
 20
4.054908924901594
 30
0.0
  0
VERTEX
  5
640
  8
OUTER_LAYER
 10
27.21652940842846
 20
4.053088034439346
 30
0.0
  0
VERTEX
  5
641
  8
OUTER_LAYER
 10
27.20790539010834
 20
4.050903362919989
 30
0.0
  0
VERTEX
  5
642
  8
OUTER_LAYER
 10
27.19935191125907
 20
4.048351260792323
 30
0.0
  0
VERTEX
  5
643
  8
OUTER_LAYER
 10
27.1908833774966
 20
4.045428078505152
 30
0.0
  0
VERTEX
  5
644
  8
OUTER_LAYER
 10
27.18251419443687
 20
4.042130166507278
 30
0.0
  0
VERTEX
  5
645
  8
OUTER_LAYER
 10
26.72172109893897
 20
3.848912017345723
 30
0.0
  0
VERTEX
  5
646
  8
OUTER_LAYER
 10
25.85479354057641
 20
3.484818183512981
 30
0.0
  0
VERTEX
  5
647
  8
OUTER_LAYER
 10
25.48865388423409
 20
3.330769773769088
 30
0.0
  0
VERTEX
  5
648
  8
OUTER_LAYER
 10
25.39513473308207
 20
3.331160575767273
 30
0.0
  0
VERTEX
  5
649
  8
OUTER_LAYER
 10
25.38033484816428
 20
3.331517770045991
 30
0.0
  0
VERTEX
  5
64A
  8
OUTER_LAYER
 10
25.3677178400076
 20
3.332324143024803
 30
0.0
  0
VERTEX
  5
64B
  8
OUTER_LAYER
 10
25.35500391901369
 20
3.333639886854426
 30
0.0
  0
VERTEX
  5
64C
  8
OUTER_LAYER
 10
25.3421572368893
 20
3.335475708533224
 30
0.0
  0
VERTEX
  5
64D
  8
OUTER_LAYER
 10
25.32914781264207
 20
3.337845902339412
 30
0.0
  0
VERTEX
  5
64E
  8
OUTER_LAYER
 10
25.3159520156382
 20
3.340767321962547
 30
0.0
  0
VERTEX
  5
64F
  8
OUTER_LAYER
 10
25.30255272220592
 20
3.344258361473248
 30
0.0
  0
VERTEX
  5
650
  8
OUTER_LAYER
 10
25.28893918351406
 20
3.348338006514589
 30
0.0
  0
VERTEX
  5
651
  8
OUTER_LAYER
 10
25.27510665887214
 20
3.353025000697402
 30
0.0
  0
VERTEX
  5
652
  8
OUTER_LAYER
 10
25.26105587623701
 20
3.358337154538225
 30
0.0
  0
VERTEX
  5
653
  8
OUTER_LAYER
 10
25.24679238167393
 20
3.364290807876115
 30
0.0
  0
VERTEX
  5
654
  8
OUTER_LAYER
 10
25.23232583374904
 20
3.370900443187643
 30
0.0
  0
VERTEX
  5
655
  8
OUTER_LAYER
 10
25.21766928951352
 20
3.378178437361977
 30
0.0
  0
VERTEX
  5
656
  8
OUTER_LAYER
 10
25.20283851790026
 20
3.386134933342055
 30
0.0
  0
VERTEX
  5
657
  8
OUTER_LAYER
 10
25.18785136556611
 20
3.394777810135089
 30
0.0
  0
VERTEX
  5
658
  8
OUTER_LAYER
 10
25.17272719054041
 20
3.404112729334712
 30
0.0
  0
VERTEX
  5
659
  8
OUTER_LAYER
 10
25.15748637104756
 20
3.414143237709724
 30
0.0
  0
VERTEX
  5
65A
  8
OUTER_LAYER
 10
25.1421498907488
 20
3.424870907890758
 30
0.0
  0
VERTEX
  5
65B
  8
OUTER_LAYER
 10
25.12673899730387
 20
3.436295502158502
 30
0.0
  0
VERTEX
  5
65C
  8
OUTER_LAYER
 10
25.1112749283604
 20
3.448415147384786
 30
0.0
  0
VERTEX
  5
65D
  8
OUTER_LAYER
 10
25.09577869752324
 20
3.461226512032963
 30
0.0
  0
VERTEX
  5
65E
  8
OUTER_LAYER
 10
25.0802709322416
 20
3.474724978628911
 30
0.0
  0
VERTEX
  5
65F
  8
OUTER_LAYER
 10
25.0647717555886
 20
3.48890480721006
 30
0.0
  0
VERTEX
  5
660
  8
OUTER_LAYER
 10
25.04930070437888
 20
3.503759286934705
 30
0.0
  0
VERTEX
  5
661
  8
OUTER_LAYER
 10
25.0338766767799
 20
3.519280874330225
 30
0.0
  0
VERTEX
  5
662
  8
OUTER_LAYER
 10
25.01851790340667
 20
3.535461317615155
 30
0.0
  0
VERTEX
  5
663
  8
OUTER_LAYER
 10
25.0032419367431
 20
3.552291767213503
 30
0.0
  0
VERTEX
  5
664
  8
OUTER_LAYER
 10
24.98806565455768
 20
3.569762873039126
 30
0.0
  0
VERTEX
  5
665
  8
OUTER_LAYER
 10
24.97300527373377
 20
3.587864869418519
 30
0.0
  0
VERTEX
  5
666
  8
OUTER_LAYER
 10
24.95807637160603
 20
3.606587648681207
 30
0.0
  0
VERTEX
  5
667
  8
OUTER_LAYER
 10
24.94329391247303
 20
3.625920824516108
 30
0.0
  0
VERTEX
  5
668
  8
OUTER_LAYER
 10
24.92867227744737
 20
3.645853786197229
 30
0.0
  0
VERTEX
  5
669
  8
OUTER_LAYER
 10
24.91422529621404
 20
3.666375744742005
 30
0.0
  0
VERTEX
  5
66A
  8
OUTER_LAYER
 10
24.89996627960343
 20
3.687475772002181
 30
0.0
  0
VERTEX
  5
66B
  8
OUTER_LAYER
 10
24.8859080521587
 20
3.709142833604322
 30
0.0
  0
VERTEX
  5
66C
  8
OUTER_LAYER
 10
24.87240907557969
 20
3.730810298525388
 30
0.0
  0
VERTEX
  5
66D
  8
OUTER_LAYER
 10
24.84506595811875
 20
3.777457560138398
 30
0.0
  0
VERTEX
  5
66E
  8
OUTER_LAYER
 10
24.81905463711541
 20
3.82561279391613
 30
0.0
  0
VERTEX
  5
66F
  8
OUTER_LAYER
 10
24.79411977405945
 20
3.875767775294753
 30
0.0
  0
VERTEX
  5
670
  8
OUTER_LAYER
 10
24.77034229554327
 20
3.927832798521634
 30
0.0
  0
VERTEX
  5
671
  8
OUTER_LAYER
 10
24.74779911013699
 20
3.98171852897824
 30
0.0
  0
VERTEX
  5
672
  8
OUTER_LAYER
 10
24.72656367464301
 20
4.037336124536528
 30
0.0
  0
VERTEX
  5
673
  8
OUTER_LAYER
 10
24.70670647356818
 20
4.09459730344147
 30
0.0
  0
VERTEX
  5
674
  8
OUTER_LAYER
 10
24.68829542271094
 20
4.153414376357681
 30
0.0
  0
VERTEX
  5
675
  8
OUTER_LAYER
 10
24.67139620747502
 20
4.213700255215681
 30
0.0
  0
VERTEX
  5
676
  8
OUTER_LAYER
 10
24.65607256567766
 20
4.275368447855573
 30
0.0
  0
VERTEX
  5
677
  8
OUTER_LAYER
 10
24.6423865235563
 20
4.338333044847904
 30
0.0
  0
VERTEX
  5
678
  8
OUTER_LAYER
 10
24.63039859257914
 20
4.402508702995193
 30
0.0
  0
VERTEX
  5
679
  8
OUTER_LAYER
 10
24.62016793363593
 20
4.467810628680716
 30
0.0
  0
VERTEX
  5
67A
  8
OUTER_LAYER
 10
24.61172165141723
 20
4.534397715898651
 30
0.0
  0
VERTEX
  5
67B
  8
OUTER_LAYER
 10
24.60744617991671
 20
4.576715153655812
 30
0.0
  0
VERTEX
  5
67C
  8
OUTER_LAYER
 10
24.60489553722322
 20
4.609443090687005
 30
0.0
  0
VERTEX
  5
67D
  8
OUTER_LAYER
 10
24.6021047734371
 20
4.653282786224429
 30
0.0
  0
VERTEX
  5
67E
  8
OUTER_LAYER
 10
24.60037593321145
 20
4.696661221431872
 30
0.0
  0
VERTEX
  5
67F
  8
OUTER_LAYER
 10
24.59965709580486
 20
4.740160665220492
 30
0.0
  0
VERTEX
  5
680
  8
OUTER_LAYER
 10
24.59993671559545
 20
4.783715179431069
 30
0.0
  0
VERTEX
  5
681
  8
OUTER_LAYER
 10
24.60120240395134
 20
4.827258868868535
 30
0.0
  0
VERTEX
  5
682
  8
OUTER_LAYER
 10
24.60344096549625
 20
4.870725854307279
 30
0.0
  0
VERTEX
  5
683
  8
OUTER_LAYER
 10
24.60663842090361
 20
4.914050240228226
 30
0.0
  0
VERTEX
  5
684
  8
OUTER_LAYER
 10
24.61078001602532
 20
4.957166077986194
 30
0.0
  0
VERTEX
  5
685
  8
OUTER_LAYER
 10
24.61585021691381
 20
5.000007324915451
 30
0.0
  0
VERTEX
  5
686
  8
OUTER_LAYER
 10
24.62183268999505
 20
5.042507799744758
 30
0.0
  0
VERTEX
  5
687
  8
OUTER_LAYER
 10
24.62871026629254
 20
5.084601134613584
 30
0.0
  0
VERTEX
  5
688
  8
OUTER_LAYER
 10
24.6364648881838
 20
5.126220723959797
 30
0.0
  0
VERTEX
  5
689
  8
OUTER_LAYER
 10
24.64507753667909
 20
5.167299670598013
 30
0.0
  0
VERTEX
  5
68A
  8
OUTER_LAYER
 10
24.65452813663941
 20
5.207770729440072
 30
0.0
  0
VERTEX
  5
68B
  8
OUTER_LAYER
 10
24.66479543668022
 20
5.247566249553093
 30
0.0
  0
VERTEX
  5
68C
  8
OUTER_LAYER
 10
24.67585685973057
 20
5.286618115641699
 30
0.0
  0
VERTEX
  5
68D
  8
OUTER_LAYER
 10
24.68768831932005
 20
5.324857690634247
 30
0.0
  0
VERTEX
  5
68E
  8
OUTER_LAYER
 10
24.70026399565031
 20
5.36221576192415
 30
0.0
  0
VERTEX
  5
68F
  8
OUTER_LAYER
 10
24.71355606438361
 20
5.398622495074009
 30
0.0
  0
VERTEX
  5
690
  8
OUTER_LAYER
 10
24.72753436989196
 20
5.434007400577142
 30
0.0
  0
VERTEX
  5
691
  8
OUTER_LAYER
 10
24.74216603354866
 20
5.468299321788638
 30
0.0
  0
VERTEX
  5
692
  8
OUTER_LAYER
 10
24.7574149866869
 20
5.501426455652626
 30
0.0
  0
VERTEX
  5
693
  8
OUTER_LAYER
 10
24.77324141741548
 20
5.533316422706476
 30
0.0
  0
VERTEX
  5
694
  8
OUTER_LAYER
 10
24.78960112111337
 20
5.5638964094734
 30
0.0
  0
VERTEX
  5
695
  8
OUTER_LAYER
 10
24.80644474702106
 20
5.59309341527408
 30
0.0
  0
VERTEX
  5
696
  8
OUTER_LAYER
 10
24.82371693934132
 20
5.620834647234148
 30
0.0
  0
VERTEX
  5
697
  8
OUTER_LAYER
 10
24.84135538288977
 20
5.647048122283701
 30
0.0
  0
VERTEX
  5
698
  8
OUTER_LAYER
 10
24.85928978393698
 20
5.671663553288782
 30
0.0
  0
VERTEX
  5
699
  8
OUTER_LAYER
 10
24.87744085123794
 20
5.694613617233941
 30
0.0
  0
VERTEX
  5
69A
  8
OUTER_LAYER
 10
24.89571939673871
 20
5.715835723754498
 30
0.0
  0
VERTEX
  5
69B
  8
OUTER_LAYER
 10
24.91402575768146
 20
5.735274415845029
 30
0.0
  0
VERTEX
  5
69C
  8
OUTER_LAYER
 10
24.93380082581679
 20
5.754383242038959
 30
0.0
  0
VERTEX
  5
69D
  8
OUTER_LAYER
 10
25.00236242388409
 20
5.817448282869769
 30
0.0
  0
VERTEX
  5
69E
  8
OUTER_LAYER
 10
25.3406269212573
 20
5.962096306048363
 30
0.0
  0
VERTEX
  5
69F
  8
OUTER_LAYER
 10
25.51874607807548
 20
6.037394990150211
 30
0.0
  0
VERTEX
  5
6A0
  8
OUTER_LAYER
 10
25.73259666950726
 20
6.126475170606905
 30
0.0
  0
VERTEX
  5
6A1
  8
OUTER_LAYER
 10
25.95525873824792
 20
6.218185801898416
 30
0.0
  0
VERTEX
  5
6A2
  8
OUTER_LAYER
 10
26.15976728205855
 20
6.301358288805512
 30
0.0
  0
VERTEX
  5
6A3
  8
OUTER_LAYER
 10
26.61303885009136
 20
6.484134007817198
 30
0.0
  0
VERTEX
  5
6A4
  8
OUTER_LAYER
 10
26.62421754523642
 20
6.489038637654865
 30
0.0
  0
VERTEX
  5
6A5
  8
OUTER_LAYER
 10
26.63493488090498
 20
6.494544047816635
 30
0.0
  0
VERTEX
  5
6A6
  8
OUTER_LAYER
 10
26.64515842743751
 20
6.500626477550953
 30
0.0
  0
VERTEX
  5
6A7
  8
OUTER_LAYER
 10
26.65485575517451
 20
6.507262166106262
 30
0.0
  0
VERTEX
  5
6A8
  8
OUTER_LAYER
 10
26.66399443445647
 20
6.514427352731007
 30
0.0
  0
VERTEX
  5
6A9
  8
OUTER_LAYER
 10
26.67254203562386
 20
6.522098276673633
 30
0.0
  0
VERTEX
  5
6AA
  8
OUTER_LAYER
 10
26.68046612901717
 20
6.530251177182584
 30
0.0
  0
VERTEX
  5
6AB
  8
OUTER_LAYER
 10
26.68773428497689
 20
6.538862293506304
 30
0.0
  0
VERTEX
  5
6AC
  8
OUTER_LAYER
 10
26.73403948970038
 20
6.597883706681291
 30
0.0
  0
VERTEX
  5
6AD
  8
OUTER_LAYER
 10
26.7482681396047
 20
6.617764958202193
 30
0.0
  0
VERTEX
  5
6AE
  8
OUTER_LAYER
 10
26.76202473904326
 20
6.640884615745255
 30
0.0
  0
VERTEX
  5
6AF
  8
OUTER_LAYER
 10
26.77352548968683
 20
6.664352184541377
 30
0.0
  0
VERTEX
  5
6B0
  8
OUTER_LAYER
 10
26.78294360475448
 20
6.688259601605092
 30
0.0
  0
VERTEX
  5
6B1
  8
OUTER_LAYER
 10
26.79032469881854
 20
6.71275002858129
 30
0.0
  0
VERTEX
  5
6B2
  8
OUTER_LAYER
 10
26.79557952446422
 20
6.738040331438579
 30
0.0
  0
VERTEX
  5
6B3
  8
OUTER_LAYER
 10
26.7984402720822
 20
6.764452529163965
 30
0.0
  0
VERTEX
  5
6B4
  8
OUTER_LAYER
 10
26.79836801445119
 20
6.789541914459806
 30
0.0
  0
VERTEX
  5
6B5
  8
OUTER_LAYER
 10
26.79596286426748
 20
6.816623916301443
 30
0.0
  0
VERTEX
  5
6B6
  8
OUTER_LAYER
 10
26.79156373181333
 20
6.836669631188054
 30
0.0
  0
VERTEX
  5
6B7
  8
OUTER_LAYER
 10
26.78586506614842
 20
6.854969011653683
 30
0.0
  0
VERTEX
  5
6B8
  8
OUTER_LAYER
 10
26.77473638355666
 20
6.882205435537207
 30
0.0
  0
VERTEX
  5
6B9
  8
OUTER_LAYER
 10
26.76088268458221
 20
6.909991104658232
 30
0.0
  0
VERTEX
  5
6BA
  8
OUTER_LAYER
 10
26.7451727438747
 20
6.937769586741315
 30
0.0
  0
VERTEX
  5
6BB
  8
OUTER_LAYER
 10
26.72763338201717
 20
6.96600089407947
 30
0.0
  0
VERTEX
  5
6BC
  8
OUTER_LAYER
 10
26.70838960556247
 20
6.994625771375127
 30
0.0
  0
VERTEX
  5
6BD
  8
OUTER_LAYER
 10
26.68759863753726
 20
7.023380575466815
 30
0.0
  0
VERTEX
  5
6BE
  8
OUTER_LAYER
 10
26.66594437414977
 20
7.05122697860452
 30
0.0
  0
VERTEX
  5
6BF
  8
OUTER_LAYER
 10
26.61567572393481
 20
7.112412292924881
 30
0.0
  0
VERTEX
  5
6C0
  8
OUTER_LAYER
 10
26.56566325300304
 20
7.171171254349179
 30
0.0
  0
VERTEX
  5
6C1
  8
OUTER_LAYER
 10
26.51538295099833
 20
7.228121845286156
 30
0.0
  0
VERTEX
  5
6C2
  8
OUTER_LAYER
 10
26.46481180327935
 20
7.283271170269832
 30
0.0
  0
VERTEX
  5
6C3
  8
OUTER_LAYER
 10
26.41392643948807
 20
7.336625647458074
 30
0.0
  0
VERTEX
  5
6C4
  8
OUTER_LAYER
 10
26.36270320402219
 20
7.388190904098582
 30
0.0
  0
VERTEX
  5
6C5
  8
OUTER_LAYER
 10
26.31111824973082
 20
7.437971667419849
 30
0.0
  0
VERTEX
  5
6C6
  8
OUTER_LAYER
 10
26.25914765999343
 20
7.485971651765379
 30
0.0
  0
VERTEX
  5
6C7
  8
OUTER_LAYER
 10
26.20676760076026
 20
7.532193447231746
 30
0.0
  0
VERTEX
  5
6C8
  8
OUTER_LAYER
 10
26.15395450692085
 20
7.576638412861967
 30
0.0
  0
VERTEX
  5
6C9
  8
OUTER_LAYER
 10
26.10068530425876
 20
7.619306580872379
 30
0.0
  0
VERTEX
  5
6CA
  8
OUTER_LAYER
 10
26.04693766774299
 20
7.660196578682093
 30
0.0
  0
VERTEX
  5
6CB
  8
OUTER_LAYER
 10
25.99269031453219
 20
7.699305577004706
 30
0.0
  0
VERTEX
  5
6CC
  8
OUTER_LAYER
 10
25.93792332827906
 20
7.736629272517296
 30
0.0
  0
VERTEX
  5
6CD
  8
OUTER_LAYER
 10
25.88261850702862
 20
7.772161914933869
 30
0.0
  0
VERTEX
  5
6CE
  8
OUTER_LAYER
 10
25.82675972482571
 20
7.805896387050756
 30
0.0
  0
VERTEX
  5
6CF
  8
OUTER_LAYER
 10
25.77033329189279
 20
7.837824346211172
 30
0.0
  0
VERTEX
  5
6D0
  8
OUTER_LAYER
 10
25.7133282961074
 20
7.867936432476426
 30
0.0
  0
VERTEX
  5
6D1
  8
OUTER_LAYER
 10
25.65573690381942
 20
7.896222546418084
 30
0.0
  0
VERTEX
  5
6D2
  8
OUTER_LAYER
 10
25.59755459737696
 20
7.922672194253376
 30
0.0
  0
VERTEX
  5
6D3
  8
OUTER_LAYER
 10
25.53878032621716
 20
7.947274892904463
 30
0.0
  0
VERTEX
  5
6D4
  8
OUTER_LAYER
 10
25.47941654892474
 20
7.970020622365614
 30
0.0
  0
VERTEX
  5
6D5
  8
OUTER_LAYER
 10
25.41946915065093
 20
7.990900305860954
 30
0.0
  0
VERTEX
  5
6D6
  8
OUTER_LAYER
 10
25.35894722434258
 20
8.00990629472695
 30
0.0
  0
VERTEX
  5
6D7
  8
OUTER_LAYER
 10
25.29786271518732
 20
8.027032830879408
 30
0.0
  0
VERTEX
  5
6D8
  8
OUTER_LAYER
 10
25.23622993639317
 20
8.042276459369628
 30
0.0
  0
VERTEX
  5
6D9
  8
OUTER_LAYER
 10
25.17406497639857
 20
8.055636364839366
 30
0.0
  0
VERTEX
  5
6DA
  8
OUTER_LAYER
 10
25.11138502439209
 20
8.067114610829632
 30
0.0
  0
VERTEX
  5
6DB
  8
OUTER_LAYER
 10
25.04820765080385
 20
8.076716266986583
 30
0.0
  0
VERTEX
  5
6DC
  8
OUTER_LAYER
 10
24.98455008067666
 20
8.084449418163704
 30
0.0
  0
VERTEX
  5
6DD
  8
OUTER_LAYER
 10
24.92042849904237
 20
8.090325058050391
 30
0.0
  0
VERTEX
  5
6DE
  8
OUTER_LAYER
 10
24.85625060373299
 20
8.094332328155389
 30
0.0
  0
VERTEX
  5
6DF
  8
OUTER_LAYER
 10
24.80965626057207
 20
8.096076910861068
 30
0.0
  0
VERTEX
  5
6E0
  8
OUTER_LAYER
 10
24.7635365917492
 20
8.096822728172238
 30
0.0
  0
VERTEX
  5
6E1
  8
OUTER_LAYER
 10
24.71749930902488
 20
8.096588713386701
 30
0.0
  0
VERTEX
  5
6E2
  8
OUTER_LAYER
 10
24.67156182294377
 20
8.095378685171251
 30
0.0
  0
VERTEX
  5
6E3
  8
OUTER_LAYER
 10
24.62574149046935
 20
8.093196684320501
 30
0.0
  0
VERTEX
  5
6E4
  8
OUTER_LAYER
 10
24.58005559597024
 20
8.090046967949046
 30
0.0
  0
VERTEX
  5
6E5
  8
OUTER_LAYER
 10
24.53452133346185
 20
8.085934002399704
 30
0.0
  0
VERTEX
  5
6E6
  8
OUTER_LAYER
 10
24.48915579047156
 20
8.080862455079211
 30
0.0
  0
VERTEX
  5
6E7
  8
OUTER_LAYER
 10
24.44397593194039
 20
8.07483718514008
 30
0.0
  0
VERTEX
  5
6E8
  8
OUTER_LAYER
 10
24.398998587233
 20
8.067863233483042
 30
0.0
  0
VERTEX
  5
6E9
  8
OUTER_LAYER
 10
24.35424043687731
 20
8.059945811808124
 30
0.0
  0
VERTEX
  5
6EA
  8
OUTER_LAYER
 10
24.30971800268366
 20
8.051090291371512
 30
0.0
  0
VERTEX
  5
6EB
  8
OUTER_LAYER
 10
24.26544763707327
 20
8.04130219089187
 30
0.0
  0
VERTEX
  5
6EC
  8
OUTER_LAYER
 10
24.22144551671214
 20
8.030587164706304
 30
0.0
  0
VERTEX
  5
6ED
  8
OUTER_LAYER
 10
24.17772763472942
 20
8.018950990130996
 30
0.0
  0
VERTEX
  5
6EE
  8
OUTER_LAYER
 10
24.13430979707886
 20
8.0063995554186
 30
0.0
  0
VERTEX
  5
6EF
  8
OUTER_LAYER
 10
24.09120761821555
 20
7.992938847269967
 30
0.0
  0
VERTEX
  5
6F0
  8
OUTER_LAYER
 10
24.04843651925244
 20
7.978574938826748
 30
0.0
  0
VERTEX
  5
6F1
  8
OUTER_LAYER
 10
24.00601172762743
 20
7.963313978078024
 30
0.0
  0
VERTEX
  5
6F2
  8
OUTER_LAYER
 10
23.96394827620239
 20
7.947162176026235
 30
0.0
  0
VERTEX
  5
6F3
  8
OUTER_LAYER
 10
23.9222610059854
 20
7.930125796200804
 30
0.0
  0
VERTEX
  5
6F4
  8
OUTER_LAYER
 10
23.88096456756124
 20
7.912211143866881
 30
0.0
  0
VERTEX
  5
6F5
  8
OUTER_LAYER
 10
23.84007342464065
 20
7.893424556234014
 30
0.0
  0
VERTEX
  5
6F6
  8
OUTER_LAYER
 10
23.79960185791545
 20
7.873772393092051
 30
0.0
  0
VERTEX
  5
6F7
  8
OUTER_LAYER
 10
23.75956396975592
 20
7.853261028131476
 30
0.0
  0
VERTEX
  5
6F8
  8
OUTER_LAYER
 10
23.71997368940751
 20
7.831896840882423
 30
0.0
  0
VERTEX
  5
6F9
  8
OUTER_LAYER
 10
23.68084477838273
 20
7.80968620913895
 30
0.0
  0
VERTEX
  5
6FA
  8
OUTER_LAYER
 10
23.64219083675119
 20
7.786635502302483
 30
0.0
  0
VERTEX
  5
6FB
  8
OUTER_LAYER
 10
23.60402530919723
 20
7.762751075070661
 30
0.0
  0
VERTEX
  5
6FC
  8
OUTER_LAYER
 10
23.56636149154886
 20
7.738039261887427
 30
0.0
  0
VERTEX
  5
6FD
  8
OUTER_LAYER
 10
23.52921253723218
 20
7.712506371838256
 30
0.0
  0
VERTEX
  5
6FE
  8
OUTER_LAYER
 10
23.49228754497207
 20
7.685940024262919
 30
0.0
  0
VERTEX
  5
6FF
  8
OUTER_LAYER
 10
23.47310371804324
 20
7.671375361408378
 30
0.0
  0
VERTEX
  5
700
  8
OUTER_LAYER
 10
23.45228150832349
 20
7.654771087058712
 30
0.0
  0
VERTEX
  5
701
  8
OUTER_LAYER
 10
23.40962780436159
 20
7.618916274208888
 30
0.0
  0
VERTEX
  5
702
  8
OUTER_LAYER
 10
23.36277137861172
 20
7.577517818094357
 30
0.0
  0
VERTEX
  5
703
  8
OUTER_LAYER
 10
23.31322379502789
 20
7.532053209480848
 30
0.0
  0
VERTEX
  5
704
  8
OUTER_LAYER
 10
23.26211496789277
 20
7.483619566738143
 30
0.0
  0
VERTEX
  5
705
  8
OUTER_LAYER
 10
23.21070595309131
 20
7.433402522284049
 30
0.0
  0
VERTEX
  5
706
  8
OUTER_LAYER
 10
23.16029830092606
 20
7.382605321872965
 30
0.0
  0
VERTEX
  5
707
  8
OUTER_LAYER
 10
23.11240243282385
 20
7.332626908384091
 30
0.0
  0
VERTEX
  5
708
  8
OUTER_LAYER
 10
23.07294168459483
 20
7.290003286799888
 30
0.0
  0
VERTEX
  5
709
  8
OUTER_LAYER
 10
23.03444689977646
 20
7.24716150521285
 30
0.0
  0
VERTEX
  5
70A
  8
OUTER_LAYER
 10
22.99677498828794
 20
7.203941094191107
 30
0.0
  0
VERTEX
  5
70B
  8
OUTER_LAYER
 10
22.95992566795348
 20
7.160336011504091
 30
0.0
  0
VERTEX
  5
70C
  8
OUTER_LAYER
 10
22.92389860959722
 20
7.116340348962265
 30
0.0
  0
VERTEX
  5
70D
  8
OUTER_LAYER
 10
22.88869342279113
 20
7.071948327566434
 30
0.0
  0
VERTEX
  5
70E
  8
OUTER_LAYER
 10
22.85430964219437
 20
7.027154291810165
 30
0.0
  0
VERTEX
  5
70F
  8
OUTER_LAYER
 10
22.8207467138357
 20
6.981952702148085
 30
0.0
  0
VERTEX
  5
710
  8
OUTER_LAYER
 10
22.78800398244744
 20
6.936338126842069
 30
0.0
  0
VERTEX
  5
711
  8
OUTER_LAYER
 10
22.75608067934783
 20
6.890305232406976
 30
0.0
  0
VERTEX
  5
712
  8
OUTER_LAYER
 10
22.72497591136166
 20
6.843848773185424
 30
0.0
  0
VERTEX
  5
713
  8
OUTER_LAYER
 10
22.69468865068382
 20
6.796963579796175
 30
0.0
  0
VERTEX
  5
714
  8
OUTER_LAYER
 10
22.66521772629041
 20
6.749644547316938
 30
0.0
  0
VERTEX
  5
715
  8
OUTER_LAYER
 10
22.63656181626737
 20
6.701886622215861
 30
0.0
  0
VERTEX
  5
716
  8
OUTER_LAYER
 10
22.60871944207652
 20
6.65368478964416
 30
0.0
  0
VERTEX
  5
717
  8
OUTER_LAYER
 10
22.59594289145966
 20
6.630688951087215
 30
0.0
  0
VERTEX
  5
718
  8
OUTER_LAYER
 10
22.5579769349528
 20
6.598608172277078
 30
0.0
  0
VERTEX
  5
719
  8
OUTER_LAYER
 10
22.50021787142367
 20
6.551295145639441
 30
0.0
  0
VERTEX
  5
71A
  8
OUTER_LAYER
 10
22.44460855498725
 20
6.507296579468459
 30
0.0
  0
VERTEX
  5
71B
  8
OUTER_LAYER
 10
22.39106880318668
 20
6.466544978426146
 30
0.0
  0
VERTEX
  5
71C
  8
OUTER_LAYER
 10
22.33952175638683
 20
6.428969831624884
 30
0.0
  0
VERTEX
  5
71D
  8
OUTER_LAYER
 10
22.28989337312757
 20
6.394496417617943
 30
0.0
  0
VERTEX
  5
71E
  8
OUTER_LAYER
 10
22.24211145743489
 20
6.363044394795222
 30
0.0
  0
VERTEX
  5
71F
  8
OUTER_LAYER
 10
22.19610405475814
 20
6.334526228327324
 30
0.0
  0
VERTEX
  5
720
  8
OUTER_LAYER
 10
22.15179704881532
 20
6.308845569350352
 30
0.0
  0
VERTEX
  5
721
  8
OUTER_LAYER
 10
22.10911082486119
 20
6.285895789485672
 30
0.0
  0
VERTEX
  5
722
  8
OUTER_LAYER
 10
22.06712092848309
 20
6.265146342191196
 30
0.0
  0
VERTEX
  5
723
  8
OUTER_LAYER
 10
22.04789393793489
 20
6.256289019221422
 30
0.0
  0
VERTEX
  5
724
  8
OUTER_LAYER
 10
22.02820283830957
 20
6.247664084788905
 30
0.0
  0
VERTEX
  5
725
  8
OUTER_LAYER
 10
22.00883806993951
 20
6.239625407895639
 30
0.0
  0
VERTEX
  5
726
  8
OUTER_LAYER
 10
21.98978173071634
 20
6.232154743481571
 30
0.0
  0
VERTEX
  5
727
  8
OUTER_LAYER
 10
21.97101414631641
 20
6.22523349383798
 30
0.0
  0
VERTEX
  5
728
  8
OUTER_LAYER
 10
21.95251375611723
 20
6.218842868844418
 30
0.0
  0
VERTEX
  5
729
  8
OUTER_LAYER
 10
21.93425703904857
 20
6.212964072558981
 30
0.0
  0
VERTEX
  5
72A
  8
OUTER_LAYER
 10
21.9162184886171
 20
6.207578511394477
 30
0.0
  0
VERTEX
  5
72B
  8
OUTER_LAYER
 10
21.89837064490376
 20
6.202668016983904
 30
0.0
  0
VERTEX
  5
72C
  8
OUTER_LAYER
 10
21.87953570721716
 20
6.197925920146826
 30
0.0
  0
VERTEX
  5
72D
  8
OUTER_LAYER
 10
21.78934656843584
 20
6.176269620247851
 30
0.0
  0
VERTEX
  5
72E
  8
OUTER_LAYER
 10
21.2451218769157
 20
6.165278444873953
 30
0.0
  0
VERTEX
  5
72F
  8
OUTER_LAYER
 10
14.03131691916453
 20
6.173500702827431
 30
0.0
  0
VERTEX
  5
730
  8
OUTER_LAYER
 10
6.834220665400146
 20
6.181703916285655
 30
0.0
  0
VERTEX
  5
731
  8
OUTER_LAYER
 10
6.682694424909113
 20
6.208069401484726
 30
0.0
  0
VERTEX
  5
732
  8
OUTER_LAYER
 10
6.655789354816569
 20
6.213074763818617
 30
0.0
  0
VERTEX
  5
733
  8
OUTER_LAYER
 10
6.629293666062916
 20
6.21861781376237
 30
0.0
  0
VERTEX
  5
734
  8
OUTER_LAYER
 10
6.601983918837687
 20
6.22493302758823
 30
0.0
  0
VERTEX
  5
735
  8
OUTER_LAYER
 10
6.573933102334609
 20
6.232009966982266
 30
0.0
  0
VERTEX
  5
736
  8
OUTER_LAYER
 10
6.545210734358144
 20
6.239835820157692
 30
0.0
  0
VERTEX
  5
737
  8
OUTER_LAYER
 10
6.515883215988431
 20
6.248395908067612
 30
0.0
  0
VERTEX
  5
738
  8
OUTER_LAYER
 10
6.486014175061364
 20
6.257674079503563
 30
0.0
  0
VERTEX
  5
739
  8
OUTER_LAYER
 10
6.455664787355098
 20
6.267653018540315
 30
0.0
  0
VERTEX
  5
73A
  8
OUTER_LAYER
 10
6.424894070252273
 20
6.278314483096643
 30
0.0
  0
VERTEX
  5
73B
  8
OUTER_LAYER
 10
6.393759147262474
 20
6.289639489447286
 30
0.0
  0
VERTEX
  5
73C
  8
OUTER_LAYER
 10
6.362315483918829
 20
6.301608454315671
 30
0.0
  0
VERTEX
  5
73D
  8
OUTER_LAYER
 10
6.330617096745091
 20
6.314201303609802
 30
0.0
  0
VERTEX
  5
73E
  8
OUTER_LAYER
 10
6.298716737565269
 20
6.327397554834266
 30
0.0
  0
VERTEX
  5
73F
  8
OUTER_LAYER
 10
6.266666055640214
 20
6.341176378615034
 30
0.0
  0
VERTEX
  5
740
  8
OUTER_LAYER
 10
6.234515740101488
 20
6.355516643526145
 30
0.0
  0
VERTEX
  5
741
  8
OUTER_LAYER
 10
6.202315645019982
 20
6.370396947429938
 30
0.0
  0
VERTEX
  5
742
  8
OUTER_LAYER
 10
6.170114899244254
 20
6.385795637778807
 30
0.0
  0
VERTEX
  5
743
  8
OUTER_LAYER
 10
6.137962002915737
 20
6.4016908227253
 30
0.0
  0
VERTEX
  5
744
  8
OUTER_LAYER
 10
6.105904912332809
 20
6.418060374411849
 30
0.0
  0
VERTEX
  5
745
  8
OUTER_LAYER
 10
6.073991114602932
 20
6.434881925433184
 30
0.0
  0
VERTEX
  5
746
  8
OUTER_LAYER
 10
6.042267693302163
 20
6.452132859157254
 30
0.0
  0
VERTEX
  5
747
  8
OUTER_LAYER
 10
6.010781386149737
 20
6.469790294339633
 30
0.0
  0
VERTEX
  5
748
  8
OUTER_LAYER
 10
5.979578635504376
 20
6.487831064255627
 30
0.0
  0
VERTEX
  5
749
  8
OUTER_LAYER
 10
5.948705632293371
 20
6.506231690393948
 30
0.0
  0
VERTEX
  5
74A
  8
OUTER_LAYER
 10
5.918208353790703
 20
6.524968350597748
 30
0.0
  0
VERTEX
  5
74B
  8
OUTER_LAYER
 10
5.888132595461233
 20
6.544016841395967
 30
0.0
  0
VERTEX
  5
74C
  8
OUTER_LAYER
 10
5.858523996875785
 20
6.563352534137415
 30
0.0
  0
VERTEX
  5
74D
  8
OUTER_LAYER
 10
5.829428061468506
 20
6.582950324418644
 30
0.0
  0
VERTEX
  5
74E
  8
OUTER_LAYER
 10
5.800890169643971
 20
6.602784574183536
 30
0.0
  0
VERTEX
  5
74F
  8
OUTER_LAYER
 10
5.77295558443226
 20
6.622829045770803
 30
0.0
  0
VERTEX
  5
750
  8
OUTER_LAYER
 10
5.745669448523702
 20
6.643056827098016
 30
0.0
  0
VERTEX
  5
751
  8
OUTER_LAYER
 10
5.738561094811096
 20
6.648505415701317
 30
0.0
  0
VERTEX
  5
752
  8
OUTER_LAYER
 10
5.695679520853565
 20
6.709456410460876
 30
0.0
  0
VERTEX
  5
753
  8
OUTER_LAYER
 10
5.622177398810862
 20
6.812925691515727
 30
0.0
  0
VERTEX
  5
754
  8
OUTER_LAYER
 10
5.557953964180125
 20
6.901149765686149
 30
0.0
  0
VERTEX
  5
755
  8
OUTER_LAYER
 10
5.500882288972208
 20
6.976598924357283
 30
0.0
  0
VERTEX
  5
756
  8
OUTER_LAYER
 10
5.473654212200214
 20
7.011209758088081
 30
0.0
  0
VERTEX
  5
757
  8
OUTER_LAYER
 10
5.447467241340371
 20
7.043472779966454
 30
0.0
  0
VERTEX
  5
758
  8
OUTER_LAYER
 10
5.4217615810309
 20
7.074059387173011
 30
0.0
  0
VERTEX
  5
759
  8
OUTER_LAYER
 10
5.396276141166487
 20
7.103266497908026
 30
0.0
  0
VERTEX
  5
75A
  8
OUTER_LAYER
 10
5.37077428112783
 20
7.131371266466317
 30
0.0
  0
VERTEX
  5
75B
  8
OUTER_LAYER
 10
5.345040713120575
 20
7.158639738081239
 30
0.0
  0
VERTEX
  5
75C
  8
OUTER_LAYER
 10
5.318872676972508
 20
7.185338976954174
 30
0.0
  0
VERTEX
  5
75D
  8
OUTER_LAYER
 10
5.291673276279178
 20
7.212137364035071
 30
0.0
  0
VERTEX
  5
75E
  8
OUTER_LAYER
 10
5.235845762633735
 20
7.264770854355302
 30
0.0
  0
VERTEX
  5
75F
  8
OUTER_LAYER
 10
5.194418025205071
 20
7.302303872151716
 30
0.0
  0
VERTEX
  5
760
  8
OUTER_LAYER
 10
5.153147670048782
 20
7.338482340145579
 30
0.0
  0
VERTEX
  5
761
  8
OUTER_LAYER
 10
5.111756415159205
 20
7.373542540522173
 30
0.0
  0
VERTEX
  5
762
  8
OUTER_LAYER
 10
5.070221958490859
 20
7.407488329789439
 30
0.0
  0
VERTEX
  5
763
  8
OUTER_LAYER
 10
5.02852224807354
 20
7.440322871758522
 30
0.0
  0
VERTEX
  5
764
  8
OUTER_LAYER
 10
4.986635597633128
 20
7.472048597249116
 30
0.0
  0
VERTEX
  5
765
  8
OUTER_LAYER
 10
4.944540816262269
 20
7.502667173063324
 30
0.0
  0
VERTEX
  5
766
  8
OUTER_LAYER
 10
4.90221735087802
 20
7.532179483353842
 30
0.0
  0
VERTEX
  5
767
  8
OUTER_LAYER
 10
4.859645439709769
 20
7.560585626416882
 30
0.0
  0
VERTEX
  5
768
  8
OUTER_LAYER
 10
4.816806273520196
 20
7.587884930352895
 30
0.0
  0
VERTEX
  5
769
  8
OUTER_LAYER
 10
4.773682160593962
 20
7.614075990555794
 30
0.0
  0
VERTEX
  5
76A
  8
OUTER_LAYER
 10
4.730256690032263
 20
7.639156731810074
 30
0.0
  0
VERTEX
  5
76B
  8
OUTER_LAYER
 10
4.686514887082224
 20
7.663124496903184
 30
0.0
  0
VERTEX
  5
76C
  8
OUTER_LAYER
 10
4.642443353179676
 20
7.685976162747068
 30
0.0
  0
VERTEX
  5
76D
  8
OUTER_LAYER
 10
4.598030382721287
 20
7.707708283723251
 30
0.0
  0
VERTEX
  5
76E
  8
OUTER_LAYER
 10
4.553266048561553
 20
7.728317260334747
 30
0.0
  0
VERTEX
  5
76F
  8
OUTER_LAYER
 10
4.508142248417714
 20
7.747799529621942
 30
0.0
  0
VERTEX
  5
770
  8
OUTER_LAYER
 10
4.462652705362444
 20
7.766151772038783
 30
0.0
  0
VERTEX
  5
771
  8
OUTER_LAYER
 10
4.41679291744388
 20
7.783371127755267
 30
0.0
  0
VERTEX
  5
772
  8
OUTER_LAYER
 10
4.37056005327239
 20
7.799455414211009
 30
0.0
  0
VERTEX
  5
773
  8
OUTER_LAYER
 10
4.323952793663415
 20
7.81440333564746
 30
0.0
  0
VERTEX
  5
774
  8
OUTER_LAYER
 10
4.276971122081541
 20
7.828214675245515
 30
0.0
  0
VERTEX
  5
775
  8
OUTER_LAYER
 10
4.229616069997478
 20
7.840890460797415
 30
0.0
  0
VERTEX
  5
776
  8
OUTER_LAYER
 10
4.18188942587997
 20
7.852433096064282
 30
0.0
  0
VERTEX
  5
777
  8
OUTER_LAYER
 10
4.13379341920533
 20
7.862846451632403
 30
0.0
  0
VERTEX
  5
778
  8
OUTER_LAYER
 10
4.085330392078992
 20
7.872135911458179
 30
0.0
  0
VERTEX
  5
779
  8
OUTER_LAYER
 10
4.036502471966881
 20
7.880308373772548
 30
0.0
  0
VERTEX
  5
77A
  8
OUTER_LAYER
 10
3.98731125862097
 20
7.887372207657005
 30
0.0
  0
VERTEX
  5
77B
  8
OUTER_LAYER
 10
3.937757537086754
 20
7.893337169010269
 30
0.0
  0
VERTEX
  5
77C
  8
OUTER_LAYER
 10
3.887841026516634
 20
7.89821428167622
 30
0.0
  0
VERTEX
  5
77D
  8
OUTER_LAYER
 10
3.837560172196755
 20
7.902015690927919
 30
0.0
  0
VERTEX
  5
77E
  8
OUTER_LAYER
 10
3.787206839468295
 20
7.904738553102621
 30
0.0
  0
VERTEX
  5
77F
  8
OUTER_LAYER
 10
3.747601031315756
 20
7.906155511745911
 30
0.0
  0
VERTEX
  5
780
  8
OUTER_LAYER
 10
3.708478915844846
 20
7.906943361420102
 30
0.0
  0
VERTEX
  5
781
  8
OUTER_LAYER
 10
3.669525323935965
 20
7.907110838740643
 30
0.0
  0
VERTEX
  5
782
  8
OUTER_LAYER
 10
3.630742914141384
 20
7.906655421712621
 30
0.0
  0
VERTEX
  5
783
  8
OUTER_LAYER
 10
3.592134633240276
 20
7.905574711718753
 30
0.0
  0
VERTEX
  5
784
  8
OUTER_LAYER
 10
3.553703708661199
 20
7.903866455382565
 30
0.0
  0
VERTEX
  5
785
  8
OUTER_LAYER
 10
3.515453637703848
 20
7.901528566301358
 30
0.0
  0
VERTEX
  5
786
  8
OUTER_LAYER
 10
3.477388172936481
 20
7.898559146269975
 30
0.0
  0
VERTEX
  5
787
  8
OUTER_LAYER
 10
3.439511304210781
 20
7.894956505630524
 30
0.0
  0
VERTEX
  5
788
  8
OUTER_LAYER
 10
3.401827237142685
 20
7.890719182353608
 30
0.0
  0
VERTEX
  5
789
  8
OUTER_LAYER
 10
3.364340368155613
 20
7.885845959448111
 30
0.0
  0
VERTEX
  5
78A
  8
OUTER_LAYER
 10
3.327055256433838
 20
7.880335880332266
 30
0.0
  0
VERTEX
  5
78B
  8
OUTER_LAYER
 10
3.289976593089976
 20
7.874188261814204
 30
0.0
  0
VERTEX
  5
78C
  8
OUTER_LAYER
 10
3.25310916774484
 20
7.867402704330797
 30
0.0
  0
VERTEX
  5
78D
  8
OUTER_LAYER
 10
3.216457833266634
 20
7.859979099216282
 30
0.0
  0
VERTEX
  5
78E
  8
OUTER_LAYER
 10
3.180027468959742
 20
7.851917632748388
 30
0.0
  0
VERTEX
  5
78F
  8
OUTER_LAYER
 10
3.143822942834492
 20
7.843218786832222
 30
0.0
  0
VERTEX
  5
790
  8
OUTER_LAYER
 10
3.107849073584102
 20
7.833883336246017
 30
0.0
  0
VERTEX
  5
791
  8
OUTER_LAYER
 10
3.072110592937106
 20
7.823912342467551
 30
0.0
  0
VERTEX
  5
792
  8
OUTER_LAYER
 10
3.036612108812084
 20
7.813307144109882
 30
0.0
  0
VERTEX
  5
793
  8
OUTER_LAYER
 10
3.001358070123227
 20
7.802069344183924
 30
0.0
  0
VERTEX
  5
794
  8
OUTER_LAYER
 10
2.966352733608656
 20
7.790200794371433
 30
0.0
  0
VERTEX
  5
795
  8
OUTER_LAYER
 10
2.931600133222933
 20
7.777703576599443
 30
0.0
  0
VERTEX
  5
796
  8
OUTER_LAYER
 10
2.897104052680397
 20
7.764579982318207
 30
0.0
  0
VERTEX
  5
797
  8
OUTER_LAYER
 10
2.862868001267976
 20
7.750832489790738
 30
0.0
  0
VERTEX
  5
798
  8
OUTER_LAYER
 10
2.82889519342554
 20
7.736463739889352
 30
0.0
  0
VERTEX
  5
799
  8
OUTER_LAYER
 10
2.79518853215119
 20
7.721476510798751
 30
0.0
  0
VERTEX
  5
79A
  8
OUTER_LAYER
 10
2.761750596437039
 20
7.705873692111462
 30
0.0
  0
VERTEX
  5
79B
  8
OUTER_LAYER
 10
2.728583632584998
 20
7.689658258687851
 30
0.0
  0
VERTEX
  5
79C
  8
OUTER_LAYER
 10
2.69568954950882
 20
7.672833244776182
 30
0.0
  0
VERTEX
  5
79D
  8
OUTER_LAYER
 10
2.663069917746388
 20
7.655401718727659
 30
0.0
  0
VERTEX
  5
79E
  8
OUTER_LAYER
 10
2.63072597203657
 20
7.637366758691489
 30
0.0
  0
VERTEX
  5
79F
  8
OUTER_LAYER
 10
2.598658617087731
 20
7.618731429540271
 30
0.0
  0
VERTEX
  5
7A0
  8
OUTER_LAYER
 10
2.566868436368687
 20
7.599498761361576
 30
0.0
  0
VERTEX
  5
7A1
  8
OUTER_LAYER
 10
2.535355703474411
 20
7.579671729671767
 30
0.0
  0
VERTEX
  5
7A2
  8
OUTER_LAYER
 10
2.504120395663799
 20
7.559253237475808
 30
0.0
  0
VERTEX
  5
7A3
  8
OUTER_LAYER
 10
2.473162209308629
 20
7.538246099347113
 30
0.0
  0
VERTEX
  5
7A4
  8
OUTER_LAYER
 10
2.442480576815903
 20
7.51665302754804
 30
0.0
  0
VERTEX
  5
7A5
  8
OUTER_LAYER
 10
2.412074684582358
 20
7.494476620140201
 30
0.0
  0
VERTEX
  5
7A6
  8
OUTER_LAYER
 10
2.381943491857141
 20
7.471719351215405
 30
0.0
  0
VERTEX
  5
7A7
  8
OUTER_LAYER
 10
2.352085749905398
 20
7.448383562982989
 30
0.0
  0
VERTEX
  5
7A8
  8
OUTER_LAYER
 10
2.32250002140431
 20
7.424471459777731
 30
0.0
  0
VERTEX
  5
7A9
  8
OUTER_LAYER
 10
2.293184699721561
 20
7.399985103819559
 30
0.0
  0
VERTEX
  5
7AA
  8
OUTER_LAYER
 10
2.264138027852494
 20
7.374926412594385
 30
0.0
  0
VERTEX
  5
7AB
  8
OUTER_LAYER
 10
2.235358116804032
 20
7.349297157699153
 30
0.0
  0
VERTEX
  5
7AC
  8
OUTER_LAYER
 10
2.206842963331351
 20
7.323098965060483
 30
0.0
  0
VERTEX
  5
7AD
  8
OUTER_LAYER
 10
2.178590466810744
 20
7.296333316300174
 30
0.0
  0
VERTEX
  5
7AE
  8
OUTER_LAYER
 10
2.15059844521729
 20
7.269001551156337
 30
0.0
  0
VERTEX
  5
7AF
  8
OUTER_LAYER
 10
2.12286465009935
 20
7.241104870781837
 30
0.0
  0
VERTEX
  5
7B0
  8
OUTER_LAYER
 10
2.095386780527581
 20
7.212644341801556
 30
0.0
  0
VERTEX
  5
7B1
  8
OUTER_LAYER
 10
2.068162495941401
 20
7.183620900943269
 30
0.0
  0
VERTEX
  5
7B2
  8
OUTER_LAYER
 10
2.041189427989376
 20
7.154035360225572
 30
0.0
  0
VERTEX
  5
7B3
  8
OUTER_LAYER
 10
2.014465191224004
 20
7.123888412430233
 30
0.0
  0
VERTEX
  5
7B4
  8
OUTER_LAYER
 10
1.987987392849801
 20
7.093180636945784
 30
0.0
  0
VERTEX
  5
7B5
  8
OUTER_LAYER
 10
1.961753641382808
 20
7.061912505697499
 30
0.0
  0
VERTEX
  5
7B6
  8
OUTER_LAYER
 10
1.935443674513444
 20
7.02969513545181
 30
0.0
  0
VERTEX
  5
7B7
  8
OUTER_LAYER
 10
1.884494604252577
 20
6.964766513865894
 30
0.0
  0
VERTEX
  5
7B8
  8
OUTER_LAYER
 10
1.834164434612679
 20
6.897192765573874
 30
0.0
  0
SEQEND
  5
CC3
  8
OUTER_LAYER
  0
POLYLINE
  5
7C
  8
ENDS
 66
     1
 10
0.0
 20
0.0
 30
0.0
 70
     1
  0
VERTEX
  5
7B9
  8
ENDS
 10
5.83263655776174
 20
6.188824690123453
 30
0.0
  0
VERTEX
  5
7BA
  8
ENDS
 10
5.790451273470712
 20
6.268679809025221
 30
0.0
  0
VERTEX
  5
7BB
  8
ENDS
 10
5.535355506039978
 20
6.630745708553107
 30
0.0
  0
VERTEX
  5
7BC
  8
ENDS
 10
5.462564689995178
 20
6.73321368082698
 30
0.0
  0
VERTEX
  5
7BD
  8
ENDS
 10
5.430036099422649
 20
6.778231851452394
 30
0.0
  0
VERTEX
  5
7BE
  8
ENDS
 10
5.399689492224633
 20
6.819585674842719
 30
0.0
  0
VERTEX
  5
7BF
  8
ENDS
 10
5.371227947207078
 20
6.8576347983274
 30
0.0
  0
VERTEX
  5
7C0
  8
ENDS
 10
5.344354543175934
 20
6.892738869235881
 30
0.0
  0
VERTEX
  5
7C1
  8
ENDS
 10
5.318772358937148
 20
6.925257534897609
 30
0.0
  0
VERTEX
  5
7C2
  8
ENDS
 10
5.294184473296669
 20
6.955550442642028
 30
0.0
  0
VERTEX
  5
7C3
  8
ENDS
 10
5.270293965060448
 20
6.983977239798582
 30
0.0
  0
VERTEX
  5
7C4
  8
ENDS
 10
5.246803913034432
 20
7.010897573696715
 30
0.0
  0
VERTEX
  5
7C5
  8
ENDS
 10
5.22341739602457
 20
7.036671091665873
 30
0.0
  0
VERTEX
  5
7C6
  8
ENDS
 10
5.199837492836812
 20
7.0616574410355
 30
0.0
  0
VERTEX
  5
7C7
  8
ENDS
 10
5.175767282277105
 20
7.086216269135042
 30
0.0
  0
VERTEX
  5
7C8
  8
ENDS
 10
5.1509098431514
 20
7.110707223293943
 30
0.0
  0
VERTEX
  5
7C9
  8
ENDS
 10
5.124968254265645
 20
7.135489950841648
 30
0.0
  0
VERTEX
  5
7CA
  8
ENDS
 10
5.097645594425788
 20
7.160924099107601
 30
0.0
  0
VERTEX
  5
7CB
  8
ENDS
 10
5.058500383640077
 20
7.196389175992265
 30
0.0
  0
VERTEX
  5
7CC
  8
ENDS
 10
5.019383188334154
 20
7.23068013842823
 30
0.0
  0
VERTEX
  5
7CD
  8
ENDS
 10
4.980277535908021
 20
7.263804333709956
 30
0.0
  0
VERTEX
  5
7CE
  8
ENDS
 10
4.941166953761677
 20
7.295769109131902
 30
0.0
  0
VERTEX
  5
7CF
  8
ENDS
 10
4.902034969295119
 20
7.326581811988529
 30
0.0
  0
VERTEX
  5
7D0
  8
ENDS
 10
4.862865109908347
 20
7.356249789574296
 30
0.0
  0
VERTEX
  5
7D1
  8
ENDS
 10
4.82364090300136
 20
7.384780389183663
 30
0.0
  0
VERTEX
  5
7D2
  8
ENDS
 10
4.784345875974157
 20
7.412180958111092
 30
0.0
  0
VERTEX
  5
7D3
  8
ENDS
 10
4.744963556226739
 20
7.438458843651039
 30
0.0
  0
VERTEX
  5
7D4
  8
ENDS
 10
4.705477471159103
 20
7.463621393097968
 30
0.0
  0
VERTEX
  5
7D5
  8
ENDS
 10
4.665871148171249
 20
7.487675953746336
 30
0.0
  0
VERTEX
  5
7D6
  8
ENDS
 10
4.626128114663175
 20
7.510629872890605
 30
0.0
  0
VERTEX
  5
7D7
  8
ENDS
 10
4.58623189803488
 20
7.532490497825234
 30
0.0
  0
VERTEX
  5
7D8
  8
ENDS
 10
4.546166025686365
 20
7.553265175844682
 30
0.0
  0
VERTEX
  5
7D9
  8
ENDS
 10
4.505914025017629
 20
7.57296125424341
 30
0.0
  0
VERTEX
  5
7DA
  8
ENDS
 10
4.465459423428669
 20
7.591586080315878
 30
0.0
  0
VERTEX
  5
7DB
  8
ENDS
 10
4.424785748319485
 20
7.609147001356545
 30
0.0
  0
VERTEX
  5
7DC
  8
ENDS
 10
4.383876527090078
 20
7.625651364659872
 30
0.0
  0
VERTEX
  5
7DD
  8
ENDS
 10
4.342715287140445
 20
7.64110651752032
 30
0.0
  0
VERTEX
  5
7DE
  8
ENDS
 10
4.301285555870585
 20
7.655519807232346
 30
0.0
  0
VERTEX
  5
7DF
  8
ENDS
 10
4.259570860680498
 20
7.668898581090412
 30
0.0
  0
VERTEX
  5
7E0
  8
ENDS
 10
4.217554728970184
 20
7.681250186388977
 30
0.0
  0
VERTEX
  5
7E1
  8
ENDS
 10
4.175220688139639
 20
7.692581970422502
 30
0.0
  0
VERTEX
  5
7E2
  8
ENDS
 10
4.132552265588865
 20
7.702901280485445
 30
0.0
  0
VERTEX
  5
7E3
  8
ENDS
 10
4.089532988717861
 20
7.712215463872268
 30
0.0
  0
VERTEX
  5
7E4
  8
ENDS
 10
4.046146384926623
 20
7.72053186787743
 30
0.0
  0
VERTEX
  5
7E5
  8
ENDS
 10
4.002375981615153
 20
7.727857839795391
 30
0.0
  0
VERTEX
  5
7E6
  8
ENDS
 10
3.95820530618345
 20
7.734200726920612
 30
0.0
  0
VERTEX
  5
7E7
  8
ENDS
 10
3.913617886031512
 20
7.739567876547551
 30
0.0
  0
VERTEX
  5
7E8
  8
ENDS
 10
3.868597248559339
 20
7.743966635970668
 30
0.0
  0
VERTEX
  5
7E9
  8
ENDS
 10
3.82312692116693
 20
7.747404352484426
 30
0.0
  0
VERTEX
  5
7EA
  8
ENDS
 10
3.777190431254283
 20
7.749888373383281
 30
0.0
  0
VERTEX
  5
7EB
  8
ENDS
 10
3.741362171107034
 20
7.751170184442476
 30
0.0
  0
VERTEX
  5
7EC
  8
ENDS
 10
3.70575097548901
 20
7.751887330448723
 30
0.0
  0
VERTEX
  5
7ED
  8
ENDS
 10
3.670356308855584
 20
7.752039506503223
 30
0.0
  0
VERTEX
  5
7EE
  8
ENDS
 10
3.635177635662131
 20
7.751626407707178
 30
0.0
  0
VERTEX
  5
7EF
  8
ENDS
 10
3.600214420364027
 20
7.750647729161786
 30
0.0
  0
VERTEX
  5
7F0
  8
ENDS
 10
3.565466127416647
 20
7.749103165968249
 30
0.0
  0
VERTEX
  5
7F1
  8
ENDS
 10
3.530932221275364
 20
7.746992413227767
 30
0.0
  0
VERTEX
  5
7F2
  8
ENDS
 10
3.496612166395554
 20
7.744315166041542
 30
0.0
  0
VERTEX
  5
7F3
  8
ENDS
 10
3.462505427232591
 20
7.741071119510773
 30
0.0
  0
VERTEX
  5
7F4
  8
ENDS
 10
3.428611468241852
 20
7.737259968736661
 30
0.0
  0
VERTEX
  5
7F5
  8
ENDS
 10
3.39492975387871
 20
7.732881408820407
 30
0.0
  0
VERTEX
  5
7F6
  8
ENDS
 10
3.361459748598541
 20
7.727935134863211
 30
0.0
  0
VERTEX
  5
7F7
  8
ENDS
 10
3.328200916856719
 20
7.722420841966274
 30
0.0
  0
VERTEX
  5
7F8
  8
ENDS
 10
3.29515272310862
 20
7.716338225230798
 30
0.0
  0
VERTEX
  5
7F9
  8
ENDS
 10
3.262314631809617
 20
7.709686979757981
 30
0.0
  0
VERTEX
  5
7FA
  8
ENDS
 10
3.229686107415086
 20
7.702466800649024
 30
0.0
  0
VERTEX
  5
7FB
  8
ENDS
 10
3.197266614380402
 20
7.69467738300513
 30
0.0
  0
VERTEX
  5
7FC
  8
ENDS
 10
3.165055617160939
 20
7.686318421927497
 30
0.0
  0
VERTEX
  5
7FD
  8
ENDS
 10
3.133052580212073
 20
7.677389612517327
 30
0.0
  0
VERTEX
  5
7FE
  8
ENDS
 10
3.101256967989179
 20
7.667890649875821
 30
0.0
  0
VERTEX
  5
7FF
  8
ENDS
 10
3.069668244947631
 20
7.657821229104178
 30
0.0
  0
VERTEX
  5
800
  8
ENDS
 10
3.038285875542805
 20
7.647181045303599
 30
0.0
  0
VERTEX
  5
801
  8
ENDS
 10
3.007109324230074
 20
7.635969793575287
 30
0.0
  0
VERTEX
  5
802
  8
ENDS
 10
2.976138055464814
 20
7.624187169020439
 30
0.0
  0
VERTEX
  5
803
  8
ENDS
 10
2.945371533702399
 20
7.611832866740259
 30
0.0
  0
VERTEX
  5
804
  8
ENDS
 10
2.914809223398206
 20
7.598906581835944
 30
0.0
  0
VERTEX
  5
805
  8
ENDS
 10
2.884450589007608
 20
7.585408009408697
 30
0.0
  0
VERTEX
  5
806
  8
ENDS
 10
2.854295094985981
 20
7.57133684455972
 30
0.0
  0
VERTEX
  5
807
  8
ENDS
 10
2.824342205788699
 20
7.556692782390209
 30
0.0
  0
VERTEX
  5
808
  8
ENDS
 10
2.794591385871136
 20
7.54147551800137
 30
0.0
  0
VERTEX
  5
809
  8
ENDS
 10
2.76504209968867
 20
7.5256847464944
 30
0.0
  0
VERTEX
  5
80A
  8
ENDS
 10
2.735693811696672
 20
7.5093201629705
 30
0.0
  0
VERTEX
  5
80B
  8
ENDS
 10
2.70654598635052
 20
7.492381462530872
 30
0.0
  0
VERTEX
  5
80C
  8
ENDS
 10
2.677598088105587
 20
7.474868340276716
 30
0.0
  0
VERTEX
  5
80D
  8
ENDS
 10
2.648849581417249
 20
7.456780491309232
 30
0.0
  0
VERTEX
  5
80E
  8
ENDS
 10
2.62029993074088
 20
7.43811761072962
 30
0.0
  0
VERTEX
  5
80F
  8
ENDS
 10
2.591948600531855
 20
7.418879393639083
 30
0.0
  0
VERTEX
  5
810
  8
ENDS
 10
2.56379505524555
 20
7.399065535138819
 30
0.0
  0
VERTEX
  5
811
  8
ENDS
 10
2.535838759337338
 20
7.378675730330031
 30
0.0
  0
VERTEX
  5
812
  8
ENDS
 10
2.508079177262596
 20
7.357709674313918
 30
0.0
  0
VERTEX
  5
813
  8
ENDS
 10
2.480515773476696
 20
7.336167062191681
 30
0.0
  0
VERTEX
  5
814
  8
ENDS
 10
2.453148012435016
 20
7.31404758906452
 30
0.0
  0
VERTEX
  5
815
  8
ENDS
 10
2.425975358592929
 20
7.291350950033638
 30
0.0
  0
VERTEX
  5
816
  8
ENDS
 10
2.398997276405811
 20
7.268076840200234
 30
0.0
  0
VERTEX
  5
817
  8
ENDS
 10
2.372213230329035
 20
7.244224954665507
 30
0.0
  0
VERTEX
  5
818
  8
ENDS
 10
2.345622684817978
 20
7.219794988530659
 30
0.0
  0
VERTEX
  5
819
  8
ENDS
 10
2.319225104328015
 20
7.194786636896892
 30
0.0
  0
VERTEX
  5
81A
  8
ENDS
 10
2.293019953314518
 20
7.169199594865405
 30
0.0
  0
VERTEX
  5
81B
  8
ENDS
 10
2.267006696232865
 20
7.143033557537398
 30
0.0
  0
VERTEX
  5
81C
  8
ENDS
 10
2.241184797538429
 20
7.116288220014074
 30
0.0
  0
VERTEX
  5
81D
  8
ENDS
 10
2.215553721686585
 20
7.088963277396632
 30
0.0
  0
VERTEX
  5
81E
  8
ENDS
 10
2.190112933132708
 20
7.061058424786272
 30
0.0
  0
VERTEX
  5
81F
  8
ENDS
 10
2.164861896332174
 20
7.032573357284196
 30
0.0
  0
VERTEX
  5
820
  8
ENDS
 10
2.139800075740357
 20
7.003507769991604
 30
0.0
  0
VERTEX
  5
821
  8
ENDS
 10
2.114926935812632
 20
6.973861358009696
 30
0.0
  0
VERTEX
  5
822
  8
ENDS
 10
2.090241941004374
 20
6.943633816439673
 30
0.0
  0
VERTEX
  5
823
  8
ENDS
 10
2.065744555770958
 20
6.912824840382736
 30
0.0
  0
VERTEX
  5
824
  8
ENDS
 10
2.041434244567758
 20
6.881434124940086
 30
0.0
  0
VERTEX
  5
825
  8
ENDS
 10
2.017310471850149
 20
6.849461365212923
 30
0.0
  0
VERTEX
  5
826
  8
ENDS
 10
1.993372702073507
 20
6.816906256302448
 30
0.0
  0
VERTEX
  5
827
  8
ENDS
 10
1.969620399693206
 20
6.783768493309862
 30
0.0
  0
VERTEX
  5
828
  8
ENDS
 10
1.946053029164621
 20
6.750047771336363
 30
0.0
  0
VERTEX
  5
829
  8
ENDS
 10
1.922670054943126
 20
6.715743785483155
 30
0.0
  0
VERTEX
  5
82A
  8
ENDS
 10
1.899470941484098
 20
6.680856230851435
 30
0.0
  0
VERTEX
  5
82B
  8
ENDS
 10
1.872203303345601
 20
6.638680329842868
 30
0.0
  0
VERTEX
  5
82C
  8
ENDS
 10
1.845470533886364
 20
6.595996690845972
 30
0.0
  0
VERTEX
  5
82D
  8
ENDS
 10
1.819277187468951
 20
6.55281732444273
 30
0.0
  0
VERTEX
  5
82E
  8
ENDS
 10
1.793627818455926
 20
6.50915424121512
 30
0.0
  0
VERTEX
  5
82F
  8
ENDS
 10
1.768526981209852
 20
6.465019451745122
 30
0.0
  0
VERTEX
  5
830
  8
ENDS
 10
1.743979230093293
 20
6.420424966614718
 30
0.0
  0
VERTEX
  5
831
  8
ENDS
 10
1.719989119468814
 20
6.375382796405887
 30
0.0
  0
VERTEX
  5
832
  8
ENDS
 10
1.696561203698979
 20
6.32990495170061
 30
0.0
  0
VERTEX
  5
833
  8
ENDS
 10
1.673700037146351
 20
6.284003443080865
 30
0.0
  0
VERTEX
  5
834
  8
ENDS
 10
1.651410174173494
 20
6.237690281128634
 30
0.0
  0
VERTEX
  5
835
  8
ENDS
 10
1.629696169142973
 20
6.190977476425896
 30
0.0
  0
VERTEX
  5
836
  8
ENDS
 10
1.608562576417351
 20
6.143877039554632
 30
0.0
  0
VERTEX
  5
837
  8
ENDS
 10
1.588013950359192
 20
6.096400981096821
 30
0.0
  0
VERTEX
  5
838
  8
ENDS
 10
1.56805484533106
 20
6.048561311634444
 30
0.0
  0
VERTEX
  5
839
  8
ENDS
 10
1.54868981569552
 20
6.000370041749481
 30
0.0
  0
VERTEX
  5
83A
  8
ENDS
 10
1.529923415815134
 20
5.951839182023911
 30
0.0
  0
VERTEX
  5
83B
  8
ENDS
 10
1.511760200052468
 20
5.902980743039715
 30
0.0
  0
VERTEX
  5
83C
  8
ENDS
 10
1.494204722770085
 20
5.853806735378873
 30
0.0
  0
VERTEX
  5
83D
  8
ENDS
 10
1.477261538330549
 20
5.804329169623365
 30
0.0
  0
VERTEX
  5
83E
  8
ENDS
 10
1.460935201096423
 20
5.754560056355172
 30
0.0
  0
VERTEX
  5
83F
  8
ENDS
 10
1.445230265430272
 20
5.704511406156272
 30
0.0
  0
VERTEX
  5
840
  8
ENDS
 10
1.430151285694661
 20
5.654195229608647
 30
0.0
  0
VERTEX
  5
841
  8
ENDS
 10
1.415702816252151
 20
5.603623537294276
 30
0.0
  0
VERTEX
  5
842
  8
ENDS
 10
1.401889411465309
 20
5.55280833979514
 30
0.0
  0
VERTEX
  5
843
  8
ENDS
 10
1.388715625696697
 20
5.501761647693219
 30
0.0
  0
VERTEX
  5
844
  8
ENDS
 10
1.37618601330888
 20
5.450495471570492
 30
0.0
  0
VERTEX
  5
845
  8
ENDS
 10
1.364305128664422
 20
5.39902182200894
 30
0.0
  0
VERTEX
  5
846
  8
ENDS
 10
1.353077526125886
 20
5.347352709590542
 30
0.0
  0
VERTEX
  5
847
  8
ENDS
 10
1.342507760055837
 20
5.295500144897279
 30
0.0
  0
VERTEX
  5
848
  8
ENDS
 10
1.332600384816838
 20
5.243476138511131
 30
0.0
  0
VERTEX
  5
849
  8
ENDS
 10
1.323359954771453
 20
5.191292701014077
 30
0.0
  0
VERTEX
  5
84A
  8
ENDS
 10
1.314791024282247
 20
5.138961842988099
 30
0.0
  0
VERTEX
  5
84B
  8
ENDS
 10
1.307551826918208
 20
5.091932401943191
 30
0.0
  0
VERTEX
  5
84C
  8
ENDS
 10
1.301376050651998
 20
5.049499999701103
 30
0.0
  0
VERTEX
  5
84D
  8
ENDS
 10
1.296281581366248
 20
5.01135980358382
 30
0.0
  0
VERTEX
  5
84E
  8
ENDS
 10
1.292286304943591
 20
4.977206980913323
 30
0.0
  0
VERTEX
  5
84F
  8
ENDS
 10
1.289408107266657
 20
4.946736699011591
 30
0.0
  0
VERTEX
  5
850
  8
ENDS
 10
1.287664874218079
 20
4.91964412520061
 30
0.0
  0
VERTEX
  5
851
  8
ENDS
 10
1.287074491680488
 20
4.895624426802359
 30
0.0
  0
VERTEX
  5
852
  8
ENDS
 10
1.287217208691636
 20
4.884671645671125
 30
0.0
  0
VERTEX
  5
853
  8
ENDS
 10
1.287654845536517
 20
4.874372771138817
 30
0.0
  0
VERTEX
  5
854
  8
ENDS
 10
1.288389637950461
 20
4.864689699120682
 30
0.0
  0
VERTEX
  5
855
  8
ENDS
 10
1.289423821668797
 20
4.855584325531969
 30
0.0
  0
VERTEX
  5
856
  8
ENDS
 10
1.290759632426853
 20
4.847018546287924
 30
0.0
  0
VERTEX
  5
857
  8
ENDS
 10
1.292399305959959
 20
4.838954257303795
 30
0.0
  0
VERTEX
  5
858
  8
ENDS
 10
1.294345078003443
 20
4.831353354494832
 30
0.0
  0
VERTEX
  5
859
  8
ENDS
 10
1.296599184292635
 20
4.824177733776279
 30
0.0
  0
VERTEX
  5
85A
  8
ENDS
 10
1.299163860562864
 20
4.817389291063387
 30
0.0
  0
VERTEX
  5
85B
  8
ENDS
 10
1.302041342549459
 20
4.810949922271401
 30
0.0
  0
VERTEX
  5
85C
  8
ENDS
 10
1.305233865987747
 20
4.80482152331557
 30
0.0
  0
VERTEX
  5
85D
  8
ENDS
 10
1.30874366661306
 20
4.798965990111142
 30
0.0
  0
VERTEX
  5
85E
  8
ENDS
 10
1.312572980160724
 20
4.793345218573364
 30
0.0
  0
VERTEX
  5
85F
  8
ENDS
 10
1.31672404236607
 20
4.787921104617483
 30
0.0
  0
VERTEX
  5
860
  8
ENDS
 10
1.321199088964427
 20
4.782655544158749
 30
0.0
  0
VERTEX
  5
861
  8
ENDS
 10
1.326000355691122
 20
4.777510433112408
 30
0.0
  0
VERTEX
  5
862
  8
ENDS
 10
1.336590492470848
 20
4.767429142917895
 30
0.0
  0
VERTEX
  5
863
  8
ENDS
 10
1.379557445734162
 20
4.729176980917699
 30
0.0
  0
VERTEX
  5
864
  8
ENDS
 10
3.105899651691588
 20
5.443680731222607
 30
0.0
  0
VERTEX
  5
865
  8
ENDS
 10
3.232775825838687
 20
5.446579957095025
 30
0.0
  0
VERTEX
  5
866
  8
ENDS
 10
3.257587012937957
 20
5.446570517210271
 30
0.0
  0
VERTEX
  5
867
  8
ENDS
 10
3.282290876506307
 20
5.445416677659657
 30
0.0
  0
VERTEX
  5
868
  8
ENDS
 10
3.306877877798382
 20
5.443134487925292
 30
0.0
  0
VERTEX
  5
869
  8
ENDS
 10
3.331338478068824
 20
5.439739997489283
 30
0.0
  0
VERTEX
  5
86A
  8
ENDS
 10
3.355663138572278
 20
5.435249255833736
 30
0.0
  0
VERTEX
  5
86B
  8
ENDS
 10
3.379842320563388
 20
5.42967831244076
 30
0.0
  0
VERTEX
  5
86C
  8
ENDS
 10
3.403866485296797
 20
5.423043216792463
 30
0.0
  0
VERTEX
  5
86D
  8
ENDS
 10
3.42772609402715
 20
5.415360018370951
 30
0.0
  0
VERTEX
  5
86E
  8
ENDS
 10
3.451411608009089
 20
5.406644766658332
 30
0.0
  0
VERTEX
  5
86F
  8
ENDS
 10
3.47491348849726
 20
5.396913511136715
 30
0.0
  0
VERTEX
  5
870
  8
ENDS
 10
3.498222196746305
 20
5.386182301288205
 30
0.0
  0
VERTEX
  5
871
  8
ENDS
 10
3.521328194010868
 20
5.37446718659491
 30
0.0
  0
VERTEX
  5
872
  8
ENDS
 10
3.544221941545594
 20
5.361784216538939
 30
0.0
  0
VERTEX
  5
873
  8
ENDS
 10
3.566893900605125
 20
5.348149440602398
 30
0.0
  0
VERTEX
  5
874
  8
ENDS
 10
3.589334532444107
 20
5.333578908267396
 30
0.0
  0
VERTEX
  5
875
  8
ENDS
 10
3.611534298317182
 20
5.318088669016038
 30
0.0
  0
VERTEX
  5
876
  8
ENDS
 10
3.633483659478995
 20
5.301694772330434
 30
0.0
  0
VERTEX
  5
877
  8
ENDS
 10
3.655173077184188
 20
5.28441326769269
 30
0.0
  0
VERTEX
  5
878
  8
ENDS
 10
3.676593012687407
 20
5.266260204584914
 30
0.0
  0
VERTEX
  5
879
  8
ENDS
 10
3.697733927243294
 20
5.247251632489213
 30
0.0
  0
VERTEX
  5
87A
  8
ENDS
 10
3.718586282106494
 20
5.227403600887695
 30
0.0
  0
VERTEX
  5
87B
  8
ENDS
 10
3.739140538531651
 20
5.206732159262467
 30
0.0
  0
VERTEX
  5
87C
  8
ENDS
 10
3.759387157773407
 20
5.185253357095638
 30
0.0
  0
VERTEX
  5
87D
  8
ENDS
 10
3.779316601086408
 20
5.162983243869314
 30
0.0
  0
VERTEX
  5
87E
  8
ENDS
 10
3.798919329725296
 20
5.139937869065601
 30
0.0
  0
VERTEX
  5
87F
  8
ENDS
 10
3.818185804944716
 20
5.116133282166611
 30
0.0
  0
VERTEX
  5
880
  8
ENDS
 10
3.837106487999311
 20
5.091585532654447
 30
0.0
  0
VERTEX
  5
881
  8
ENDS
 10
3.855671840143725
 20
5.066310670011219
 30
0.0
  0
VERTEX
  5
882
  8
ENDS
 10
3.873872322632602
 20
5.040324743719033
 30
0.0
  0
VERTEX
  5
883
  8
ENDS
 10
3.891698396720586
 20
5.013643803259997
 30
0.0
  0
VERTEX
  5
884
  8
ENDS
 10
3.90914052366232
 20
4.98628389811622
 30
0.0
  0
VERTEX
  5
885
  8
ENDS
 10
3.926189164712449
 20
4.958261077769807
 30
0.0
  0
VERTEX
  5
886
  8
ENDS
 10
3.942834781125616
 20
4.929591391702866
 30
0.0
  0
VERTEX
  5
887
  8
ENDS
 10
3.959067834156465
 20
4.900290889397507
 30
0.0
  0
VERTEX
  5
888
  8
ENDS
 10
3.97487878505964
 20
4.870375620335835
 30
0.0
  0
VERTEX
  5
889
  8
ENDS
 10
3.990258095089784
 20
4.839861633999957
 30
0.0
  0
VERTEX
  5
88A
  8
ENDS
 10
4.005196225501542
 20
4.808764979871983
 30
0.0
  0
VERTEX
  5
88B
  8
ENDS
 10
4.019683637549556
 20
4.777101707434018
 30
0.0
  0
VERTEX
  5
88C
  8
ENDS
 10
4.033710792488472
 20
4.74488786616817
 30
0.0
  0
VERTEX
  5
88D
  8
ENDS
 10
4.047268151572932
 20
4.712139505556548
 30
0.0
  0
VERTEX
  5
88E
  8
ENDS
 10
4.06034617605758
 20
4.678872675081258
 30
0.0
  0
VERTEX
  5
88F
  8
ENDS
 10
4.072935327197061
 20
4.645103424224407
 30
0.0
  0
VERTEX
  5
890
  8
ENDS
 10
4.085026066246018
 20
4.610847802468104
 30
0.0
  0
VERTEX
  5
891
  8
ENDS
 10
4.096608854459095
 20
4.576121859294457
 30
0.0
  0
VERTEX
  5
892
  8
ENDS
 10
4.107674153090937
 20
4.540941644185571
 30
0.0
  0
VERTEX
  5
893
  8
ENDS
 10
4.118212423396184
 20
4.505323206623556
 30
0.0
  0
VERTEX
  5
894
  8
ENDS
 10
4.128214126629484
 20
4.469282596090517
 30
0.0
  0
VERTEX
  5
895
  8
ENDS
 10
4.137669724045479
 20
4.432835862068565
 30
0.0
  0
VERTEX
  5
896
  8
ENDS
 10
4.146569676898812
 20
4.395999054039804
 30
0.0
  0
VERTEX
  5
897
  8
ENDS
 10
4.154904446444128
 20
4.358788221486341
 30
0.0
  0
VERTEX
  5
898
  8
ENDS
 10
4.16266449393607
 20
4.321219413890287
 30
0.0
  0
VERTEX
  5
899
  8
ENDS
 10
4.169840280629283
 20
4.283308680733747
 30
0.0
  0
VERTEX
  5
89A
  8
ENDS
 10
4.176422267778411
 20
4.245072071498829
 30
0.0
  0
VERTEX
  5
89B
  8
ENDS
 10
4.182400916638095
 20
4.206525635667641
 30
0.0
  0
VERTEX
  5
89C
  8
ENDS
 10
4.187766688462981
 20
4.167685422722291
 30
0.0
  0
VERTEX
  5
89D
  8
ENDS
 10
4.192510044507713
 20
4.128567482144885
 30
0.0
  0
VERTEX
  5
89E
  8
ENDS
 10
4.196621446026934
 20
4.089187863417532
 30
0.0
  0
VERTEX
  5
89F
  8
ENDS
 10
4.200091354275288
 20
4.049562616022337
 30
0.0
  0
VERTEX
  5
8A0
  8
ENDS
 10
4.202910230507419
 20
4.009707789441409
 30
0.0
  0
VERTEX
  5
8A1
  8
ENDS
 10
4.205068535977969
 20
3.969639433156856
 30
0.0
  0
VERTEX
  5
8A2
  8
ENDS
 10
4.206556731941586
 20
3.929373596650785
 30
0.0
  0
VERTEX
  5
8A3
  8
ENDS
 10
4.20736527965291
 20
3.888926329405304
 30
0.0
  0
VERTEX
  5
8A4
  8
ENDS
 10
4.207484640366586
 20
3.848313680902519
 30
0.0
  0
VERTEX
  5
8A5
  8
ENDS
 10
4.206905275337258
 20
3.80755170062454
 30
0.0
  0
VERTEX
  5
8A6
  8
ENDS
 10
4.205538981391346
 20
3.763644266026316
 30
0.0
  0
VERTEX
  5
8A7
  8
ENDS
 10
4.203460832024236
 20
3.720322010963252
 30
0.0
  0
VERTEX
  5
8A8
  8
ENDS
 10
4.200675869717809
 20
3.677599101964079
 30
0.0
  0
VERTEX
  5
8A9
  8
ENDS
 10
4.197189136953947
 20
3.635489705557529
 30
0.0
  0
VERTEX
  5
8AA
  8
ENDS
 10
4.193005676214528
 20
3.594007988272335
 30
0.0
  0
VERTEX
  5
8AB
  8
ENDS
 10
4.188130529981435
 20
3.553168116637228
 30
0.0
  0
VERTEX
  5
8AC
  8
ENDS
 10
4.182568740736547
 20
3.512984257180941
 30
0.0
  0
VERTEX
  5
8AD
  8
ENDS
 10
4.176325350961746
 20
3.473470576432206
 30
0.0
  0
VERTEX
  5
8AE
  8
ENDS
 10
4.169405403138912
 20
3.434641240919754
 30
0.0
  0
VERTEX
  5
8AF
  8
ENDS
 10
4.161813939749925
 20
3.396510417172316
 30
0.0
  0
VERTEX
  5
8B0
  8
ENDS
 10
4.153556003276667
 20
3.359092271718628
 30
0.0
  0
VERTEX
  5
8B1
  8
ENDS
 10
4.144636636201017
 20
3.322400971087418
 30
0.0
  0
VERTEX
  5
8B2
  8
ENDS
 10
4.135060881004858
 20
3.286450681807419
 30
0.0
  0
VERTEX
  5
8B3
  8
ENDS
 10
4.124833780170069
 20
3.251255570407364
 30
0.0
  0
VERTEX
  5
8B4
  8
ENDS
 10
4.113960376178531
 20
3.216829803415985
 30
0.0
  0
VERTEX
  5
8B5
  8
ENDS
 10
4.102445711512123
 20
3.183187547362014
 30
0.0
  0
VERTEX
  5
8B6
  8
ENDS
 10
4.090294828652729
 20
3.150342968774182
 30
0.0
  0
VERTEX
  5
8B7
  8
ENDS
 10
4.077512770082227
 20
3.118310234181222
 30
0.0
  0
VERTEX
  5
8B8
  8
ENDS
 10
4.064104578282498
 20
3.087103510111866
 30
0.0
  0
VERTEX
  5
8B9
  8
ENDS
 10
4.050075295735423
 20
3.056736963094845
 30
0.0
  0
VERTEX
  5
8BA
  8
ENDS
 10
4.035429964922884
 20
3.027224759658891
 30
0.0
  0
VERTEX
  5
8BB
  8
ENDS
 10
4.02017362832676
 20
2.998581066332738
 30
0.0
  0
VERTEX
  5
8BC
  8
ENDS
 10
4.004311328428932
 20
2.970820049645116
 30
0.0
  0
VERTEX
  5
8BD
  8
ENDS
 10
3.987848107711282
 20
2.943955876124758
 30
0.0
  0
VERTEX
  5
8BE
  8
ENDS
 10
3.970789008655688
 20
2.918002712300395
 30
0.0
  0
VERTEX
  5
8BF
  8
ENDS
 10
3.953139073744032
 20
2.892974724700761
 30
0.0
  0
VERTEX
  5
8C0
  8
ENDS
 10
3.934903345458196
 20
2.868886079854586
 30
0.0
  0
VERTEX
  5
8C1
  8
ENDS
 10
3.916086866280058
 20
2.845750944290603
 30
0.0
  0
VERTEX
  5
8C2
  8
ENDS
 10
3.896694678691501
 20
2.823583484537544
 30
0.0
  0
VERTEX
  5
8C3
  8
ENDS
 10
3.876731825174404
 20
2.802397867124141
 30
0.0
  0
VERTEX
  5
8C4
  8
ENDS
 10
3.856203348210649
 20
2.782208258579125
 30
0.0
  0
VERTEX
  5
8C5
  8
ENDS
 10
3.835114290282116
 20
2.763028825431229
 30
0.0
  0
VERTEX
  5
8C6
  8
ENDS
 10
3.734885631845402
 20
2.675455800118225
 30
0.0
  0
VERTEX
  5
8C7
  8
ENDS
 10
3.323999167704089
 20
2.501138758135059
 30
0.0
  0
VERTEX
  5
8C8
  8
ENDS
 10
3.132135142536741
 20
2.420399467714162
 30
0.0
  0
VERTEX
  5
8C9
  8
ENDS
 10
2.913473793110303
 20
2.329425619014379
 30
0.0
  0
VERTEX
  5
8CA
  8
ENDS
 10
2.694939209163316
 20
2.239365906425896
 30
0.0
  0
VERTEX
  5
8CB
  8
ENDS
 10
2.503455480434322
 20
2.161369024338901
 30
0.0
  0
VERTEX
  5
8CC
  8
ENDS
 10
2.093798257305859
 20
1.995916332525906
 30
0.0
  0
VERTEX
  5
8CD
  8
ENDS
 10
2.056651284845695
 20
1.948568160265878
 30
0.0
  0
VERTEX
  5
8CE
  8
ENDS
 10
2.052639941132332
 20
1.943051385158042
 30
0.0
  0
VERTEX
  5
8CF
  8
ENDS
 10
2.048890515307066
 20
1.937078972174508
 30
0.0
  0
VERTEX
  5
8D0
  8
ENDS
 10
2.045411848051076
 20
1.930689506918354
 30
0.0
  0
VERTEX
  5
8D1
  8
ENDS
 10
2.042212780045543
 20
1.923921574992657
 30
0.0
  0
VERTEX
  5
8D2
  8
ENDS
 10
2.039302151971648
 20
1.916813762000496
 30
0.0
  0
VERTEX
  5
8D3
  8
ENDS
 10
2.03668880451057
 20
1.90940465354495
 30
0.0
  0
VERTEX
  5
8D4
  8
ENDS
 10
2.034381578343489
 20
1.901732835229095
 30
0.0
  0
VERTEX
  5
8D5
  8
ENDS
 10
2.032389314151586
 20
1.89383689265601
 30
0.0
  0
VERTEX
  5
8D6
  8
ENDS
 10
2.03072085261604
 20
1.885755411428772
 30
0.0
  0
VERTEX
  5
8D7
  8
ENDS
 10
2.029385034418031
 20
1.877526977150462
 30
0.0
  0
VERTEX
  5
8D8
  8
ENDS
 10
2.02839070023874
 20
1.869190175424155
 30
0.0
  0
VERTEX
  5
8D9
  8
ENDS
 10
2.027746690759347
 20
1.86078359185293
 30
0.0
  0
VERTEX
  5
8DA
  8
ENDS
 10
2.027461846661031
 20
1.852345812039866
 30
0.0
  0
VERTEX
  5
8DB
  8
ENDS
 10
2.027545008624973
 20
1.843915421588039
 30
0.0
  0
VERTEX
  5
8DC
  8
ENDS
 10
2.028005017332352
 20
1.835531006100529
 30
0.0
  0
VERTEX
  5
8DD
  8
ENDS
 10
2.028850713464349
 20
1.827231151180413
 30
0.0
  0
VERTEX
  5
8DE
  8
ENDS
 10
2.030597064867105
 20
1.815456598116405
 30
0.0
  0
VERTEX
  5
8DF
  8
ENDS
 10
2.032904086109282
 20
1.804061208778238
 30
0.0
  0
VERTEX
  5
8E0
  8
ENDS
 10
2.035939517179427
 20
1.792793267141723
 30
0.0
  0
VERTEX
  5
8E1
  8
ENDS
 10
2.03987109806609
 20
1.781401057182674
 30
0.0
  0
VERTEX
  5
8E2
  8
ENDS
 10
2.04486656875782
 20
1.769632862876902
 30
0.0
  0
VERTEX
  5
8E3
  8
ENDS
 10
2.051093669243166
 20
1.757236968200217
 30
0.0
  0
VERTEX
  5
8E4
  8
ENDS
 10
2.058720139510679
 20
1.743961657128432
 30
0.0
  0
VERTEX
  5
8E5
  8
ENDS
 10
2.067913719548905
 20
1.729555213637358
 30
0.0
  0
VERTEX
  5
8E6
  8
ENDS
 10
2.078842149346395
 20
1.713765921702807
 30
0.0
  0
VERTEX
  5
8E7
  8
ENDS
 10
2.091673168891698
 20
1.69634206530059
 30
0.0
  0
VERTEX
  5
8E8
  8
ENDS
 10
2.106574518173362
 20
1.677031928406518
 30
0.0
  0
VERTEX
  5
8E9
  8
ENDS
 10
2.123713937179938
 20
1.655583794996405
 30
0.0
  0
VERTEX
  5
8EA
  8
ENDS
 10
2.165377944322018
 20
1.605266674531295
 30
0.0
  0
VERTEX
  5
8EB
  8
ENDS
 10
2.218007110226332
 20
1.543376975711753
 30
0.0
  0
VERTEX
  5
8EC
  8
ENDS
 10
2.255013686043635
 20
1.500583005166096
 30
0.0
  0
VERTEX
  5
8ED
  8
ENDS
 10
2.290684074092709
 20
1.460183008559049
 30
0.0
  0
VERTEX
  5
8EE
  8
ENDS
 10
2.325248682428959
 20
1.421964901087894
 30
0.0
  0
VERTEX
  5
8EF
  8
ENDS
 10
2.358937919107791
 20
1.385716597949911
 30
0.0
  0
VERTEX
  5
8F0
  8
ENDS
 10
2.391982192184612
 20
1.351226014342381
 30
0.0
  0
VERTEX
  5
8F1
  8
ENDS
 10
2.424611909714828
 20
1.318281065462586
 30
0.0
  0
VERTEX
  5
8F2
  8
ENDS
 10
2.457057479753844
 20
1.286669666507805
 30
0.0
  0
VERTEX
  5
8F3
  8
ENDS
 10
2.489549310357068
 20
1.25617973267532
 30
0.0
  0
VERTEX
  5
8F4
  8
ENDS
 10
2.522317809579905
 20
1.226599179162411
 30
0.0
  0
VERTEX
  5
8F5
  8
ENDS
 10
2.555593385477759
 20
1.19771592116636
 30
0.0
  0
VERTEX
  5
8F6
  8
ENDS
 10
2.58960644610604
 20
1.169317873884447
 30
0.0
  0
VERTEX
  5
8F7
  8
ENDS
 10
2.624587399520151
 20
1.141192952513953
 30
0.0
  0
VERTEX
  5
8F8
  8
ENDS
 10
2.6607666537755
 20
1.113129072252159
 30
0.0
  0
VERTEX
  5
8F9
  8
ENDS
 10
2.698374616927492
 20
1.084914148296345
 30
0.0
  0
VERTEX
  5
8FA
  8
ENDS
 10
2.737641697031533
 20
1.056336095843792
 30
0.0
  0
VERTEX
  5
8FB
  8
ENDS
 10
2.77879830214303
 20
1.027182830091782
 30
0.0
  0
VERTEX
  5
8FC
  8
ENDS
 10
2.805104689325928
 20
1.009125709751418
 30
0.0
  0
VERTEX
  5
8FD
  8
ENDS
 10
2.831720911030105
 20
0.9915462935425948
 30
0.0
  0
VERTEX
  5
8FE
  8
ENDS
 10
2.858637707653633
 20
0.9744453541066742
 30
0.0
  0
VERTEX
  5
8FF
  8
ENDS
 10
2.885845819594585
 20
0.9578236640850173
 30
0.0
  0
VERTEX
  5
900
  8
ENDS
 10
2.913335987251036
 20
0.9416819961189855
 30
0.0
  0
VERTEX
  5
901
  8
ENDS
 10
2.941098951021056
 20
0.9260211228499404
 30
0.0
  0
VERTEX
  5
902
  8
ENDS
 10
2.969125451302721
 20
0.9108418169192432
 30
0.0
  0
VERTEX
  5
903
  8
ENDS
 10
2.997406228494103
 20
0.8961448509682554
 30
0.0
  0
VERTEX
  5
904
  8
ENDS
 10
3.025932022993275
 20
0.8819309976383383
 30
0.0
  0
VERTEX
  5
905
  8
ENDS
 10
3.054693575198311
 20
0.8682010295708532
 30
0.0
  0
VERTEX
  5
906
  8
ENDS
 10
3.083681625507282
 20
0.8549557194071618
 30
0.0
  0
VERTEX
  5
907
  8
ENDS
 10
3.112886914318263
 20
0.8421958397886252
 30
0.0
  0
VERTEX
  5
908
  8
ENDS
 10
3.142300182029328
 20
0.829922163356605
 30
0.0
  0
VERTEX
  5
909
  8
ENDS
 10
3.171912169038547
 20
0.8181354627524623
 30
0.0
  0
VERTEX
  5
90A
  8
ENDS
 10
3.201713615743996
 20
0.8068365106175586
 30
0.0
  0
VERTEX
  5
90B
  8
ENDS
 10
3.231695262543747
 20
0.7960260795932554
 30
0.0
  0
VERTEX
  5
90C
  8
ENDS
 10
3.261847849835873
 20
0.7857049423209141
 30
0.0
  0
VERTEX
  5
90D
  8
ENDS
 10
3.292162118018447
 20
0.7758738714418959
 30
0.0
  0
VERTEX
  5
90E
  8
ENDS
 10
3.322628807489543
 20
0.7665336395975623
 30
0.0
  0
VERTEX
  5
90F
  8
ENDS
 10
3.353238658647233
 20
0.7576850194292746
 30
0.0
  0
VERTEX
  5
910
  8
ENDS
 10
3.38398241188959
 20
0.7493287835783942
 30
0.0
  0
VERTEX
  5
911
  8
ENDS
 10
3.414850807614689
 20
0.7414657046862827
 30
0.0
  0
VERTEX
  5
912
  8
ENDS
 10
3.445834586220602
 20
0.7340965553943013
 30
0.0
  0
VERTEX
  5
913
  8
ENDS
 10
3.476924488105402
 20
0.7272221083438113
 30
0.0
  0
VERTEX
  5
914
  8
ENDS
 10
3.508111253667161
 20
0.7208431361761742
 30
0.0
  0
VERTEX
  5
915
  8
ENDS
 10
3.539385623303954
 20
0.7149604115327515
 30
0.0
  0
VERTEX
  5
916
  8
ENDS
 10
3.570738337413854
 20
0.7095747070549043
 30
0.0
  0
VERTEX
  5
917
  8
ENDS
 10
3.602160136394933
 20
0.7046867953839941
 30
0.0
  0
VERTEX
  5
918
  8
ENDS
 10
3.633641760645264
 20
0.7002974491613823
 30
0.0
  0
VERTEX
  5
919
  8
ENDS
 10
3.665173950562922
 20
0.6964074410284304
 30
0.0
  0
VERTEX
  5
91A
  8
ENDS
 10
3.696747446545978
 20
0.6930175436264996
 30
0.0
  0
VERTEX
  5
91B
  8
ENDS
 10
3.728352988992507
 20
0.6901285295969516
 30
0.0
  0
VERTEX
  5
91C
  8
ENDS
 10
3.75998131830058
 20
0.6877411715811474
 30
0.0
  0
VERTEX
  5
91D
  8
ENDS
 10
3.791623174868272
 20
0.6858562422204486
 30
0.0
  0
VERTEX
  5
91E
  8
ENDS
 10
3.823269299093655
 20
0.6844745141562165
 30
0.0
  0
VERTEX
  5
91F
  8
ENDS
 10
3.854910431374803
 20
0.6835967600298124
 30
0.0
  0
VERTEX
  5
920
  8
ENDS
 10
3.886537312109788
 20
0.6832237524825978
 30
0.0
  0
VERTEX
  5
921
  8
ENDS
 10
3.918140681696685
 20
0.6833562641559342
 30
0.0
  0
VERTEX
  5
922
  8
ENDS
 10
3.949711280533565
 20
0.6839950676911828
 30
0.0
  0
VERTEX
  5
923
  8
ENDS
 10
3.981239849018502
 20
0.6851409357297051
 30
0.0
  0
VERTEX
  5
924
  8
ENDS
 10
4.012717127549569
 20
0.6867946409128625
 30
0.0
  0
VERTEX
  5
925
  8
ENDS
 10
4.044133856524839
 20
0.6889569558820161
 30
0.0
  0
VERTEX
  5
926
  8
ENDS
 10
4.075480776342387
 20
0.6916286532785276
 30
0.0
  0
VERTEX
  5
927
  8
ENDS
 10
4.106748627400282
 20
0.6948105057437582
 30
0.0
  0
VERTEX
  5
928
  8
ENDS
 10
4.137928150096602
 20
0.6985032859190694
 30
0.0
  0
VERTEX
  5
929
  8
ENDS
 10
4.169010084829417
 20
0.7027077664458227
 30
0.0
  0
VERTEX
  5
92A
  8
ENDS
 10
4.199985171996802
 20
0.7074247199653791
 30
0.0
  0
VERTEX
  5
92B
  8
ENDS
 10
4.230844151996827
 20
0.7126549191191004
 30
0.0
  0
VERTEX
  5
92C
  8
ENDS
 10
4.261577765227567
 20
0.7183991365483477
 30
0.0
  0
VERTEX
  5
92D
  8
ENDS
 10
4.292176752087096
 20
0.7246581448944825
 30
0.0
  0
VERTEX
  5
92E
  8
ENDS
 10
4.322631852973487
 20
0.7314327167988663
 30
0.0
  0
VERTEX
  5
92F
  8
ENDS
 10
4.352933808284813
 20
0.7387236249028604
 30
0.0
  0
VERTEX
  5
930
  8
ENDS
 10
4.383073358419145
 20
0.7465316418478259
 30
0.0
  0
VERTEX
  5
931
  8
ENDS
 10
4.413041243774559
 20
0.7548575402751245
 30
0.0
  0
VERTEX
  5
932
  8
ENDS
 10
4.442828204749127
 20
0.7637020928261176
 30
0.0
  0
VERTEX
  5
933
  8
ENDS
 10
4.472424981740922
 20
0.7730660721421664
 30
0.0
  0
VERTEX
  5
934
  8
ENDS
 10
4.501822315148017
 20
0.7829502508646324
 30
0.0
  0
VERTEX
  5
935
  8
ENDS
 10
4.531010945368484
 20
0.7933554016348769
 30
0.0
  0
VERTEX
  5
936
  8
ENDS
 10
4.559981612800398
 20
0.8042822970942614
 30
0.0
  0
VERTEX
  5
937
  8
ENDS
 10
4.588725057841832
 20
0.8157317098841472
 30
0.0
  0
VERTEX
  5
938
  8
ENDS
 10
4.617232020890858
 20
0.8277044126458957
 30
0.0
  0
VERTEX
  5
939
  8
ENDS
 10
4.645493242345551
 20
0.8402011780208685
 30
0.0
  0
VERTEX
  5
93A
  8
ENDS
 10
4.673499462603982
 20
0.8532227786504265
 30
0.0
  0
VERTEX
  5
93B
  8
ENDS
 10
4.701241422064225
 20
0.8667699871759316
 30
0.0
  0
VERTEX
  5
93C
  8
ENDS
 10
4.723693513927067
 20
0.8782477570320626
 30
0.0
  0
VERTEX
  5
93D
  8
ENDS
 10
4.74623723158455
 20
0.8902603579468575
 30
0.0
  0
VERTEX
  5
93E
  8
ENDS
 10
4.76886472725433
 20
0.9027990171143321
 30
0.0
  0
VERTEX
  5
93F
  8
ENDS
 10
4.791568153154063
 20
0.9158549617285013
 30
0.0
  0
VERTEX
  5
940
  8
ENDS
 10
4.814339661501403
 20
0.9294194189833809
 30
0.0
  0
VERTEX
  5
941
  8
ENDS
 10
4.837171404514007
 20
0.9434836160729859
 30
0.0
  0
VERTEX
  5
942
  8
ENDS
 10
4.860055534409528
 20
0.9580387801913319
 30
0.0
  0
VERTEX
  5
943
  8
ENDS
 10
4.882984203405623
 20
0.9730761385324342
 30
0.0
  0
VERTEX
  5
944
  8
ENDS
 10
4.905949563719948
 20
0.9885869182903082
 30
0.0
  0
VERTEX
  5
945
  8
ENDS
 10
4.928943767570156
 20
1.004562346658969
 30
0.0
  0
VERTEX
  5
946
  8
ENDS
 10
4.951958967173905
 20
1.020993650832432
 30
0.0
  0
VERTEX
  5
947
  8
ENDS
 10
4.974987314748848
 20
1.037872058004714
 30
0.0
  0
VERTEX
  5
948
  8
ENDS
 10
4.998020962512641
 20
1.055188795369828
 30
0.0
  0
VERTEX
  5
949
  8
ENDS
 10
5.021052062682941
 20
1.07293509012179
 30
0.0
  0
VERTEX
  5
94A
  8
ENDS
 10
5.044072767477401
 20
1.091102169454617
 30
0.0
  0
VERTEX
  5
94B
  8
ENDS
 10
5.067075229113678
 20
1.109681260562323
 30
0.0
  0
VERTEX
  5
94C
  8
ENDS
 10
5.090051599809428
 20
1.128663590638923
 30
0.0
  0
VERTEX
  5
94D
  8
ENDS
 10
5.112994031782303
 20
1.148040386878434
 30
0.0
  0
VERTEX
  5
94E
  8
ENDS
 10
5.135894677249963
 20
1.167802876474869
 30
0.0
  0
VERTEX
  5
94F
  8
ENDS
 10
5.158745688430059
 20
1.187942286622246
 30
0.0
  0
VERTEX
  5
950
  8
ENDS
 10
5.18153921754025
 20
1.208449844514578
 30
0.0
  0
VERTEX
  5
951
  8
ENDS
 10
5.204267416798189
 20
1.229316777345882
 30
0.0
  0
VERTEX
  5
952
  8
ENDS
 10
5.226922438421532
 20
1.250534312310173
 30
0.0
  0
VERTEX
  5
953
  8
ENDS
 10
5.249496434627934
 20
1.272093676601465
 30
0.0
  0
VERTEX
  5
954
  8
ENDS
 10
5.294369959660539
 20
1.316202801941119
 30
0.0
  0
VERTEX
  5
955
  8
ENDS
 10
5.338825209637245
 20
1.361573970916966
 30
0.0
  0
VERTEX
  5
956
  8
ENDS
 10
5.382799402299296
 20
1.408137001081128
 30
0.0
  0
VERTEX
  5
957
  8
ENDS
 10
5.426229755387936
 20
1.45582170998573
 30
0.0
  0
VERTEX
  5
958
  8
ENDS
 10
5.469053486644407
 20
1.504557915182894
 30
0.0
  0
VERTEX
  5
959
  8
ENDS
 10
5.51120781380995
 20
1.554275434224742
 30
0.0
  0
VERTEX
  5
95A
  8
ENDS
 10
5.552629954625811
 20
1.604904084663398
 30
0.0
  0
VERTEX
  5
95B
  8
ENDS
 10
5.59325712683323
 20
1.656373684050984
 30
0.0
  0
VERTEX
  5
95C
  8
ENDS
 10
5.633026548173451
 20
1.708614049939624
 30
0.0
  0
VERTEX
  5
95D
  8
ENDS
 10
5.671875436387717
 20
1.761554999881441
 30
0.0
  0
VERTEX
  5
95E
  8
ENDS
 10
5.709741009217272
 20
1.815126351428557
 30
0.0
  0
VERTEX
  5
95F
  8
ENDS
 10
5.746560484403356
 20
1.869257922133095
 30
0.0
  0
VERTEX
  5
960
  8
ENDS
 10
5.764558315924235
 20
1.896511857654436
 30
0.0
  0
VERTEX
  5
961
  8
ENDS
 10
5.782271079687215
 20
1.923879529547179
 30
0.0
  0
VERTEX
  5
962
  8
ENDS
 10
5.799690927909948
 20
1.951352165005339
 30
0.0
  0
VERTEX
  5
963
  8
ENDS
 10
5.816810012810091
 20
1.978920991222931
 30
0.0
  0
VERTEX
  5
964
  8
ENDS
 10
5.833620486605298
 20
2.006577235393971
 30
0.0
  0
VERTEX
  5
965
  8
ENDS
 10
5.850114501513225
 20
2.034312124712474
 30
0.0
  0
VERTEX
  5
966
  8
ENDS
 10
5.866284209751528
 20
2.062116886372456
 30
0.0
  0
VERTEX
  5
967
  8
ENDS
 10
5.882121763537863
 20
2.089982747567932
 30
0.0
  0
VERTEX
  5
968
  8
ENDS
 10
5.897619315089884
 20
2.117900935492916
 30
0.0
  0
VERTEX
  5
969
  8
ENDS
 10
5.912769016625246
 20
2.145862677341426
 30
0.0
  0
VERTEX
  5
96A
  8
ENDS
 10
5.927563020361605
 20
2.173859200307476
 30
0.0
  0
VERTEX
  5
96B
  8
ENDS
 10
5.941993478516617
 20
2.201881731585081
 30
0.0
  0
VERTEX
  5
96C
  8
ENDS
 10
5.956052543307935
 20
2.229921498368256
 30
0.0
  0
VERTEX
  5
96D
  8
ENDS
 10
5.969732366953218
 20
2.257969727851018
 30
0.0
  0
VERTEX
  5
96E
  8
ENDS
 10
5.983025101670119
 20
2.286017647227381
 30
0.0
  0
VERTEX
  5
96F
  8
ENDS
 10
5.995922899676293
 20
2.314056483691361
 30
0.0
  0
VERTEX
  5
970
  8
ENDS
 10
6.018595985804542
 20
2.365449664667083
 30
0.0
  0
VERTEX
  5
971
  8
ENDS
 10
6.040445055461785
 20
2.417684824742603
 30
0.0
  0
VERTEX
  5
972
  8
ENDS
 10
6.061471233200423
 20
2.470735278404258
 30
0.0
  0
VERTEX
  5
973
  8
ENDS
 10
6.081675643572867
 20
2.524574340138388
 30
0.0
  0
VERTEX
  5
974
  8
ENDS
 10
6.101059411131519
 20
2.579175324431329
 30
0.0
  0
VERTEX
  5
975
  8
ENDS
 10
6.119623660428785
 20
2.63451154576942
 30
0.0
  0
VERTEX
  5
976
  8
ENDS
 10
6.137369516017071
 20
2.690556318639
 30
0.0
  0
VERTEX
  5
977
  8
ENDS
 10
6.154298102448784
 20
2.747282957526406
 30
0.0
  0
VERTEX
  5
978
  8
ENDS
 10
6.170410544276328
 20
2.804664776917976
 30
0.0
  0
VERTEX
  5
979
  8
ENDS
 10
6.18570796605211
 20
2.86267509130005
 30
0.0
  0
VERTEX
  5
97A
  8
ENDS
 10
6.200191492328534
 20
2.921287215158964
 30
0.0
  0
VERTEX
  5
97B
  8
ENDS
 10
6.213862247658007
 20
2.980474462981058
 30
0.0
  0
VERTEX
  5
97C
  8
ENDS
 10
6.226721356592933
 20
3.040210149252669
 30
0.0
  0
VERTEX
  5
97D
  8
ENDS
 10
6.238769943685721
 20
3.100467588460136
 30
0.0
  0
VERTEX
  5
97E
  8
ENDS
 10
6.250009133488774
 20
3.161220095089797
 30
0.0
  0
VERTEX
  5
97F
  8
ENDS
 10
6.260440050554497
 20
3.222440983627989
 30
0.0
  0
VERTEX
  5
980
  8
ENDS
 10
6.270063819435299
 20
3.284103568561052
 30
0.0
  0
VERTEX
  5
981
  8
ENDS
 10
6.278881564683582
 20
3.346181164375324
 30
0.0
  0
VERTEX
  5
982
  8
ENDS
 10
6.286894410851754
 20
3.408647085557141
 30
0.0
  0
VERTEX
  5
983
  8
ENDS
 10
6.294103482492219
 20
3.471474646592844
 30
0.0
  0
VERTEX
  5
984
  8
ENDS
 10
6.300509904157384
 20
3.53463716196877
 30
0.0
  0
VERTEX
  5
985
  8
ENDS
 10
6.306114800399655
 20
3.598107946171257
 30
0.0
  0
VERTEX
  5
986
  8
ENDS
 10
6.310919295771436
 20
3.661860313686643
 30
0.0
  0
VERTEX
  5
987
  8
ENDS
 10
6.314924514825135
 20
3.725867579001267
 30
0.0
  0
VERTEX
  5
988
  8
ENDS
 10
6.318131582113155
 20
3.790103056601466
 30
0.0
  0
VERTEX
  5
989
  8
ENDS
 10
6.320541622187903
 20
3.854540060973579
 30
0.0
  0
VERTEX
  5
98A
  8
ENDS
 10
6.322155759601785
 20
3.919151906603945
 30
0.0
  0
VERTEX
  5
98B
  8
ENDS
 10
6.322975118907206
 20
3.9839119079789
 30
0.0
  0
VERTEX
  5
98C
  8
ENDS
 10
6.323000824656573
 20
4.048793379584785
 30
0.0
  0
VERTEX
  5
98D
  8
ENDS
 10
6.322234001402289
 20
4.113769635907936
 30
0.0
  0
VERTEX
  5
98E
  8
ENDS
 10
6.320675773696761
 20
4.178813991434692
 30
0.0
  0
VERTEX
  5
98F
  8
ENDS
 10
6.318327266092397
 20
4.243899760651392
 30
0.0
  0
VERTEX
  5
990
  8
ENDS
 10
6.3151896031416
 20
4.309000258044372
 30
0.0
  0
VERTEX
  5
991
  8
ENDS
 10
6.311263909396776
 20
4.374088798099972
 30
0.0
  0
VERTEX
  5
992
  8
ENDS
 10
6.306551309410331
 20
4.43913869530453
 30
0.0
  0
VERTEX
  5
993
  8
ENDS
 10
6.30105292773467
 20
4.504123264144383
 30
0.0
  0
VERTEX
  5
994
  8
ENDS
 10
6.294769888922199
 20
4.569015819105871
 30
0.0
  0
VERTEX
  5
995
  8
ENDS
 10
6.287703317525326
 20
4.633789674675329
 30
0.0
  0
VERTEX
  5
996
  8
ENDS
 10
6.279854338096452
 20
4.698418145339099
 30
0.0
  0
VERTEX
  5
997
  8
ENDS
 10
6.271224075187988
 20
4.762874545583518
 30
0.0
  0
VERTEX
  5
998
  8
ENDS
 10
6.261813653352335
 20
4.827132189894924
 30
0.0
  0
VERTEX
  5
999
  8
ENDS
 10
6.251624197141901
 20
4.891164392759654
 30
0.0
  0
VERTEX
  5
99A
  8
ENDS
 10
6.240656831109091
 20
4.954944468664046
 30
0.0
  0
VERTEX
  5
99B
  8
ENDS
 10
6.228912679806312
 20
5.018445732094442
 30
0.0
  0
VERTEX
  5
99C
  8
ENDS
 10
6.216392867785968
 20
5.081641497537177
 30
0.0
  0
VERTEX
  5
99D
  8
ENDS
 10
6.203098519600465
 20
5.14450507947859
 30
0.0
  0
VERTEX
  5
99E
  8
ENDS
 10
6.189030759802209
 20
5.207009792405018
 30
0.0
  0
VERTEX
  5
99F
  8
ENDS
 10
6.174190712943606
 20
5.2691289508028
 30
0.0
  0
VERTEX
  5
9A0
  8
ENDS
 10
6.158579503577061
 20
5.330835869158276
 30
0.0
  0
VERTEX
  5
9A1
  8
ENDS
 10
6.14219825625498
 20
5.392103861957781
 30
0.0
  0
VERTEX
  5
9A2
  8
ENDS
 10
6.125048095529769
 20
5.452906243687655
 30
0.0
  0
VERTEX
  5
9A3
  8
ENDS
 10
6.107130145953834
 20
5.513216328834236
 30
0.0
  0
VERTEX
  5
9A4
  8
ENDS
 10
6.088445532079579
 20
5.573007431883862
 30
0.0
  0
VERTEX
  5
9A5
  8
ENDS
 10
6.06899537845941
 20
5.632252867322872
 30
0.0
  0
VERTEX
  5
9A6
  8
ENDS
 10
6.048780809645734
 20
5.690925949637604
 30
0.0
  0
VERTEX
  5
9A7
  8
ENDS
 10
6.027802950190956
 20
5.748999993314394
 30
0.0
  0
VERTEX
  5
9A8
  8
ENDS
 10
6.006062924647481
 20
5.806448312839582
 30
0.0
  0
VERTEX
  5
9A9
  8
ENDS
 10
5.983561857567716
 20
5.863244222699508
 30
0.0
  0
VERTEX
  5
9AA
  8
ENDS
 10
5.960300873504067
 20
5.919361037380506
 30
0.0
  0
VERTEX
  5
9AB
  8
ENDS
 10
5.936281097008937
 20
5.974772071368919
 30
0.0
  0
VERTEX
  5
9AC
  8
ENDS
 10
5.911503652634734
 20
6.029450639151081
 30
0.0
  0
VERTEX
  5
9AD
  8
ENDS
 10
5.885969664933864
 20
6.083370055213331
 30
0.0
  0
VERTEX
  5
9AE
  8
ENDS
 10
5.859680258458731
 20
6.136503634042009
 30
0.0
  0
SEQEND
  5
CC4
  8
ENDS
  0
POLYLINE
  5
7D
  8
ENDS
 66
     1
 10
0.0
 20
0.0
 30
0.0
 70
     1
  0
VERTEX
  5
9AF
  8
ENDS
 10
24.41913771113934
 20
4.600310637451648
 30
0.0
  0
VERTEX
  5
9B0
  8
ENDS
 10
24.41619092801158
 20
4.646601217750269
 30
0.0
  0
VERTEX
  5
9B1
  8
ENDS
 10
24.41434093047621
 20
4.693019618381875
 30
0.0
  0
VERTEX
  5
9B2
  8
ENDS
 10
24.41357270369554
 20
4.739507791306217
 30
0.0
  0
VERTEX
  5
9B3
  8
ENDS
 10
24.41387123283189
 20
4.786007688483045
 30
0.0
  0
VERTEX
  5
9B4
  8
ENDS
 10
24.41522150304756
 20
4.832461261872112
 30
0.0
  0
VERTEX
  5
9B5
  8
ENDS
 10
24.41760849950486
 20
4.878810463433168
 30
0.0
  0
VERTEX
  5
9B6
  8
ENDS
 10
24.4210172073661
 20
4.924997245125963
 30
0.0
  0
VERTEX
  5
9B7
  8
ENDS
 10
24.4254326117936
 20
4.970963558910251
 30
0.0
  0
VERTEX
  5
9B8
  8
ENDS
 10
24.43083969794965
 20
5.01665135674578
 30
0.0
  0
VERTEX
  5
9B9
  8
ENDS
 10
24.43722345099658
 20
5.062002590592303
 30
0.0
  0
VERTEX
  5
9BA
  8
ENDS
 10
24.44456885609669
 20
5.10695921240957
 30
0.0
  0
VERTEX
  5
9BB
  8
ENDS
 10
24.45286089841228
 20
5.151463174157333
 30
0.0
  0
VERTEX
  5
9BC
  8
ENDS
 10
24.46208456310568
 20
5.195456427795342
 30
0.0
  0
VERTEX
  5
9BD
  8
ENDS
 10
24.47222483533918
 20
5.238880925283349
 30
0.0
  0
VERTEX
  5
9BE
  8
ENDS
 10
24.48326670027511
 20
5.281678618581105
 30
0.0
  0
VERTEX
  5
9BF
  8
ENDS
 10
24.49519514307577
 20
5.32379145964836
 30
0.0
  0
VERTEX
  5
9C0
  8
ENDS
 10
24.50799514890346
 20
5.365161400444866
 30
0.0
  0
VERTEX
  5
9C1
  8
ENDS
 10
24.5216517029205
 20
5.405730392930375
 30
0.0
  0
VERTEX
  5
9C2
  8
ENDS
 10
24.53614979028919
 20
5.445440389064636
 30
0.0
  0
VERTEX
  5
9C3
  8
ENDS
 10
24.55147439617186
 20
5.484233340807402
 30
0.0
  0
VERTEX
  5
9C4
  8
ENDS
 10
24.5676105057308
 20
5.522051200118422
 30
0.0
  0
VERTEX
  5
9C5
  8
ENDS
 10
24.58454310412833
 20
5.558835918957449
 30
0.0
  0
VERTEX
  5
9C6
  8
ENDS
 10
24.60225717652675
 20
5.594529449284233
 30
0.0
  0
VERTEX
  5
9C7
  8
ENDS
 10
24.61140257333952
 20
5.611948878742956
 30
0.0
  0
VERTEX
  5
9C8
  8
ENDS
 10
24.62073770808838
 20
5.629073743058525
 30
0.0
  0
VERTEX
  5
9C9
  8
ENDS
 10
24.63026070391862
 20
5.64589678622591
 30
0.0
  0
VERTEX
  5
9CA
  8
ENDS
 10
24.63996968397552
 20
5.662410752240077
 30
0.0
  0
VERTEX
  5
9CB
  8
ENDS
 10
24.64986277140438
 20
5.678608385095997
 30
0.0
  0
VERTEX
  5
9CC
  8
ENDS
 10
24.65993808935049
 20
5.694482428788639
 30
0.0
  0
VERTEX
  5
9CD
  8
ENDS
 10
24.67019376095913
 20
5.710025627312971
 30
0.0
  0
VERTEX
  5
9CE
  8
ENDS
 10
24.68062790937559
 20
5.725230724663962
 30
0.0
  0
VERTEX
  5
9CF
  8
ENDS
 10
24.69123865774516
 20
5.740090464836583
 30
0.0
  0
VERTEX
  5
9D0
  8
ENDS
 10
24.70202412921314
 20
5.754597591825799
 30
0.0
  0
VERTEX
  5
9D1
  8
ENDS
 10
24.7129824469248
 20
5.768744849626582
 30
0.0
  0
VERTEX
  5
9D2
  8
ENDS
 10
24.72411173402543
 20
5.7825249822339
 30
0.0
  0
VERTEX
  5
9D3
  8
ENDS
 10
24.73541011366034
 20
5.795930733642722
 30
0.0
  0
VERTEX
  5
9D4
  8
ENDS
 10
24.7468757089748
 20
5.808954847848016
 30
0.0
  0
VERTEX
  5
9D5
  8
ENDS
 10
24.75850664311411
 20
5.821590068844752
 30
0.0
  0
VERTEX
  5
9D6
  8
ENDS
 10
24.77030103922354
 20
5.833829140627897
 30
0.0
  0
VERTEX
  5
9D7
  8
ENDS
 10
24.78225702044839
 20
5.845664807192422
 30
0.0
  0
VERTEX
  5
9D8
  8
ENDS
 10
24.79437270993396
 20
5.857089812533296
 30
0.0
  0
VERTEX
  5
9D9
  8
ENDS
 10
24.88723436133166
 20
5.942506780662645
 30
0.0
  0
VERTEX
  5
9DA
  8
ENDS
 10
25.25605921464658
 20
6.100222965321175
 30
0.0
  0
VERTEX
  5
9DB
  8
ENDS
 10
25.33940542889781
 20
6.135637614584661
 30
0.0
  0
VERTEX
  5
9DC
  8
ENDS
 10
25.4350551310843
 20
6.175892293697369
 30
0.0
  0
VERTEX
  5
9DD
  8
ENDS
 10
25.64977286781451
 20
6.265333686433854
 30
0.0
  0
VERTEX
  5
9DE
  8
ENDS
 10
25.87322816193993
 20
6.357371033457433
 30
0.0
  0
VERTEX
  5
9DF
  8
ENDS
 10
26.0784367505633
 20
6.440828224694907
 30
0.0
  0
VERTEX
  5
9E0
  8
ENDS
 10
26.53198943316512
 20
6.623717299410107
 30
0.0
  0
VERTEX
  5
9E1
  8
ENDS
 10
26.5761933561166
 20
6.68006038257039
 30
0.0
  0
VERTEX
  5
9E2
  8
ENDS
 10
26.58060052767546
 20
6.685943302599204
 30
0.0
  0
VERTEX
  5
9E3
  8
ENDS
 10
26.58476228314027
 20
6.692033478721328
 30
0.0
  0
VERTEX
  5
9E4
  8
ENDS
 10
26.58866978109946
 20
6.698303353770622
 30
0.0
  0
VERTEX
  5
9E5
  8
ENDS
 10
26.59231418014145
 20
6.704725370580951
 30
0.0
  0
VERTEX
  5
9E6
  8
ENDS
 10
26.59877831582752
 20
6.717915600820165
 30
0.0
  0
VERTEX
  5
9E7
  8
ENDS
 10
26.60408395890586
 20
6.731383712109876
 30
0.0
  0
VERTEX
  5
9E8
  8
ENDS
 10
26.60816037808383
 20
6.744909247120991
 30
0.0
  0
VERTEX
  5
9E9
  8
ENDS
 10
26.60971552518124
 20
6.751624655606733
 30
0.0
  0
VERTEX
  5
9EA
  8
ENDS
 10
26.61093684206882
 20
6.758271748524415
 30
0.0
  0
VERTEX
  5
9EB
  8
ENDS
 10
26.611815487335
 20
6.764822968707901
 30
0.0
  0
VERTEX
  5
9EC
  8
ENDS
 10
26.6123426195682
 20
6.771250758991053
 30
0.0
  0
VERTEX
  5
9ED
  8
ENDS
 10
26.61250939735684
 20
6.777527562207737
 30
0.0
  0
VERTEX
  5
9EE
  8
ENDS
 10
26.61230697928934
 20
6.783625821191814
 30
0.0
  0
VERTEX
  5
9EF
  8
ENDS
 10
26.61191879935546
 20
6.790396843378643
 30
0.0
  0
VERTEX
  5
9F0
  8
ENDS
 10
26.61112835603816
 20
6.796897124272075
 30
0.0
  0
VERTEX
  5
9F1
  8
ENDS
 10
26.60974483325787
 20
6.803201481662079
 30
0.0
  0
VERTEX
  5
9F2
  8
ENDS
 10
26.60749030415311
 20
6.810441156406545
 30
0.0
  0
VERTEX
  5
9F3
  8
ENDS
 10
26.60441226989096
 20
6.818536225095092
 30
0.0
  0
VERTEX
  5
9F4
  8
ENDS
 10
26.60055823163852
 20
6.827406764317331
 30
0.0
  0
VERTEX
  5
9F5
  8
ENDS
 10
26.59597569056288
 20
6.83697285066288
 30
0.0
  0
VERTEX
  5
9F6
  8
ENDS
 10
26.59071214783114
 20
6.847154560721353
 30
0.0
  0
VERTEX
  5
9F7
  8
ENDS
 10
26.57833206206771
 20
6.869045158335533
 30
0.0
  0
VERTEX
  5
9F8
  8
ENDS
 10
26.56379798368497
 20
6.892439169876792
 30
0.0
  0
VERTEX
  5
9F9
  8
ENDS
 10
26.54748992201966
 20
6.916697208062054
 30
0.0
  0
VERTEX
  5
9FA
  8
ENDS
 10
26.52978788640853
 20
6.941179885608239
 30
0.0
  0
VERTEX
  5
9FB
  8
ENDS
 10
26.51107188618832
 20
6.965247815232269
 30
0.0
  0
VERTEX
  5
9FC
  8
ENDS
 10
26.48705421010243
 20
6.994735440765836
 30
0.0
  0
VERTEX
  5
9FD
  8
ENDS
 10
26.46300803514389
 20
7.023749521981526
 30
0.0
  0
VERTEX
  5
9FE
  8
ENDS
 10
26.4389316484078
 20
7.052291060617685
 30
0.0
  0
VERTEX
  5
9FF
  8
ENDS
 10
26.41482333698926
 20
7.08036105841266
 30
0.0
  0
VERTEX
  5
A00
  8
ENDS
 10
26.39068138798339
 20
7.107960517104793
 30
0.0
  0
VERTEX
  5
A01
  8
ENDS
 10
26.3665040884853
 20
7.135090438432431
 30
0.0
  0
VERTEX
  5
A02
  8
ENDS
 10
26.34228972559008
 20
7.161751824133917
 30
0.0
  0
VERTEX
  5
A03
  8
ENDS
 10
26.31803658639286
 20
7.187945675947598
 30
0.0
  0
VERTEX
  5
A04
  8
ENDS
 10
26.29374295798873
 20
7.21367299561182
 30
0.0
  0
VERTEX
  5
A05
  8
ENDS
 10
26.26940712747279
 20
7.238934784864925
 30
0.0
  0
VERTEX
  5
A06
  8
ENDS
 10
26.24502738194016
 20
7.263732045445261
 30
0.0
  0
VERTEX
  5
A07
  8
ENDS
 10
26.22060200848594
 20
7.288065779091172
 30
0.0
  0
VERTEX
  5
A08
  8
ENDS
 10
26.19612929420524
 20
7.311936987541003
 30
0.0
  0
VERTEX
  5
A09
  8
ENDS
 10
26.17160752619316
 20
7.335346672533098
 30
0.0
  0
VERTEX
  5
A0A
  8
ENDS
 10
26.14703499154482
 20
7.358295835805803
 30
0.0
  0
VERTEX
  5
A0B
  8
ENDS
 10
26.12240997735532
 20
7.380785479097465
 30
0.0
  0
VERTEX
  5
A0C
  8
ENDS
 10
26.09773077071976
 20
7.402816604146427
 30
0.0
  0
VERTEX
  5
A0D
  8
ENDS
 10
26.07299565873326
 20
7.424390212691035
 30
0.0
  0
VERTEX
  5
A0E
  8
ENDS
 10
26.04820292849091
 20
7.445507306469634
 30
0.0
  0
VERTEX
  5
A0F
  8
ENDS
 10
26.02335086708783
 20
7.466168887220569
 30
0.0
  0
VERTEX
  5
A10
  8
ENDS
 10
25.99843776161912
 20
7.486375956682185
 30
0.0
  0
VERTEX
  5
A11
  8
ENDS
 10
25.97346189917989
 20
7.506129516592827
 30
0.0
  0
VERTEX
  5
A12
  8
ENDS
 10
25.94842156686525
 20
7.52543056869084
 30
0.0
  0
VERTEX
  5
A13
  8
ENDS
 10
25.92331505177029
 20
7.544280114714569
 30
0.0
  0
VERTEX
  5
A14
  8
ENDS
 10
25.89814064099014
 20
7.56267915640236
 30
0.0
  0
VERTEX
  5
A15
  8
ENDS
 10
25.87289662161988
 20
7.580628695492559
 30
0.0
  0
VERTEX
  5
A16
  8
ENDS
 10
25.84758128075464
 20
7.598129733723508
 30
0.0
  0
VERTEX
  5
A17
  8
ENDS
 10
25.82219290548952
 20
7.615183272833554
 30
0.0
  0
VERTEX
  5
A18
  8
ENDS
 10
25.79672978291963
 20
7.631790314561043
 30
0.0
  0
VERTEX
  5
A19
  8
ENDS
 10
25.77119020014006
 20
7.647951860644318
 30
0.0
  0
VERTEX
  5
A1A
  8
ENDS
 10
25.74557244424594
 20
7.663668912821727
 30
0.0
  0
VERTEX
  5
A1B
  8
ENDS
 10
25.71987480233236
 20
7.678942472831611
 30
0.0
  0
VERTEX
  5
A1C
  8
ENDS
 10
25.69409556149443
 20
7.693773542412319
 30
0.0
  0
VERTEX
  5
A1D
  8
ENDS
 10
25.66823300882725
 20
7.708163123302194
 30
0.0
  0
VERTEX
  5
A1E
  8
ENDS
 10
25.64228543142595
 20
7.722112217239582
 30
0.0
  0
VERTEX
  5
A1F
  8
ENDS
 10
25.61625111638561
 20
7.735621825962828
 30
0.0
  0
VERTEX
  5
A20
  8
ENDS
 10
25.59012835080135
 20
7.748692951210277
 30
0.0
  0
VERTEX
  5
A21
  8
ENDS
 10
25.56391542176828
 20
7.761326594720273
 30
0.0
  0
VERTEX
  5
A22
  8
ENDS
 10
25.53761061638149
 20
7.773523758231164
 30
0.0
  0
VERTEX
  5
A23
  8
ENDS
 10
25.51121222173611
 20
7.785285443481293
 30
0.0
  0
VERTEX
  5
A24
  8
ENDS
 10
25.48471852492722
 20
7.796612652209005
 30
0.0
  0
VERTEX
  5
A25
  8
ENDS
 10
25.45812781304995
 20
7.807506386152644
 30
0.0
  0
VERTEX
  5
A26
  8
ENDS
 10
25.43143837319939
 20
7.817967647050558
 30
0.0
  0
VERTEX
  5
A27
  8
ENDS
 10
25.40464849247067
 20
7.827997436641091
 30
0.0
  0
VERTEX
  5
A28
  8
ENDS
 10
25.37775645795887
 20
7.837596756662588
 30
0.0
  0
VERTEX
  5
A29
  8
ENDS
 10
25.35076055675911
 20
7.846766608853393
 30
0.0
  0
VERTEX
  5
A2A
  8
ENDS
 10
25.32365907596649
 20
7.855507994951852
 30
0.0
  0
VERTEX
  5
A2B
  8
ENDS
 10
25.29645030267612
 20
7.863821916696311
 30
0.0
  0
VERTEX
  5
A2C
  8
ENDS
 10
25.26913252398311
 20
7.871709375825113
 30
0.0
  0
VERTEX
  5
A2D
  8
ENDS
 10
25.24170402698256
 20
7.879171374076606
 30
0.0
  0
VERTEX
  5
A2E
  8
ENDS
 10
25.21416309876958
 20
7.886208913189133
 30
0.0
  0
VERTEX
  5
A2F
  8
ENDS
 10
25.18650802643928
 20
7.89282299490104
 30
0.0
  0
VERTEX
  5
A30
  8
ENDS
 10
25.15873709708676
 20
7.899014620950672
 30
0.0
  0
VERTEX
  5
A31
  8
ENDS
 10
25.13084859780714
 20
7.904784793076374
 30
0.0
  0
VERTEX
  5
A32
  8
ENDS
 10
25.10284081569551
 20
7.910134513016491
 30
0.0
  0
VERTEX
  5
A33
  8
ENDS
 10
25.07471203784698
 20
7.915064782509367
 30
0.0
  0
VERTEX
  5
A34
  8
ENDS
 10
25.04646055135667
 20
7.919576603293349
 30
0.0
  0
VERTEX
  5
A35
  8
ENDS
 10
25.01808464331967
 20
7.923670977106782
 30
0.0
  0
VERTEX
  5
A36
  8
ENDS
 10
24.98958260083109
 20
7.92734890568801
 30
0.0
  0
VERTEX
  5
A37
  8
ENDS
 10
24.96095271098604
 20
7.930611390775379
 30
0.0
  0
VERTEX
  5
A38
  8
ENDS
 10
24.93219326087964
 20
7.933459434107234
 30
0.0
  0
VERTEX
  5
A39
  8
ENDS
 10
24.90330253760697
 20
7.935894037421919
 30
0.0
  0
VERTEX
  5
A3A
  8
ENDS
 10
24.87427882826315
 20
7.93791620245778
 30
0.0
  0
VERTEX
  5
A3B
  8
ENDS
 10
24.84512041994329
 20
7.939526930953162
 30
0.0
  0
VERTEX
  5
A3C
  8
ENDS
 10
24.80367414534431
 20
7.94107875997361
 30
0.0
  0
VERTEX
  5
A3D
  8
ENDS
 10
24.76229877031053
 20
7.941747855650144
 30
0.0
  0
VERTEX
  5
A3E
  8
ENDS
 10
24.72100674703034
 20
7.941537961767974
 30
0.0
  0
VERTEX
  5
A3F
  8
ENDS
 10
24.67981052769218
 20
7.940452822112314
 30
0.0
  0
VERTEX
  5
A40
  8
ENDS
 10
24.63872256448445
 20
7.938496180468373
 30
0.0
  0
VERTEX
  5
A41
  8
ENDS
 10
24.59775530959557
 20
7.935671780621366
 30
0.0
  0
VERTEX
  5
A42
  8
ENDS
 10
24.55692121521395
 20
7.9319833663565
 30
0.0
  0
VERTEX
  5
A43
  8
ENDS
 10
24.51623273352802
 20
7.92743468145899
 30
0.0
  0
VERTEX
  5
A44
  8
ENDS
 10
24.47570231672618
 20
7.922029469714047
 30
0.0
  0
VERTEX
  5
A45
  8
ENDS
 10
24.43534241699685
 20
7.915771474906883
 30
0.0
  0
VERTEX
  5
A46
  8
ENDS
 10
24.39516548652844
 20
7.908664440822708
 30
0.0
  0
VERTEX
  5
A47
  8
ENDS
 10
24.35518397750938
 20
7.900712111246735
 30
0.0
  0
VERTEX
  5
A48
  8
ENDS
 10
24.31541034212808
 20
7.891918229964174
 30
0.0
  0
VERTEX
  5
A49
  8
ENDS
 10
24.27585703257295
 20
7.882286540760239
 30
0.0
  0
VERTEX
  5
A4A
  8
ENDS
 10
24.23653650103241
 20
7.871820787420139
 30
0.0
  0
VERTEX
  5
A4B
  8
ENDS
 10
24.19746119969487
 20
7.860524713729089
 30
0.0
  0
VERTEX
  5
A4C
  8
ENDS
 10
24.15864358074875
 20
7.848402063472298
 30
0.0
  0
VERTEX
  5
A4D
  8
ENDS
 10
24.12009609638247
 20
7.835456580434977
 30
0.0
  0
VERTEX
  5
A4E
  8
ENDS
 10
24.08183119878443
 20
7.821692008402341
 30
0.0
  0
VERTEX
  5
A4F
  8
ENDS
 10
24.04386134014306
 20
7.807112091159597
 30
0.0
  0
VERTEX
  5
A50
  8
ENDS
 10
24.00619897264677
 20
7.79172057249196
 30
0.0
  0
VERTEX
  5
A51
  8
ENDS
 10
23.96885654848397
 20
7.775521196184641
 30
0.0
  0
VERTEX
  5
A52
  8
ENDS
 10
23.93184651984309
 20
7.75851770602285
 30
0.0
  0
VERTEX
  5
A53
  8
ENDS
 10
23.89518133891253
 20
7.740713845791801
 30
0.0
  0
VERTEX
  5
A54
  8
ENDS
 10
23.85887345788071
 20
7.722113359276703
 30
0.0
  0
VERTEX
  5
A55
  8
ENDS
 10
23.82293532893605
 20
7.702719990262771
 30
0.0
  0
VERTEX
  5
A56
  8
ENDS
 10
23.78737940426697
 20
7.682537482535214
 30
0.0
  0
VERTEX
  5
A57
  8
ENDS
 10
23.75221813606187
 20
7.661569579879243
 30
0.0
  0
VERTEX
  5
A58
  8
ENDS
 10
23.71746397650917
 20
7.639820026080072
 30
0.0
  0
VERTEX
  5
A59
  8
ENDS
 10
23.6831293777973
 20
7.61729256492291
 30
0.0
  0
VERTEX
  5
A5A
  8
ENDS
 10
23.64922679211465
 20
7.59399094019297
 30
0.0
  0
VERTEX
  5
A5B
  8
ENDS
 10
23.61576867164966
 20
7.569918895675465
 30
0.0
  0
VERTEX
  5
A5C
  8
ENDS
 10
23.60010539251943
 20
7.558027088030792
 30
0.0
  0
VERTEX
  5
A5D
  8
ENDS
 10
23.58270148686164
 20
7.544148675115382
 30
0.0
  0
VERTEX
  5
A5E
  8
ENDS
 10
23.56373998276121
 20
7.528454406031111
 30
0.0
  0
VERTEX
  5
A5F
  8
ENDS
 10
23.54340390830306
 20
7.511115029879853
 30
0.0
  0
VERTEX
  5
A60
  8
ENDS
 10
23.52187629157213
 20
7.492301295763483
 30
0.0
  0
VERTEX
  5
A61
  8
ENDS
 10
23.49934016065333
 20
7.47218395278388
 30
0.0
  0
VERTEX
  5
A62
  8
ENDS
 10
23.45197446859183
 20
7.428721436642467
 30
0.0
  0
VERTEX
  5
A63
  8
ENDS
 10
23.40277105679796
 20
7.382093474270615
 30
0.0
  0
VERTEX
  5
A64
  8
ENDS
 10
23.35319414995112
 20
7.333666058483327
 30
0.0
  0
VERTEX
  5
A65
  8
ENDS
 10
23.3047079727307
 20
7.284805182095606
 30
0.0
  0
VERTEX
  5
A66
  8
ENDS
 10
23.28133147794271
 20
7.260639068931271
 30
0.0
  0
VERTEX
  5
A67
  8
ENDS
 10
23.2587767498161
 20
7.236876837922453
 30
0.0
  0
VERTEX
  5
A68
  8
ENDS
 10
23.22979430216902
 20
7.205679202307643
 30
0.0
  0
VERTEX
  5
A69
  8
ENDS
 10
23.20128711935356
 20
7.174284438085844
 30
0.0
  0
VERTEX
  5
A6A
  8
ENDS
 10
23.17325395037391
 20
7.142689205437456
 30
0.0
  0
VERTEX
  5
A6B
  8
ENDS
 10
23.14569354423423
 20
7.110890164542875
 30
0.0
  0
VERTEX
  5
A6C
  8
ENDS
 10
23.11860464993871
 20
7.078883975582497
 30
0.0
  0
VERTEX
  5
A6D
  8
ENDS
 10
23.0919860164915
 20
7.04666729873672
 30
0.0
  0
VERTEX
  5
A6E
  8
ENDS
 10
23.06583639289678
 20
7.014236794185942
 30
0.0
  0
VERTEX
  5
A6F
  8
ENDS
 10
23.04015452815873
 20
6.981589122110559
 30
0.0
  0
VERTEX
  5
A70
  8
ENDS
 10
23.01493917128151
 20
6.94872094269097
 30
0.0
  0
VERTEX
  5
A71
  8
ENDS
 10
22.9901890712693
 20
6.91562891610757
 30
0.0
  0
VERTEX
  5
A72
  8
ENDS
 10
22.96590297712627
 20
6.882309702540758
 30
0.0
  0
VERTEX
  5
A73
  8
ENDS
 10
22.94207963785658
 20
6.848759962170931
 30
0.0
  0
VERTEX
  5
A74
  8
ENDS
 10
22.91871780246442
 20
6.814976355178485
 30
0.0
  0
VERTEX
  5
A75
  8
ENDS
 10
22.89581621995395
 20
6.78095554174382
 30
0.0
  0
VERTEX
  5
A76
  8
ENDS
 10
22.87337363932935
 20
6.74669418204733
 30
0.0
  0
VERTEX
  5
A77
  8
ENDS
 10
22.85138880959479
 20
6.712188936269413
 30
0.0
  0
VERTEX
  5
A78
  8
ENDS
 10
22.82986047975443
 20
6.677436464590468
 30
0.0
  0
VERTEX
  5
A79
  8
ENDS
 10
22.80878739881246
 20
6.642433427190891
 30
0.0
  0
VERTEX
  5
A7A
  8
ENDS
 10
22.78816831577304
 20
6.607176484251079
 30
0.0
  0
VERTEX
  5
A7B
  8
ENDS
 10
22.76800197964034
 20
6.57166229595143
 30
0.0
  0
VERTEX
  5
A7C
  8
ENDS
 10
22.74828713941854
 20
6.535887522472341
 30
0.0
  0
VERTEX
  5
A7D
  8
ENDS
 10
22.72902254411181
 20
6.499848823994209
 30
0.0
  0
VERTEX
  5
A7E
  8
ENDS
 10
22.71020694272432
 20
6.463542860697432
 30
0.0
  0
VERTEX
  5
A7F
  8
ENDS
 10
22.69183908426024
 20
6.426966292762406
 30
0.0
  0
VERTEX
  5
A80
  8
ENDS
 10
22.67391771772374
 20
6.390115780369529
 30
0.0
  0
VERTEX
  5
A81
  8
ENDS
 10
22.656441592119
 20
6.352987983699198
 30
0.0
  0
VERTEX
  5
A82
  8
ENDS
 10
22.63940945645018
 20
6.315579562931811
 30
0.0
  0
VERTEX
  5
A83
  8
ENDS
 10
22.62282005972147
 20
6.277887178247765
 30
0.0
  0
VERTEX
  5
A84
  8
ENDS
 10
22.60667215093702
 20
6.239907489827456
 30
0.0
  0
VERTEX
  5
A85
  8
ENDS
 10
22.59096447910102
 20
6.201637157851282
 30
0.0
  0
VERTEX
  5
A86
  8
ENDS
 10
22.57569579321763
 20
6.163072842499641
 30
0.0
  0
VERTEX
  5
A87
  8
ENDS
 10
22.56086484229103
 20
6.12421120395293
 30
0.0
  0
VERTEX
  5
A88
  8
ENDS
 10
22.54647037532539
 20
6.085048902391545
 30
0.0
  0
VERTEX
  5
A89
  8
ENDS
 10
22.53251114132487
 20
6.045582597995885
 30
0.0
  0
VERTEX
  5
A8A
  8
ENDS
 10
22.51898588929366
 20
6.005808950946347
 30
0.0
  0
VERTEX
  5
A8B
  8
ENDS
 10
22.50589336823592
 20
5.965724621423326
 30
0.0
  0
VERTEX
  5
A8C
  8
ENDS
 10
22.49323232715583
 20
5.925326269607222
 30
0.0
  0
VERTEX
  5
A8D
  8
ENDS
 10
22.48100151505755
 20
5.88461055567843
 30
0.0
  0
VERTEX
  5
A8E
  8
ENDS
 10
22.46919968094527
 20
5.843574139817349
 30
0.0
  0
VERTEX
  5
A8F
  8
ENDS
 10
22.45782557382314
 20
5.802213682204377
 30
0.0
  0
VERTEX
  5
A90
  8
ENDS
 10
22.44687794269534
 20
5.760525843019909
 30
0.0
  0
VERTEX
  5
A91
  8
ENDS
 10
22.43635553656605
 20
5.718507282444343
 30
0.0
  0
VERTEX
  5
A92
  8
ENDS
 10
22.42625710443944
 20
5.676154660658077
 30
0.0
  0
VERTEX
  5
A93
  8
ENDS
 10
22.41658139531967
 20
5.633464637841508
 30
0.0
  0
VERTEX
  5
A94
  8
ENDS
 10
22.40732715821093
 20
5.590433874175032
 30
0.0
  0
VERTEX
  5
A95
  8
ENDS
 10
22.39849314211737
 20
5.547059029839048
 30
0.0
  0
VERTEX
  5
A96
  8
ENDS
 10
22.39007809604318
 20
5.503336765013952
 30
0.0
  0
VERTEX
  5
A97
  8
ENDS
 10
22.38208076899252
 20
5.459263739880141
 30
0.0
  0
VERTEX
  5
A98
  8
ENDS
 10
22.37449990996956
 20
5.414836614618014
 30
0.0
  0
VERTEX
  5
A99
  8
ENDS
 10
22.36733426797849
 20
5.370052049407967
 30
0.0
  0
VERTEX
  5
A9A
  8
ENDS
 10
22.36058259202347
 20
5.324906704430397
 30
0.0
  0
VERTEX
  5
A9B
  8
ENDS
 10
22.35424363110867
 20
5.279397239865702
 30
0.0
  0
VERTEX
  5
A9C
  8
ENDS
 10
22.34831613423826
 20
5.233520315894278
 30
0.0
  0
VERTEX
  5
A9D
  8
ENDS
 10
22.34279885041642
 20
5.187272592696525
 30
0.0
  0
VERTEX
  5
A9E
  8
ENDS
 10
22.33769052864732
 20
5.140650730452838
 30
0.0
  0
VERTEX
  5
A9F
  8
ENDS
 10
22.33298991793512
 20
5.093651389343614
 30
0.0
  0
VERTEX
  5
AA0
  8
ENDS
 10
22.32869576728401
 20
5.046271229549252
 30
0.0
  0
VERTEX
  5
AA1
  8
ENDS
 10
22.32480682569815
 20
4.998506911250146
 30
0.0
  0
VERTEX
  5
AA2
  8
ENDS
 10
22.32132184218171
 20
4.950355094626698
 30
0.0
  0
VERTEX
  5
AA3
  8
ENDS
 10
22.31823956573887
 20
4.901812439859301
 30
0.0
  0
VERTEX
  5
AA4
  8
ENDS
 10
22.3155587453738
 20
4.852875607128354
 30
0.0
  0
VERTEX
  5
AA5
  8
ENDS
 10
22.31327813009067
 20
4.803541256614254
 30
0.0
  0
VERTEX
  5
AA6
  8
ENDS
 10
22.31139646889365
 20
4.753806048497399
 30
0.0
  0
VERTEX
  5
AA7
  8
ENDS
 10
22.30991251078692
 20
4.703666642958186
 30
0.0
  0
VERTEX
  5
AA8
  8
ENDS
 10
22.3084778638342
 20
4.628202232547551
 30
0.0
  0
VERTEX
  5
AA9
  8
ENDS
 10
22.30803728475325
 20
4.553150172546379
 30
0.0
  0
VERTEX
  5
AAA
  8
ENDS
 10
22.30858916243397
 20
4.478518426953098
 30
0.0
  0
VERTEX
  5
AAB
  8
ENDS
 10
22.31013188576622
 20
4.40431495976614
 30
0.0
  0
VERTEX
  5
AAC
  8
ENDS
 10
22.31266384363989
 20
4.330547734983931
 30
0.0
  0
VERTEX
  5
AAD
  8
ENDS
 10
22.31618342494483
 20
4.257224716604902
 30
0.0
  0
VERTEX
  5
AAE
  8
ENDS
 10
22.32068901857093
 20
4.184353868627483
 30
0.0
  0
VERTEX
  5
AAF
  8
ENDS
 10
22.32617901340807
 20
4.111943155050101
 30
0.0
  0
VERTEX
  5
AB0
  8
ENDS
 10
22.33265179834611
 20
4.040000539871185
 30
0.0
  0
VERTEX
  5
AB1
  8
ENDS
 10
22.34010576227494
 20
3.968533987089167
 30
0.0
  0
VERTEX
  5
AB2
  8
ENDS
 10
22.34853929408442
 20
3.897551460702473
 30
0.0
  0
VERTEX
  5
AB3
  8
ENDS
 10
22.35795078266444
 20
3.827060924709535
 30
0.0
  0
VERTEX
  5
AB4
  8
ENDS
 10
22.36833861690487
 20
3.757070343108779
 30
0.0
  0
VERTEX
  5
AB5
  8
ENDS
 10
22.37970118569557
 20
3.687587679898638
 30
0.0
  0
VERTEX
  5
AB6
  8
ENDS
 10
22.39203687792644
 20
3.618620899077538
 30
0.0
  0
VERTEX
  5
AB7
  8
ENDS
 10
22.40534408248733
 20
3.550177964643909
 30
0.0
  0
VERTEX
  5
AB8
  8
ENDS
 10
22.41962118826813
 20
3.48226684059618
 30
0.0
  0
VERTEX
  5
AB9
  8
ENDS
 10
22.43486658415871
 20
3.414895490932782
 30
0.0
  0
VERTEX
  5
ABA
  8
ENDS
 10
22.45107865904895
 20
3.348071879652141
 30
0.0
  0
VERTEX
  5
ABB
  8
ENDS
 10
22.46825580182873
 20
3.281803970752689
 30
0.0
  0
VERTEX
  5
ABC
  8
ENDS
 10
22.48639640138791
 20
3.216099728232853
 30
0.0
  0
VERTEX
  5
ABD
  8
ENDS
 10
22.50549884661636
 20
3.150967116091064
 30
0.0
  0
VERTEX
  5
ABE
  8
ENDS
 10
22.52556152640398
 20
3.08641409832575
 30
0.0
  0
VERTEX
  5
ABF
  8
ENDS
 10
22.54658282964062
 20
3.022448638935341
 30
0.0
  0
VERTEX
  5
AC0
  8
ENDS
 10
22.56856114521616
 20
2.959078701918265
 30
0.0
  0
VERTEX
  5
AC1
  8
ENDS
 10
22.59149486202049
 20
2.896312251272952
 30
0.0
  0
VERTEX
  5
AC2
  8
ENDS
 10
22.61538236894347
 20
2.83415725099783
 30
0.0
  0
VERTEX
  5
AC3
  8
ENDS
 10
22.64022205487498
 20
2.77262166509133
 30
0.0
  0
VERTEX
  5
AC4
  8
ENDS
 10
22.6660123087049
 20
2.711713457551881
 30
0.0
  0
VERTEX
  5
AC5
  8
ENDS
 10
22.69275151932309
 20
2.65144059237791
 30
0.0
  0
VERTEX
  5
AC6
  8
ENDS
 10
22.72043807561944
 20
2.591811033567849
 30
0.0
  0
VERTEX
  5
AC7
  8
ENDS
 10
22.74907036648381
 20
2.532832745120125
 30
0.0
  0
VERTEX
  5
AC8
  8
ENDS
 10
22.76337366260883
 20
2.504589992972714
 30
0.0
  0
VERTEX
  5
AC9
  8
ENDS
 10
22.77870535757434
 20
2.475413760434175
 30
0.0
  0
VERTEX
  5
ACA
  8
ENDS
 10
22.79501070617423
 20
2.44538136204847
 30
0.0
  0
VERTEX
  5
ACB
  8
ENDS
 10
22.81223496320241
 20
2.414570112359562
 30
0.0
  0
VERTEX
  5
ACC
  8
ENDS
 10
22.83032338345279
 20
2.383057325911415
 30
0.0
  0
VERTEX
  5
ACD
  8
ENDS
 10
22.84922122171927
 20
2.35092031724799
 30
0.0
  0
VERTEX
  5
ACE
  8
ENDS
 10
22.86887373279574
 20
2.318236400913251
 30
0.0
  0
VERTEX
  5
ACF
  8
ENDS
 10
22.88922617147613
 20
2.28508289145116
 30
0.0
  0
VERTEX
  5
AD0
  8
ENDS
 10
22.91022379255433
 20
2.251537103405681
 30
0.0
  0
VERTEX
  5
AD1
  8
ENDS
 10
22.93181185082424
 20
2.217676351320776
 30
0.0
  0
VERTEX
  5
AD2
  8
ENDS
 10
22.95393560107978
 20
2.183577949740407
 30
0.0
  0
VERTEX
  5
AD3
  8
ENDS
 10
22.97654029811483
 20
2.149319213208539
 30
0.0
  0
VERTEX
  5
AD4
  8
ENDS
 10
22.99957119672332
 20
2.114977456269133
 30
0.0
  0
VERTEX
  5
AD5
  8
ENDS
 10
23.02297355169913
 20
2.080629993466152
 30
0.0
  0
VERTEX
  5
AD6
  8
ENDS
 10
23.07067364992838
 20
2.012227208445319
 30
0.0
  0
VERTEX
  5
AD7
  8
ENDS
 10
23.09486190276961
 20
1.978326515315392
 30
0.0
  0
VERTEX
  5
AD8
  8
ENDS
 10
23.11920263115379
 20
1.944729374497742
 30
0.0
  0
VERTEX
  5
AD9
  8
ENDS
 10
23.14364108987482
 20
1.911513100536331
 30
0.0
  0
VERTEX
  5
ADA
  8
ENDS
 10
23.16812253372661
 20
1.878755007975123
 30
0.0
  0
VERTEX
  5
ADB
  8
ENDS
 10
23.19259221750306
 20
1.846532411358079
 30
0.0
  0
VERTEX
  5
ADC
  8
ENDS
 10
23.21699539599807
 20
1.814922625229165
 30
0.0
  0
VERTEX
  5
ADD
  8
ENDS
 10
23.24127732400555
 20
1.78400296413234
 30
0.0
  0
VERTEX
  5
ADE
  8
ENDS
 10
23.2653832563194
 20
1.753850742611569
 30
0.0
  0
VERTEX
  5
ADF
  8
ENDS
 10
23.28925844773353
 20
1.724543275210816
 30
0.0
  0
VERTEX
  5
AE0
  8
ENDS
 10
23.31284815304183
 20
1.696157876474041
 30
0.0
  0
VERTEX
  5
AE1
  8
ENDS
 10
23.33609762703822
 20
1.668771860945208
 30
0.0
  0
VERTEX
  5
AE2
  8
ENDS
 10
23.3589521245166
 20
1.642462543168281
 30
0.0
  0
VERTEX
  5
AE3
  8
ENDS
 10
23.38135690027087
 20
1.617307237687221
 30
0.0
  0
VERTEX
  5
AE4
  8
ENDS
 10
23.40325720909493
 20
1.593383259045992
 30
0.0
  0
VERTEX
  5
AE5
  8
ENDS
 10
23.42459830578269
 20
1.570767921788556
 30
0.0
  0
VERTEX
  5
AE6
  8
ENDS
 10
23.44532544512806
 20
1.549538540458877
 30
0.0
  0
VERTEX
  5
AE7
  8
ENDS
 10
23.48623887082094
 20
1.509136765044141
 30
0.0
  0
VERTEX
  5
AE8
  8
ENDS
 10
23.52732996550318
 20
1.470018670001408
 30
0.0
  0
VERTEX
  5
AE9
  8
ENDS
 10
23.56860698609924
 20
1.432180378149742
 30
0.0
  0
VERTEX
  5
AEA
  8
ENDS
 10
23.61007818953358
 20
1.395618012308207
 30
0.0
  0
VERTEX
  5
AEB
  8
ENDS
 10
23.65175183273066
 20
1.360327695295868
 30
0.0
  0
VERTEX
  5
AEC
  8
ENDS
 10
23.69363617261494
 20
1.326305549931789
 30
0.0
  0
VERTEX
  5
AED
  8
ENDS
 10
23.73573946611087
 20
1.293547699035035
 30
0.0
  0
VERTEX
  5
AEE
  8
ENDS
 10
23.77806997014293
 20
1.26205026542467
 30
0.0
  0
VERTEX
  5
AEF
  8
ENDS
 10
23.82063594163557
 20
1.231809371919759
 30
0.0
  0
VERTEX
  5
AF0
  8
ENDS
 10
23.86344563751324
 20
1.202821141339367
 30
0.0
  0
VERTEX
  5
AF1
  8
ENDS
 10
23.90650731470042
 20
1.175081696502558
 30
0.0
  0
VERTEX
  5
AF2
  8
ENDS
 10
23.94982923012155
 20
1.148587160228396
 30
0.0
  0
VERTEX
  5
AF3
  8
ENDS
 10
23.97159035745875
 20
1.135805521183265
 30
0.0
  0
VERTEX
  5
AF4
  8
ENDS
 10
23.99341964070111
 20
1.123333655335946
 30
0.0
  0
VERTEX
  5
AF5
  8
ENDS
 10
24.01531811196419
 20
1.11117107803882
 30
0.0
  0
VERTEX
  5
AF6
  8
ENDS
 10
24.03728680336354
 20
1.099317304644273
 30
0.0
  0
VERTEX
  5
AF7
  8
ENDS
 10
24.05932674701473
 20
1.087771850504685
 30
0.0
  0
VERTEX
  5
AF8
  8
ENDS
 10
24.08143897503332
 20
1.07653423097244
 30
0.0
  0
VERTEX
  5
AF9
  8
ENDS
 10
24.10362451953485
 20
1.065603961399922
 30
0.0
  0
VERTEX
  5
AFA
  8
ENDS
 10
24.1258844126349
 20
1.054980557139514
 30
0.0
  0
VERTEX
  5
AFB
  8
ENDS
 10
24.14821968644901
 20
1.044663533543598
 30
0.0
  0
VERTEX
  5
AFC
  8
ENDS
 10
24.17063137309274
 20
1.034652405964558
 30
0.0
  0
VERTEX
  5
AFD
  8
ENDS
 10
24.19312050468165
 20
1.024946689754776
 30
0.0
  0
VERTEX
  5
AFE
  8
ENDS
 10
24.2156881133313
 20
1.015545900266636
 30
0.0
  0
VERTEX
  5
AFF
  8
ENDS
 10
24.23833523115724
 20
1.006449552852521
 30
0.0
  0
VERTEX
  5
B00
  8
ENDS
 10
24.26106289027504
 20
0.9976571628648137
 30
0.0
  0
VERTEX
  5
B01
  8
ENDS
 10
24.28387212280025
 20
0.9891682456558972
 30
0.0
  0
VERTEX
  5
B02
  8
ENDS
 10
24.30676396084842
 20
0.980982316578155
 30
0.0
  0
VERTEX
  5
B03
  8
ENDS
 10
24.32973943653512
 20
0.9730988909839697
 30
0.0
  0
VERTEX
  5
B04
  8
ENDS
 10
24.3527995819759
 20
0.9655174842257246
 30
0.0
  0
VERTEX
  5
B05
  8
ENDS
 10
24.37594542928633
 20
0.9582376116558027
 30
0.0
  0
VERTEX
  5
B06
  8
ENDS
 10
24.39917801058195
 20
0.9512587886265871
 30
0.0
  0
VERTEX
  5
B07
  8
ENDS
 10
24.42249835797833
 20
0.9445805304904608
 30
0.0
  0
VERTEX
  5
B08
  8
ENDS
 10
24.44590750359102
 20
0.9382023525998069
 30
0.0
  0
VERTEX
  5
B09
  8
ENDS
 10
24.46940647953558
 20
0.9321237703070087
 30
0.0
  0
VERTEX
  5
B0A
  8
ENDS
 10
24.49299631792757
 20
0.9263442989644488
 30
0.0
  0
VERTEX
  5
B0B
  8
ENDS
 10
24.51667805088254
 20
0.9208634539245106
 30
0.0
  0
VERTEX
  5
B0C
  8
ENDS
 10
24.54045271051606
 20
0.9156807505395772
 30
0.0
  0
VERTEX
  5
B0D
  8
ENDS
 10
24.56432132894368
 20
0.9107957041620314
 30
0.0
  0
VERTEX
  5
B0E
  8
ENDS
 10
24.58828493828096
 20
0.9062078301442563
 30
0.0
  0
VERTEX
  5
B0F
  8
ENDS
 10
24.61234457064345
 20
0.9019166438386351
 30
0.0
  0
VERTEX
  5
B10
  8
ENDS
 10
24.63650125814672
 20
0.897921660597551
 30
0.0
  0
VERTEX
  5
B11
  8
ENDS
 10
24.66075603290631
 20
0.8942223957733868
 30
0.0
  0
VERTEX
  5
B12
  8
ENDS
 10
24.6851099270378
 20
0.8908183647185257
 30
0.0
  0
VERTEX
  5
B13
  8
ENDS
 10
24.70956397265672
 20
0.8877090827853507
 30
0.0
  0
VERTEX
  5
B14
  8
ENDS
 10
24.73411920187866
 20
0.884894065326245
 30
0.0
  0
VERTEX
  5
B15
  8
ENDS
 10
24.75877664681915
 20
0.8823728276935916
 30
0.0
  0
VERTEX
  5
B16
  8
ENDS
 10
24.78353733959377
 20
0.8801448852397734
 30
0.0
  0
VERTEX
  5
B17
  8
ENDS
 10
24.83337259710758
 20
0.8765669472781754
 30
0.0
  0
VERTEX
  5
B18
  8
ENDS
 10
24.88363323134456
 20
0.8741563742605156
 30
0.0
  0
VERTEX
  5
B19
  8
ENDS
 10
24.91842688024625
 20
0.8731739548565816
 30
0.0
  0
VERTEX
  5
B1A
  8
ENDS
 10
24.95303353483208
 20
0.8727537240542774
 30
0.0
  0
VERTEX
  5
B1B
  8
ENDS
 10
24.98745291743613
 20
0.8728955211667573
 30
0.0
  0
VERTEX
  5
B1C
  8
ENDS
 10
25.02168475039252
 20
0.8735991855071752
 30
0.0
  0
VERTEX
  5
B1D
  8
ENDS
 10
25.05572875603535
 20
0.8748645563886853
 30
0.0
  0
VERTEX
  5
B1E
  8
ENDS
 10
25.08958465669872
 20
0.8766914731244417
 30
0.0
  0
VERTEX
  5
B1F
  8
ENDS
 10
25.12325217471673
 20
0.8790797750275985
 30
0.0
  0
VERTEX
  5
B20
  8
ENDS
 10
25.15673103242349
 20
0.8820293014113098
 30
0.0
  0
VERTEX
  5
B21
  8
ENDS
 10
25.19002095215311
 20
0.8855398915887296
 30
0.0
  0
VERTEX
  5
B22
  8
ENDS
 10
25.22312165623967
 20
0.8896113848730121
 30
0.0
  0
VERTEX
  5
B23
  8
ENDS
 10
25.2560328670173
 20
0.8942436205773113
 30
0.0
  0
VERTEX
  5
B24
  8
ENDS
 10
25.28875430682008
 20
0.8994364380147815
 30
0.0
  0
VERTEX
  5
B25
  8
ENDS
 10
25.32128569798213
 20
0.9051896764985766
 30
0.0
  0
VERTEX
  5
B26
  8
ENDS
 10
25.35362676283755
 20
0.9115031753418508
 30
0.0
  0
VERTEX
  5
B27
  8
ENDS
 10
25.38577722372043
 20
0.9183767738577582
 30
0.0
  0
VERTEX
  5
B28
  8
ENDS
 10
25.4177368029649
 20
0.9258103113594529
 30
0.0
  0
VERTEX
  5
B29
  8
ENDS
 10
25.44950522290504
 20
0.9338036271600889
 30
0.0
  0
VERTEX
  5
B2A
  8
ENDS
 10
25.48108220587496
 20
0.9423565605728204
 30
0.0
  0
VERTEX
  5
B2B
  8
ENDS
 10
25.51246747420876
 20
0.9514689509108014
 30
0.0
  0
VERTEX
  5
B2C
  8
ENDS
 10
25.54366075024055
 20
0.9611406374871863
 30
0.0
  0
VERTEX
  5
B2D
  8
ENDS
 10
25.57466175630443
 20
0.9713714596151288
 30
0.0
  0
VERTEX
  5
B2E
  8
ENDS
 10
25.6054702147345
 20
0.9821612566077832
 30
0.0
  0
VERTEX
  5
B2F
  8
ENDS
 10
25.63608584786487
 20
0.9935098677783036
 30
0.0
  0
VERTEX
  5
B30
  8
ENDS
 10
25.66650837802964
 20
1.005417132439844
 30
0.0
  0
VERTEX
  5
B31
  8
ENDS
 10
25.69673752756292
 20
1.017882889905559
 30
0.0
  0
VERTEX
  5
B32
  8
ENDS
 10
25.7267730187988
 20
1.030906979488602
 30
0.0
  0
VERTEX
  5
B33
  8
ENDS
 10
25.75661457407138
 20
1.044489240502127
 30
0.0
  0
VERTEX
  5
B34
  8
ENDS
 10
25.78626191571479
 20
1.058629512259289
 30
0.0
  0
VERTEX
  5
B35
  8
ENDS
 10
25.81571476606311
 20
1.073327634073241
 30
0.0
  0
VERTEX
  5
B36
  8
ENDS
 10
25.84497284745045
 20
1.088583445257138
 30
0.0
  0
VERTEX
  5
B37
  8
ENDS
 10
25.87403588221091
 20
1.104396785124134
 30
0.0
  0
VERTEX
  5
B38
  8
ENDS
 10
25.9029035926786
 20
1.120767492987383
 30
0.0
  0
VERTEX
  5
B39
  8
ENDS
 10
25.93157570118762
 20
1.137695408160038
 30
0.0
  0
VERTEX
  5
B3A
  8
ENDS
 10
25.96005193007207
 20
1.155180369955255
 30
0.0
  0
VERTEX
  5
B3B
  8
ENDS
 10
25.98833200166606
 20
1.173222217686187
 30
0.0
  0
VERTEX
  5
B3C
  8
ENDS
 10
26.01641563830368
 20
1.191820790665988
 30
0.0
  0
VERTEX
  5
B3D
  8
ENDS
 10
26.04430256231905
 20
1.210975928207813
 30
0.0
  0
VERTEX
  5
B3E
  8
ENDS
 10
26.07199249604627
 20
1.230687469624815
 30
0.0
  0
VERTEX
  5
B3F
  8
ENDS
 10
26.09948516181944
 20
1.250955254230148
 30
0.0
  0
VERTEX
  5
B40
  8
ENDS
 10
26.12678028197266
 20
1.271779121336967
 30
0.0
  0
VERTEX
  5
B41
  8
ENDS
 10
26.15387757884003
 20
1.293158910258426
 30
0.0
  0
VERTEX
  5
B42
  8
ENDS
 10
26.18077677475566
 20
1.315094460307679
 30
0.0
  0
VERTEX
  5
B43
  8
ENDS
 10
26.20747759205365
 20
1.33758561079788
 30
0.0
  0
VERTEX
  5
B44
  8
ENDS
 10
26.23397975306811
 20
1.360632201042183
 30
0.0
  0
VERTEX
  5
B45
  8
ENDS
 10
26.26028298013314
 20
1.384234070353743
 30
0.0
  0
VERTEX
  5
B46
  8
ENDS
 10
26.28638699558284
 20
1.408391058045712
 30
0.0
  0
VERTEX
  5
B47
  8
ENDS
 10
26.31229152175132
 20
1.433103003431246
 30
0.0
  0
VERTEX
  5
B48
  8
ENDS
 10
26.33799628097268
 20
1.458369745823498
 30
0.0
  0
VERTEX
  5
B49
  8
ENDS
 10
26.36350099558102
 20
1.484191124535623
 30
0.0
  0
VERTEX
  5
B4A
  8
ENDS
 10
26.38880538791044
 20
1.510566978880774
 30
0.0
  0
VERTEX
  5
B4B
  8
ENDS
 10
26.41390918029505
 20
1.537497148172106
 30
0.0
  0
VERTEX
  5
B4C
  8
ENDS
 10
26.43881209506895
 20
1.564981471722774
 30
0.0
  0
VERTEX
  5
B4D
  8
ENDS
 10
26.46351385456625
 20
1.59301978884593
 30
0.0
  0
VERTEX
  5
B4E
  8
ENDS
 10
26.48801418112105
 20
1.621611938854729
 30
0.0
  0
VERTEX
  5
B4F
  8
ENDS
 10
26.51231279706744
 20
1.650757761062325
 30
0.0
  0
VERTEX
  5
B50
  8
ENDS
 10
26.53640942473955
 20
1.680457094781873
 30
0.0
  0
VERTEX
  5
B51
  8
ENDS
 10
26.56030378647147
 20
1.710709779326526
 30
0.0
  0
VERTEX
  5
B52
  8
ENDS
 10
26.58399560459728
 20
1.741515654009438
 30
0.0
  0
VERTEX
  5
B53
  8
ENDS
 10
26.60748460145112
 20
1.772874558143764
 30
0.0
  0
VERTEX
  5
B54
  8
ENDS
 10
26.63077049936707
 20
1.804786331042658
 30
0.0
  0
VERTEX
  5
B55
  8
ENDS
 10
26.65385302067925
 20
1.837250812019273
 30
0.0
  0
VERTEX
  5
B56
  8
ENDS
 10
26.67673188772175
 20
1.870267840386765
 30
0.0
  0
VERTEX
  5
B57
  8
ENDS
 10
26.69940682282868
 20
1.903837255458286
 30
0.0
  0
VERTEX
  5
B58
  8
ENDS
 10
26.72187754833414
 20
1.937958896546991
 30
0.0
  0
VERTEX
  5
B59
  8
ENDS
 10
26.75172716988544
 20
1.984519780629029
 30
0.0
  0
VERTEX
  5
B5A
  8
ENDS
 10
26.78082922431071
 20
2.031251053330911
 30
0.0
  0
VERTEX
  5
B5B
  8
ENDS
 10
26.80918636324978
 20
2.078159858633201
 30
0.0
  0
VERTEX
  5
B5C
  8
ENDS
 10
26.83680123834249
 20
2.12525334051646
 30
0.0
  0
VERTEX
  5
B5D
  8
ENDS
 10
26.86367650122867
 20
2.172538642961249
 30
0.0
  0
VERTEX
  5
B5E
  8
ENDS
 10
26.88981480354817
 20
2.220022909948129
 30
0.0
  0
VERTEX
  5
B5F
  8
ENDS
 10
26.9152187969408
 20
2.267713285457662
 30
0.0
  0
VERTEX
  5
B60
  8
ENDS
 10
26.93989113304641
 20
2.31561691347041
 30
0.0
  0
VERTEX
  5
B61
  8
ENDS
 10
26.96383446350483
 20
2.363740937966934
 30
0.0
  0
VERTEX
  5
B62
  8
ENDS
 10
26.98705143995589
 20
2.412092502927797
 30
0.0
  0
VERTEX
  5
B63
  8
ENDS
 10
27.00954471403944
 20
2.460678752333558
 30
0.0
  0
VERTEX
  5
B64
  8
ENDS
 10
27.0313169373953
 20
2.509506830164781
 30
0.0
  0
VERTEX
  5
B65
  8
ENDS
 10
27.05237076166332
 20
2.558583880402026
 30
0.0
  0
VERTEX
  5
B66
  8
ENDS
 10
27.07270883848331
 20
2.607917047025856
 30
0.0
  0
VERTEX
  5
B67
  8
ENDS
 10
27.09233381949513
 20
2.657513474016831
 30
0.0
  0
VERTEX
  5
B68
  8
ENDS
 10
27.1112483563386
 20
2.707380305355513
 30
0.0
  0
VERTEX
  5
B69
  8
ENDS
 10
27.12945510065356
 20
2.757524685022464
 30
0.0
  0
VERTEX
  5
B6A
  8
ENDS
 10
27.14695670407984
 20
2.807953756998245
 30
0.0
  0
VERTEX
  5
B6B
  8
ENDS
 10
27.16375581825728
 20
2.858674665263419
 30
0.0
  0
VERTEX
  5
B6C
  8
ENDS
 10
27.17985509482572
 20
2.909694553798546
 30
0.0
  0
VERTEX
  5
B6D
  8
ENDS
 10
27.19525718542498
 20
2.961020566584187
 30
0.0
  0
VERTEX
  5
B6E
  8
ENDS
 10
27.2099647416949
 20
3.012659847600906
 30
0.0
  0
VERTEX
  5
B6F
  8
ENDS
 10
27.22398041527532
 20
3.064619540829263
 30
0.0
  0
VERTEX
  5
B70
  8
ENDS
 10
27.23730685780607
 20
3.11690679024982
 30
0.0
  0
VERTEX
  5
B71
  8
ENDS
 10
27.24994672092699
 20
3.169528739843138
 30
0.0
  0
VERTEX
  5
B72
  8
ENDS
 10
27.2619026562779
 20
3.222492533589778
 30
0.0
  0
VERTEX
  5
B73
  8
ENDS
 10
27.27317731549866
 20
3.275805315470304
 30
0.0
  0
VERTEX
  5
B74
  8
ENDS
 10
27.28377335022908
 20
3.329474229465275
 30
0.0
  0
VERTEX
  5
B75
  8
ENDS
 10
27.29369341210901
 20
3.383506419555254
 30
0.0
  0
VERTEX
  5
B76
  8
ENDS
 10
27.30294015277828
 20
3.437909029720802
 30
0.0
  0
VERTEX
  5
B77
  8
ENDS
 10
27.31151622387672
 20
3.492689203942481
 30
0.0
  0
VERTEX
  5
B78
  8
ENDS
 10
27.31942427704416
 20
3.547854086200851
 30
0.0
  0
VERTEX
  5
B79
  8
ENDS
 10
27.32819311605639
 20
3.614881844193599
 30
0.0
  0
VERTEX
  5
B7A
  8
ENDS
 10
27.33155104011335
 20
3.64356342734103
 30
0.0
  0
VERTEX
  5
B7B
  8
ENDS
 10
27.33421265265026
 20
3.669347092873958
 30
0.0
  0
VERTEX
  5
B7C
  8
ENDS
 10
27.33616896775165
 20
3.692475550505977
 30
0.0
  0
VERTEX
  5
B7D
  8
ENDS
 10
27.33741099950205
 20
3.71319150995068
 30
0.0
  0
VERTEX
  5
B7E
  8
ENDS
 10
27.33792976198599
 20
3.731737680921662
 30
0.0
  0
VERTEX
  5
B7F
  8
ENDS
 10
27.33771626928802
 20
3.748356773132517
 30
0.0
  0
VERTEX
  5
B80
  8
ENDS
 10
27.33676153549265
 20
3.763291496296838
 30
0.0
  0
VERTEX
  5
B81
  8
ENDS
 10
27.33505657468443
 20
3.776784560128219
 30
0.0
  0
VERTEX
  5
B82
  8
ENDS
 10
27.33259240094789
 20
3.789078674340253
 30
0.0
  0
VERTEX
  5
B83
  8
ENDS
 10
27.32936002836757
 20
3.800416548646536
 30
0.0
  0
VERTEX
  5
B84
  8
ENDS
 10
27.32535047102798
 20
3.811040892760662
 30
0.0
  0
VERTEX
  5
B85
  8
ENDS
 10
27.32055474301368
 20
3.821194416396223
 30
0.0
  0
VERTEX
  5
B86
  8
ENDS
 10
27.31496385840919
 20
3.831119829266814
 30
0.0
  0
VERTEX
  5
B87
  8
ENDS
 10
27.30856883129904
 20
3.841059841086028
 30
0.0
  0
VERTEX
  5
B88
  8
ENDS
 10
27.26615270488029
 20
3.903611628763822
 30
0.0
  0
VERTEX
  5
B89
  8
ENDS
 10
26.80541254207305
 20
3.710415675152512
 30
0.0
  0
VERTEX
  5
B8A
  8
ENDS
 10
25.938597897329
 20
3.346369262989846
 30
0.0
  0
VERTEX
  5
B8B
  8
ENDS
 10
25.53252341539222
 20
3.175518804438491
 30
0.0
  0
VERTEX
  5
B8C
  8
ENDS
 10
25.39197430240742
 20
3.176106137337912
 30
0.0
  0
VERTEX
  5
B8D
  8
ENDS
 10
25.37052129564943
 20
3.176623904287981
 30
0.0
  0
VERTEX
  5
B8E
  8
ENDS
 10
25.34912703949469
 20
3.177991245091026
 30
0.0
  0
VERTEX
  5
B8F
  8
ENDS
 10
25.32779847143074
 20
3.180198505293307
 30
0.0
  0
VERTEX
  5
B90
  8
ENDS
 10
25.30654252894512
 20
3.183236030441089
 30
0.0
  0
VERTEX
  5
B91
  8
ENDS
 10
25.28536614952538
 20
3.187094166080631
 30
0.0
  0
VERTEX
  5
B92
  8
ENDS
 10
25.26427627065905
 20
3.191763257758198
 30
0.0
  0
VERTEX
  5
B93
  8
ENDS
 10
25.24327982983366
 20
3.19723365102005
 30
0.0
  0
VERTEX
  5
B94
  8
ENDS
 10
25.22238376453678
 20
3.20349569141245
 30
0.0
  0
VERTEX
  5
B95
  8
ENDS
 10
25.20159501225593
 20
3.21053972448166
 30
0.0
  0
VERTEX
  5
B96
  8
ENDS
 10
25.18092051047864
 20
3.218356095773942
 30
0.0
  0
VERTEX
  5
B97
  8
ENDS
 10
25.16036719669248
 20
3.226935150835557
 30
0.0
  0
VERTEX
  5
B98
  8
ENDS
 10
25.13994200838496
 20
3.236267235212768
 30
0.0
  0
VERTEX
  5
B99
  8
ENDS
 10
25.11965188304363
 20
3.246342694451838
 30
0.0
  0
VERTEX
  5
B9A
  8
ENDS
 10
25.09950375815604
 20
3.257151874099027
 30
0.0
  0
VERTEX
  5
B9B
  8
ENDS
 10
25.07950457120973
 20
3.268685119700599
 30
0.0
  0
VERTEX
  5
B9C
  8
ENDS
 10
25.05966125969223
 20
3.280932776802814
 30
0.0
  0
VERTEX
  5
B9D
  8
ENDS
 10
25.03998076109108
 20
3.293885190951936
 30
0.0
  0
VERTEX
  5
B9E
  8
ENDS
 10
25.02047001289383
 20
3.307532707694227
 30
0.0
  0
VERTEX
  5
B9F
  8
ENDS
 10
25.00113595258801
 20
3.321865672575948
 30
0.0
  0
VERTEX
  5
BA0
  8
ENDS
 10
24.98198551766117
 20
3.336874431143361
 30
0.0
  0
VERTEX
  5
BA1
  8
ENDS
 10
24.96302564560084
 20
3.352549328942728
 30
0.0
  0
VERTEX
  5
BA2
  8
ENDS
 10
24.94426327389456
 20
3.368880711520313
 30
0.0
  0
VERTEX
  5
BA3
  8
ENDS
 10
24.92570534002988
 20
3.385858924422376
 30
0.0
  0
VERTEX
  5
BA4
  8
ENDS
 10
24.90735878149433
 20
3.403474313195179
 30
0.0
  0
VERTEX
  5
BA5
  8
ENDS
 10
24.88923053577546
 20
3.421717223384986
 30
0.0
  0
VERTEX
  5
BA6
  8
ENDS
 10
24.87132754036081
 20
3.440578000538057
 30
0.0
  0
VERTEX
  5
BA7
  8
ENDS
 10
24.85365673273791
 20
3.460046990200655
 30
0.0
  0
VERTEX
  5
BA8
  8
ENDS
 10
24.83622505039431
 20
3.480114537919042
 30
0.0
  0
VERTEX
  5
BA9
  8
ENDS
 10
24.81903943081754
 20
3.500770989239479
 30
0.0
  0
VERTEX
  5
BAA
  8
ENDS
 10
24.80210681149515
 20
3.52200668970823
 30
0.0
  0
VERTEX
  5
BAB
  8
ENDS
 10
24.78543412991468
 20
3.543811984871556
 30
0.0
  0
VERTEX
  5
BAC
  8
ENDS
 10
24.76902832356366
 20
3.56617722027572
 30
0.0
  0
VERTEX
  5
BAD
  8
ENDS
 10
24.75289632992964
 20
3.589092741466982
 30
0.0
  0
VERTEX
  5
BAE
  8
ENDS
 10
24.73704508650015
 20
3.612548893991606
 30
0.0
  0
VERTEX
  5
BAF
  8
ENDS
 10
24.72148153076274
 20
3.636536023395853
 30
0.0
  0
VERTEX
  5
BB0
  8
ENDS
 10
24.70621260020496
 20
3.661044475225985
 30
0.0
  0
VERTEX
  5
BB1
  8
ENDS
 10
24.69124523231432
 20
3.686064595028265
 30
0.0
  0
VERTEX
  5
BB2
  8
ENDS
 10
24.67658636457838
 20
3.711586728348954
 30
0.0
  0
VERTEX
  5
BB3
  8
ENDS
 10
24.66224293448469
 20
3.737601220734315
 30
0.0
  0
VERTEX
  5
BB4
  8
ENDS
 10
24.64822187952077
 20
3.76409841773061
 30
0.0
  0
VERTEX
  5
BB5
  8
ENDS
 10
24.63453013717416
 20
3.7910686648841
 30
0.0
  0
VERTEX
  5
BB6
  8
ENDS
 10
24.62117464493242
 20
3.818502307741048
 30
0.0
  0
VERTEX
  5
BB7
  8
ENDS
 10
24.60816234028307
 20
3.846389691847715
 30
0.0
  0
VERTEX
  5
BB8
  8
ENDS
 10
24.59550016071367
 20
3.874721162750365
 30
0.0
  0
VERTEX
  5
BB9
  8
ENDS
 10
24.58319504371174
 20
3.903487065995259
 30
0.0
  0
VERTEX
  5
BBA
  8
ENDS
 10
24.57125392676483
 20
3.932677747128659
 30
0.0
  0
VERTEX
  5
BBB
  8
ENDS
 10
24.55968374736048
 20
3.962283551696827
 30
0.0
  0
VERTEX
  5
BBC
  8
ENDS
 10
24.54849144298623
 20
3.992294825246025
 30
0.0
  0
VERTEX
  5
BBD
  8
ENDS
 10
24.53768395112961
 20
4.022701913322515
 30
0.0
  0
VERTEX
  5
BBE
  8
ENDS
 10
24.52726820927818
 20
4.05349516147256
 30
0.0
  0
VERTEX
  5
BBF
  8
ENDS
 10
24.51725115491946
 20
4.08466491524242
 30
0.0
  0
VERTEX
  5
BC0
  8
ENDS
 10
24.507639725541
 20
4.116201520178358
 30
0.0
  0
VERTEX
  5
BC1
  8
ENDS
 10
24.49844085863035
 20
4.148095321826637
 30
0.0
  0
VERTEX
  5
BC2
  8
ENDS
 10
24.48966149167504
 20
4.180336665733519
 30
0.0
  0
VERTEX
  5
BC3
  8
ENDS
 10
24.4813085621626
 20
4.212915897445265
 30
0.0
  0
VERTEX
  5
BC4
  8
ENDS
 10
24.47338900758059
 20
4.245823362508139
 30
0.0
  0
VERTEX
  5
BC5
  8
ENDS
 10
24.46590976541653
 20
4.279049406468399
 30
0.0
  0
VERTEX
  5
BC6
  8
ENDS
 10
24.45887777315798
 20
4.312584374872312
 30
0.0
  0
VERTEX
  5
BC7
  8
ENDS
 10
24.45229996829246
 20
4.346418613266138
 30
0.0
  0
VERTEX
  5
BC8
  8
ENDS
 10
24.44618328830754
 20
4.380542467196138
 30
0.0
  0
VERTEX
  5
BC9
  8
ENDS
 10
24.44053467069073
 20
4.414946282208575
 30
0.0
  0
VERTEX
  5
BCA
  8
ENDS
 10
24.43536105292958
 20
4.449620403849711
 30
0.0
  0
VERTEX
  5
BCB
  8
ENDS
 10
24.43066937251163
 20
4.484555177665808
 30
0.0
  0
VERTEX
  5
BCC
  8
ENDS
 10
24.42646656692443
 20
4.519740949203128
 30
0.0
  0
VERTEX
  5
BCD
  8
ENDS
 10
24.42187526735129
 20
4.565184366119027
 30
0.0
  0
SEQEND
  5
CC5
  8
ENDS
  0
POLYLINE
  5
7F
  8
MIDDLE
 66
     1
 10
0.0
 20
0.0
 30
0.0
 70
     1
  0
VERTEX
  5
BCE
  8
MIDDLE
 10
5.856015755481957
 20
5.811548154151319
 30
0.0
  0
VERTEX
  5
BCF
  8
MIDDLE
 10
5.877726574152817
 20
5.756746944242292
 30
0.0
  0
VERTEX
  5
BD0
  8
MIDDLE
 10
5.898722244274169
 20
5.701265594261128
 30
0.0
  0
VERTEX
  5
BD1
  8
MIDDLE
 10
5.918999236473265
 20
5.645131795999071
 30
0.0
  0
VERTEX
  5
BD2
  8
MIDDLE
 10
5.938554175984754
 20
5.588373297403698
 30
0.0
  0
VERTEX
  5
BD3
  8
MIDDLE
 10
5.957383836352428
 20
5.531017892945872
 30
0.0
  0
VERTEX
  5
BD4
  8
MIDDLE
 10
5.975485133091585
 20
5.473093415300977
 30
0.0
  0
VERTEX
  5
BD5
  8
MIDDLE
 10
5.992855117408959
 20
5.414627728212401
 30
0.0
  0
VERTEX
  5
BD6
  8
MIDDLE
 10
6.009490970057656
 20
5.355648720414467
 30
0.0
  0
VERTEX
  5
BD7
  8
MIDDLE
 10
6.025389995387953
 20
5.296184300501657
 30
0.0
  0
VERTEX
  5
BD8
  8
MIDDLE
 10
6.040549615641179
 20
5.23626239264034
 30
0.0
  0
VERTEX
  5
BD9
  8
MIDDLE
 10
6.054967365522563
 20
5.175910933028735
 30
0.0
  0
VERTEX
  5
BDA
  8
MIDDLE
 10
6.068640887079812
 20
5.115157867019235
 30
0.0
  0
VERTEX
  5
BDB
  8
MIDDLE
 10
6.081567924906622
 20
5.054031146826097
 30
0.0
  0
VERTEX
  5
BDC
  8
MIDDLE
 10
6.093746321684492
 20
4.992558729748889
 30
0.0
  0
VERTEX
  5
BDD
  8
MIDDLE
 10
6.105174014071577
 20
4.930768576849375
 30
0.0
  0
VERTEX
  5
BDE
  8
MIDDLE
 10
6.115849028943748
 20
4.868688652025969
 30
0.0
  0
VERTEX
  5
BDF
  8
MIDDLE
 10
6.125769479990428
 20
4.806346921435849
 30
0.0
  0
VERTEX
  5
BE0
  8
MIDDLE
 10
6.134933564665927
 20
4.743771353219889
 30
0.0
  0
VERTEX
  5
BE1
  8
MIDDLE
 10
6.143339561495742
 20
4.680989917490465
 30
0.0
  0
VERTEX
  5
BE2
  8
MIDDLE
 10
6.150985827736638
 20
4.618030586546205
 30
0.0
  0
VERTEX
  5
BE3
  8
MIDDLE
 10
6.157870797389107
 20
4.55492133528095
 30
0.0
  0
VERTEX
  5
BE4
  8
MIDDLE
 10
6.163992979560848
 20
4.491690141757936
 30
0.0
  0
VERTEX
  5
BE5
  8
MIDDLE
 10
6.169350957180399
 20
4.428364987921953
 30
0.0
  0
VERTEX
  5
BE6
  8
MIDDLE
 10
6.17394338606073
 20
4.364973860424608
 30
0.0
  0
VERTEX
  5
BE7
  8
MIDDLE
 10
6.17776899431338
 20
4.301544751539589
 30
0.0
  0
VERTEX
  5
BE8
  8
MIDDLE
 10
6.180826582114868
 20
4.238105660145482
 30
0.0
  0
VERTEX
  5
BE9
  8
MIDDLE
 10
6.18311502182814
 20
4.174684592754643
 30
0.0
  0
VERTEX
  5
BEA
  8
MIDDLE
 10
6.184633258483128
 20
4.111309564566853
 30
0.0
  0
VERTEX
  5
BEB
  8
MIDDLE
 10
6.185380310621738
 20
4.048008600526014
 30
0.0
  0
VERTEX
  5
BEC
  8
MIDDLE
 10
6.185355271513926
 20
3.984809736357748
 30
0.0
  0
VERTEX
  5
BED
  8
MIDDLE
 10
6.184557310752831
 20
3.921741019564236
 30
0.0
  0
VERTEX
  5
BEE
  8
MIDDLE
 10
6.182985676238194
 20
3.858830510351238
 30
0.0
  0
VERTEX
  5
BEF
  8
MIDDLE
 10
6.180639696558517
 20
3.796106282459703
 30
0.0
  0
VERTEX
  5
BF0
  8
MIDDLE
 10
6.177518783783442
 20
3.733596423871938
 30
0.0
  0
VERTEX
  5
BF1
  8
MIDDLE
 10
6.173622436678745
 20
3.671329037358364
 30
0.0
  0
VERTEX
  5
BF2
  8
MIDDLE
 10
6.16895024435699
 20
3.609332240827251
 30
0.0
  0
VERTEX
  5
BF3
  8
MIDDLE
 10
6.163501890377152
 20
3.54763416743473
 30
0.0
  0
VERTEX
  5
BF4
  8
MIDDLE
 10
6.15727715730644
 20
3.486262965406656
 30
0.0
  0
VERTEX
  5
BF5
  8
MIDDLE
 10
6.150275931756897
 20
3.425246797517636
 30
0.0
  0
VERTEX
  5
BF6
  8
MIDDLE
 10
6.142498209907977
 20
3.364613840164902
 30
0.0
  0
VERTEX
  5
BF7
  8
MIDDLE
 10
6.133944103524096
 20
3.304392281966202
 30
0.0
  0
VERTEX
  5
BF8
  8
MIDDLE
 10
6.124613846472919
 20
3.244610321801584
 30
0.0
  0
VERTEX
  5
BF9
  8
MIDDLE
 10
6.114507801745479
 20
3.185296166207953
 30
0.0
  0
VERTEX
  5
BFA
  8
MIDDLE
 10
6.103626468973111
 20
3.126478026023752
 30
0.0
  0
VERTEX
  5
BFB
  8
MIDDLE
 10
6.091970492427949
 20
3.068184112167732
 30
0.0
  0
VERTEX
  5
BFC
  8
MIDDLE
 10
6.079540669483284
 20
3.010442630421862
 30
0.0
  0
VERTEX
  5
BFD
  8
MIDDLE
 10
6.066337959496655
 20
2.953281775072701
 30
0.0
  0
VERTEX
  5
BFE
  8
MIDDLE
 10
6.052363493061959
 20
2.896729721249597
 30
0.0
  0
VERTEX
  5
BFF
  8
MIDDLE
 10
6.037618581555995
 20
2.840814615780579
 30
0.0
  0
VERTEX
  5
C00
  8
MIDDLE
 10
6.02210472687969
 20
2.785564566369636
 30
0.0
  0
VERTEX
  5
C01
  8
MIDDLE
 10
6.005823631263342
 20
2.731007628881354
 30
0.0
  0
VERTEX
  5
C02
  8
MIDDLE
 10
5.98877720696835
 20
2.677171792502637
 30
0.0
  0
VERTEX
  5
C03
  8
MIDDLE
 10
5.970967585673818
 20
2.624084962536021
 30
0.0
  0
VERTEX
  5
C04
  8
MIDDLE
 10
5.952397127284692
 20
2.571774940567936
 30
0.0
  0
VERTEX
  5
C05
  8
MIDDLE
 10
5.933068427837453
 20
2.520269401747575
 30
0.0
  0
VERTEX
  5
C06
  8
MIDDLE
 10
5.912984326109907
 20
2.469595868912589
 30
0.0
  0
VERTEX
  5
C07
  8
MIDDLE
 10
5.892147908462213
 20
2.419781683306436
 30
0.0
  0
VERTEX
  5
C08
  8
MIDDLE
 10
5.870510849049809
 20
2.370736868503803
 30
0.0
  0
VERTEX
  5
C09
  8
MIDDLE
 10
5.853354565234546
 20
2.333668278287675
 30
0.0
  0
VERTEX
  5
C0A
  8
MIDDLE
 10
5.835394513452559
 20
2.296447370392996
 30
0.0
  0
VERTEX
  5
C0B
  8
MIDDLE
 10
5.816690017627712
 20
2.259208452725353
 30
0.0
  0
VERTEX
  5
C0C
  8
MIDDLE
 10
5.799240312004112
 20
2.22578888001834
 30
0.0
 42
0.8054229439565852
  0
VERTEX
  5
C0D
  8
MIDDLE
 10
5.998440651293119
 20
2.045131404454509
 30
0.0
  0
VERTEX
  5
C0E
  8
MIDDLE
 10
6.069284021954756
 20
2.095648982839823
 30
0.0
  0
VERTEX
  5
C0F
  8
MIDDLE
 10
6.138208243238373
 20
2.142055561776963
 30
0.0
  0
VERTEX
  5
C10
  8
MIDDLE
 10
6.20659615246207
 20
2.18534233666084
 30
0.0
  0
VERTEX
  5
C11
  8
MIDDLE
 10
6.274871263109977
 20
2.225761849662686
 30
0.0
  0
VERTEX
  5
C12
  8
MIDDLE
 10
6.308074769843003
 20
2.244384573505616
 30
0.0
  0
VERTEX
  5
C13
  8
MIDDLE
 10
6.341573419752078
 20
2.2624696107846
 30
0.0
  0
VERTEX
  5
C14
  8
MIDDLE
 10
6.374899423222516
 20
2.279755511986355
 30
0.0
  0
VERTEX
  5
C15
  8
MIDDLE
 10
6.408046273376964
 20
2.296239763343969
 30
0.0
  0
VERTEX
  5
C16
  8
MIDDLE
 10
6.441007483298378
 20
2.311920084525386
 30
0.0
  0
VERTEX
  5
C17
  8
MIDDLE
 10
6.473776607466069
 20
2.32679444304809
 30
0.0
  0
VERTEX
  5
C18
  8
MIDDLE
 10
6.506347266452416
 20
2.340861068060478
 30
0.0
  0
VERTEX
  5
C19
  8
MIDDLE
 10
6.538713175108515
 20
2.354118463086368
 30
0.0
  0
VERTEX
  5
C1A
  8
MIDDLE
 10
6.570868174431878
 20
2.366565417256058
 30
0.0
  0
VERTEX
  5
C1B
  8
MIDDLE
 10
6.602806267256703
 20
2.378201014470414
 30
0.0
  0
VERTEX
  5
C1C
  8
MIDDLE
 10
6.634521657834718
 20
2.389024639866343
 30
0.0
  0
VERTEX
  5
C1D
  8
MIDDLE
 10
6.666008795279433
 20
2.399035982876139
 30
0.0
  0
VERTEX
  5
C1E
  8
MIDDLE
 10
6.697262420725592
 20
2.408235036103813
 30
0.0
  0
VERTEX
  5
C1F
  8
MIDDLE
 10
6.728277617907584
 20
2.416622089184649
 30
0.0
  0
VERTEX
  5
C20
  8
MIDDLE
 10
6.759049866684449
 20
2.424197716756515
 30
0.0
  0
VERTEX
  5
C21
  8
MIDDLE
 10
6.789575098835479
 20
2.430962759660873
 30
0.0
  0
VERTEX
  5
C22
  8
MIDDLE
 10
6.819849755223022
 20
2.43691829851693
 30
0.0
  0
VERTEX
  5
C23
  8
MIDDLE
 10
6.849870843172658
 20
2.442065618883051
 30
0.0
  0
VERTEX
  5
C24
  8
MIDDLE
 10
6.879635992665158
 20
2.446406167344547
 30
0.0
  0
VERTEX
  5
C25
  8
MIDDLE
 10
6.909143509681178
 20
2.449941498054054
 30
0.0
  0
VERTEX
  5
C26
  8
MIDDLE
 10
6.938392424805036
 20
2.452673209505733
 30
0.0
  0
VERTEX
  5
C27
  8
MIDDLE
 10
6.967382534997176
 20
2.454602871649513
 30
0.0
  0
VERTEX
  5
C28
  8
MIDDLE
 10
6.99611443630809
 20
2.455731943843909
 30
0.0
  0
VERTEX
  5
C29
  8
MIDDLE
 10
7.025563762417698
 20
2.456072965997042
 30
0.0
  0
VERTEX
  5
C2A
  8
MIDDLE
 10
7.273498765397856
 20
2.455466246954396
 30
0.0
  0
VERTEX
  5
C2B
  8
MIDDLE
 10
14.48833038196035
 20
2.450976925810547
 30
0.0
  0
VERTEX
  5
C2C
  8
MIDDLE
 10
19.40390201917645
 20
2.446214252704392
 30
0.0
  0
VERTEX
  5
C2D
  8
MIDDLE
 10
21.0891512072939
 20
2.443497343840925
 30
0.0
  0
VERTEX
  5
C2E
  8
MIDDLE
 10
21.60098700995988
 20
2.44209239905098
 30
0.0
  0
VERTEX
  5
C2F
  8
MIDDLE
 10
21.83138854902564
 20
2.440722695365267
 30
0.0
  0
VERTEX
  5
C30
  8
MIDDLE
 10
21.91995979218127
 20
2.428830879516384
 30
0.0
  0
VERTEX
  5
C31
  8
MIDDLE
 10
21.99964550004766
 20
2.418614111623882
 30
0.0
  0
VERTEX
  5
C32
  8
MIDDLE
 10
22.05451471893442
 20
2.41244726282147
 30
0.0
  0
VERTEX
  5
C33
  8
MIDDLE
 10
22.07118506293154
 20
2.411014083530224
 30
0.0
  0
VERTEX
  5
C34
  8
MIDDLE
 10
22.26425819342478
 20
2.339730842543381
 30
0.0
  0
VERTEX
  5
C35
  8
MIDDLE
 10
22.3009048085979
 20
2.325459869215751
 30
0.0
  0
VERTEX
  5
C36
  8
MIDDLE
 10
22.33988161238031
 20
2.308950910834691
 30
0.0
  0
VERTEX
  5
C37
  8
MIDDLE
 10
22.38173359165466
 20
2.290076413940168
 30
0.0
  0
VERTEX
  5
C38
  8
MIDDLE
 10
22.42579378435155
 20
2.269215250613343
 30
0.0
  0
VERTEX
  5
C39
  8
MIDDLE
 10
22.47146389973916
 20
2.246735663300188
 30
0.0
  0
VERTEX
  5
C3A
  8
MIDDLE
 10
22.51790782588284
 20
2.223139573608091
 30
0.0
  0
VERTEX
  5
C3B
  8
MIDDLE
 10
22.61276690003314
 20
2.173111218697771
 30
0.0
  0
VERTEX
  5
C3C
  8
MIDDLE
 10
22.70531771141096
 20
2.122424345158951
 30
0.0
  0
VERTEX
  5
C3D
  8
MIDDLE
 10
22.79187933400443
 20
2.073691160996222
 30
0.0
  0
VERTEX
  5
C3E
  8
MIDDLE
 10
22.93332550491814
 20
1.991962909236421
 30
0.0
 42
0.793852106357288
  0
VERTEX
  5
C3F
  8
MIDDLE
 10
23.11659254753727
 20
2.18759567951324
 30
0.0
  0
VERTEX
  5
C40
  8
MIDDLE
 10
23.07946551422771
 20
2.243143441488026
 30
0.0
  0
VERTEX
  5
C41
  8
MIDDLE
 10
23.04404525178498
 20
2.29759414418001
 30
0.0
  0
VERTEX
  5
C42
  8
MIDDLE
 10
23.01013056754565
 20
2.351261567888902
 30
0.0
  0
VERTEX
  5
C43
  8
MIDDLE
 10
22.97798199448284
 20
2.403763920098507
 30
0.0
  0
VERTEX
  5
C44
  8
MIDDLE
 10
22.94786323485443
 20
2.454707679312
 30
0.0
  0
VERTEX
  5
C45
  8
MIDDLE
 10
22.92004256153218
 20
2.503681647175258
 30
0.0
  0
VERTEX
  5
C46
  8
MIDDLE
 10
22.89479455508707
 20
2.550247551497455
 30
0.0
  0
VERTEX
  5
C47
  8
MIDDLE
 10
22.87221799038588
 20
2.594283759011387
 30
0.0
  0
VERTEX
  5
C48
  8
MIDDLE
 10
22.84475929874131
 20
2.650844606478376
 30
0.0
  0
VERTEX
  5
C49
  8
MIDDLE
 10
22.81806985584513
 20
2.708326645333286
 30
0.0
  0
VERTEX
  5
C4A
  8
MIDDLE
 10
22.7922836164848
 20
2.766451417619992
 30
0.0
  0
VERTEX
  5
C4B
  8
MIDDLE
 10
22.7674026065586
 20
2.825212286216735
 30
0.0
  0
VERTEX
  5
C4C
  8
MIDDLE
 10
22.7434289045158
 20
2.884602562149338
 30
0.0
  0
VERTEX
  5
C4D
  8
MIDDLE
 10
22.72036463716301
 20
2.944615503151521
 30
0.0
  0
VERTEX
  5
C4E
  8
MIDDLE
 10
22.69821197549116
 20
3.005244312574444
 30
0.0
  0
VERTEX
  5
C4F
  8
MIDDLE
 10
22.67697313055005
 20
3.066482138631075
 30
0.0
  0
VERTEX
  5
C50
  8
MIDDLE
 10
22.65665034939448
 20
3.128322073961126
 30
0.0
  0
VERTEX
  5
C51
  8
MIDDLE
 10
22.63724591112751
 20
3.190757155487334
 30
0.0
  0
VERTEX
  5
C52
  8
MIDDLE
 10
22.61876212305874
 20
3.253780364547535
 30
0.0
  0
VERTEX
  5
C53
  8
MIDDLE
 10
22.60120131699433
 20
3.317384627280731
 30
0.0
  0
VERTEX
  5
C54
  8
MIDDLE
 10
22.58456584567431
 20
3.381562815240642
 30
0.0
  0
VERTEX
  5
C55
  8
MIDDLE
 10
22.5688580793676
 20
3.446307746217911
 30
0.0
  0
VERTEX
  5
C56
  8
MIDDLE
 10
22.55408040263416
 20
3.511612185247708
 30
0.0
  0
VERTEX
  5
C57
  8
MIDDLE
 10
22.54023521126128
 20
3.57746884577984
 30
0.0
  0
VERTEX
  5
C58
  8
MIDDLE
 10
22.52732490937831
 20
3.643870390991734
 30
0.0
  0
VERTEX
  5
C59
  8
MIDDLE
 10
22.51535190675227
 20
3.710809435224293
 30
0.0
  0
VERTEX
  5
C5A
  8
MIDDLE
 10
22.50431861626576
 20
3.778278545519238
 30
0.0
  0
VERTEX
  5
C5B
  8
MIDDLE
 10
22.49422745157602
 20
3.846270243241492
 30
0.0
  0
VERTEX
  5
C5C
  8
MIDDLE
 10
22.48508082495291
 20
3.914777005769895
 30
0.0
  0
VERTEX
  5
C5D
  8
MIDDLE
 10
22.4768811452929
 20
3.983791268237555
 30
0.0
  0
VERTEX
  5
C5E
  8
MIDDLE
 10
22.469630816304
 20
4.053305425311471
 30
0.0
  0
VERTEX
  5
C5F
  8
MIDDLE
 10
22.46333223485706
 20
4.123311832993428
 30
0.0
  0
VERTEX
  5
C60
  8
MIDDLE
 10
22.45798778949688
 20
4.193802810432669
 30
0.0
  0
VERTEX
  5
C61
  8
MIDDLE
 10
22.45359985910673
 20
4.264770641739923
 30
0.0
  0
VERTEX
  5
C62
  8
MIDDLE
 10
22.45017081171942
 20
4.336207577789295
 30
0.0
  0
VERTEX
  5
C63
  8
MIDDLE
 10
22.44770300346734
 20
4.408105838003286
 30
0.0
  0
VERTEX
  5
C64
  8
MIDDLE
 10
22.44619877766393
 20
4.480457612110051
 30
0.0
  0
VERTEX
  5
C65
  8
MIDDLE
 10
22.44566046400911
 20
4.553255061870686
 30
0.0
  0
VERTEX
  5
C66
  8
MIDDLE
 10
22.44609037791068
 20
4.626490322761794
 30
0.0
  0
VERTEX
  5
C67
  8
MIDDLE
 10
22.44749214237039
 20
4.700225068642061
 30
0.0
  0
VERTEX
  5
C68
  8
MIDDLE
 10
22.44953706316844
 20
4.766145209905781
 30
0.0
  0
VERTEX
  5
C69
  8
MIDDLE
 10
22.45228974117775
 20
4.831371711208051
 30
0.0
  0
VERTEX
  5
C6A
  8
MIDDLE
 10
22.4557495947436
 20
4.895836308531582
 30
0.0
  0
VERTEX
  5
C6B
  8
MIDDLE
 10
22.45991838171324
 20
4.959547319806322
 30
0.0
  0
VERTEX
  5
C6C
  8
MIDDLE
 10
22.46479783118958
 20
5.022513165994472
 30
0.0
  0
VERTEX
  5
C6D
  8
MIDDLE
 10
22.47038964872746
 20
5.084742378360491
 30
0.0
  0
VERTEX
  5
C6E
  8
MIDDLE
 10
22.47669552231078
 20
5.146243605586238
 30
0.0
  0
VERTEX
  5
C6F
  8
MIDDLE
 10
22.48371712913327
 20
5.20702562062472
 30
0.0
  0
VERTEX
  5
C70
  8
MIDDLE
 10
22.49145614319548
 20
5.267097327176447
 30
0.0
  0
VERTEX
  5
C71
  8
MIDDLE
 10
22.49991424371707
 20
5.326467765662489
 30
0.0
  0
VERTEX
  5
C72
  8
MIDDLE
 10
22.50909312434938
 20
5.385146118563345
 30
0.0
  0
VERTEX
  5
C73
  8
MIDDLE
 10
22.51899450315511
 20
5.443141714978535
 30
0.0
  0
VERTEX
  5
C74
  8
MIDDLE
 10
22.52962013330445
 20
5.500464034267861
 30
0.0
  0
VERTEX
  5
C75
  8
MIDDLE
 10
22.54097181441597
 20
5.557122708627004
 30
0.0
  0
VERTEX
  5
C76
  8
MIDDLE
 10
22.55305140444957
 20
5.613127524455826
 30
0.0
  0
VERTEX
  5
C77
  8
MIDDLE
 10
22.56586083203674
 20
5.668488422384245
 30
0.0
  0
VERTEX
  5
C78
  8
MIDDLE
 10
22.57940210911107
 20
5.723215495828136
 30
0.0
  0
VERTEX
  5
C79
  8
MIDDLE
 10
22.59367734368137
 20
5.777318987967321
 30
0.0
  0
VERTEX
  5
C7A
  8
MIDDLE
 10
22.60868875256944
 20
5.830809287053516
 30
0.0
  0
VERTEX
  5
C7B
  8
MIDDLE
 10
22.62443867391743
 20
5.883696919982421
 30
0.0
  0
VERTEX
  5
C7C
  8
MIDDLE
 10
22.64092957925586
 20
5.93599254409183
 30
0.0
  0
VERTEX
  5
C7D
  8
MIDDLE
 10
22.65816408491328
 20
5.987706937181416
 30
0.0
  0
VERTEX
  5
C7E
  8
MIDDLE
 10
22.6761449625437
 20
6.038850985783348
 30
0.0
  0
VERTEX
  5
C7F
  8
MIDDLE
 10
22.69487514854946
 20
6.089435671754275
 30
0.0
  0
VERTEX
  5
C80
  8
MIDDLE
 10
22.71435775218293
 20
6.139472057294504
 30
0.0
  0
VERTEX
  5
C81
  8
MIDDLE
 10
22.73459606212626
 20
6.188971268545235
 30
0.0
  0
VERTEX
  5
C82
  8
MIDDLE
 10
22.75559355136572
 20
6.237944477944589
 30
0.0
  0
VERTEX
  5
C83
  8
MIDDLE
 10
22.77735388020723
 20
6.286402885567793
 30
0.0
  0
VERTEX
  5
C84
  8
MIDDLE
 10
22.79988089730978
 20
6.334357699700624
 30
0.0
  0
VERTEX
  5
C85
  8
MIDDLE
 10
22.82317863865234
 20
6.38182011692421
 30
0.0
  0
VERTEX
  5
C86
  8
MIDDLE
 10
22.8472513243911
 20
6.428801302006577
 30
0.0
  0
VERTEX
  5
C87
  8
MIDDLE
 10
22.87266189579097
 20
6.476357690688052
 30
0.0
 42
0.826710043300299
  0
VERTEX
  5
C88
  8
MIDDLE
 10
22.66244181951789
 20
6.64631702338836
 30
0.0
  0
VERTEX
  5
C89
  8
MIDDLE
 10
22.60134522068011
 20
6.594673934419694
 30
0.0
  0
VERTEX
  5
C8A
  8
MIDDLE
 10
22.54313424713946
 20
6.546976231880462
 30
0.0
  0
VERTEX
  5
C8B
  8
MIDDLE
 10
22.48699086054776
 20
6.502542889222554
 30
0.0
  0
VERTEX
  5
C8C
  8
MIDDLE
 10
22.43282043187866
 20
6.461301100794799
 30
0.0
  0
VERTEX
  5
C8D
  8
MIDDLE
 10
22.38052926540096
 20
6.423175230830743
 30
0.0
  0
VERTEX
  5
C8E
  8
MIDDLE
 10
22.33002397901848
 20
6.388086034275074
 30
0.0
  0
VERTEX
  5
C8F
  8
MIDDLE
 10
22.28121059250554
 20
6.35594982834846
 30
0.0
  0
VERTEX
  5
C90
  8
MIDDLE
 10
22.23399326895799
 20
6.326677683383599
 30
0.0
  0
VERTEX
  5
C91
  8
MIDDLE
 10
22.18827267551644
 20
6.300174739023139
 30
0.0
  0
VERTEX
  5
C92
  8
MIDDLE
 10
22.14394397200273
 20
6.276339791646371
 30
0.0
  0
VERTEX
  5
C93
  8
MIDDLE
 10
22.1008945053896
 20
6.255065330888139
 30
0.0
  0
VERTEX
  5
C94
  8
MIDDLE
 10
22.05900138312828
 20
6.236238211742275
 30
0.0
  0
VERTEX
  5
C95
  8
MIDDLE
 10
22.01812920767195
 20
6.219741115007463
 30
0.0
  0
VERTEX
  5
C96
  8
MIDDLE
 10
21.97812835196905
 20
6.205454856745933
 30
0.0
  0
VERTEX
  5
C97
  8
MIDDLE
 10
21.93883420198232
 20
6.193261454445371
 30
0.0
  0
VERTEX
  5
C98
  8
MIDDLE
 10
21.89860500680697
 20
6.182662278185014
 30
0.0
  0
VERTEX
  5
C99
  8
MIDDLE
 10
21.80016666412177
 20
6.159025171771149
 30
0.0
  0
VERTEX
  5
C9A
  8
MIDDLE
 10
21.24593798368222
 20
6.147831955588803
 30
0.0
  0
VERTEX
  5
C9B
  8
MIDDLE
 10
14.03121927159598
 20
6.156055255034793
 30
0.0
  0
VERTEX
  5
C9C
  8
MIDDLE
 10
6.826837200001211
 20
6.164266772830874
 30
0.0
  0
VERTEX
  5
C9D
  8
MIDDLE
 10
6.667786877948281
 20
6.191941444217194
 30
0.0
  0
VERTEX
  5
C9E
  8
MIDDLE
 10
6.639535695277654
 20
6.19719723448799
 30
0.0
  0
VERTEX
  5
C9F
  8
MIDDLE
 10
6.611351574743662
 20
6.203093514037209
 30
0.0
  0
VERTEX
  5
CA0
  8
MIDDLE
 10
6.58247946043941
 20
6.209770015798002
 30
0.0
  0
VERTEX
  5
CA1
  8
MIDDLE
 10
6.55358395942234
 20
6.217060060614902
 30
0.0
  0
VERTEX
  5
CA2
  8
MIDDLE
 10
6.492284788668426
 20
6.234360545917622
 30
0.0
  0
VERTEX
  5
CA3
  8
MIDDLE
 10
6.429789150658115
 20
6.254343989868931
 30
0.0
  0
VERTEX
  5
CA4
  8
MIDDLE
 10
6.365862329855196
 20
6.277046927016911
 30
0.0
  0
VERTEX
  5
CA5
  8
MIDDLE
 10
6.300904440263959
 20
6.302314083551695
 30
0.0
  0
VERTEX
  5
CA6
  8
MIDDLE
 10
6.235302605230322
 20
6.329984750888576
 30
0.0
  0
VERTEX
  5
CA7
  8
MIDDLE
 10
6.169434249167385
 20
6.35989409011451
 30
0.0
  0
VERTEX
  5
CA8
  8
MIDDLE
 10
6.10366965644495
 20
6.391873758002598
 30
0.0
  0
VERTEX
  5
CA9
  8
MIDDLE
 10
6.038373986175254
 20
6.425752056059305
 30
0.0
  0
VERTEX
  5
CAA
  8
MIDDLE
 10
5.973908886990989
 20
6.46135370760472
 30
0.0
  0
VERTEX
  5
CAB
  8
MIDDLE
 10
5.910633817224944
 20
6.498499302956724
 30
0.0
  0
VERTEX
  5
CAC
  8
MIDDLE
 10
5.848907142417181
 20
6.537004404054463
 30
0.0
  0
VERTEX
  5
CAD
  8
MIDDLE
 10
5.789087050326283
 20
6.576678257424954
 30
0.0
  0
VERTEX
  5
CAE
  8
MIDDLE
 10
5.73153228805774
 20
6.617322021497294
 30
0.0
  0
VERTEX
  5
CAF
  8
MIDDLE
 10
5.674769466432282
 20
6.660108187920216
 30
0.0
 42
0.8690971068180254
  0
VERTEX
  5
CB0
  8
MIDDLE
 10
5.481976766235933
 20
6.467452081598193
 30
0.0
  0
VERTEX
  5
CB1
  8
MIDDLE
 10
5.672885456455031
 20
6.196601111966092
 30
0.0
  0
VERTEX
  5
CB2
  8
MIDDLE
 10
5.710664595668447
 20
6.125086656046322
 30
0.0
  0
VERTEX
  5
CB3
  8
MIDDLE
 10
5.736869525375334
 20
6.074388358052032
 30
0.0
  0
VERTEX
  5
CB4
  8
MIDDLE
 10
5.762097327724617
 20
6.02340038972084
 30
0.0
  0
VERTEX
  5
CB5
  8
MIDDLE
 10
5.786630147596615
 20
5.971595112090299
 30
0.0
  0
VERTEX
  5
CB6
  8
MIDDLE
 10
5.810463599545115
 20
5.918999735498282
 30
0.0
  0
VERTEX
  5
CB7
  8
MIDDLE
 10
5.833593478380465
 20
5.865641599440967
 30
0.0
  0
SEQEND
  5
CC6
  8
MIDDLE
  0
ENDSEC
  0
EOF
