  0
SECTION
  2
HEADER
  9
$ACADVER
  1
AC1015
  9
$ACADMAINTVER
 70
           6
  9
$DWGCODEPAGE
  3
ANSI_1252
  9
$INSBASE
 10
0.0
 20
0.0
 30
0.0
  9
$EXTMIN
 10
0.0
 20
0.0
 30
-0.000000000001
  9
$EXTMAX
 10
2438.4
 20
1219.2
 30
0.0
  9
$LIMMIN
 10
0.0
 20
0.0
  9
$LIMMAX
 10
297.0
 20
210.0
  9
$ORTHOMODE
 70
           0
  9
$REGENMODE
 70
           1
  9
$FILLMODE
 70
           1
  9
$QTEXTMODE
 70
           0
  9
$MIRRTEXT
 70
           1
  9
$LTSCALE
 40
1.0
  9
$ATTMODE
 70
           1
  9
$TEXTSIZE
 40
100.0
  9
$TRACEWID
 40
1.0
  9
$TEXTSTYLE
  7
STANDARD
  9
$CLAYER
  8
0
  9
$CELTYPE
  6
Continuous
  9
$CECOLOR
 62
           7
  9
$CELTSCALE
 40
1.0
  9
$DISPSILH
 70
           0
  9
$DIMSCALE
 40
1.0
  9
$DIMASZ
 40
0.25
  9
$DIMEXO
 40
0.0625
  9
$DIMDLI
 40
0.375
  9
$DIMRND
 40
0.01
  9
$DIMDLE
 40
0.0
  9
$DIMEXE
 40
0.125
  9
$DIMTP
 40
0.0
  9
$DIMTM
 40
0.0
  9
$DIMTXT
 40
30.0
  9
$DIMCEN
 40
0.09
  9
$DIMTSZ
 40
0.0
  9
$DIMTOL
 70
           0
  9
$DIMLIM
 70
           0
  9
$DIMTIH
 70
           1
  9
$DIMTOH
 70
           1
  9
$DIMSE1
 70
           0
  9
$DIMSE2
 70
           0
  9
$DIMTAD
 70
           1
  9
$DIMZIN
 70
           0
  9
$DIMBLK
  1

  9
$DIMASO
 70
           0
  9
$DIMSHO
 70
           1
  9
$DIMPOST
  1
<>mm
  9
$DIMAPOST
  1

  9
$DIMALT
 70
           0
  9
$DIMALTD
 70
           2
  9
$DIMALTF
 40
1.0
  9
$DIMLFAC
 40
1.0
  9
$DIMTOFL
 70
           1
  9
$DIMTVP
 40
0.0
  9
$DIMTIX
 70
           0
  9
$DIMSOXD
 70
           0
  9
$DIMSAH
 70
           0
  9
$DIMBLK1
  1

  9
$DIMBLK2
  1

  9
$DIMSTYLE
  2
STANDARD
  9
$DIMCLRD
 70
           7
  9
$DIMCLRE
 70
           7
  9
$DIMCLRT
 70
           7
  9
$DIMTFAC
 40
1.0
  9
$DIMGAP
 40
0.0625
  9
$DIMJUST
 70
           0
  9
$DIMSD1
 70
           0
  9
$DIMSD2
 70
           0
  9
$DIMTOLJ
 70
           1
  9
$DIMTZIN
 70
           0
  9
$DIMALTZ
 70
           0
  9
$DIMALTTZ
 70
           0
  9
$DIMUPT
 70
           0
  9
$DIMDEC
 70
           2
  9
$DIMTDEC
 70
           2
  9
$DIMALTU
 70
           2
  9
$DIMALTTD
 70
           2
  9
$DIMTXSTY
  7
STANDARD
  9
$DIMAUNIT
 70
           0
  9
$DIMADEC
 70
           2
  9
$DIMALTRND
 40
0.0
  9
$DIMAZIN
 70
           0
  9
$DIMDSEP
 70
           0
  9
$DIMATFIT
 70
           0
  9
$DIMFRAC
 70
           0
  9
$DIMLDRBLK
  1

  9
$DIMLUNIT
 70
           2
  9
$DIMLWD
 70
           0
  9
$DIMLWE
 70
           0
  9
$DIMTMOVE
 70
           0
  9
$LUNITS
 70
           2
  9
$LUPREC
 70
           2
  9
$SKETCHINC
 40
1.0
  9
$FILLETRAD
 40
1.0
  9
$AUNITS
 70
           0
  9
$AUPREC
 70
           2
  9
$MENU
  1
acad
  9
$ELEVATION
 40
0.0
  9
$PELEVATION
 40
0.0
  9
$THICKNESS
 40
0.0
  9
$LIMCHECK
 70
           0
  9
$CHAMFERA
 40
0.0
  9
$CHAMFERB
 40
0.0
  9
$CHAMFERC
 40
0.0
  9
$CHAMFERD
 40
0.0
  9
$SKPOLY
 70
           0
  9
$TDCREATE
 40
0.000000000
  9
$TDUCREATE
 40
0.000000000
  9
$TDUPDATE
 40
0.000000000
  9
$TDUUPDATE
 40
0.000000000
  9
$TDINDWG
 40
0.0000000000
  9
$TDUSRTIMER
 40
0.0000000000
  9
$USRTIMER
 70
           1
  9
$ANGBASE
 50
0.0
  9
$ANGDIR
 70
           0
  9
$PDMODE
 70
           0
  9
$PDSIZE
 40
0.0
  9
$PLINEWID
 40
0.0
  9
$SPLFRAME
 70
           0
  9
$SPLINETYPE
 70
           6
  9
$SPLINESEGS
 70
          20
  9
$HANDSEED
  5
7D
  9
$SURFTAB1
 70
           6
  9
$SURFTAB2
 70
           6
  9
$SURFTYPE
 70
           6
  9
$SURFU
 70
           6
  9
$SURFV
 70
           6
  9
$UCSBASE
  2

  9
$UCSNAME
  2

  9
$UCSORG
 10
0.0
 20
0.0
 30
0.0
  9
$UCSXDIR
 10
1.0
 20
0.0
 30
0.0
  9
$UCSYDIR
 10
0.0
 20
1.0
 30
0.0
  9
$UCSORTHOREF
  2

  9
$UCSORTHOVIEW
 70
           0
  9
$UCSORGTOP
 10
0.0
 20
0.0
 30
0.0
  9
$UCSORGBOTTOM
 10
0.0
 20
0.0
 30
0.0
  9
$UCSORGLEFT
 10
0.0
 20
0.0
 30
0.0
  9
$UCSORGRIGHT
 10
0.0
 20
0.0
 30
0.0
  9
$UCSORGFRONT
 10
0.0
 20
0.0
 30
0.0
  9
$UCSORGBACK
 10
0.0
 20
0.0
 30
0.0
  9
$PUCSBASE
  2

  9
$PUCSNAME
  2

  9
$PUCSORG
 10
0.0
 20
0.0
 30
0.0
  9
$PUCSXDIR
 10
1.0
 20
0.0
 30
0.0
  9
$PUCSYDIR
 10
0.0
 20
1.0
 30
0.0
  9
$PUCSORTHOREF
  2

  9
$PUCSORTHOVIEW
 70
           0
  9
$PUCSORGTOP
 10
0.0
 20
0.0
 30
0.0
  9
$PUCSORGBOTTOM
 10
0.0
 20
0.0
 30
0.0
  9
$PUCSORGLEFT
 10
0.0
 20
0.0
 30
0.0
  9
$PUCSORGRIGHT
 10
0.0
 20
0.0
 30
0.0
  9
$PUCSORGFRONT
 10
0.0
 20
0.0
 30
0.0
  9
$PUCSORGBACK
 10
0.0
 20
0.0
 30
0.0
  9
$USERI1
 70
           0
  9
$USERI2
 70
           0
  9
$USERI3
 70
           0
  9
$USERI4
 70
           0
  9
$USERI5
 70
           0
  9
$USERR1
 40
0.0
  9
$USERR2
 40
0.0
  9
$USERR3
 40
0.0
  9
$USERR4
 40
0.0
  9
$USERR5
 40
0.0
  9
$WORLDVIEW
 70
           1
  9
$SHADEDGE
 70
           3
  9
$SHADEDIF
 70
          70
  9
$TILEMODE
 70
           1
  9
$MAXACTVP
 70
          16
  9
$PINSBASE
 10
0.0
 20
0.0
 30
0.0
  9
$PLIMCHECK
 70
           0
  9
$PEXTMIN
 10
0.0
 20
0.0
 30
0.0
  9
$PEXTMAX
 10
296.9999999978
 20
210.0000000017
 30
0.0
  9
$PLIMMIN
 10
0.0
 20
0.0
  9
$PLIMMAX
 10
296.9999999978
 20
210.0000000017
  9
$UNITMODE
 70
           0
  9
$VISRETAIN
 70
           0
  9
$PLINEGEN
 70
           1
  9
$PSLTSCALE
 70
           1
  9
$TREEDEPTH
 70
        3020
  9
$CMLSTYLE
  2
STANDARD
  9
$CMLJUST
 70
           0
  9
$CMLSCALE
 40
1.0
  9
$PROXYGRAPHICS
 70
           0
  9
$MEASUREMENT
 70
           0
  9
$CELWEIGHT
370
           0
  9
$ENDCAPS
280
           0
  9
$JOINSTYLE
280
           0
  9
$LWDISPLAY
290
           0
  9
$INSUNITS
 70
           0
  9
$HYPERLINKBASE
  1

  9
$STYLESHEET
  1

  9
$XEDIT
290
           1
  9
$CEPSNTYPE
380
           0
  9
$PSTYLEMODE
290
           1
  9
$FINGERPRINTGUID
  2

  9
$VERSIONGUID
  2

  9
$EXTNAMES
290
           1
  9
$PSVPSCALE
 40
0.0
  0
ENDSEC
  0
SECTION
  2
CLASSES
  0
CLASS
  1
LWPOLYLINE
  2
AcDbPolyline
  3
AutoCAD 2000
 90
        0
280
           0
281
           1
  0
CLASS
  1
IMAGE
  2
AcDbRasterImage
  3
ISM
 90
    32895
280
           0
281
           1
  0
CLASS
  1
OLE2FRAME
  2
AcDbOle2Frame
  3
AutoCAD 2000
 90
    32768
280
           0
281
           1
  0
CLASS
  1
HATCH
  2
AcDbHatch
  3
AutoCAD 2000
 90
    32768
280
           0
281
           1
  0
CLASS
  1
DICTIONARYVAR
  2
AcDbDictionaryVar
  3
AutoCAD 2000
 90
    32768
280
           0
281
           0
  0
CLASS
  1
RASTERVARIABLES
  2
AcDbRasterVariables
  3
ISM
 90
    32768
280
           0
281
           0
  0
CLASS
  1
IMAGEDEF
  2
AcDbRasterImageDef
  3
ISM
 90
    32768
280
           0
281
           0
  0
CLASS
  1
IMAGEDEF_REACTOR
  2
AcDbRasterImageDefReactor
  3
ISM
 90
    32769
280
           0
281
           0
  0
CLASS
  1
IDBUFFER
  2
AcDbIdBuffer
  3
AutoCAD 2000
 90
    32768
280
           0
281
           0
  0
CLASS
  1
SPATIAL_FILTER
  2
AcDbSpatialFilter
  3
AutoCAD 2000
 90
    32768
280
           0
281
           0
  0
CLASS
  1
XRECORD
  2
AcDbXrecord
  3
AutoCAD 2000
 90
    32768
280
           0
281
           0
  0
CLASS
  1
SORTENTSTABLE
  2
AcDbSortentsTable
  3
AutoCAD 2000
 90
    32768
280
           0
281
           0
  0
CLASS
  1
LAYER_INDEX
  2
AcDbLayerIndex
  3
AutoCAD 2000
 90
    32768
280
           0
281
           0
  0
CLASS
  1
SPATIAL_INDEX
  2
AcDbSpatialIndex
  3
AutoCAD 2000
 90
    32768
280
           0
281
           0
  0
CLASS
  1
OBJECT_PTR
  2
CAseDLPNTableRecord
  3
"ASE-LPNTableRecord"
 90
    32769
280
           0
281
           0
  0
CLASS
  1
LAYOUT
  2
AcDbLayout
  3
AutoCAD 2000
 90
        0
280
           0
281
           0
  0
CLASS
  1
PLOTSETTINGS
  2
AcDbPlotSettings
  3
AutoCAD 2000
 90
    32768
280
           0
281
           0
  0
CLASS
  1
ACDBDICTIONARYWDFLT
  2
AcDbDictionaryWithDefault
  3
AutoCAD 2000
 90
        0
280
           0
281
           0
  0
CLASS
  1
ACDBPLACEHOLDER
  2
AcDbPlaceHolder
  3
AutoCAD 2000
 90
        0
280
           0
281
           0
  0
ENDSEC
  0
SECTION
  2
TABLES
  0
TABLE
  2
VPORT
  5
7
100
AcDbSymbolTable
 70
           1
  0
VPORT
  5
15
100
AcDbSymbolTableRecord
100
AcDbViewportTableRecord
  2
*ACTIVE
 70
           0
 10
0.0
 20
0.0
 11
1.0
 21
1.0
 12
0.0
 22
0.0
 13
0.0
 23
0.0
 14
5.0
 24
5.0
 15
5.0
 25
5.0
 16
0.0
 26
0.0
 36
1.0
 17
1116.061419767679
 27
412.71639325416
 37
0.0
 40
2123.235274458973
 41
1.468434343434
 42
50.0
 43
0.0
 44
0.0
 50
0.0
 51
0.0
 71
           0
 72
         100
 73
           1
 74
           1
 75
           0
 76
           1
 77
           0
 78
           0
281
           0
 65
           0
110
0.0
120
0.0
130
0.0
111
1.0
121
0.0
131
0.0
112
0.0
122
1.0
132
0.0
345
0
346
0
 79
           0
146
0.0
  0
ENDTAB
  0
TABLE
  2
LTYPE
  5
4
100
AcDbSymbolTable
 70
          15
  0
LTYPE
  5
11
100
AcDbSymbolTableRecord
100
AcDbLinetypeTableRecord
  2
ByBlock
 70
          64
  3

 72
          65
 73
           0
 40
0.0
  0
LTYPE
  5
12
100
AcDbSymbolTableRecord
100
AcDbLinetypeTableRecord
  2
ByLayer
 70
          64
  3

 72
          65
 73
           0
 40
0.0
  0
LTYPE
  5
13
100
AcDbSymbolTableRecord
100
AcDbLinetypeTableRecord
  2
Continuous
 70
          64
  3
Solid line
 72
          65
 73
           0
 40
0.0
  0
LTYPE
  5
24
100
AcDbSymbolTableRecord
100
AcDbLinetypeTableRecord
  2
BORDER
 70
           0
  3
BORDER
 72
          65
 73
           6
 40
1.75
 49
0.5
 74
           0
 49
-0.25
 74
           0
 49
0.5
 74
           0
 49
-0.25
 74
           0
 49
0.0
 74
           0
 49
-0.25
 74
           0
  0
LTYPE
  5
25
100
AcDbSymbolTableRecord
100
AcDbLinetypeTableRecord
  2
CENTER
 70
           0
  3
CENTER
 72
          65
 73
           4
 40
2.0
 49
1.25
 74
           0
 49
-0.25
 74
           0
 49
0.25
 74
           0
 49
-0.25
 74
           0
  0
LTYPE
  5
26
100
AcDbSymbolTableRecord
100
AcDbLinetypeTableRecord
  2
DASHDOT
 70
           0
  3
DASHDOT
 72
          65
 73
           4
 40
1.0
 49
0.5
 74
           0
 49
-0.25
 74
           0
 49
0.0
 74
           0
 49
-0.25
 74
           0
  0
LTYPE
  5
27
100
AcDbSymbolTableRecord
100
AcDbLinetypeTableRecord
  2
DASHED
 70
           0
  3
DASHED
 72
          65
 73
           2
 40
0.75
 49
0.5
 74
           0
 49
-0.25
 74
           0
  0
LTYPE
  5
28
100
AcDbSymbolTableRecord
100
AcDbLinetypeTableRecord
  2
DIVIDE
 70
           0
  3
DIVIDE
 72
          65
 73
           6
 40
1.25
 49
0.5
 74
           0
 49
-0.25
 74
           0
 49
0.0
 74
           0
 49
-0.25
 74
           0
 49
0.0
 74
           0
 49
-0.25
 74
           0
  0
LTYPE
  5
29
100
AcDbSymbolTableRecord
100
AcDbLinetypeTableRecord
  2
DOT
 70
           0
  3
DOT
 72
          65
 73
           2
 40
0.25
 49
0.0
 74
           0
 49
-0.25
 74
           0
  0
LTYPE
  5
2A
100
AcDbSymbolTableRecord
100
AcDbLinetypeTableRecord
  2
HIDDEN
 70
           0
  3
HIDDEN
 72
          65
 73
           2
 40
0.375
 49
0.25
 74
           0
 49
-0.125
 74
           0
  0
LTYPE
  5
2B
100
AcDbSymbolTableRecord
100
AcDbLinetypeTableRecord
  2
PHANTOM
 70
           0
  3
PHANTOM
 72
          65
 73
           6
 40
2.5
 49
1.25
 74
           0
 49
-0.25
 74
           0
 49
0.25
 74
           0
 49
-0.25
 74
           0
 49
0.25
 74
           0
 49
-0.25
 74
           0
  0
LTYPE
  5
2C
100
AcDbSymbolTableRecord
100
AcDbLinetypeTableRecord
  2
$INVISIBLE
 70
           0
  3
$INVISIBLE
 72
          65
 73
           2
 40
200.0
 49
-100.0
 74
           0
 49
-100.0
 74
           0
  0
LTYPE
  5
2D
100
AcDbSymbolTableRecord
100
AcDbLinetypeTableRecord
  2
$AUXILIARY
 70
           0
  3
$AUXILIARY
 72
          65
 73
           2
 40
0.10000000149
 49
0.050000000745
 74
           0
 49
-0.050000000745
 74
           0
  0
LTYPE
  5
2E
100
AcDbSymbolTableRecord
100
AcDbLinetypeTableRecord
  2
$CONSTRUCTION
 70
           0
  3
$CONSTRUCTION
 72
          65
 73
           4
 40
0.3
 49
0.2
 74
           0
 49
-0.05
 74
           0
 49
0.0
 74
           0
 49
-0.05
 74
           0
  0
LTYPE
  5
2F
100
AcDbSymbolTableRecord
100
AcDbLinetypeTableRecord
  2
$SNAPEXT
 70
           0
  3
$SNAPEXT
 72
          65
 73
           2
 40
0.04
 49
0.02
 74
           0
 49
-0.02
 74
           0
  0
ENDTAB
  0
TABLE
  2
LAYER
  5
2
100
AcDbSymbolTable
 70
           2
  0
LAYER
  5
14
100
AcDbSymbolTableRecord
100
AcDbLayerTableRecord
  2
0
 70
           0
 62
           7
  6
Continuous
290
           1
370
           0
390
0
1001
TCAD
1000
TCW_LAYER_ORDER
1002
{
1071
        0
1002
}
  0
LAYER
  5
30
100
AcDbSymbolTableRecord
100
AcDbLayerTableRecord
  2
$CONSTRUCTION
 70
           0
 62
           9
  6
$CONSTRUCTION
290
           1
370
           0
390
0
1001
TCAD
1000
TCW_LAYER_ORDER
1002
{
1071
        0
1002
}
  0
ENDTAB
  0
TABLE
  2
STYLE
  5
3
100
AcDbSymbolTable
 70
           1
  0
STYLE
  5
17
100
AcDbSymbolTableRecord
100
AcDbTextStyleTableRecord
  2
STANDARD
 70
           0
 40
0.0
 41
1.0
 50
0.0
 71
           0
 42
60.0
  3

  4

1001
ACAD
1000
Times New Roman
1071
      290
  0
ENDTAB
  0
TABLE
  2
VIEW
  5
5
100
AcDbSymbolTable
 70
           1
  0
VIEW
  5
31
100
AcDbSymbolTableRecord
100
AcDbViewTableRecord
  2
View_0
 70
           0
 40
8.267716535433
 10
5.846456692913
 20
4.133858267717
 41
11.692913385827
 11
0.0
 21
0.0
 31
1.0
 12
0.0
 22
0.0
 32
0.0
 42
45.247172312671
 43
0.0
 44
0.0
 50
0.0
 71
           0
281
           0
 72
           0
110
0.0
120
0.0
130
0.0
111
1.0
121
0.0
131
0.0
112
0.0
122
1.0
132
0.0
  0
ENDTAB
  0
TABLE
  2
UCS
  5
6
100
AcDbSymbolTable
 70
           0
  0
ENDTAB
  0
TABLE
  2
APPID
  5
8
100
AcDbSymbolTable
 70
           2
  0
APPID
  5
16
100
AcDbSymbolTableRecord
100
AcDbRegAppTableRecord
  2
ACAD
 70
           0
  0
APPID
  5
23
100
AcDbSymbolTableRecord
100
AcDbRegAppTableRecord
  2
TCAD
 70
           0
  0
ENDTAB
  0
TABLE
  2
DIMSTYLE
  5
9
100
AcDbSymbolTable
 70
           1
100
AcDbDimStyleTable
 71
           0
  0
DIMSTYLE
105
18
100
AcDbSymbolTableRecord
100
AcDbDimStyleTableRecord
  2
STANDARD
 70
           0
  3
<>mm
  4

 40
1.0
 41
0.25
 42
0.0625
 43
0.375
 44
0.125
 45
0.01
 46
0.0
 47
0.0
 48
0.0
 71
           0
 72
           0
 73
           1
 74
           1
 75
           0
 76
           0
 77
           1
 78
           0
 79
           0
140
30.0
141
0.09
142
0.0
143
1.0
144
1.0
145
0.0
146
1.0
147
0.0625
148
0.01
170
           0
171
           2
172
           1
173
           0
174
           0
175
           0
176
           7
177
           7
178
           7
179
           2
271
           2
272
           2
273
           2
274
           2
275
           0
276
           0
277
           2
278
          46
279
           0
280
           0
281
           0
282
           0
283
           1
284
           0
285
           0
286
           0
288
           0
340
17
341
0
342
0
343
0
344
0
371
          -2
372
          -2
  0
ENDTAB
  0
TABLE
  2
BLOCK_RECORD
  5
1
100
AcDbSymbolTable
 70
           4
  0
BLOCK_RECORD
  5
A
100
AcDbSymbolTableRecord
100
AcDbBlockTableRecord
  2
*MODEL_SPACE
340
7B
  0
BLOCK_RECORD
  5
B
100
AcDbSymbolTableRecord
100
AcDbBlockTableRecord
  2
*PAPER_SPACE
340
7C
  0
BLOCK_RECORD
  5
41
100
AcDbSymbolTableRecord
100
AcDbBlockTableRecord
  2
*E0
340
0
102
{BLKREFS
331
45
102
}
  0
BLOCK_RECORD
  5
47
100
AcDbSymbolTableRecord
100
AcDbBlockTableRecord
  2
*E1
340
0
102
{BLKREFS
331
4B
102
}
  0
BLOCK_RECORD
  5
4E
100
AcDbSymbolTableRecord
100
AcDbBlockTableRecord
  2
*E2
340
0
102
{BLKREFS
331
52
102
}
  0
BLOCK_RECORD
  5
54
100
AcDbSymbolTableRecord
100
AcDbBlockTableRecord
  2
*E3
340
0
102
{BLKREFS
331
58
102
}
  0
ENDTAB
  0
ENDSEC
  0
SECTION
  2
BLOCKS
  0
BLOCK
  5
D
100
AcDbEntity
  8
0
100
AcDbBlockBegin
  2
*MODEL_SPACE
 70
           0
 10
0.0
 20
0.0
 30
0.0
  3
*MODEL_SPACE
  1

  0
ENDBLK
  5
E
100
AcDbEntity
  8
0
100
AcDbBlockEnd
  0
BLOCK
  5
F
100
AcDbEntity
 67
           1
  8
0
100
AcDbBlockBegin
  2
*PAPER_SPACE
 70
           0
 10
0.0
 20
0.0
 30
0.0
  3
*PAPER_SPACE
  1

  0
ENDBLK
  5
10
100
AcDbEntity
 67
           1
  8
0
100
AcDbBlockEnd
  0
BLOCK
  5
42
100
AcDbEntity
  8
0
100
AcDbBlockBegin
  2
*E0
 70
           1
 10
0.0
 20
0.0
 30
0.0
  3
*E0
  1

  0
LWPOLYLINE
  5
43
100
AcDbEntity
  8
0
370
           0
  6
Continuous
 62
           7
100
AcDbPolyline
 90
      221
 70
           0
 10
2349.282572955383
 20
420.616611847977
 10
2336.583115407211
 20
420.294425715269
 10
2323.883596893643
 20
419.974574873649
 10
2311.184018058883
 20
419.65705933833
 10
2298.484379547129
 20
419.341879124535
 10
2285.784682002582
 20
419.029034247476
 10
2273.084926069443
 20
418.718524722373
 10
2260.38511239191
 20
418.410350564443
 10
2247.685241614186
 20
418.104511788905
 10
2234.985314380469
 20
417.801008410972
 10
2222.285331334962
 20
417.499840445864
 10
2209.585293121861
 20
417.2010079088
 10
2196.88520038537
 20
416.904510814996
 10
2184.185053769688
 20
416.610349179667
 10
2171.484853919015
 20
416.318523018032
 10
2158.784601477551
 20
416.02903234531
 10
2146.084297089497
 20
415.741877176717
 10
2133.383941399053
 20
415.457057527469
 10
2120.683535050419
 20
415.174573412785
 10
2107.983078687796
 20
414.894424847882
 10
2095.282572955383
 20
414.616611847977
 10
2082.733035314398
 20
414.344324963978
 10
2070.183448460472
 20
414.074196599414
 10
2057.633812484201
 20
413.80625799901
 10
2045.08412747618
 20
413.540540407493
 10
2032.534393527005
 20
413.277075069586
 10
2019.984610727269
 20
413.015893230017
 10
2007.434779167568
 20
412.757026133513
 10
1994.884898938497
 20
412.500505024798
 10
1982.334970130652
 20
412.246361148597
 10
1969.784992834626
 20
411.994625749637
 10
1957.234967141015
 20
411.745330072646
 10
1944.684893140415
 20
411.498505362345
 10
1932.13477092342
 20
411.254182863463
 10
1919.584600580625
 20
411.012393820726
 10
1907.034382202626
 20
410.773169478859
 10
1894.484115880016
 20
410.536541082588
 10
1881.933801703392
 20
410.302539876638
 10
1869.383439763349
 20
410.071197105735
 10
1856.833030150481
 20
409.842544014607
 10
1844.282572955383
 20
409.616611847977
 10
1831.682958350119
 20
409.393791567143
 10
1819.08326031203
 20
409.175926330719
 10
1806.483485985277
 20
408.96259065377
 10
1793.883642514018
 20
408.753359051369
 10
1781.283737042415
 20
408.547806038582
 10
1768.683776714626
 20
408.345506130481
 10
1756.083768674811
 20
408.146033842136
 10
1743.483720067128
 20
407.948963688616
 10
1730.883638035738
 20
407.753870184987
 10
1718.283529724801
 20
407.560327846322
 10
1705.683402278475
 20
407.367911187693
 10
1693.08326284092
 20
407.176194724165
 10
1680.483118556296
 20
406.984752970809
 10
1667.882976568762
 20
406.793160442694
 10
1655.282844022477
 20
406.600991654891
 10
1642.682728061602
 20
406.407821122469
 10
1630.082635830296
 20
406.213223360497
 10
1617.482574472717
 20
406.016772884044
 10
1604.882551133027
 20
405.818044208181
 10
1592.282572955383
 20
405.616611847977
 10
1580.045993126913
 20
405.418814272994
 10
1567.809434605021
 20
405.219691044381
 10
1555.572894467506
 20
405.019424465371
 10
1543.336369792166
 20
404.818196839205
 10
1531.0998576568
 20
404.616190469114
 10
1518.863355139205
 20
404.41358765834
 10
1506.62685931718
 20
404.210570710115
 10
1494.390367268522
 20
404.007321927681
 10
1482.153876071031
 20
403.804023614268
 10
1469.917382802505
 20
403.600858073115
 10
1457.68088454074
 20
403.398007607462
 10
1445.444378363536
 20
403.195654520542
 10
1433.207861348692
 20
402.993981115592
 10
1420.971330574004
 20
402.793169695848
 10
1408.734783117271
 20
402.593402564548
 10
1396.498216056292
 20
402.394862024928
 10
1384.261626468865
 20
402.197730380225
 10
1372.025011432787
 20
402.002189933673
 10
1359.788368025858
 20
401.808422988512
 10
1347.551693325876
 20
401.616611847977
 10
1337.338369507496
 20
401.4578535998
 10
1327.125030813301
 20
401.300032464748
 10
1316.911677403294
 20
401.143145910776
 10
1306.698309437475
 20
400.987191405841
 10
1296.484927075848
 20
400.832166417898
 10
1286.271530478413
 20
400.678068414903
 10
1276.058119805171
 20
400.524894864812
 10
1265.844695216124
 20
400.372643235584
 10
1255.631256871275
 20
400.22131099517
 10
1245.417804930625
 20
400.07089561153
 10
1235.204339554173
 20
399.921394552619
 10
1224.990860901924
 20
399.772805286393
 10
1214.777369133878
 20
399.625125280808
 10
1204.563864410038
 20
399.478352003821
 10
1194.350346890403
 20
399.332482923386
 10
1184.136816734977
 20
399.187515507461
 10
1173.92327410376
 20
399.043447224002
 10
1163.709719156754
 20
398.900275540964
 10
1153.496152053961
 20
398.757997926304
 10
1143.282572955383
 20
398.616611847977
 10
1128.132684149625
 20
398.408373871522
 10
1112.982774185124
 20
398.20170034254
 10
1097.832844637564
 20
397.996475045687
 10
1082.682897082626
 20
397.79258176562
 10
1067.532933095988
 20
397.589904286996
 10
1052.382954253332
 20
397.388326394473
 10
1037.232962130339
 20
397.18773187271
 10
1022.082958302688
 20
396.988004506364
 10
1006.932944346062
 20
396.789028080089
 10
991.78292183614
 20
396.590686378546
 10
976.632892348602
 20
396.392863186394
 10
961.48285745913
 20
396.195442288285
 10
946.332818743404
 20
395.998307468881
 10
931.182777777105
 20
395.801342512837
 10
916.032736135913
 20
395.604431204813
 10
900.882695395509
 20
395.407457329465
 10
885.732657131573
 20
395.210304671449
 10
870.582622919786
 20
395.012857015424
 10
855.43259433583
 20
394.814998146047
 10
840.282572955383
 20
394.616611847977
 10
824.932596358326
 20
394.414798674631
 10
809.582630786933
 20
394.212101126406
 10
794.232673993017
 20
394.00869840917
 10
778.882723728387
 20
393.804769728799
 10
763.532777744857
 20
393.600494291163
 10
748.182833794235
 20
393.396051302135
 10
732.832889628336
 20
393.191619967587
 10
717.482942998967
 20
392.987379493391
 10
702.132991657944
 20
392.783509085419
 10
686.783033357076
 20
392.580187949542
 10
671.433065848172
 20
392.377595291637
 10
656.083086883047
 20
392.175910317571
 10
640.73309421351
 20
391.975312233218
 10
625.383085591374
 20
391.77598024445
 10
610.033058768448
 20
391.57809355714
 10
594.683011496545
 20
391.38183137716
 10
579.332941527476
 20
391.187372910381
 10
563.982846613051
 20
390.994897362676
 10
548.632724505083
 20
390.804583939917
 10
533.282572955383
 20
390.616611847977
 10
528.082702931906
 20
390.554680728686
 10
522.882805593693
 20
390.495264636692
 10
517.68288321291
 20
390.438153718657
 10
512.482938061724
 20
390.383138121251
 10
507.282972412301
 20
390.330007991137
 10
502.082988536807
 20
390.278553474984
 10
496.882988707407
 20
390.228564719459
 10
491.682975196267
 20
390.179831871227
 10
486.482950275556
 20
390.132145076955
 10
481.282916217437
 20
390.085294483309
 10
476.082875294075
 20
390.039070236959
 10
470.88282977764
 20
389.993262484567
 10
465.682781940296
 20
389.947661372801
 10
460.482734054209
 20
389.902057048328
 10
455.282688391544
 20
389.856239657816
 10
450.08264722447
 20
389.80999934793
 10
444.882612825149
 20
389.763126265336
 10
439.682587465752
 20
389.715410556702
 10
434.482573418441
 20
389.666642368693
 10
429.282572955383
 20
389.616611847977
 10
424.232575340615
 20
389.566073051863
 10
419.182594937824
 20
389.513253147394
 10
414.132628836505
 20
389.458541771855
 10
409.082674126144
 20
389.40232856254
 10
404.032727896236
 20
389.345003156736
 10
398.982787236269
 20
389.286955191733
 10
393.932849235734
 20
389.228574304821
 10
388.882910984122
 20
389.17025013329
 10
383.832969570924
 20
389.112372314428
 10
378.783022085631
 20
389.055330485525
 10
373.733065617732
 20
388.999514283872
 10
368.68309725672
 20
388.945313346759
 10
363.633114092083
 20
388.893117311472
 10
358.583113213313
 20
388.843315815303
 10
353.533091709902
 20
388.796298495542
 10
348.483046671338
 20
388.752454989477
 10
343.432975187114
 20
388.712174934399
 10
338.382874346719
 20
388.675847967596
 10
333.332741239646
 20
388.643863726359
 10
328.282572955383
 20
388.616611847977
 10
323.132627524029
 20
388.594617529526
 10
317.982668368403
 20
388.578705587529
 10
312.83269681854
 20
388.568248157811
 10
307.682714204474
 20
388.562617376203
 10
302.532721856239
 20
388.561185378527
 10
297.382721103869
 20
388.563324300613
 10
292.232713277396
 20
388.568406278288
 10
287.082699706854
 20
388.575803447381
 10
281.932681722281
 20
388.584887943714
 10
276.782660653706
 20
388.595031903116
 10
271.632637831164
 20
388.605607461419
 10
266.48261458469
 20
388.615986754445
 10
261.332592244318
 20
388.625541918022
 10
256.18257214008
 20
388.633645087977
 10
251.032555602012
 20
388.639668400138
 10
245.882543960145
 20
388.642983990332
 10
240.732538544516
 20
388.642963994385
 10
235.582540685155
 20
388.638980548127
 10
230.432551712101
 20
388.63040578738
 10
225.282572955383
 20
388.616611847977
 10
214.932508113027
 20
388.582393894839
 10
204.582447696361
 20
388.546514662018
 10
194.232392105355
 20
388.508974151444
 10
183.882341739979
 20
388.469772365052
 10
173.532297000205
 20
388.428909304771
 10
163.182258286001
 20
388.386384972534
 10
152.832225997338
 20
388.342199370276
 10
142.482200534186
 20
388.296352499927
 10
132.132182296516
 20
388.248844363418
 10
121.782171684299
 20
388.199674962682
 10
111.432169097501
 20
388.148844299655
 10
101.082174936096
 20
388.096352376264
 10
90.732189600053
 20
388.042199194444
 10
80.382213489342
 20
387.986384756126
 10
70.032247003934
 20
387.928909063243
 10
59.682290543798
 20
387.869772117727
 10
49.332344508904
 20
387.80897392151
 10
38.982409299224
 20
387.746514476525
 10
28.632485314727
 20
387.682393784703
 10
18.282572955383
 20
387.616611847977
  0
ENDBLK
  5
44
100
AcDbEntity
  8
0
100
AcDbBlockEnd
  0
BLOCK
  5
48
100
AcDbEntity
  8
0
100
AcDbBlockBegin
  2
*E1
 70
           1
 10
0.0
 20
0.0
 30
0.0
  3
*E1
  1

  0
LWPOLYLINE
  5
49
100
AcDbEntity
  8
0
370
           0
  6
Continuous
 62
           7
100
AcDbPolyline
 90
      221
 70
           0
 10
143.282572955383
 20
677.616611847977
 10
146.322677182453
 20
678.219036990973
 10
149.363913203813
 20
678.815959951535
 10
152.406265997136
 20
679.407378020715
 10
155.449720540088
 20
679.99328848957
 10
158.494261810341
 20
680.573688649154
 10
161.539874785563
 20
681.148575790523
 10
164.586544443424
 20
681.717947204732
 10
167.634255761593
 20
682.281800182837
 10
170.682993717741
 20
682.840132015891
 10
173.732743289536
 20
683.392939994949
 10
176.783489454648
 20
683.940221411071
 10
179.835217190745
 20
684.481973555306
 10
182.8879114755
 20
685.018193718713
 10
185.94155728658
 20
685.548879192345
 10
188.996139601654
 20
686.07402726726
 10
192.051643398393
 20
686.59363523451
 10
195.108053654466
 20
687.107700385151
 10
198.165355347543
 20
687.61622001024
 10
201.223533455292
 20
688.11919140083
 10
204.282572955383
 20
688.616611847977
 10
209.573934333378
 20
689.472520361383
 10
214.865447580709
 20
690.328604324868
 10
220.157238940595
 20
691.183853645638
 10
225.449434656249
 20
692.037258230903
 10
230.742160970889
 20
692.887807987868
 10
236.035544127731
 20
693.734492823743
 10
241.329710369988
 20
694.576302645735
 10
246.624785940877
 20
695.412227361055
 10
251.920897083615
 20
696.241256876905
 10
257.218170041418
 20
697.062381100498
 10
262.516731057497
 20
697.874589939041
 10
267.816706375073
 20
698.676873299743
 10
273.118222237359
 20
699.468221089808
 10
278.421404887572
 20
700.247623216447
 10
283.726380568927
 20
701.014069586869
 10
289.03327552464
 20
701.766550108279
 10
294.342215997925
 20
702.504054687888
 10
299.653328232002
 20
703.225573232901
 10
304.966738470082
 20
703.930095650529
 10
310.282572955383
 20
704.616611847977
 10
315.569584501916
 20
705.279194869247
 10
320.858975286429
 20
705.9215053897
 10
326.150576636864
 20
706.544947018741
 10
331.444219881161
 20
707.15092336579
 10
336.739736347264
 20
707.740838040254
 10
342.036957363111
 20
708.316094651548
 10
347.335714256646
 20
708.878096809086
 10
352.635838355807
 20
709.42824812228
 10
357.93716098854
 20
709.967952200541
 10
363.239513482784
 20
710.498612653282
 10
368.542727166478
 20
711.02163308992
 10
373.846633367566
 20
711.538417119864
 10
379.151063413989
 20
712.050368352526
 10
384.455848633687
 20
712.55889039732
 10
389.760820354602
 20
713.06538686366
 10
395.065809904677
 20
713.571261360958
 10
400.370648611851
 20
714.077917498625
 10
405.675167804066
 20
714.586758886076
 10
410.979198809263
 20
715.099189132721
 10
416.282572955383
 20
715.616611847977
 10
421.679811374533
 20
716.145760450755
 10
427.077193876239
 20
716.673737015041
 10
432.47474489553
 20
717.200225501586
 10
437.872488867434
 20
717.724909871144
 10
443.270450226978
 20
718.247474084465
 10
448.668653409188
 20
718.767602102304
 10
454.067122849092
 20
719.284977885415
 10
459.465882981716
 20
719.79928539455
 10
464.86495824209
 20
720.310208590458
 10
470.26437306524
 20
720.817431433896
 10
475.664151886192
 20
721.320637885617
 10
481.064319139973
 20
721.819511906371
 10
486.464899261613
 20
722.313737456912
 10
491.865916686137
 20
722.802998497994
 10
497.267395848573
 20
723.286978990369
 10
502.669361183948
 20
723.765362894788
 10
508.07183712729
 20
724.237834172006
 10
513.474848113624
 20
724.704076782775
 10
518.87841857798
 20
725.163774687848
 10
524.282572955383
 20
725.616611847977
 10
539.927959643624
 20
726.924722516366
 10
555.572532642647
 20
728.245515375657
 10
571.216508502617
 20
729.575857241954
 10
586.860103773697
 20
730.912614931362
 10
602.503535006051
 20
732.252655259989
 10
618.147018749842
 20
733.592845043941
 10
633.790771555233
 20
734.930051099324
 10
649.435009972388
 20
736.261140242247
 10
665.079950551472
 20
737.582979288812
 10
680.725809842647
 20
738.892435055127
 10
696.372804396075
 20
740.186374357302
 10
712.021150761923
 20
741.461664011438
 10
727.671065490353
 20
742.715170833645
 10
743.322765131527
 20
743.943761640027
 10
758.97646623561
 20
745.144303246692
 10
774.632385352767
 20
746.313662469746
 10
790.290739033157
 20
747.448706125295
 10
805.951743826949
 20
748.546301029446
 10
821.615616284303
 20
749.603313998304
 10
837.282572955383
 20
750.616611847977
 10
852.469463329455
 20
751.558401397469
 10
867.658447997739
 20
752.465081879765
 10
882.84940790464
 20
753.33826288414
 10
898.042223994556
 20
754.179553999877
 10
913.236777211893
 20
754.99056481625
 10
928.43294850105
 20
755.772904922541
 10
943.63061880643
 20
756.528183908029
 10
958.829669072433
 20
757.258011361992
 10
974.029980243463
 20
757.963996873706
 10
989.231433263921
 20
758.647750032451
 10
1004.433909078206
 20
759.31088042751
 10
1019.637288630724
 20
759.954997648156
 10
1034.841452865873
 20
760.581711283669
 10
1050.046282728058
 20
761.19263092333
 10
1065.251659161678
 20
761.789366156417
 10
1080.457463111136
 20
762.373526572206
 10
1095.663575520835
 20
762.946721759979
 10
1110.869877335173
 20
763.510561309012
 10
1126.076249498557
 20
764.066654808585
 10
1141.282572955383
 20
764.616611847977
 10
1151.078591952746
 20
764.962841616953
 10
1160.875235962853
 20
765.295984670202
 10
1170.672470659067
 20
765.615656692467
 10
1180.470261714746
 20
765.921473368494
 10
1190.268574803253
 20
766.213050383025
 10
1200.067375597947
 20
766.490003420807
 10
1209.86662977219
 20
766.751948166583
 10
1219.666302999342
 20
766.9985003051
 10
1229.466360952765
 20
767.229275521098
 10
1239.266769305818
 20
767.443889499325
 10
1249.067493731862
 20
767.641957924527
 10
1258.868499904258
 20
767.823096481446
 10
1268.669753496367
 20
767.986920854826
 10
1278.471220181549
 20
768.133046729413
 10
1288.272865633165
 20
768.261089789952
 10
1298.074655524576
 20
768.370665721187
 10
1307.876555529143
 20
768.461390207863
 10
1317.678531320226
 20
768.532878934723
 10
1327.480548571186
 20
768.584747586512
 10
1337.282572955383
 20
768.616611847977
 10
1350.03344268526
 20
768.633567302089
 10
1362.784337012866
 20
768.628394833448
 10
1375.535236580164
 20
768.601853386121
 10
1388.286122029112
 20
768.554701904182
 10
1401.036974001669
 20
768.487699331701
 10
1413.787773139794
 20
768.401604612749
 10
1426.538500085446
 20
768.2971766914
 10
1439.289135480585
 20
768.175174511724
 10
1452.03965996717
 20
768.036357017789
 10
1464.790054187161
 20
767.881483153668
 10
1477.540298782516
 20
767.711311863437
 10
1490.290374395194
 20
767.526602091161
 10
1503.040261667156
 20
767.328112780914
 10
1515.78994124036
 20
767.116602876768
 10
1528.539393756765
 20
766.892831322792
 10
1541.28859985833
 20
766.657557063058
 10
1554.037540187016
 20
766.41153904164
 10
1566.78619538478
 20
766.155536202606
 10
1579.534546093583
 20
765.890307490027
 10
1592.282572955383
 20
765.616611847977
 10
1604.786220853181
 20
765.344655918499
 10
1617.290218060263
 20
765.072065074905
 10
1629.794442360212
 20
764.796698749009
 10
1642.298771536604
 20
764.516416372629
 10
1654.803083373019
 20
764.229077377583
 10
1667.307255653035
 20
763.932541195689
 10
1679.81116616023
 20
763.624667258764
 10
1692.314692678183
 20
763.303314998627
 10
1704.817712990474
 20
762.966343847093
 10
1717.320104880681
 20
762.61161323598
 10
1729.82174613238
 20
762.236982597111
 10
1742.322514529153
 20
761.840311362297
 10
1754.822287854577
 20
761.419458963358
 10
1767.320943892231
 20
760.972284832113
 10
1779.818360425693
 20
760.496648400378
 10
1792.314415238542
 20
759.990409099971
 10
1804.808986114358
 20
759.45142636271
 10
1817.301950836717
 20
758.877559620412
 10
1829.7931871892
 20
758.266668304895
 10
1842.282572955383
 20
757.616611847977
 10
1854.949143912739
 20
756.920819582199
 10
1867.614074243249
 20
756.19385168088
 10
1880.277346666171
 20
755.436444298463
 10
1892.938943900763
 20
754.649333589396
 10
1905.598848666282
 20
753.833255708123
 10
1918.257043681987
 20
752.988946809092
 10
1930.913511667132
 20
752.11714304675
 10
1943.568235340978
 20
751.218580575543
 10
1956.22119742278
 20
750.293995549915
 10
1968.872380631798
 20
749.344124124314
 10
1981.521767687285
 20
748.369702453188
 10
1994.169341308503
 20
747.37146669098
 10
2006.815084214707
 20
746.350152992138
 10
2019.458979125155
 20
745.306497511108
 10
2032.101008759105
 20
744.241236402338
 10
2044.741155835813
 20
743.155105820271
 10
2057.379403074538
 20
742.048841919355
 10
2070.015733194536
 20
740.923180854037
 10
2082.650128915066
 20
739.778858778762
 10
2095.282572955383
 20
738.616611847977
 10
2108.00401864839
 20
737.426168923404
 10
2120.72355115598
 20
736.213629409838
 10
2133.441113102163
 20
734.97899963219
 10
2146.156647110946
 20
733.722285915374
 10
2158.870095806338
 20
732.443494584301
 10
2171.581401812345
 20
731.142631963884
 10
2184.290507752975
 20
729.819704379036
 10
2196.997356252235
 20
728.474718154671
 10
2209.701889934135
 20
727.107679615698
 10
2222.404051422682
 20
725.71859508703
 10
2235.103783341881
 20
724.307470893584
 10
2247.801028315743
 20
722.874313360268
 10
2260.495728968274
 20
721.419128811996
 10
2273.187827923483
 20
719.94192357368
 10
2285.877267805376
 20
718.442703970234
 10
2298.563991237961
 20
716.92147632657
 10
2311.247940845247
 20
715.378246967599
 10
2323.929059251241
 20
713.813022218235
 10
2336.607289079951
 20
712.22580840339
 10
2349.282572955383
 20
710.616611847977
  0
ENDBLK
  5
4A
100
AcDbEntity
  8
0
100
AcDbBlockEnd
  0
BLOCK
  5
4F
100
AcDbEntity
  8
0
100
AcDbBlockBegin
  2
*E2
 70
           1
 10
0.0
 20
0.0
 30
0.0
  3
*E2
  1

  0
LWPOLYLINE
  5
50
100
AcDbEntity
  8
0
370
           0
  6
Continuous
 62
           7
100
AcDbPolyline
 90
      221
 70
           0
 10
4.848143301819
 20
349.737519994131
 10
17.547600849992
 20
350.059706126839
 10
30.247119363559
 20
350.379556968459
 10
42.94669819832
 20
350.697072503777
 10
55.646336710074
 20
351.012252717573
 10
68.34603425462
 20
351.325097594631
 10
81.04579018776
 20
351.635607119734
 10
93.745603865292
 20
351.943781277664
 10
106.445474643017
 20
352.249620053202
 10
119.145401876733
 20
352.553123431136
 10
131.845384922241
 20
352.854291396244
 10
144.545423135341
 20
353.153123933307
 10
157.245515871833
 20
353.449621027112
 10
169.945662487515
 20
353.743782662441
 10
182.645862338188
 20
354.035608824075
 10
195.346114779652
 20
354.325099496798
 10
208.046419167706
 20
354.612254665391
 10
220.746774858149
 20
354.897074314638
 10
233.447181206783
 20
355.179558429322
 10
246.147637569406
 20
355.459706994226
 10
258.848143301819
 20
355.737519994131
 10
271.397680942805
 20
356.00980687813
 10
283.947267796731
 20
356.279935242694
 10
296.496903773001
 20
356.547873843097
 10
309.046588781022
 20
356.813591434615
 10
321.596322730198
 20
357.077056772521
 10
334.146105529934
 20
357.33823861209
 10
346.695937089635
 20
357.597105708594
 10
359.245817318706
 20
357.853626817309
 10
371.795746126551
 20
358.10777069351
 10
384.345723422576
 20
358.359506092471
 10
396.895749116187
 20
358.608801769462
 10
409.445823116788
 20
358.855626479763
 10
421.995945333782
 20
359.099948978645
 10
434.546115676577
 20
359.341738021381
 10
447.096334054577
 20
359.580962363249
 10
459.646600377186
 20
359.81759075952
 10
472.19691455381
 20
360.05159196547
 10
484.747276493853
 20
360.282934736372
 10
497.297686106721
 20
360.511587827501
 10
509.848143301819
 20
360.737519994131
 10
522.447757907084
 20
360.960340274964
 10
535.047455945173
 20
361.178205511388
 10
547.647230271926
 20
361.391541188337
 10
560.247073743184
 20
361.600772790739
 10
572.846979214787
 20
361.806325803525
 10
585.446939542576
 20
362.008625711626
 10
598.046947582392
 20
362.208097999972
 10
610.646996190075
 20
362.405168153492
 10
623.247078221464
 20
362.60026165712
 10
635.847186532401
 20
362.793803995785
 10
648.447313978728
 20
362.986220654415
 10
661.047453416283
 20
363.177937117943
 10
673.647597700907
 20
363.369378871299
 10
686.247739688441
 20
363.560971399414
 10
698.847872234725
 20
363.753140187217
 10
711.4479881956
 20
363.946310719639
 10
724.048080426907
 20
364.140908481611
 10
736.648141784485
 20
364.337358958063
 10
749.248165124176
 20
364.536087633926
 10
761.848143301819
 20
364.737519994131
 10
774.084723130289
 20
364.935317569114
 10
786.321281652181
 20
365.134440797727
 10
798.557821789696
 20
365.334707376736
 10
810.794346465037
 20
365.535935002903
 10
823.030858600403
 20
365.737941372993
 10
835.267361117997
 20
365.940544183768
 10
847.503856940023
 20
366.143561131992
 10
859.740348988681
 20
366.346809914427
 10
871.976840186171
 20
366.55010822784
 10
884.213333454697
 20
366.753273768993
 10
896.449831716463
 20
366.956124234645
 10
908.686337893666
 20
367.158477321565
 10
920.922854908511
 20
367.360150726516
 10
933.159385683199
 20
367.56096214626
 10
945.395933139931
 20
367.760729277559
 10
957.63250020091
 20
367.959269817179
 10
969.869089788338
 20
368.156401461883
 10
982.105704824415
 20
368.351941908434
 10
994.342348231344
 20
368.545708853596
 10
1006.579022931327
 20
368.737519994131
 10
1016.792346749707
 20
368.896278242308
 10
1027.005685443902
 20
369.054099377359
 10
1037.219038853909
 20
369.210985931331
 10
1047.432406819728
 20
369.366940436266
 10
1057.645789181355
 20
369.52196542421
 10
1067.85918577879
 20
369.676063427205
 10
1078.072596452032
 20
369.829236977295
 10
1088.286021041079
 20
369.981488606523
 10
1098.499459385927
 20
370.132820846938
 10
1108.712911326578
 20
370.283236230578
 10
1118.926376703029
 20
370.432737289489
 10
1129.139855355279
 20
370.581326555714
 10
1139.353347123324
 20
370.7290065613
 10
1149.566851847165
 20
370.875779838287
 10
1159.7803693668
 20
371.021648918721
 10
1169.993899522226
 20
371.166616334646
 10
1180.207442153443
 20
371.310684618105
 10
1190.420997100448
 20
371.453856301144
 10
1200.634564203241
 20
371.596133915804
 10
1210.848143301819
 20
371.737519994131
 10
1225.998032107578
 20
371.945757970586
 10
1241.147942072078
 20
372.152431499568
 10
1256.297871619638
 20
372.357656796421
 10
1271.447819174577
 20
372.561550076488
 10
1286.597783161215
 20
372.764227555112
 10
1301.74776200387
 20
372.965805447635
 10
1316.897754126864
 20
373.166399969397
 10
1332.047757954515
 20
373.366127335744
 10
1347.197771911141
 20
373.565103762018
 10
1362.347794421062
 20
373.763445463562
 10
1377.497823908601
 20
373.961268655714
 10
1392.647858798072
 20
374.158689553822
 10
1407.797897513798
 20
374.355824373227
 10
1422.947938480098
 20
374.55278932927
 10
1438.097980121289
 20
374.749700637294
 10
1453.248020861694
 20
374.946674512643
 10
1468.398059125629
 20
375.143827170658
 10
1483.548093337416
 20
375.341274826684
 10
1498.698121921373
 20
375.53913369606
 10
1513.848143301819
 20
375.737519994131
 10
1529.198119898877
 20
375.939333167476
 10
1544.54808547027
 20
376.142030715701
 10
1559.898042264186
 20
376.345433432937
 10
1575.247992528816
 20
376.549362113308
 10
1590.597938512346
 20
376.753637550944
 10
1605.947882462967
 20
376.958080539973
 10
1621.297826628867
 20
377.162511874521
 10
1636.647773258236
 20
377.366752348717
 10
1651.997724599258
 20
377.570622756689
 10
1667.347682900127
 20
377.773943892566
 10
1682.69765040903
 20
377.976536550471
 10
1698.047629374155
 20
378.178221524537
 10
1713.397622043692
 20
378.37881960889
 10
1728.747630665829
 20
378.578151597658
 10
1744.097657488755
 20
378.776038284967
 10
1759.447704760657
 20
378.972300464948
 10
1774.797774729727
 20
379.166758931727
 10
1790.147869644151
 20
379.359234479432
 10
1805.497991752119
 20
379.54954790219
 10
1820.848143301819
 20
379.737519994131
 10
1826.048013325296
 20
379.799451113421
 10
1831.24791066351
 20
379.858867205416
 10
1836.447833044292
 20
379.91597812345
 10
1841.647778195479
 20
379.970993720856
 10
1846.847743844901
 20
380.024123850971
 10
1852.047727720396
 20
380.075578367124
 10
1857.247727549795
 20
380.125567122649
 10
1862.447741060936
 20
380.17429997088
 10
1867.647765981647
 20
380.221986765153
 10
1872.847800039766
 20
380.268837358799
 10
1878.047840963127
 20
380.315061605149
 10
1883.247886479563
 20
380.360869357541
 10
1888.447934316906
 20
380.406470469306
 10
1893.647982202994
 20
380.45207479378
 10
1898.848027865658
 20
380.497892184291
 10
1904.048069032733
 20
380.544132494178
 10
1909.248103432053
 20
380.591005576772
 10
1914.448128791451
 20
380.638721285406
 10
1919.648142838762
 20
380.687489473415
 10
1924.848143301819
 20
380.737519994131
 10
1929.898140916588
 20
380.788058790245
 10
1934.948121319378
 20
380.840878694714
 10
1939.998087420697
 20
380.895590070252
 10
1945.048042131058
 20
380.951803279568
 10
1950.097988360967
 20
381.009128685371
 10
1955.147929020933
 20
381.067176650375
 10
1960.197867021468
 20
381.125557537286
 10
1965.247805273081
 20
381.183881708817
 10
1970.297746686278
 20
381.241759527679
 10
1975.347694171571
 20
381.298801356583
 10
1980.397650639471
 20
381.354617558235
 10
1985.447619000483
 20
381.408818495349
 10
1990.49760216512
 20
381.461014530636
 10
1995.547603043889
 20
381.510816026805
 10
2000.597624547301
 20
381.557833346566
 10
2005.647669585864
 20
381.601676852631
 10
2010.697741070089
 20
381.641956907709
 10
2015.747841910483
 20
381.678283874511
 10
2020.797975017557
 20
381.710268115748
 10
2025.848143301819
 20
381.737519994131
 10
2030.998088733174
 20
381.759514312582
 10
2036.148047888799
 20
381.775426254579
 10
2041.298019438662
 20
381.785883684296
 10
2046.448002052729
 20
381.791514465905
 10
2051.597994400964
 20
381.792946463581
 10
2056.747995153334
 20
381.790807541494
 10
2061.898002979806
 20
381.785725563819
 10
2067.048016550348
 20
381.778328394726
 10
2072.198034534922
 20
381.769243898394
 10
2077.348055603496
 20
381.759099938991
 10
2082.498078426038
 20
381.748524380689
 10
2087.648101672512
 20
381.738145087663
 10
2092.798124012884
 20
381.728589924086
 10
2097.948144117122
 20
381.72048675413
 10
2103.098160655191
 20
381.714463441969
 10
2108.248172297057
 20
381.711147851775
 10
2113.398177712687
 20
381.711167847722
 10
2118.548175572047
 20
381.715151293981
 10
2123.698164545102
 20
381.723726054727
 10
2128.848143301819
 20
381.737519994131
 10
2139.198208144175
 20
381.771737947269
 10
2149.548268560842
 20
381.807617180089
 10
2159.898324151848
 20
381.845157690664
 10
2170.248374517224
 20
381.884359477056
 10
2180.598419256997
 20
381.925222537337
 10
2190.948457971201
 20
381.967746869574
 10
2201.298490259864
 20
382.011932471832
 10
2211.648515723017
 20
382.057779342181
 10
2221.998533960686
 20
382.105287478689
 10
2232.348544572903
 20
382.154456879425
 10
2242.698547159701
 20
382.205287542452
 10
2253.048541321107
 20
382.257779465844
 10
2263.398526657149
 20
382.311932647664
 10
2273.748502767861
 20
382.367747085982
 10
2284.098469253269
 20
382.425222778865
 10
2294.448425713405
 20
382.484359724381
 10
2304.798371748298
 20
382.545157920597
 10
2315.148306957979
 20
382.607617365583
 10
2325.498230942475
 20
382.671738057405
 10
2335.848143301819
 20
382.737519994131
  0
ENDBLK
  5
51
100
AcDbEntity
  8
0
100
AcDbBlockEnd
  0
BLOCK
  5
55
100
AcDbEntity
  8
0
100
AcDbBlockBegin
  2
*E3
 70
           1
 10
0.0
 20
0.0
 30
0.0
  3
*E3
  1

  0
LWPOLYLINE
  5
56
100
AcDbEntity
  8
0
370
           0
  6
Continuous
 62
           7
100
AcDbPolyline
 90
      221
 70
           0
 10
2210.848143301819
 20
92.737519994131
 10
2207.80803907475
 20
92.135094851134
 10
2204.766803053389
 20
91.538171890573
 10
2201.724450260067
 20
90.946753821393
 10
2198.680995717115
 20
90.360843352538
 10
2195.636454446862
 20
89.780443192953
 10
2192.590841471639
 20
89.205556051585
 10
2189.544171813779
 20
88.636184637376
 10
2186.49646049561
 20
88.07233165927
 10
2183.447722539462
 20
87.513999826217
 10
2180.397972967666
 20
86.961191847158
 10
2177.347226802555
 20
86.413910431037
 10
2174.295499066457
 20
85.872158286801
 10
2171.242804781703
 20
85.335938123395
 10
2168.189158970622
 20
84.805252649762
 10
2165.134576655548
 20
84.280104574847
 10
2162.07907285881
 20
83.760496607598
 10
2159.022662602737
 20
83.246431456956
 10
2155.96536090966
 20
82.737911831868
 10
2152.907182801911
 20
82.234940441278
 10
2149.848143301819
 20
81.737519994131
 10
2144.556781923825
 20
80.881611480724
 10
2139.265268676494
 20
80.025527517239
 10
2133.973477316608
 20
79.17027819647
 10
2128.681281600954
 20
78.316873611205
 10
2123.388555286314
 20
77.46632385424
 10
2118.095172129472
 20
76.619639018365
 10
2112.801005887215
 20
75.777829196372
 10
2107.505930316326
 20
74.941904481053
 10
2102.209819173587
 20
74.112874965203
 10
2096.912546215785
 20
73.29175074161
 10
2091.613985199705
 20
72.479541903066
 10
2086.31400988213
 20
71.677258542365
 10
2081.012494019843
 20
70.885910752299
 10
2075.709311369631
 20
70.10650862566
 10
2070.404335688275
 20
69.340062255239
 10
2065.097440732563
 20
68.587581733828
 10
2059.788500259277
 20
67.850077154219
 10
2054.477388025201
 20
67.128558609206
 10
2049.16397778712
 20
66.424036191579
 10
2043.848143301819
 20
65.737519994131
 10
2038.561131755286
 20
65.07493697286
 10
2033.271740970773
 20
64.432626452408
 10
2027.980139620339
 20
63.809184823366
 10
2022.686496376041
 20
63.203208476318
 10
2017.390979909939
 20
62.613293801854
 10
2012.093758894091
 20
62.038037190559
 10
2006.795002000557
 20
61.476035033022
 10
2001.494877901395
 20
60.925883719828
 10
1996.193555268662
 20
60.386179641567
 10
1990.891202774419
 20
59.855519188825
 10
1985.587989090725
 20
59.332498752187
 10
1980.284082889637
 20
58.815714722244
 10
1974.979652843214
 20
58.303763489582
 10
1969.674867623515
 20
57.795241444787
 10
1964.3698959026
 20
57.288744978448
 10
1959.064906352526
 20
56.78287048115
 10
1953.760067645352
 20
56.276214343483
 10
1948.455548453137
 20
55.767372956032
 10
1943.15151744794
 20
55.254942709386
 10
1937.848143301819
 20
54.737519994131
 10
1932.45090488267
 20
54.208371391353
 10
1927.053522380963
 20
53.680394827066
 10
1921.655971361672
 20
53.153906340522
 10
1916.258227389768
 20
52.629221970964
 10
1910.860266030225
 20
52.106657757642
 10
1905.462062848015
 20
51.586529739803
 10
1900.063593408111
 20
51.069153956692
 10
1894.664833275486
 20
50.554846447558
 10
1889.265758015112
 20
50.043923251649
 10
1883.866343191963
 20
49.536700408212
 10
1878.466564371011
 20
49.033493956491
 10
1873.066397117229
 20
48.534619935736
 10
1867.66581699559
 20
48.040394385195
 10
1862.264799571065
 20
47.551133344114
 10
1856.86332040863
 20
47.067152851739
 10
1851.461355073254
 20
46.588768947319
 10
1846.058879129913
 20
46.116297670102
 10
1840.655868143579
 20
45.650055059333
 10
1835.252297679223
 20
45.19035715426
 10
1829.848143301819
 20
44.737519994131
 10
1814.202756613578
 20
43.429409325741
 10
1798.558183614555
 20
42.10861646645
 10
1782.914207754585
 20
40.778274600154
 10
1767.270612483505
 20
39.441516910745
 10
1751.627181251152
 20
38.101476582118
 10
1735.983697507361
 20
36.761286798167
 10
1720.33994470197
 20
35.424080742783
 10
1704.695706284815
 20
34.09299159986
 10
1689.05076570573
 20
32.771152553296
 10
1673.404906414555
 20
31.461696786981
 10
1657.757911861127
 20
30.167757484805
 10
1642.109565495279
 20
28.892467830669
 10
1626.45965076685
 20
27.638961008463
 10
1610.807951125675
 20
26.41037020208
 10
1595.154250021592
 20
25.209828595415
 10
1579.498330904436
 20
24.040469372361
 10
1563.839977224045
 20
22.905425716813
 10
1548.178972430254
 20
21.807830812661
 10
1532.5150999729
 20
20.750817843804
 10
1516.848143301819
 20
19.737519994131
 10
1501.661252927748
 20
18.795730444639
 10
1486.472268259463
 20
17.889049962343
 10
1471.281308352563
 20
17.015868957968
 10
1456.088492262646
 20
16.174577842231
 10
1440.893939045309
 20
15.363567025857
 10
1425.697767756152
 20
14.581226919567
 10
1410.500097450773
 20
13.825947934079
 10
1395.30104718477
 20
13.096120480116
 10
1380.10073601374
 20
12.390134968402
 10
1364.899282993282
 20
11.706381809657
 10
1349.696807178997
 20
11.043251414598
 10
1334.493427626479
 20
10.399134193952
 10
1319.289263391329
 20
9.772420558438
 10
1304.084433529145
 20
9.161500918777
 10
1288.879057095525
 20
8.564765685691
 10
1273.673253146066
 20
7.980605269901
 10
1258.467140736368
 20
7.407410082129
 10
1243.260838922029
 20
6.843570533096
 10
1228.054466758646
 20
6.287477033523
 10
1212.848143301819
 20
5.737519994131
 10
1203.052124304456
 20
5.391290225154
 10
1193.255480294349
 20
5.058147171905
 10
1183.458245598136
 20
4.73847514964
 10
1173.660454542457
 20
4.432658473614
 10
1163.86214145395
 20
4.141081459083
 10
1154.063340659255
 20
3.864128421301
 10
1144.264086485012
 20
3.602183675524
 10
1134.464413257861
 20
3.355631537008
 10
1124.664355304438
 20
3.124856321009
 10
1114.863946951384
 20
2.910242342783
 10
1105.063222525341
 20
2.712173917581
 10
1095.262216352945
 20
2.531035360662
 10
1085.460962760836
 20
2.367210987281
 10
1075.659496075653
 20
2.221085112695
 10
1065.857850624037
 20
2.093042052155
 10
1056.056060732626
 20
1.983466120921
 10
1046.25416072806
 20
1.892741634245
 10
1036.452184936977
 20
1.821252907384
 10
1026.650167686017
 20
1.769384255595
 10
1016.848143301819
 20
1.737519994131
 10
1004.097273571943
 20
1.720564540018
 10
991.346379244336
 20
1.72573700866
 10
978.595479677038
 20
1.752278455987
 10
965.844594228091
 20
1.799429937925
 10
953.093742255534
 20
1.866432510406
 10
940.342943117409
 20
1.952527229359
 10
927.592216171757
 20
2.056955150708
 10
914.841580776618
 20
2.178957330384
 10
902.091056290032
 20
2.317774824319
 10
889.340662070041
 20
2.472648688439
 10
876.590417474687
 20
2.642819978671
 10
863.840341862008
 20
2.827529750946
 10
851.090454590047
 20
3.026019061193
 10
838.340775016843
 20
3.23752896534
 10
825.591322500438
 20
3.461300519316
 10
812.842116398872
 20
3.696574779049
 10
800.093176070187
 20
3.942592800468
 10
787.344520872422
 20
4.198595639502
 10
774.596170163619
 20
4.46382435208
 10
761.848143301819
 20
4.737519994131
 10
749.344495404022
 20
5.009475923608
 10
736.840498196939
 20
5.282066767202
 10
724.33627389699
 20
5.557433093099
 10
711.831944720599
 20
5.837715469478
 10
699.327632884183
 20
6.125054464525
 10
686.823460604167
 20
6.421590646419
 10
674.319550096972
 20
6.729464583344
 10
661.816023579019
 20
7.050816843481
 10
649.313003266728
 20
7.387787995015
 10
636.810611376522
 20
7.742518606127
 10
624.308970124822
 20
8.117149244997
 10
611.80820172805
 20
8.51382047981
 10
599.308428402626
 20
8.93467287875
 10
586.809772364972
 20
9.381847009995
 10
574.31235583151
 20
9.85748344173
 10
561.81630101866
 20
10.363722742137
 10
549.321730142845
 20
10.902705479398
 10
536.828765420486
 20
11.476572221695
 10
524.337529068003
 20
12.087463537213
 10
511.848143301819
 20
12.737519994131
 10
499.181572344464
 20
13.433312259908
 10
486.516642013954
 20
14.160280161227
 10
473.853369591031
 20
14.917687543644
 10
461.19177235644
 20
15.704798252712
 10
448.53186759092
 20
16.520876133985
 10
435.873672575216
 20
17.365185033015
 10
423.21720459007
 20
18.236988795357
 10
410.562480916225
 20
19.135551266564
 10
397.909518834422
 20
20.060136292193
 10
385.258335625405
 20
21.010007717794
 10
372.608948569917
 20
21.98442938892
 10
359.9613749487
 20
22.982665151128
 10
347.315632042496
 20
24.00397884997
 10
334.671737132047
 20
25.047634330999
 10
322.029707498098
 20
26.11289543977
 10
309.389560421389
 20
27.199026021836
 10
296.751313182665
 20
28.305289922752
 10
284.114983062666
 20
29.43095098807
 10
271.480587342137
 20
30.575273063346
 10
258.848143301819
 20
31.737519994131
 10
246.126697608813
 20
32.927962918704
 10
233.407165101222
 20
34.140502432269
 10
220.689603155039
 20
35.375132209918
 10
207.974069146256
 20
36.631845926733
 10
195.260620450865
 20
37.910637257806
 10
182.549314444857
 20
39.211499878224
 10
169.840208504228
 20
40.534427463072
 10
157.133360004967
 20
41.879413687437
 10
144.428826323067
 20
43.24645222641
 10
131.726664834521
 20
44.635536755078
 10
119.026932915322
 20
46.046660948524
 10
106.32968794146
 20
47.479818481839
 10
93.634987288929
 20
48.935003030112
 10
80.94288833372
 20
50.412208268427
 10
68.253448451827
 20
51.911427871873
 10
55.566725019241
 20
53.432655515538
 10
42.882775411956
 20
54.975884874509
 10
30.201657005962
 20
56.541109623872
 10
17.523427177252
 20
58.128323438717
 10
4.848143301819
 20
59.737519994131
  0
ENDBLK
  5
57
100
AcDbEntity
  8
0
100
AcDbBlockEnd
  0
ENDSEC
  0
SECTION
  2
ENTITIES
  0
LWPOLYLINE
  5
32
100
AcDbEntity
  8
0
370
           0
  6
Continuous
 62
           7
100
AcDbPolyline
 90
        4
 70
           1
 10
0.0
 20
0.0
 10
2438.4
 20
0.0
 10
2438.4
 20
1219.2
 10
0.0
 20
1219.2
1001
TCAD
1000
TCW_CUSTOM_DATA
1002
{
1000
#$AUX@_ToolInfo Properties
1070
           8
1000
Insert^     JLine^     JRectangle@Line Rectangle
1002
}
  0
LINE
  5
33
102
{ACAD_REACTORS
330
38
102
}
100
AcDbEntity
  8
0
370
           0
  6
Continuous
 62
           7
100
AcDbLine
 10
1070.749004836104
 20
793.321733131578
 30
0.0
 11
1491.633048497633
 21
803.202108996605
 31
0.0
1001
TCAD
1000
TCW_CUSTOM_DATA
1002
{
1000
#$AUX@_ToolInfo Properties
1070
           8
1000
Insert^     JLine^     JSingle@Line Single
1002
}
  0
LINE
  5
34
102
{ACAD_REACTORS
330
38
102
}
100
AcDbEntity
  8
0
370
           0
  6
Continuous
 62
           7
100
AcDbLine
 10
1491.633048497633
 20
803.202108996605
 30
0.0
 11
1543.092739808538
 21
1082.48673117731
 31
0.0
1001
TCAD
1000
TCW_CUSTOM_DATA
1002
{
1000
#$AUX@_ToolInfo Properties
1070
           8
1000
Insert^     JLine^     JSingle@Line Single
1002
}
  0
ARC
  5
35
102
{ACAD_REACTORS
330
38
102
}
100
AcDbEntity
  8
0
370
           0
  6
Continuous
 62
           7
100
AcDbCircle
 10
1140.73840911434
 20
-2188.085440896454
 30
0.0
 40
3295.228571428571
100
AcDbArc
 50
82.986563648264
 51
99.703012678998
1001
TCAD
1000
TCW_CUSTOM_DATA
1002
{
1000
#$AUX@_ToolInfo Properties
1070
           8
1000
Insert^     JArc^     JTriplePoint123@Arc TriplePoint123
1002
}
  0
LINE
  5
36
102
{ACAD_REACTORS
330
38
102
}
100
AcDbEntity
  8
0
370
           0
  6
Continuous
 62
           7
100
AcDbLine
 10
1070.749004836104
 20
793.321733131578
 30
-0.0
 11
649.864961174574
 21
783.441357266551
 31
-0.0
210
0.0
220
0.0
230
-1.0
1001
TCAD
1000
TCW_CUSTOM_DATA
1002
{
1000
#$AUX@_ToolInfo Properties
1070
           8
1000
Insert^     JLine^     JSingle@Line Single
1002
}
  0
LINE
  5
37
102
{ACAD_REACTORS
330
38
102
}
100
AcDbEntity
  8
0
370
           0
  6
Continuous
 62
           7
100
AcDbLine
 10
649.864961174574
 20
783.441357266551
 30
-0.0
 11
585.356602450475
 21
1060.00359559846
 31
0.0
210
0.0
220
0.0
230
-1.0
1001
TCAD
1000
TCW_CUSTOM_DATA
1002
{
1000
#$AUX@_ToolInfo Properties
1070
           8
1000
Insert^     JLine^     JSingle@Line Single
1002
}
  0
LINE
  5
39
102
{ACAD_REACTORS
330
3F
102
}
100
AcDbEntity
  8
0
370
           0
  6
Continuous
 62
           7
100
AcDbLine
 10
283.909316597803
 20
1055.316834464095
 30
0.0
 11
283.909316597803
 21
1055.316834464095
 31
0.0
1001
TCAD
1000
TCW_CUSTOM_DATA
1002
{
1000
#$AUX@_ToolInfo Properties
1070
           8
1000
Insert^     JLine^     JSingle@Line Single
1002
}
  0
ARC
  5
3A
102
{ACAD_REACTORS
330
3F
102
}
100
AcDbEntity
  8
0
370
           0
  6
Continuous
 62
           7
100
AcDbCircle
 10
137.972842276424
 20
2246.429988533642
 30
0.0
 40
1536.02
100
AcDbArc
 50
-93.366294230348
 51
-72.663450572588
1001
TCAD
1000
TCW_CUSTOM_DATA
1002
{
1000
#$AUX@_ToolInfo Properties
1070
           8
1000
Insert^     JArc^     JTriplePoint132@Arc TriplePoint132
1002
}
  0
LINE
  5
3B
102
{ACAD_REACTORS
330
3F
102
}
100
AcDbEntity
  8
0
370
           0
  6
Continuous
 62
           7
100
AcDbLine
 10
595.682015417109
 20
780.189983242509
 30
0.0
 11
502.276422058796
 21
1082.071408846775
 31
0.0
1001
TCAD
1000
TCW_CUSTOM_DATA
1002
{
1000
#$AUX@_ToolInfo Properties
1070
           8
1000
Insert^     JLine^     JSingle@Line Single
1002
}
  0
LINE
  5
3C
102
{ACAD_REACTORS
330
3F
102
}
100
AcDbEntity
  8
0
370
           0
  6
Continuous
 62
           7
100
AcDbLine
 10
65.54221113681
 20
1028.562260081415
 30
0.0
 11
47.779096260437
 21
713.060323882328
 31
0.0
1001
TCAD
1000
TCW_CUSTOM_DATA
1002
{
1000
#$AUX@_ToolInfo Properties
1070
           8
1000
Insert^     JLine^     JSingle@Line Single
1002
}
  0
LINE
  5
3D
102
{ACAD_REACTORS
330
3F
102
}
100
AcDbEntity
  8
0
370
           0
  6
Continuous
 62
           7
100
AcDbLine
 10
304.209731186104
 20
681.965525459592
 30
0.0
 11
304.209731186104
 21
681.965525459592
 31
0.0
1001
TCAD
1000
TCW_CUSTOM_DATA
1002
{
1000
#$AUX@_ToolInfo Properties
1070
           8
1000
Insert^     JLine^     JSingle@Line Single
1002
}
  0
LINE
  5
3E
102
{ACAD_REACTORS
330
3F
102
}
100
AcDbEntity
  8
0
370
           0
  6
Continuous
 62
           7
100
AcDbLine
 10
502.276422058796
 20
1082.071408846775
 30
0.0
 11
65.54221113681
 21
1028.562260081415
 31
0.0
1001
TCAD
1000
TCW_CUSTOM_DATA
1002
{
1000
#$AUX@_ToolInfo Properties
1070
           8
1000
Insert^     JLine^     JSingle@Line Single
1002
}
  0
LINE
  5
40
102
{ACAD_REACTORS
330
4C
102
}
100
AcDbEntity
  8
0
370
           0
  6
Continuous
 62
           7
100
AcDbLine
 10
2349.282572955384
 20
710.616611847977
 30
0.0
 11
2349.282572955384
 21
420.616611847977
 31
0.0
1001
TCAD
1000
TCW_CUSTOM_DATA
1002
{
1000
#$AUX@_ToolInfo Properties
1070
           8
1000
Insert^     JLine^     JSingle@Line Single
1002
}
  0
INSERT
  5
45
102
{ACAD_REACTORS
330
4C
102
}
100
AcDbEntity
  8
0
  6
Continuous
 62
           7
100
AcDbBlockReference
  2
*E0
 10
0.0
 20
0.0
 30
0.0
1001
TCAD
1000
TCW_CUSTOM_DATA
1002
{
1000
#$AUX@_ToolInfo Properties
1070
           8
1000
Insert^     JCurve^     JBezier@Curve Bezier
1002
}
1000
TC25ExternalObject
1002
{
1000
TCW30CURVE
1000

1070
           0
1071
        0
1040
1.0
1040
0.0
1000
Continuous
1000
0
1070
          12
1010
-1.0
1020
0.0
1030
0.0
1010
0.0
1020
-1.0
1030
0.0
1010
0.0
1020
0.0
1030
1.0
1010
5249.282572955383
1020
-5779.383388152023
1030
0.0
1070
          21
1071
       34
1071
      162
1010
2900.0
1020
-6200.0
1030
0.0
1071
     6274
1010
2984.662845671619
1020
-6197.844308178813
1030
0.0
1071
     6274
1010
3069.329798649507
1020
-6195.844301415556
1030
0.0
1071
      130
1010
3154.0
1020
-6194.0
1030
0.0
1071
     6274
1010
3237.663420028781
1020
-6192.177628474619
1030
0.0
1071
     6274
1010
3321.330126959906
1020
-6190.497075263143
1030
0.0
1071
      130
1010
3405.0
1020
-6189.0
1030
0.0
1071
     6274
1010
3488.997136716443
1020
-6187.497069124357
1030
0.0
1071
     6274
1010
3573.000311898444
1020
-6186.352840204567
1030
0.0
1071
      130
1010
3657.0
1020
-6185.0
1030
0.0
1071
     6274
1010
3738.577276372181
1020
-6183.68617346386
1030
0.0
1071
     6274
1010
3820.152937492327
1020
-6182.271816469845
1030
0.0
1071
      130
1010
3901.730879629508
1020
-6181.0
1030
0.0
1071
     6274
1010
3969.81965514377
1020
-6179.938482341648
1030
0.0
1071
     6274
1010
4037.909433045752
1020
-6178.939607694495
1030
0.0
1071
      130
1010
4106.0
1020
-6178.0
1030
0.0
1071
     6274
1010
4206.999184674415
1020
-6176.606273742418
1030
0.0
1071
     6274
1010
4307.999884976902
1020
-6175.324591672435
1030
0.0
1071
      130
1010
4409.0
1020
-6174.0
1030
0.0
1071
     6274
1010
4511.333219061908
1020
-6172.657924995908
1030
0.0
1071
     6274
1010
4613.665553200248
1020
-6171.244944608269
1030
0.0
1071
      130
1010
4716.0
1020
-6170.0
1030
0.0
1071
     6274
1010
4750.66570405814
1020
-6169.578276106348
1030
0.0
1071
     6274
1010
4785.333380576386
1020
-6169.338210921206
1030
0.0
1071
      130
1010
4820.0
1020
-6169.0
1030
0.0
1071
     6274
1010
4853.666714606186
1020
-6168.671544247744
1030
0.0
1071
     6274
1010
4887.332087713154
1020
-6168.16503878572
1030
0.0
1071
      130
1010
4921.0
1020
-6168.0
1030
0.0
1071
     6274
1010
4955.332920839165
1020
-6167.831701368436
1030
0.0
1071
     6274
1010
4989.666845298641
1020
-6168.11075211194
1030
0.0
1071
      130
1010
5024.0
1020
-6168.0
1030
0.0
1071
     6274
1010
5093.000446145854
1020
-6167.777417915658
1030
0.0
1071
     6274
1010
5162.000623910374
1020
-6167.44408372356
1030
0.0
1071
      162
1010
5231.0
1020
-6167.0
1030
0.0
1070
           3
1071
-2147483643
1070
           1
1000
#$AUX@_ToolInfo Properties
1070
           8
1000
Insert^     JCurve^     JBezier@Curve Bezier
1000
$SPLINESEGS
1070
          18
1070
          20
1000
$SPLFRAME
1070
          18
1070
           0
1000
$SPLINETYPE
1070
          18
1070
           1
1000
$SHOWCONTRPTS
1070
          18
1070
           1
1000
$CURVESMOOTH
1070
          18
1070
           1
1002
}
  0
LINE
  5
46
102
{ACAD_REACTORS
330
4C
102
}
100
AcDbEntity
  8
0
370
           0
  6
Continuous
 62
           7
100
AcDbLine
 10
18.282572955383
 20
387.616611847977
 30
0.0
 11
143.282572955383
 21
677.616611847977
 31
0.0
1001
TCAD
1000
TCW_CUSTOM_DATA
1002
{
1000
#$AUX@_ToolInfo Properties
1070
           8
1000
Insert^     JLine^     JSingle@Line Single
1002
}
  0
INSERT
  5
4B
102
{ACAD_REACTORS
330
4C
102
}
100
AcDbEntity
  8
0
  6
Continuous
 62
           7
100
AcDbBlockReference
  2
*E1
 10
0.0
 20
0.0
 30
0.0
1001
TCAD
1000
TCW_CUSTOM_DATA
1002
{
1000
#$AUX@_ToolInfo Properties
1070
           8
1000
Insert^     JCurve^     JBezier@Curve Bezier
1002
}
1000
TC25ExternalObject
1002
{
1000
TCW30CURVE
1000

1070
           0
1071
        0
1040
1.0
1040
0.0
1000
Continuous
1000
0
1070
          12
1010
-1.0
1020
0.0
1030
0.0
1010
0.0
1020
-1.0
1030
0.0
1010
0.0
1020
0.0
1030
1.0
1010
5249.282572955383
1020
-5779.383388152023
1030
0.0
1070
          21
1071
       34
1071
      162
1010
5106.0
1020
-6457.0
1030
0.0
1071
     6274
1010
5085.7364445168
1020
-6461.034502208221
1030
0.0
1071
     6274
1010
5065.396434592128
1020
-6464.702372850375
1030
0.0
1071
      130
1010
5045.0
1020
-6468.0
1030
0.0
1071
     6274
1010
5009.724483170689
1020
-6473.703227271805
1030
0.0
1071
     6274
1010
4974.447257933222
1020
-6479.48549073492
1030
0.0
1071
      130
1010
4939.0
1020
-6484.0
1030
0.0
1071
     6274
1010
4903.761561976515
1020
-6488.487914276576
1030
0.0
1071
     6274
1010
4868.353263283752
1020
-6491.530754537575
1030
0.0
1071
      130
1010
4833.0
1020
-6495.0
1030
0.0
1071
     6274
1010
4797.018836514139
1020
-6498.530861837398
1030
0.0
1071
     6274
1010
4761.029696526244
1020
-6502.004657058388
1030
0.0
1071
      130
1010
4725.0
1020
-6505.0
1030
0.0
1071
     6274
1010
4620.694228558422
1020
-6513.67150118873
1030
0.0
1071
     6274
1010
4516.45713974221
1020
-6523.397360697008
1030
0.0
1071
      130
1010
4412.0
1020
-6530.0
1030
0.0
1071
     6274
1010
4310.761309721569
1020
-6536.399204085671
1030
0.0
1071
     6274
1010
4209.375062789
1020
-6540.350497739596
1030
0.0
1071
      130
1010
4108.0
1020
-6544.0
1030
0.0
1071
     6274
1010
4042.695366341488
1020
-6546.350966811707
1030
0.0
1071
     6274
1010
3977.346776724021
1020
-6547.855106925224
1030
0.0
1071
      130
1010
3912.0
1020
-6548.0
1030
0.0
1071
     6274
1010
3826.994326811134
1020
-6548.188482645651
1030
0.0
1071
     6274
1010
3741.985723237459
1020
-6546.851174169529
1030
0.0
1071
      130
1010
3657.0
1020
-6545.0
1030
0.0
1071
     6274
1010
3573.643783304358
1020
-6543.184320032372
1030
0.0
1071
     6274
1010
3490.256131561517
1020
-6541.469017002308
1030
0.0
1071
      130
1010
3407.0
1020
-6537.0
1030
0.0
1071
     6274
1010
3322.550763263133
1020
-6532.466939578737
1030
0.0
1071
     6274
1010
3238.209749599764
1020
-6525.806426491497
1030
0.0
1071
      130
1010
3154.0
1020
-6518.0
1030
0.0
1071
     6274
1010
3069.184112264114
1020
-6510.137383188191
1030
0.0
1071
     6274
1010
2984.491945156425
1020
-6500.80123878262
1030
0.0
1071
      162
1010
2900.0
1020
-6490.0
1030
0.0
1070
           3
1071
-2147483643
1070
           1
1000
#$AUX@_ToolInfo Properties
1070
           8
1000
Insert^     JCurve^     JBezier@Curve Bezier
1000
$SPLINESEGS
1070
          18
1070
          20
1000
$SPLFRAME
1070
          18
1070
           0
1000
$SPLINETYPE
1070
          18
1070
           1
1000
$SHOWCONTRPTS
1070
          18
1070
           1
1000
$CURVESMOOTH
1070
          18
1070
           1
1002
}
  0
LINE
  5
4D
102
{ACAD_REACTORS
330
59
102
}
100
AcDbEntity
  8
0
370
           0
  6
Continuous
 62
           7
100
AcDbLine
 10
4.848143301818
 20
59.73751999413
 30
0.0
 11
4.848143301818
 21
349.73751999413
 31
0.0
1001
TCAD
1000
TCW_CUSTOM_DATA
1002
{
1000
#$AUX@_ToolInfo Properties
1070
           8
1000
Insert^     JLine^     JSingle@Line Single
1002
}
  0
INSERT
  5
52
102
{ACAD_REACTORS
330
59
102
}
100
AcDbEntity
  8
0
  6
Continuous
 62
           7
100
AcDbBlockReference
  2
*E2
 10
0.0
 20
0.0
 30
0.0
1001
TCAD
1000
TCW_CUSTOM_DATA
1002
{
1000
#$AUX@_ToolInfo Properties
1070
           8
1000
Insert^     JCurve^     JBezier@Curve Bezier
1002
}
1000
TC25ExternalObject
1002
{
1000
TCW30CURVE
1000

1070
           0
1071
        0
1040
1.0
1040
0.0
1000
Continuous
1000
0
1070
          12
1010
1.0
1020
0.0
1030
0.0
1010
0.0
1020
1.0
1030
0.0
1010
0.0
1020
0.0
1030
1.0
1010
-2895.151856698181
1020
6549.737519994131
1030
0.0
1070
          21
1071
       34
1071
      162
1010
2900.0
1020
-6200.0
1030
0.0
1071
     6274
1010
2984.662845671619
1020
-6197.844308178813
1030
0.0
1071
     6274
1010
3069.329798649507
1020
-6195.844301415556
1030
0.0
1071
      130
1010
3154.0
1020
-6194.0
1030
0.0
1071
     6274
1010
3237.663420028781
1020
-6192.177628474619
1030
0.0
1071
     6274
1010
3321.330126959906
1020
-6190.497075263143
1030
0.0
1071
      130
1010
3405.0
1020
-6189.0
1030
0.0
1071
     6274
1010
3488.997136716443
1020
-6187.497069124357
1030
0.0
1071
     6274
1010
3573.000311898444
1020
-6186.352840204567
1030
0.0
1071
      130
1010
3657.0
1020
-6185.0
1030
0.0
1071
     6274
1010
3738.577276372181
1020
-6183.68617346386
1030
0.0
1071
     6274
1010
3820.152937492327
1020
-6182.271816469845
1030
0.0
1071
      130
1010
3901.730879629508
1020
-6181.0
1030
0.0
1071
     6274
1010
3969.81965514377
1020
-6179.938482341648
1030
0.0
1071
     6274
1010
4037.909433045752
1020
-6178.939607694495
1030
0.0
1071
      130
1010
4106.0
1020
-6178.0
1030
0.0
1071
     6274
1010
4206.999184674415
1020
-6176.606273742418
1030
0.0
1071
     6274
1010
4307.999884976902
1020
-6175.324591672435
1030
0.0
1071
      130
1010
4409.0
1020
-6174.0
1030
0.0
1071
     6274
1010
4511.333219061908
1020
-6172.657924995908
1030
0.0
1071
     6274
1010
4613.665553200248
1020
-6171.244944608269
1030
0.0
1071
      130
1010
4716.0
1020
-6170.0
1030
0.0
1071
     6274
1010
4750.66570405814
1020
-6169.578276106348
1030
0.0
1071
     6274
1010
4785.333380576386
1020
-6169.338210921206
1030
0.0
1071
      130
1010
4820.0
1020
-6169.0
1030
0.0
1071
     6274
1010
4853.666714606186
1020
-6168.671544247744
1030
0.0
1071
     6274
1010
4887.332087713154
1020
-6168.16503878572
1030
0.0
1071
      130
1010
4921.0
1020
-6168.0
1030
0.0
1071
     6274
1010
4955.332920839165
1020
-6167.831701368436
1030
0.0
1071
     6274
1010
4989.666845298641
1020
-6168.11075211194
1030
0.0
1071
      130
1010
5024.0
1020
-6168.0
1030
0.0
1071
     6274
1010
5093.000446145854
1020
-6167.777417915658
1030
0.0
1071
     6274
1010
5162.000623910374
1020
-6167.44408372356
1030
0.0
1071
      162
1010
5231.0
1020
-6167.0
1030
0.0
1070
           3
1071
-2147483643
1070
           1
1000
#$AUX@_ToolInfo Properties
1070
           8
1000
Insert^     JCurve^     JBezier@Curve Bezier
1000
$SPLINESEGS
1070
          18
1070
          20
1000
$SPLFRAME
1070
          18
1070
           0
1000
$SPLINETYPE
1070
          18
1070
           1
1000
$SHOWCONTRPTS
1070
          18
1070
           1
1000
$CURVESMOOTH
1070
          18
1070
           1
1002
}
  0
LINE
  5
53
102
{ACAD_REACTORS
330
59
102
}
100
AcDbEntity
  8
0
370
           0
  6
Continuous
 62
           7
100
AcDbLine
 10
2335.848143301819
 20
382.73751999413
 30
0.0
 11
2210.848143301819
 21
92.73751999413
 31
0.0
1001
TCAD
1000
TCW_CUSTOM_DATA
1002
{
1000
#$AUX@_ToolInfo Properties
1070
           8
1000
Insert^     JLine^     JSingle@Line Single
1002
}
  0
INSERT
  5
58
102
{ACAD_REACTORS
330
59
102
}
100
AcDbEntity
  8
0
  6
Continuous
 62
           7
100
AcDbBlockReference
  2
*E3
 10
0.0
 20
0.0
 30
0.0
1001
TCAD
1000
TCW_CUSTOM_DATA
1002
{
1000
#$AUX@_ToolInfo Properties
1070
           8
1000
Insert^     JCurve^     JBezier@Curve Bezier
1002
}
1000
TC25ExternalObject
1002
{
1000
TCW30CURVE
1000

1070
           0
1071
        0
1040
1.0
1040
0.0
1000
Continuous
1000
0
1070
          12
1010
1.0
1020
0.0
1030
0.0
1010
0.0
1020
1.0
1030
0.0
1010
0.0
1020
0.0
1030
1.0
1010
-2895.151856698181
1020
6549.737519994131
1030
0.0
1070
          21
1071
       34
1071
      162
1010
5106.0
1020
-6457.0
1030
0.0
1071
     6274
1010
5085.7364445168
1020
-6461.034502208221
1030
0.0
1071
     6274
1010
5065.396434592128
1020
-6464.702372850375
1030
0.0
1071
      130
1010
5045.0
1020
-6468.0
1030
0.0
1071
     6274
1010
5009.724483170689
1020
-6473.703227271805
1030
0.0
1071
     6274
1010
4974.447257933222
1020
-6479.48549073492
1030
0.0
1071
      130
1010
4939.0
1020
-6484.0
1030
0.0
1071
     6274
1010
4903.761561976515
1020
-6488.487914276576
1030
0.0
1071
     6274
1010
4868.353263283752
1020
-6491.530754537575
1030
0.0
1071
      130
1010
4833.0
1020
-6495.0
1030
0.0
1071
     6274
1010
4797.018836514139
1020
-6498.530861837398
1030
0.0
1071
     6274
1010
4761.029696526244
1020
-6502.004657058388
1030
0.0
1071
      130
1010
4725.0
1020
-6505.0
1030
0.0
1071
     6274
1010
4620.694228558422
1020
-6513.67150118873
1030
0.0
1071
     6274
1010
4516.45713974221
1020
-6523.397360697008
1030
0.0
1071
      130
1010
4412.0
1020
-6530.0
1030
0.0
1071
     6274
1010
4310.761309721569
1020
-6536.399204085671
1030
0.0
1071
     6274
1010
4209.375062789
1020
-6540.350497739596
1030
0.0
1071
      130
1010
4108.0
1020
-6544.0
1030
0.0
1071
     6274
1010
4042.695366341488
1020
-6546.350966811707
1030
0.0
1071
     6274
1010
3977.346776724021
1020
-6547.855106925224
1030
0.0
1071
      130
1010
3912.0
1020
-6548.0
1030
0.0
1071
     6274
1010
3826.994326811134
1020
-6548.188482645651
1030
0.0
1071
     6274
1010
3741.985723237459
1020
-6546.851174169529
1030
0.0
1071
      130
1010
3657.0
1020
-6545.0
1030
0.0
1071
     6274
1010
3573.643783304358
1020
-6543.184320032372
1030
0.0
1071
     6274
1010
3490.256131561517
1020
-6541.469017002308
1030
0.0
1071
      130
1010
3407.0
1020
-6537.0
1030
0.0
1071
     6274
1010
3322.550763263133
1020
-6532.466939578737
1030
0.0
1071
     6274
1010
3238.209749599764
1020
-6525.806426491497
1030
0.0
1071
      130
1010
3154.0
1020
-6518.0
1030
0.0
1071
     6274
1010
3069.184112264114
1020
-6510.137383188191
1030
0.0
1071
     6274
1010
2984.491945156425
1020
-6500.80123878262
1030
0.0
1071
      162
1010
2900.0
1020
-6490.0
1030
0.0
1070
           3
1071
-2147483643
1070
           1
1000
#$AUX@_ToolInfo Properties
1070
           8
1000
Insert^     JCurve^     JBezier@Curve Bezier
1000
$SPLINESEGS
1070
          18
1070
          20
1000
$SPLFRAME
1070
          18
1070
           0
1000
$SPLINETYPE
1070
          18
1070
           1
1000
$SHOWCONTRPTS
1070
          18
1070
           1
1000
$CURVESMOOTH
1070
          18
1070
           1
1002
}
  0
LINE
  5
5A
102
{ACAD_REACTORS
330
7A
102
}
100
AcDbEntity
  8
0
370
           0
  6
Continuous
 62
           7
 48
25.39999961853
100
AcDbLine
 10
1804.006286662363
 20
1048.909964879029
 30
-0.000000000001
 11
1804.005775388904
 21
1038.929497522711
 31
-0.000000000001
1001
TCAD
1000
TCW_CUSTOM_DATA
1002
{
1000
#$AUX@_ToolInfo Properties
1070
           8
1000
Insert^    JLine^    JSingle@Line Single
1002
}
  0
ARC
  5
5B
102
{ACAD_REACTORS
330
7A
102
}
100
AcDbEntity
  8
0
370
           0
  6
Continuous
 62
           7
100
AcDbCircle
 10
1646.959099596783
 20
1007.460613440726
 30
0.0
 40
0.998409164183
100
AcDbArc
 50
-106.578790748995
 51
-53.289472626938
1001
TCAD
1000
TCW_CUSTOM_DATA
1002
{
1000
#$AUX@_ToolInfo Properties
1070
           8
1000
Modify^    JFillet@Fillet
1002
}
  0
LINE
  5
5C
102
{ACAD_REACTORS
330
7A
102
}
100
AcDbEntity
  8
0
370
           0
  6
Continuous
 62
           7
100
AcDbLine
 10
1683.730675342975
 20
1033.634396060253
 30
0.0
 11
1647.55592039961
 21
1006.660223863218
 31
0.0
1001
TCAD
1000
TCW_CUSTOM_DATA
1002
{
1000
#$AUX@_ToolInfo Properties
1070
           8
1000
Modify^    JFillet@Fillet
1002
}
  0
LWPOLYLINE
  5
5D
102
{ACAD_REACTORS
330
7A
102
}
100
AcDbEntity
  8
0
  6
Continuous
 62
           7
100
AcDbPolyline
 90
        4
 70
           0
 10
1804.005775388918
 20
1038.929497522735
 10
1838.902902358447
 20
933.792147736136
 42
0.323174278336
 10
1857.854385806453
 20
920.114352792331
 10
1963.686504280167
 20
920.114621413989
1001
TCAD
1000
TCW_CUSTOM_DATA
1002
{
1000
#$AUX@_ToolInfo Properties
1070
           8
1000
Insert^    JLine^    JPolyline@Line Polyline
1002
}
  0
ARC
  5
5E
102
{ACAD_REACTORS
330
7A
102
}
100
AcDbEntity
  8
0
370
           0
  6
Continuous
 62
           7
100
AcDbCircle
 10
1683.133854540146
 20
1034.43478563776
 30
0.0
 40
0.998409164183
100
AcDbArc
 50
-53.289472626938
 51
0.0
1001
TCAD
1000
TCW_CUSTOM_DATA
1002
{
1000
#$AUX@_ToolInfo Properties
1070
           8
1000
Modify^    JFillet@Fillet
1002
}
  0
LINE
  5
5F
102
{ACAD_REACTORS
330
7A
102
}
100
AcDbEntity
  8
0
370
           0
  6
Continuous
 62
           7
100
AcDbLine
 10
1684.13226254222
 20
1042.91951678764
 30
0.0
 11
1684.132262546139
 21
1034.434785638201
 31
0.0
1001
TCAD
1000
TCW_CUSTOM_DATA
1002
{
1000
#$AUX@_ToolInfo Properties
1070
           8
1000
Modify^    JFillet@Fillet
1002
}
  0
LINE
  5
60
102
{ACAD_REACTORS
330
7A
102
}
100
AcDbEntity
  8
0
370
           0
  6
Continuous
 62
           7
 48
25.39999961853
100
AcDbLine
 10
2123.366721778978
 20
1048.90996502653
 30
-0.000000000001
 11
2123.367233061654
 21
1038.929497670213
 31
-0.000000000001
1001
TCAD
1000
TCW_CUSTOM_DATA
1002
{
1000
#$AUX@_ToolInfo Properties
1070
           8
1000
Insert^    JLine^    JSingle@Line Single
1002
}
  0
ARC
  5
61
102
{ACAD_REACTORS
330
7A
102
}
100
AcDbEntity
  8
0
370
           0
  6
Continuous
 62
           7
100
AcDbCircle
 10
2280.413908882857
 20
1007.460613733269
 30
0.0
 40
0.998409164183
100
AcDbArc
 50
-126.710527320139
 51
-73.421209198084
1001
TCAD
1000
TCW_CUSTOM_DATA
1002
{
1000
#$AUX@_ToolInfo Properties
1070
           8
1000
Modify^    JFillet@Fillet
1002
}
  0
LINE
  5
62
102
{ACAD_REACTORS
330
7A
102
}
100
AcDbEntity
  8
0
370
           0
  6
Continuous
 62
           7
100
AcDbLine
 10
2243.642333112477
 20
1033.634396318849
 30
-0.0
 11
2279.817088080756
 21
1006.66022415523
 31
-0.0
210
0.0
220
0.0
230
-1.0
1001
TCAD
1000
TCW_CUSTOM_DATA
1002
{
1000
#$AUX@_ToolInfo Properties
1070
           8
1000
Modify^    JFillet@Fillet
1002
}
  0
LWPOLYLINE
  5
63
102
{ACAD_REACTORS
330
7A
102
}
100
AcDbEntity
  8
0
  6
Continuous
 62
           7
100
AcDbPolyline
 90
        4
 70
           0
 10
2123.367233061653
 20
1038.92949767021
 10
2088.47010618924
 20
933.792147851375
 42
-0.323174278336
 10
2069.518622753868
 20
920.114352890063
 10
1963.686504280155
 20
920.114621413962
1001
TCAD
1000
TCW_CUSTOM_DATA
1002
{
1000
#$AUX@_ToolInfo Properties
1070
           8
1000
Insert^    JLine^    JPolyline@Line Polyline
1002
}
  0
ARC
  5
64
102
{ACAD_REACTORS
330
7A
102
}
100
AcDbEntity
  8
0
370
           0
  6
Continuous
 62
           7
100
AcDbCircle
 10
2244.239153914577
 20
1034.434785896886
 30
0.0
 40
0.998409164183
100
AcDbArc
 50
180.0
 51
233.28947267984
1001
TCAD
1000
TCW_CUSTOM_DATA
1002
{
1000
#$AUX@_ToolInfo Properties
1070
           8
1000
Modify^    JFillet@Fillet
1002
}
  0
LINE
  5
65
102
{ACAD_REACTORS
330
7A
102
}
100
AcDbEntity
  8
0
370
           0
  6
Continuous
 62
           7
100
AcDbLine
 10
2243.240745904654
 20
1042.919517045865
 30
-0.0
 11
2243.240745908573
 21
1034.434785896425
 31
-0.0
1001
TCAD
1000
TCW_CUSTOM_DATA
1002
{
1000
#$AUX@_ToolInfo Properties
1070
           8
1000
Modify^    JFillet@Fillet
1002
}
  0
LINE
  5
66
102
{ACAD_REACTORS
330
7A
102
}
100
AcDbEntity
  8
0
370
           0
  6
Continuous
 62
           7
100
AcDbLine
 10
2362.539070589786
 20
782.335027533832
 30
0.0
 11
1564.833938097793
 21
782.335027165407
 31
0.0
1001
TCAD
1000
TCW_CUSTOM_DATA
1002
{
1000
#$AUX@_ToolInfo Properties
1070
           8
1000
Insert^    JLine^    JSingle@Line Single
1002
}
  0
LINE
  5
67
102
{ACAD_REACTORS
330
7A
102
}
100
AcDbEntity
  8
0
370
           0
  6
Continuous
 62
           7
100
AcDbLine
 10
1684.13226254222
 20
1042.91951678764
 30
0.0
 11
1684.132262541298
 21
1044.91633279965
 31
0.0
1001
TCAD
1000
TCW_CUSTOM_DATA
1002
{
1000
#$AUX@_ToolInfo Properties
1070
           8
1000
Insert^    JLine^    JSingle@Line Single
1002
}
  0
ARC
  5
68
102
{ACAD_REACTORS
330
7A
102
}
100
AcDbEntity
  8
0
370
           0
  6
Continuous
 62
           7
100
AcDbCircle
 10
2244.239153914577
 20
1034.434785896886
 30
0.0
 40
0.998409164183
100
AcDbArc
 50
180.0
 51
233.28947267984
1001
TCAD
1000
TCW_CUSTOM_DATA
1002
{
1000
#$AUX@_ToolInfo Properties
1070
           8
1000
Modify^    JFillet@Fillet
1002
}
  0
LINE
  5
69
102
{ACAD_REACTORS
330
7A
102
}
100
AcDbEntity
  8
0
370
           0
  6
Continuous
 62
           7
100
AcDbLine
 10
2243.240745904654
 20
1042.919517045865
 30
-0.0
 11
2243.240745903732
 21
1044.916333057874
 31
0.0
1001
TCAD
1000
TCW_CUSTOM_DATA
1002
{
1000
#$AUX@_ToolInfo Properties
1070
           8
1000
Insert^    JLine^    JSingle@Line Single
1002
}
  0
LINE
  5
6A
102
{ACAD_REACTORS
330
7A
102
}
100
AcDbEntity
  8
0
370
           0
  6
Continuous
 62
           7
100
AcDbLine
 10
1684.13226254619
 20
1034.434785638222
 30
0.0
 11
1684.13226254619
 21
1048.909964952779
 31
0.0
1001
TCAD
1000
TCW_CUSTOM_DATA
1002
{
1000
#$AUX@_ToolInfo Properties
1070
           8
1000
Insert^ JLine^ JSingle@Line Single
1002
}
  0
LINE
  5
6B
102
{ACAD_REACTORS
330
7A
102
}
100
AcDbEntity
  8
0
370
           0
  6
Continuous
 62
           7
100
AcDbLine
 10
1684.13226254619
 20
1048.909964952779
 30
0.0
 11
1703.68650422067
 21
1048.909964952779
 31
0.0
1001
TCAD
1000
TCW_CUSTOM_DATA
1002
{
1000
#$AUX@_ToolInfo Properties
1070
           8
1000
Insert^ JLine^ JSingle@Line Single
1002
}
  0
LINE
  5
6C
102
{ACAD_REACTORS
330
7A
102
}
100
AcDbEntity
  8
0
370
           0
  6
Continuous
 62
           7
100
AcDbLine
 10
1703.68650422067
 20
1048.909964952779
 30
0.0
 11
1707.680136353511
 21
1044.916332819938
 31
0.0
1001
TCAD
1000
TCW_CUSTOM_DATA
1002
{
1000
#$AUX@_ToolInfo Properties
1070
           8
1000
Insert^ JLine^ JSingle@Line Single
1002
}
  0
LINE
  5
6D
102
{ACAD_REACTORS
330
7A
102
}
100
AcDbEntity
  8
0
370
           0
  6
Continuous
 62
           7
100
AcDbLine
 10
1707.680136353511
 20
1044.916332819938
 30
0.0
 11
1779.692872087829
 21
1044.916332819938
 31
0.0
1001
TCAD
1000
TCW_CUSTOM_DATA
1002
{
1000
#$AUX@_ToolInfo Properties
1070
           8
1000
Insert^ JLine^ JSingle@Line Single
1002
}
  0
LINE
  5
6E
102
{ACAD_REACTORS
330
7A
102
}
100
AcDbEntity
  8
0
370
           0
  6
Continuous
 62
           7
100
AcDbLine
 10
1779.692872087829
 20
1044.916332819938
 30
0.0
 11
1783.68650422067
 21
1048.909964952779
 31
0.0
1001
TCAD
1000
TCW_CUSTOM_DATA
1002
{
1000
#$AUX@_ToolInfo Properties
1070
           8
1000
Insert^ JLine^ JSingle@Line Single
1002
}
  0
LINE
  5
6F
102
{ACAD_REACTORS
330
7A
102
}
100
AcDbEntity
  8
0
370
           0
  6
Continuous
 62
           7
100
AcDbLine
 10
1783.68650422067
 20
1048.909964952779
 30
0.0
 11
1804.006286662363
 21
1048.909964879031
 31
0.0
1001
TCAD
1000
TCW_CUSTOM_DATA
1002
{
1000
#$AUX@_ToolInfo Properties
1070
           8
1000
Insert^ JLine^ JSingle@Line Single
1002
}
  0
LINE
  5
70
102
{ACAD_REACTORS
330
7A
102
}
100
AcDbEntity
  8
0
370
           0
  6
Continuous
 62
           7
100
AcDbLine
 10
2243.240746014121
 20
1034.434785638222
 30
0.0
 11
2243.240746014121
 21
1048.909964952779
 31
0.0
1001
TCAD
1000
TCW_CUSTOM_DATA
1002
{
1000
#$AUX@_ToolInfo Properties
1070
           8
1000
Insert^ JLine^ JSingle@Line Single
1002
}
  0
LINE
  5
71
102
{ACAD_REACTORS
330
7A
102
}
100
AcDbEntity
  8
0
370
           0
  6
Continuous
 62
           7
100
AcDbLine
 10
2243.240746014121
 20
1048.909964952779
 30
0.0
 11
2223.686504339641
 21
1048.909964952779
 31
0.0
1001
TCAD
1000
TCW_CUSTOM_DATA
1002
{
1000
#$AUX@_ToolInfo Properties
1070
           8
1000
Insert^ JLine^ JSingle@Line Single
1002
}
  0
LINE
  5
72
102
{ACAD_REACTORS
330
7A
102
}
100
AcDbEntity
  8
0
370
           0
  6
Continuous
 62
           7
100
AcDbLine
 10
2223.686504339641
 20
1048.909964952779
 30
0.0
 11
2219.692872206799
 21
1044.916332819938
 31
0.0
1001
TCAD
1000
TCW_CUSTOM_DATA
1002
{
1000
#$AUX@_ToolInfo Properties
1070
           8
1000
Insert^ JLine^ JSingle@Line Single
1002
}
  0
LINE
  5
73
102
{ACAD_REACTORS
330
7A
102
}
100
AcDbEntity
  8
0
370
           0
  6
Continuous
 62
           7
100
AcDbLine
 10
2219.692872206799
 20
1044.916332819938
 30
0.0
 11
2147.680136472482
 21
1044.916332819938
 31
0.0
1001
TCAD
1000
TCW_CUSTOM_DATA
1002
{
1000
#$AUX@_ToolInfo Properties
1070
           8
1000
Insert^ JLine^ JSingle@Line Single
1002
}
  0
LINE
  5
74
102
{ACAD_REACTORS
330
7A
102
}
100
AcDbEntity
  8
0
370
           0
  6
Continuous
 62
           7
100
AcDbLine
 10
2147.680136472482
 20
1044.916332819938
 30
0.0
 11
2143.686504339641
 21
1048.909964952779
 31
0.0
1001
TCAD
1000
TCW_CUSTOM_DATA
1002
{
1000
#$AUX@_ToolInfo Properties
1070
           8
1000
Insert^ JLine^ JSingle@Line Single
1002
}
  0
LINE
  5
75
102
{ACAD_REACTORS
330
7A
102
}
100
AcDbEntity
  8
0
370
           0
  6
Continuous
 62
           7
100
AcDbLine
 10
2143.686504339641
 20
1048.909964952779
 30
0.0
 11
2123.366721897948
 21
1048.909964879032
 31
0.0
1001
TCAD
1000
TCW_CUSTOM_DATA
1002
{
1000
#$AUX@_ToolInfo Properties
1070
           8
1000
Insert^ JLine^ JSingle@Line Single
1002
}
  0
LINE
  5
76
102
{ACAD_REACTORS
330
7A
102
}
100
AcDbEntity
  8
0
370
           0
  6
Continuous
 62
           7
100
AcDbLine
 10
2280.698788238718
 20
1006.503711283143
 30
0.0
 11
2299.42922570845
 21
1012.079676405497
 31
0.0
1001
TCAD
1000
TCW_CUSTOM_DATA
1002
{
1000
#$AUX@_ToolInfo Properties
1070
           8
1000
Insert^ JLine^ JSingle@Line Single
1002
}
  0
LINE
  5
77
102
{ACAD_REACTORS
330
7A
102
}
100
AcDbEntity
  8
0
370
           0
  6
Continuous
 62
           7
100
AcDbLine
 10
2362.539070589786
 20
782.335027533832
 30
0.0
 11
2299.42922570845
 21
1012.079676405497
 31
0.0
1001
TCAD
1000
TCW_CUSTOM_DATA
1002
{
1000
#$AUX@_ToolInfo Properties
1070
           8
1000
Insert^ JLine^ JSingle@Line Single
1002
}
  0
LINE
  5
78
102
{ACAD_REACTORS
330
7A
102
}
100
AcDbEntity
  8
0
370
           0
  6
Continuous
 62
           7
100
AcDbLine
 10
1646.674220241794
 20
1006.503710990314
 30
0.0
 11
1627.943782766912
 21
1012.079676095367
 31
0.0
1001
TCAD
1000
TCW_CUSTOM_DATA
1002
{
1000
#$AUX@_ToolInfo Properties
1070
           8
1000
Insert^ JLine^ JSingle@Line Single
1002
}
  0
LINE
  5
79
102
{ACAD_REACTORS
330
7A
102
}
100
AcDbEntity
  8
0
370
           0
  6
Continuous
 62
           7
100
AcDbLine
 10
1564.833938097794
 20
782.335027165406
 30
0.0
 11
1627.943782766912
 21
1012.079676095367
 31
0.0
1001
TCAD
1000
TCW_CUSTOM_DATA
1002
{
1000
#$AUX@_ToolInfo Properties
1070
           8
1000
Insert^ JLine^ JSingle@Line Single
1002
}
  0
ENDSEC
  0
SECTION
  2
OBJECTS
  0
DICTIONARY
  5
19
100
AcDbDictionary
280
           0
281
           1
  3
ACAD_GROUP
350
1A
  3
ACAD_MLINESTYLE
350
1B
  3
ACAD_LAYOUT
350
1E
  3
ACAD_PLOTSETTINGS
350
22
  3
ACAD_PLOTSTYLENAME
350
1F
  0
DICTIONARY
  5
1A
102
{ACAD_REACTORS
330
19
102
}
100
AcDbDictionary
280
           0
281
           1
  3

350
38
  3

350
3F
  3

350
4C
  3

350
59
  3

350
7A
  0
DICTIONARY
  5
1B
102
{ACAD_REACTORS
330
19
102
}
100
AcDbDictionary
280
           0
281
           1
  3
Standard
350
1C
  0
MLINESTYLE
  5
1C
100
AcDbMlineStyle
  2
STANDARD
 70
           0
  3

 62
         256
 51
90.0
 52
90.0
 71
           3
 49
0.25
 62
           7
  6
ByLayer
 49
0.0
 62
           7
  6
ByLayer
 49
-0.25
 62
           7
  6
ByLayer
  0
ACDBDICTIONARYWDFLT
  5
1F
102
{ACAD_REACTORS
330
19
102
}
100
AcDbDictionary
281
           1
  3
Normal
350
1D
100
AcDbDictionaryWithDefault
340
1D
  0
ACDBPLACEHOLDER
  5
1D
102
{ACAD_REACTORS
330
1F
102
}
  0
LAYOUT
  5
21
102
{ACAD_REACTORS
330
1E
102
}
100
AcDbPlotSettings
  1

  2

  4

  6

 40
0.0
 41
0.0
 42
0.0
 43
0.0
 44
0.0
 45
0.0
 46
0.0
 47
0.0
 48
0.0
 49
0.0
140
0.0
141
0.0
142
1.0
143
1.0
 70
           0
 72
           0
 73
           0
 74
           0
  7

 75
           0
147
1.0
148
0.0
149
0.0
100
AcDbLayout
  1
Layout1
 70
           0
 71
           0
 10
0.0
 20
0.0
 11
0.0
 21
0.0
 12
0.0
 22
0.0
 32
0.0
 14
0.0
 24
0.0
 34
0.0
 15
0.0
 25
0.0
 35
0.0
146
0.0
 13
0.0
 23
0.0
 33
0.0
 16
0.0
 26
0.0
 36
0.0
 17
0.0
 27
0.0
 37
0.0
 76
           0
330
B
331
0
345
0
346
0
  0
DICTIONARY
  5
1E
102
{ACAD_REACTORS
330
19
102
}
100
AcDbDictionary
280
           0
281
           1
  3
Model
350
7B
  3
Paper 1
350
7C
  0
DICTIONARY
  5
22
102
{ACAD_REACTORS
330
19
102
}
100
AcDbDictionary
280
           0
281
           1
  0
GROUP
  5
38
102
{ACAD_REACTORS
330
1A
102
}
100
AcDbGroup
300

 70
           1
 71
           1
340
33
340
34
340
35
340
36
340
37
  0
GROUP
  5
3F
102
{ACAD_REACTORS
330
1A
102
}
100
AcDbGroup
300

 70
           1
 71
           1
340
39
340
3A
340
3B
340
3C
340
3D
340
3E
  0
GROUP
  5
4C
102
{ACAD_REACTORS
330
1A
102
}
100
AcDbGroup
300

 70
           1
 71
           1
340
40
340
45
340
46
340
4B
  0
GROUP
  5
59
102
{ACAD_REACTORS
330
1A
102
}
100
AcDbGroup
300

 70
           1
 71
           1
340
4D
340
52
340
53
340
58
  0
GROUP
  5
7A
102
{ACAD_REACTORS
330
1A
102
}
100
AcDbGroup
300

 70
           1
 71
           1
340
5A
340
5B
340
5C
340
5D
340
5E
340
5F
340
60
340
61
340
62
340
63
340
64
340
65
340
66
340
67
340
68
340
69
340
6A
340
6B
340
6C
340
6D
340
6E
340
6F
340
70
340
71
340
72
340
73
340
74
340
75
340
76
340
77
340
78
340
79
  0
LAYOUT
  5
7B
100
AcDbPlotSettings
  1

  2

  4

  6

 40
0.0
 41
0.0
 42
0.0
 43
0.0
 44
0.0
 45
0.0
 46
0.0
 47
0.0
 48
0.0
 49
0.0
140
0.0
141
0.0
142
1.0
143
1.0
 70
           0
 72
           1
 73
           0
 74
           0
  7

 75
           0
147
1.0
148
0.0
149
0.0
100
AcDbLayout
  1
Model
 70
           0
 71
           0
 10
0.0
 20
0.0
 11
0.0
 21
0.0
 12
0.0
 22
0.0
 32
0.0
 14
0.0
 24
0.0
 34
0.0
 15
0.0
 25
0.0
 35
0.0
146
0.0
 13
0.0
 23
0.0
 33
0.0
 16
0.0
 26
0.0
 36
0.0
 17
0.0
 27
0.0
 37
0.0
 76
           0
330
A
331
0
345
0
346
0
  0
LAYOUT
  5
7C
100
AcDbPlotSettings
  1

  2

  4

  6

 40
7.0
 41
7.0
 42
7.0
 43
7.0
 44
0.000713545354
 45
0.000504527018
 46
-7.0
 47
-7.0
 48
0.0
 49
0.0
140
0.0
141
0.0
142
1.0
143
416231.42560000002
 70
           0
 72
           1
 73
           0
 74
           0
  7

 75
           0
147
1.0
148
0.0
149
0.0
100
AcDbLayout
  1
Paper 1
 70
           1
 71
           1
 10
0.0
 20
0.0
 11
0.000713545354
 21
0.000504527018
 12
0.0
 22
0.0
 32
0.0
 14
0.0
 24
0.0
 34
0.0
 15
0.0
 25
0.0
 35
0.0
146
0.0
 13
0.0
 23
0.0
 33
0.0
 16
0.0
 26
0.0
 36
0.0
 17
0.0
 27
0.0
 37
0.0
 76
           0
330
B
331
0
345
0
346
0
  0
ENDSEC
  0
EOF
