  0
SECTION
  2
HEADER
  9
$ACADVER
  1
AC1009
  0
ENDSEC
  0
SECTION
  2
ENTITIES
  0
POLYLINE
  5
90
  8
Layer_0
  62
0
  70
1
  66
1
  10
0
  20
0
  30
0
  0
VERTEX
  5
90
  8
Layer_0
  10
77
  20
198.5
  0
VERTEX
  5
91
  8
Layer_0
  10
74.090004
  20
198.5
  0
VERTEX
  5
92
  8
Layer_0
  10
74.056252
  20
198.46625
  0
VERTEX
  5
93
  8
Layer_0
  10
74.090004
  20
198.5
  0
VERTEX
  5
94
  8
Layer_0
  10
74.090004
  20
201.31999
  0
VERTEX
  5
95
  8
Layer_0
  10
74.056252
  20
201.35374
  0
VERTEX
  5
96
  8
Layer_0
  10
74.090004
  20
201.31999
  0
VERTEX
  5
97
  8
Layer_0
  10
79.910004
  20
201.31999
  0
VERTEX
  5
98
  8
Layer_0
  10
79.943756
  20
201.35374
  0
VERTEX
  5
99
  8
Layer_0
  10
79.910004
  20
201.31999
  0
VERTEX
  5
9a
  8
Layer_0
  10
79.910004
  20
198.5
  0
VERTEX
  5
9b
  8
Layer_0
  10
79.943756
  20
198.46625
  0
VERTEX
  5
9c
  8
Layer_0
  10
79.910004
  20
198.5
  0
VERTEX
  5
9d
  8
Layer_0
  10
77
  20
198.5
  0
SEQEND
  0
POLYLINE
  5
9f
  8
Layer_0
  62
0
  70
1
  66
1
  10
0
  20
0
  30
0
  0
VERTEX
  5
9f
  8
Layer_0
  10
89
  20
198.5
  0
VERTEX
  5
a0
  8
Layer_0
  10
86.090004
  20
198.5
  0
VERTEX
  5
a1
  8
Layer_0
  10
86.056252
  20
198.46625
  0
VERTEX
  5
a2
  8
Layer_0
  10
86.090004
  20
198.5
  0
VERTEX
  5
a3
  8
Layer_0
  10
86.090004
  20
201.31999
  0
VERTEX
  5
a4
  8
Layer_0
  10
86.056252
  20
201.35374
  0
VERTEX
  5
a5
  8
Layer_0
  10
86.090004
  20
201.31999
  0
VERTEX
  5
a6
  8
Layer_0
  10
91.910004
  20
201.31999
  0
VERTEX
  5
a7
  8
Layer_0
  10
91.943756
  20
201.35374
  0
VERTEX
  5
a8
  8
Layer_0
  10
91.910004
  20
201.31999
  0
VERTEX
  5
a9
  8
Layer_0
  10
91.910004
  20
198.5
  0
VERTEX
  5
aa
  8
Layer_0
  10
91.943756
  20
198.46625
  0
VERTEX
  5
ab
  8
Layer_0
  10
91.910004
  20
198.5
  0
VERTEX
  5
ac
  8
Layer_0
  10
89
  20
198.5
  0
SEQEND
  0
POLYLINE
  5
ae
  8
Layer_0
  62
0
  70
1
  66
1
  10
0
  20
0
  30
0
  0
VERTEX
  5
ae
  8
Layer_0
  10
101
  20
198.5
  0
VERTEX
  5
af
  8
Layer_0
  10
98.090004
  20
198.5
  0
VERTEX
  5
b0
  8
Layer_0
  10
98.056252
  20
198.46625
  0
VERTEX
  5
b1
  8
Layer_0
  10
98.090004
  20
198.5
  0
VERTEX
  5
b2
  8
Layer_0
  10
98.090004
  20
201.31999
  0
VERTEX
  5
b3
  8
Layer_0
  10
98.056252
  20
201.35374
  0
VERTEX
  5
b4
  8
Layer_0
  10
98.090004
  20
201.31999
  0
VERTEX
  5
b5
  8
Layer_0
  10
103.91
  20
201.31999
  0
VERTEX
  5
b6
  8
Layer_0
  10
103.94376
  20
201.35374
  0
VERTEX
  5
b7
  8
Layer_0
  10
103.91
  20
201.31999
  0
VERTEX
  5
b8
  8
Layer_0
  10
103.91
  20
198.5
  0
VERTEX
  5
b9
  8
Layer_0
  10
103.94376
  20
198.46625
  0
VERTEX
  5
ba
  8
Layer_0
  10
103.91
  20
198.5
  0
VERTEX
  5
bb
  8
Layer_0
  10
101
  20
198.5
  0
SEQEND
  0
POLYLINE
  5
bd
  8
Layer_0
  62
0
  70
1
  66
1
  10
0
  20
0
  30
0
  0
VERTEX
  5
bd
  8
Layer_0
  10
113
  20
198.5
  0
VERTEX
  5
be
  8
Layer_0
  10
110.09
  20
198.5
  0
VERTEX
  5
bf
  8
Layer_0
  10
110.05625
  20
198.46625
  0
VERTEX
  5
c0
  8
Layer_0
  10
110.09
  20
198.5
  0
VERTEX
  5
c1
  8
Layer_0
  10
110.09
  20
201.31999
  0
VERTEX
  5
c2
  8
Layer_0
  10
110.05625
  20
201.35374
  0
VERTEX
  5
c3
  8
Layer_0
  10
110.09
  20
201.31999
  0
VERTEX
  5
c4
  8
Layer_0
  10
115.91
  20
201.31999
  0
VERTEX
  5
c5
  8
Layer_0
  10
115.94376
  20
201.35374
  0
VERTEX
  5
c6
  8
Layer_0
  10
115.91
  20
201.31999
  0
VERTEX
  5
c7
  8
Layer_0
  10
115.91
  20
198.5
  0
VERTEX
  5
c8
  8
Layer_0
  10
115.94376
  20
198.46625
  0
VERTEX
  5
c9
  8
Layer_0
  10
115.91
  20
198.5
  0
VERTEX
  5
ca
  8
Layer_0
  10
113
  20
198.5
  0
SEQEND
  0
POLYLINE
  5
cc
  8
Layer_0
  62
0
  70
1
  66
1
  10
0
  20
0
  30
0
  0
VERTEX
  5
cc
  8
Layer_0
  10
125
  20
198.5
  0
VERTEX
  5
cd
  8
Layer_0
  10
122.09
  20
198.5
  0
VERTEX
  5
ce
  8
Layer_0
  10
122.05625
  20
198.46625
  0
VERTEX
  5
cf
  8
Layer_0
  10
122.09
  20
198.5
  0
VERTEX
  5
d0
  8
Layer_0
  10
122.09
  20
201.31999
  0
VERTEX
  5
d1
  8
Layer_0
  10
122.05625
  20
201.35374
  0
VERTEX
  5
d2
  8
Layer_0
  10
122.09
  20
201.31999
  0
VERTEX
  5
d3
  8
Layer_0
  10
127.91
  20
201.31999
  0
VERTEX
  5
d4
  8
Layer_0
  10
127.94376
  20
201.35374
  0
VERTEX
  5
d5
  8
Layer_0
  10
127.91
  20
201.31999
  0
VERTEX
  5
d6
  8
Layer_0
  10
127.91
  20
198.5
  0
VERTEX
  5
d7
  8
Layer_0
  10
127.94376
  20
198.46625
  0
VERTEX
  5
d8
  8
Layer_0
  10
127.91
  20
198.5
  0
VERTEX
  5
d9
  8
Layer_0
  10
125
  20
198.5
  0
SEQEND
  0
POLYLINE
  5
db
  8
Layer_0
  62
0
  70
1
  66
1
  10
0
  20
0
  30
0
  0
VERTEX
  5
db
  8
Layer_0
  10
137
  20
198.5
  0
VERTEX
  5
dc
  8
Layer_0
  10
134.09
  20
198.5
  0
VERTEX
  5
dd
  8
Layer_0
  10
134.05624
  20
198.46625
  0
VERTEX
  5
de
  8
Layer_0
  10
134.09
  20
198.5
  0
VERTEX
  5
df
  8
Layer_0
  10
134.09
  20
201.31999
  0
VERTEX
  5
e0
  8
Layer_0
  10
134.05624
  20
201.35374
  0
VERTEX
  5
e1
  8
Layer_0
  10
134.09
  20
201.31999
  0
VERTEX
  5
e2
  8
Layer_0
  10
139.91
  20
201.31999
  0
VERTEX
  5
e3
  8
Layer_0
  10
139.94376
  20
201.35374
  0
VERTEX
  5
e4
  8
Layer_0
  10
139.91
  20
201.31999
  0
VERTEX
  5
e5
  8
Layer_0
  10
139.91
  20
198.5
  0
VERTEX
  5
e6
  8
Layer_0
  10
139.94376
  20
198.46625
  0
VERTEX
  5
e7
  8
Layer_0
  10
139.91
  20
198.5
  0
VERTEX
  5
e8
  8
Layer_0
  10
137
  20
198.5
  0
SEQEND
  0
POLYLINE
  5
ea
  8
Layer_0
  62
0
  70
1
  66
1
  10
0
  20
0
  30
0
  0
VERTEX
  5
ea
  8
Layer_0
  10
149
  20
198.5
  0
VERTEX
  5
eb
  8
Layer_0
  10
146.09
  20
198.5
  0
VERTEX
  5
ec
  8
Layer_0
  10
146.05624
  20
198.46625
  0
VERTEX
  5
ed
  8
Layer_0
  10
146.09
  20
198.5
  0
VERTEX
  5
ee
  8
Layer_0
  10
146.09
  20
201.31999
  0
VERTEX
  5
ef
  8
Layer_0
  10
146.05624
  20
201.35374
  0
VERTEX
  5
f0
  8
Layer_0
  10
146.09
  20
201.31999
  0
VERTEX
  5
f1
  8
Layer_0
  10
151.91
  20
201.31999
  0
VERTEX
  5
f2
  8
Layer_0
  10
151.94376
  20
201.35374
  0
VERTEX
  5
f3
  8
Layer_0
  10
151.91
  20
201.31999
  0
VERTEX
  5
f4
  8
Layer_0
  10
151.91
  20
198.5
  0
VERTEX
  5
f5
  8
Layer_0
  10
151.94376
  20
198.46625
  0
VERTEX
  5
f6
  8
Layer_0
  10
151.91
  20
198.5
  0
VERTEX
  5
f7
  8
Layer_0
  10
149
  20
198.5
  0
SEQEND
  0
POLYLINE
  5
f9
  8
Layer_0
  62
0
  70
1
  66
1
  10
0
  20
0
  30
0
  0
VERTEX
  5
f9
  8
Layer_0
  10
161
  20
198.5
  0
VERTEX
  5
fa
  8
Layer_0
  10
158.09
  20
198.5
  0
VERTEX
  5
fb
  8
Layer_0
  10
158.05624
  20
198.46625
  0
VERTEX
  5
fc
  8
Layer_0
  10
158.09
  20
198.5
  0
VERTEX
  5
fd
  8
Layer_0
  10
158.09
  20
201.31999
  0
VERTEX
  5
fe
  8
Layer_0
  10
158.05624
  20
201.35374
  0
VERTEX
  5
ff
  8
Layer_0
  10
158.09
  20
201.31999
  0
VERTEX
  5
100
  8
Layer_0
  10
163.91
  20
201.31999
  0
VERTEX
  5
101
  8
Layer_0
  10
163.94376
  20
201.35374
  0
VERTEX
  5
102
  8
Layer_0
  10
163.91
  20
201.31999
  0
VERTEX
  5
103
  8
Layer_0
  10
163.91
  20
198.5
  0
VERTEX
  5
104
  8
Layer_0
  10
163.94376
  20
198.46625
  0
VERTEX
  5
105
  8
Layer_0
  10
163.91
  20
198.5
  0
VERTEX
  5
106
  8
Layer_0
  10
161
  20
198.5
  0
SEQEND
  0
POLYLINE
  5
108
  8
Layer_0
  62
0
  70
1
  66
1
  10
0
  20
0
  30
0
  0
VERTEX
  5
108
  8
Layer_0
  10
173
  20
198.5
  0
VERTEX
  5
109
  8
Layer_0
  10
170.09
  20
198.5
  0
VERTEX
  5
10a
  8
Layer_0
  10
170.05624
  20
198.46625
  0
VERTEX
  5
10b
  8
Layer_0
  10
170.09
  20
198.5
  0
VERTEX
  5
10c
  8
Layer_0
  10
170.09
  20
201.31999
  0
VERTEX
  5
10d
  8
Layer_0
  10
170.05624
  20
201.35374
  0
VERTEX
  5
10e
  8
Layer_0
  10
170.09
  20
201.31999
  0
VERTEX
  5
10f
  8
Layer_0
  10
175.91
  20
201.31999
  0
VERTEX
  5
110
  8
Layer_0
  10
175.94376
  20
201.35374
  0
VERTEX
  5
111
  8
Layer_0
  10
175.91
  20
201.31999
  0
VERTEX
  5
112
  8
Layer_0
  10
175.91
  20
198.5
  0
VERTEX
  5
113
  8
Layer_0
  10
175.94376
  20
198.46625
  0
VERTEX
  5
114
  8
Layer_0
  10
175.91
  20
198.5
  0
VERTEX
  5
115
  8
Layer_0
  10
173
  20
198.5
  0
SEQEND
  0
POLYLINE
  5
117
  8
Layer_0
  62
0
  70
1
  66
1
  10
0
  20
0
  30
0
  0
VERTEX
  5
117
  8
Layer_0
  10
185
  20
198.5
  0
VERTEX
  5
118
  8
Layer_0
  10
182.09
  20
198.5
  0
VERTEX
  5
119
  8
Layer_0
  10
182.05624
  20
198.46625
  0
VERTEX
  5
11a
  8
Layer_0
  10
182.09
  20
198.5
  0
VERTEX
  5
11b
  8
Layer_0
  10
182.09
  20
201.31999
  0
VERTEX
  5
11c
  8
Layer_0
  10
182.05624
  20
201.35374
  0
VERTEX
  5
11d
  8
Layer_0
  10
182.09
  20
201.31999
  0
VERTEX
  5
11e
  8
Layer_0
  10
187.91
  20
201.31999
  0
VERTEX
  5
11f
  8
Layer_0
  10
187.94376
  20
201.35374
  0
VERTEX
  5
120
  8
Layer_0
  10
187.91
  20
201.31999
  0
VERTEX
  5
121
  8
Layer_0
  10
187.91
  20
198.5
  0
VERTEX
  5
122
  8
Layer_0
  10
187.94376
  20
198.46625
  0
VERTEX
  5
123
  8
Layer_0
  10
187.91
  20
198.5
  0
VERTEX
  5
124
  8
Layer_0
  10
185
  20
198.5
  0
SEQEND
  0
POLYLINE
  5
126
  8
Layer_0
  62
0
  70
1
  66
1
  10
0
  20
0
  30
0
  0
VERTEX
  5
126
  8
Layer_0
  10
197
  20
198.5
  0
VERTEX
  5
127
  8
Layer_0
  10
194.09
  20
198.5
  0
VERTEX
  5
128
  8
Layer_0
  10
194.05624
  20
198.46625
  0
VERTEX
  5
129
  8
Layer_0
  10
194.09
  20
198.5
  0
VERTEX
  5
12a
  8
Layer_0
  10
194.09
  20
201.31999
  0
VERTEX
  5
12b
  8
Layer_0
  10
194.05624
  20
201.35374
  0
VERTEX
  5
12c
  8
Layer_0
  10
194.09
  20
201.31999
  0
VERTEX
  5
12d
  8
Layer_0
  10
199.91
  20
201.31999
  0
VERTEX
  5
12e
  8
Layer_0
  10
199.94376
  20
201.35374
  0
VERTEX
  5
12f
  8
Layer_0
  10
199.91
  20
201.31999
  0
VERTEX
  5
130
  8
Layer_0
  10
199.91
  20
198.5
  0
VERTEX
  5
131
  8
Layer_0
  10
199.94376
  20
198.46625
  0
VERTEX
  5
132
  8
Layer_0
  10
199.91
  20
198.5
  0
VERTEX
  5
133
  8
Layer_0
  10
197
  20
198.5
  0
SEQEND
  0
POLYLINE
  5
135
  8
Layer_0
  62
0
  70
1
  66
1
  10
0
  20
0
  30
0
  0
VERTEX
  5
135
  8
Layer_0
  10
62.602005
  20
202.495
  0
VERTEX
  5
136
  8
Layer_0
  10
65.413002
  20
201.74199
  0
VERTEX
  5
137
  8
Layer_0
  10
65.45388
  20
201.76599
  0
VERTEX
  5
138
  8
Layer_0
  10
65.413002
  20
201.74199
  0
VERTEX
  5
139
  8
Layer_0
  10
64.682999
  20
199.01799
  0
VERTEX
  5
13a
  8
Layer_0
  10
64.706635
  20
198.97675
  0
VERTEX
  5
13b
  8
Layer_0
  10
64.682999
  20
199.01799
  0
VERTEX
  5
13c
  8
Layer_0
  10
59.061005
  20
200.52499
  0
VERTEX
  5
13d
  8
Layer_0
  10
59.019753
  20
200.50099
  0
VERTEX
  5
13e
  8
Layer_0
  10
59.061005
  20
200.52499
  0
VERTEX
  5
13f
  8
Layer_0
  10
59.791004
  20
203.24899
  0
VERTEX
  5
140
  8
Layer_0
  10
59.767006
  20
203.28987
  0
VERTEX
  5
141
  8
Layer_0
  10
59.791004
  20
203.24899
  0
VERTEX
  5
142
  8
Layer_0
  10
62.602005
  20
202.495
  0
SEQEND
  0
POLYLINE
  5
144
  8
Layer_0
  62
0
  70
1
  66
1
  10
0
  20
0
  30
0
  0
VERTEX
  5
144
  8
Layer_0
  10
54.984001
  20
206.89398
  0
VERTEX
  5
145
  8
Layer_0
  10
57.041004
  20
204.836
  0
VERTEX
  5
146
  8
Layer_0
  10
57.089005
  20
204.836
  0
VERTEX
  5
147
  8
Layer_0
  10
57.041004
  20
204.836
  0
VERTEX
  5
148
  8
Layer_0
  10
55.047005
  20
202.84198
  0
VERTEX
  5
149
  8
Layer_0
  10
55.047379
  20
202.79398
  0
VERTEX
  5
14a
  8
Layer_0
  10
55.047005
  20
202.84198
  0
VERTEX
  5
14b
  8
Layer_0
  10
50.932003
  20
206.95699
  0
VERTEX
  5
14c
  8
Layer_0
  10
50.884003
  20
206.95737
  0
VERTEX
  5
14d
  8
Layer_0
  10
50.932003
  20
206.95699
  0
VERTEX
  5
14e
  8
Layer_0
  10
52.926003
  20
208.95099
  0
VERTEX
  5
14f
  8
Layer_0
  10
52.926003
  20
208.99899
  0
VERTEX
  5
150
  8
Layer_0
  10
52.926003
  20
208.95099
  0
VERTEX
  5
151
  8
Layer_0
  10
54.984001
  20
206.89398
  0
SEQEND
  0
POLYLINE
  5
153
  8
Layer_0
  62
0
  70
1
  66
1
  10
0
  20
0
  30
0
  0
VERTEX
  5
153
  8
Layer_0
  10
50.585003
  20
214.51199
  0
VERTEX
  5
154
  8
Layer_0
  10
51.339005
  20
211.70099
  0
VERTEX
  5
155
  8
Layer_0
  10
51.379875
  20
211.67699
  0
VERTEX
  5
156
  8
Layer_0
  10
51.339005
  20
211.70099
  0
VERTEX
  5
157
  8
Layer_0
  10
48.615005
  20
210.97098
  0
VERTEX
  5
158
  8
Layer_0
  10
48.591003
  20
210.92975
  0
VERTEX
  5
159
  8
Layer_0
  10
48.615005
  20
210.97098
  0
VERTEX
  5
15a
  8
Layer_0
  10
47.108002
  20
216.59299
  0
VERTEX
  5
15b
  8
Layer_0
  10
47.066753
  20
216.61662
  0
VERTEX
  5
15c
  8
Layer_0
  10
47.108002
  20
216.59299
  0
VERTEX
  5
15d
  8
Layer_0
  10
49.832005
  20
217.323
  0
VERTEX
  5
15e
  8
Layer_0
  10
49.856003
  20
217.36386
  0
VERTEX
  5
15f
  8
Layer_0
  10
49.832005
  20
217.323
  0
VERTEX
  5
160
  8
Layer_0
  10
50.585003
  20
214.51199
  0
SEQEND
  0
POLYLINE
  5
162
  8
Layer_0
  62
0
  70
1
  66
1
  10
0
  20
0
  30
0
  0
VERTEX
  5
162
  8
Layer_0
  10
212.12801
  20
199.771
  0
VERTEX
  5
163
  8
Layer_0
  10
209.317
  20
199.01799
  0
VERTEX
  5
164
  8
Layer_0
  10
209.29338
  20
198.97675
  0
VERTEX
  5
165
  8
Layer_0
  10
209.317
  20
199.01799
  0
VERTEX
  5
166
  8
Layer_0
  10
208.58701
  20
201.74199
  0
VERTEX
  5
167
  8
Layer_0
  10
208.54613
  20
201.76599
  0
VERTEX
  5
168
  8
Layer_0
  10
208.58701
  20
201.74199
  0
VERTEX
  5
169
  8
Layer_0
  10
214.209
  20
203.24899
  0
VERTEX
  5
16a
  8
Layer_0
  10
214.233
  20
203.28987
  0
VERTEX
  5
16b
  8
Layer_0
  10
214.209
  20
203.24899
  0
VERTEX
  5
16c
  8
Layer_0
  10
214.93901
  20
200.52499
  0
VERTEX
  5
16d
  8
Layer_0
  10
214.98026
  20
200.50099
  0
VERTEX
  5
16e
  8
Layer_0
  10
214.93901
  20
200.52499
  0
VERTEX
  5
16f
  8
Layer_0
  10
212.12801
  20
199.771
  0
SEQEND
  0
POLYLINE
  5
171
  8
Layer_0
  62
0
  70
1
  66
1
  10
0
  20
0
  30
0
  0
VERTEX
  5
171
  8
Layer_0
  10
221.01001
  20
204.89999
  0
VERTEX
  5
172
  8
Layer_0
  10
218.953
  20
202.84198
  0
VERTEX
  5
173
  8
Layer_0
  10
218.95264
  20
202.79398
  0
VERTEX
  5
174
  8
Layer_0
  10
218.953
  20
202.84198
  0
VERTEX
  5
175
  8
Layer_0
  10
216.959
  20
204.836
  0
VERTEX
  5
176
  8
Layer_0
  10
216.91101
  20
204.836
  0
VERTEX
  5
177
  8
Layer_0
  10
216.959
  20
204.836
  0
VERTEX
  5
178
  8
Layer_0
  10
221.07401
  20
208.95099
  0
VERTEX
  5
179
  8
Layer_0
  10
221.07401
  20
208.99899
  0
VERTEX
  5
17a
  8
Layer_0
  10
221.07401
  20
208.95099
  0
VERTEX
  5
17b
  8
Layer_0
  10
223.06801
  20
206.95699
  0
VERTEX
  5
17c
  8
Layer_0
  10
223.116
  20
206.95737
  0
VERTEX
  5
17d
  8
Layer_0
  10
223.06801
  20
206.95699
  0
VERTEX
  5
17e
  8
Layer_0
  10
221.01001
  20
204.89999
  0
SEQEND
  0
POLYLINE
  5
180
  8
Layer_0
  62
0
  70
1
  66
1
  10
0
  20
0
  30
0
  0
VERTEX
  5
180
  8
Layer_0
  10
226.13901
  20
213.78198
  0
VERTEX
  5
181
  8
Layer_0
  10
225.38501
  20
210.97098
  0
VERTEX
  5
182
  8
Layer_0
  10
225.409
  20
210.92975
  0
VERTEX
  5
183
  8
Layer_0
  10
225.38501
  20
210.97098
  0
VERTEX
  5
184
  8
Layer_0
  10
222.66101
  20
211.70099
  0
VERTEX
  5
185
  8
Layer_0
  10
222.62013
  20
211.67699
  0
VERTEX
  5
186
  8
Layer_0
  10
222.66101
  20
211.70099
  0
VERTEX
  5
187
  8
Layer_0
  10
224.168
  20
217.323
  0
VERTEX
  5
188
  8
Layer_0
  10
224.14401
  20
217.36386
  0
VERTEX
  5
189
  8
Layer_0
  10
224.168
  20
217.323
  0
VERTEX
  5
18a
  8
Layer_0
  10
226.892
  20
216.59299
  0
VERTEX
  5
18b
  8
Layer_0
  10
226.93326
  20
216.61662
  0
VERTEX
  5
18c
  8
Layer_0
  10
226.892
  20
216.59299
  0
VERTEX
  5
18d
  8
Layer_0
  10
226.13901
  20
213.78198
  0
SEQEND
  0
POLYLINE
  5
18f
  8
Layer_0
  62
0
  66
1
  10
0
  20
0
  30
0
  0
VERTEX
  5
18f
  8
Layer_0
  10
42.000004
  20
193.90999
  0
VERTEX
  5
190
  8
Layer_0
  10
43.910004
  20
193.90999
  0
VERTEX
  5
191
  8
Layer_0
  10
43.943752
  20
193.94374
  0
VERTEX
  5
192
  8
Layer_0
  10
43.910004
  20
193.90999
  0
VERTEX
  5
193
  8
Layer_0
  10
43.910004
  20
191
  0
VERTEX
  5
194
  8
Layer_0
  10
43.936256
  20
190.93623
  0
VERTEX
  5
195
  8
Layer_0
  10
44.000004
  20
190.90999
  0
VERTEX
  5
196
  8
Layer_0
  10
50.000004
  20
190.90999
  0
VERTEX
  5
197
  8
Layer_0
  10
50.063751
  20
190.93623
  0
VERTEX
  5
198
  8
Layer_0
  10
50.090004
  20
191
  0
VERTEX
  5
199
  8
Layer_0
  10
50.090004
  20
193.90999
  0
VERTEX
  5
19a
  8
Layer_0
  10
50.056255
  20
193.94374
  0
VERTEX
  5
19b
  8
Layer_0
  10
50.090004
  20
193.90999
  0
VERTEX
  5
19c
  8
Layer_0
  10
55.910004
  20
193.90999
  0
VERTEX
  5
19d
  8
Layer_0
  10
55.943752
  20
193.94374
  0
VERTEX
  5
19e
  8
Layer_0
  10
55.910004
  20
193.90999
  0
VERTEX
  5
19f
  8
Layer_0
  10
55.910004
  20
191
  0
VERTEX
  5
1a0
  8
Layer_0
  10
55.936256
  20
190.93623
  0
VERTEX
  5
1a1
  8
Layer_0
  10
56.000004
  20
190.90999
  0
VERTEX
  5
1a2
  8
Layer_0
  10
62.000004
  20
190.90999
  0
VERTEX
  5
1a3
  8
Layer_0
  10
62.063751
  20
190.93623
  0
VERTEX
  5
1a4
  8
Layer_0
  10
62.090004
  20
191
  0
VERTEX
  5
1a5
  8
Layer_0
  10
62.090004
  20
193.90999
  0
VERTEX
  5
1a6
  8
Layer_0
  10
62.056255
  20
193.94374
  0
VERTEX
  5
1a7
  8
Layer_0
  10
62.090004
  20
193.90999
  0
VERTEX
  5
1a8
  8
Layer_0
  10
67.910004
  20
193.90999
  0
VERTEX
  5
1a9
  8
Layer_0
  10
67.943756
  20
193.94374
  0
VERTEX
  5
1aa
  8
Layer_0
  10
67.910004
  20
193.90999
  0
VERTEX
  5
1ab
  8
Layer_0
  10
67.910004
  20
191
  0
VERTEX
  5
1ac
  8
Layer_0
  10
67.936256
  20
190.93623
  0
VERTEX
  5
1ad
  8
Layer_0
  10
68
  20
190.90999
  0
VERTEX
  5
1ae
  8
Layer_0
  10
74
  20
190.90999
  0
VERTEX
  5
1af
  8
Layer_0
  10
74.063751
  20
190.93623
  0
VERTEX
  5
1b0
  8
Layer_0
  10
74.090004
  20
191
  0
VERTEX
  5
1b1
  8
Layer_0
  10
74.090004
  20
193.90999
  0
VERTEX
  5
1b2
  8
Layer_0
  10
74.056252
  20
193.94374
  0
VERTEX
  5
1b3
  8
Layer_0
  10
74.090004
  20
193.90999
  0
VERTEX
  5
1b4
  8
Layer_0
  10
79.910004
  20
193.90999
  0
VERTEX
  5
1b5
  8
Layer_0
  10
79.943756
  20
193.94374
  0
VERTEX
  5
1b6
  8
Layer_0
  10
79.910004
  20
193.90999
  0
VERTEX
  5
1b7
  8
Layer_0
  10
79.910004
  20
191
  0
VERTEX
  5
1b8
  8
Layer_0
  10
79.936256
  20
190.93623
  0
VERTEX
  5
1b9
  8
Layer_0
  10
80
  20
190.90999
  0
VERTEX
  5
1ba
  8
Layer_0
  10
86
  20
190.90999
  0
VERTEX
  5
1bb
  8
Layer_0
  10
86.063751
  20
190.93623
  0
VERTEX
  5
1bc
  8
Layer_0
  10
86.090004
  20
191
  0
VERTEX
  5
1bd
  8
Layer_0
  10
86.090004
  20
193.90999
  0
VERTEX
  5
1be
  8
Layer_0
  10
86.056252
  20
193.94374
  0
VERTEX
  5
1bf
  8
Layer_0
  10
86.090004
  20
193.90999
  0
VERTEX
  5
1c0
  8
Layer_0
  10
91.910004
  20
193.90999
  0
VERTEX
  5
1c1
  8
Layer_0
  10
91.943756
  20
193.94374
  0
VERTEX
  5
1c2
  8
Layer_0
  10
91.910004
  20
193.90999
  0
VERTEX
  5
1c3
  8
Layer_0
  10
91.910004
  20
191
  0
VERTEX
  5
1c4
  8
Layer_0
  10
91.936256
  20
190.93623
  0
VERTEX
  5
1c5
  8
Layer_0
  10
92
  20
190.90999
  0
VERTEX
  5
1c6
  8
Layer_0
  10
98
  20
190.90999
  0
VERTEX
  5
1c7
  8
Layer_0
  10
98.063751
  20
190.93623
  0
VERTEX
  5
1c8
  8
Layer_0
  10
98.090004
  20
191
  0
VERTEX
  5
1c9
  8
Layer_0
  10
98.090004
  20
193.90999
  0
VERTEX
  5
1ca
  8
Layer_0
  10
98.056252
  20
193.94374
  0
VERTEX
  5
1cb
  8
Layer_0
  10
98.090004
  20
193.90999
  0
VERTEX
  5
1cc
  8
Layer_0
  10
103.91
  20
193.90999
  0
VERTEX
  5
1cd
  8
Layer_0
  10
103.94376
  20
193.94374
  0
VERTEX
  5
1ce
  8
Layer_0
  10
103.91
  20
193.90999
  0
VERTEX
  5
1cf
  8
Layer_0
  10
103.91
  20
191
  0
VERTEX
  5
1d0
  8
Layer_0
  10
103.93626
  20
190.93623
  0
VERTEX
  5
1d1
  8
Layer_0
  10
104
  20
190.90999
  0
VERTEX
  5
1d2
  8
Layer_0
  10
110
  20
190.90999
  0
VERTEX
  5
1d3
  8
Layer_0
  10
110.06375
  20
190.93623
  0
VERTEX
  5
1d4
  8
Layer_0
  10
110.09
  20
191
  0
VERTEX
  5
1d5
  8
Layer_0
  10
110.09
  20
193.90999
  0
VERTEX
  5
1d6
  8
Layer_0
  10
110.05625
  20
193.94374
  0
VERTEX
  5
1d7
  8
Layer_0
  10
110.09
  20
193.90999
  0
VERTEX
  5
1d8
  8
Layer_0
  10
115.91
  20
193.90999
  0
VERTEX
  5
1d9
  8
Layer_0
  10
115.94376
  20
193.94374
  0
VERTEX
  5
1da
  8
Layer_0
  10
115.91
  20
193.90999
  0
VERTEX
  5
1db
  8
Layer_0
  10
115.91
  20
191
  0
VERTEX
  5
1dc
  8
Layer_0
  10
115.93626
  20
190.93623
  0
VERTEX
  5
1dd
  8
Layer_0
  10
116
  20
190.90999
  0
VERTEX
  5
1de
  8
Layer_0
  10
122
  20
190.90999
  0
VERTEX
  5
1df
  8
Layer_0
  10
122.06375
  20
190.93623
  0
VERTEX
  5
1e0
  8
Layer_0
  10
122.09
  20
191
  0
VERTEX
  5
1e1
  8
Layer_0
  10
122.09
  20
193.90999
  0
VERTEX
  5
1e2
  8
Layer_0
  10
122.05625
  20
193.94374
  0
VERTEX
  5
1e3
  8
Layer_0
  10
122.09
  20
193.90999
  0
VERTEX
  5
1e4
  8
Layer_0
  10
127.91
  20
193.90999
  0
VERTEX
  5
1e5
  8
Layer_0
  10
127.94376
  20
193.94374
  0
VERTEX
  5
1e6
  8
Layer_0
  10
127.91
  20
193.90999
  0
VERTEX
  5
1e7
  8
Layer_0
  10
127.91
  20
191
  0
VERTEX
  5
1e8
  8
Layer_0
  10
127.93626
  20
190.93623
  0
VERTEX
  5
1e9
  8
Layer_0
  10
128
  20
190.90999
  0
VERTEX
  5
1ea
  8
Layer_0
  10
134
  20
190.90999
  0
VERTEX
  5
1eb
  8
Layer_0
  10
134.06375
  20
190.93623
  0
VERTEX
  5
1ec
  8
Layer_0
  10
134.09
  20
191
  0
VERTEX
  5
1ed
  8
Layer_0
  10
134.09
  20
193.90999
  0
VERTEX
  5
1ee
  8
Layer_0
  10
134.05624
  20
193.94374
  0
VERTEX
  5
1ef
  8
Layer_0
  10
134.09
  20
193.90999
  0
VERTEX
  5
1f0
  8
Layer_0
  10
139.91
  20
193.90999
  0
VERTEX
  5
1f1
  8
Layer_0
  10
139.94376
  20
193.94374
  0
VERTEX
  5
1f2
  8
Layer_0
  10
139.91
  20
193.90999
  0
VERTEX
  5
1f3
  8
Layer_0
  10
139.91
  20
191
  0
VERTEX
  5
1f4
  8
Layer_0
  10
139.93626
  20
190.93623
  0
VERTEX
  5
1f5
  8
Layer_0
  10
140
  20
190.90999
  0
VERTEX
  5
1f6
  8
Layer_0
  10
146
  20
190.90999
  0
VERTEX
  5
1f7
  8
Layer_0
  10
146.06375
  20
190.93623
  0
VERTEX
  5
1f8
  8
Layer_0
  10
146.09
  20
191
  0
VERTEX
  5
1f9
  8
Layer_0
  10
146.09
  20
193.90999
  0
VERTEX
  5
1fa
  8
Layer_0
  10
146.05624
  20
193.94374
  0
VERTEX
  5
1fb
  8
Layer_0
  10
146.09
  20
193.90999
  0
VERTEX
  5
1fc
  8
Layer_0
  10
151.91
  20
193.90999
  0
VERTEX
  5
1fd
  8
Layer_0
  10
151.94376
  20
193.94374
  0
VERTEX
  5
1fe
  8
Layer_0
  10
151.91
  20
193.90999
  0
VERTEX
  5
1ff
  8
Layer_0
  10
151.91
  20
191
  0
VERTEX
  5
200
  8
Layer_0
  10
151.93626
  20
190.93623
  0
VERTEX
  5
201
  8
Layer_0
  10
152
  20
190.90999
  0
VERTEX
  5
202
  8
Layer_0
  10
158
  20
190.90999
  0
VERTEX
  5
203
  8
Layer_0
  10
158.06375
  20
190.93623
  0
VERTEX
  5
204
  8
Layer_0
  10
158.09
  20
191
  0
VERTEX
  5
205
  8
Layer_0
  10
158.09
  20
193.90999
  0
VERTEX
  5
206
  8
Layer_0
  10
158.05624
  20
193.94374
  0
VERTEX
  5
207
  8
Layer_0
  10
158.09
  20
193.90999
  0
VERTEX
  5
208
  8
Layer_0
  10
163.91
  20
193.90999
  0
VERTEX
  5
209
  8
Layer_0
  10
163.94376
  20
193.94374
  0
VERTEX
  5
20a
  8
Layer_0
  10
163.91
  20
193.90999
  0
VERTEX
  5
20b
  8
Layer_0
  10
163.91
  20
191
  0
VERTEX
  5
20c
  8
Layer_0
  10
163.93625
  20
190.93623
  0
VERTEX
  5
20d
  8
Layer_0
  10
164
  20
190.90999
  0
VERTEX
  5
20e
  8
Layer_0
  10
170
  20
190.90999
  0
VERTEX
  5
20f
  8
Layer_0
  10
170.06375
  20
190.93623
  0
VERTEX
  5
210
  8
Layer_0
  10
170.09
  20
191
  0
VERTEX
  5
211
  8
Layer_0
  10
170.09
  20
193.90999
  0
VERTEX
  5
212
  8
Layer_0
  10
170.05624
  20
193.94374
  0
VERTEX
  5
213
  8
Layer_0
  10
170.09
  20
193.90999
  0
VERTEX
  5
214
  8
Layer_0
  10
175.91
  20
193.90999
  0
VERTEX
  5
215
  8
Layer_0
  10
175.94376
  20
193.94374
  0
VERTEX
  5
216
  8
Layer_0
  10
175.91
  20
193.90999
  0
VERTEX
  5
217
  8
Layer_0
  10
175.91
  20
191
  0
VERTEX
  5
218
  8
Layer_0
  10
175.93625
  20
190.93623
  0
VERTEX
  5
219
  8
Layer_0
  10
176
  20
190.90999
  0
VERTEX
  5
21a
  8
Layer_0
  10
182
  20
190.90999
  0
VERTEX
  5
21b
  8
Layer_0
  10
182.06375
  20
190.93623
  0
VERTEX
  5
21c
  8
Layer_0
  10
182.09
  20
191
  0
VERTEX
  5
21d
  8
Layer_0
  10
182.09
  20
193.90999
  0
VERTEX
  5
21e
  8
Layer_0
  10
182.05624
  20
193.94374
  0
VERTEX
  5
21f
  8
Layer_0
  10
182.09
  20
193.90999
  0
VERTEX
  5
220
  8
Layer_0
  10
187.91
  20
193.90999
  0
VERTEX
  5
221
  8
Layer_0
  10
187.94376
  20
193.94374
  0
VERTEX
  5
222
  8
Layer_0
  10
187.91
  20
193.90999
  0
VERTEX
  5
223
  8
Layer_0
  10
187.91
  20
191
  0
VERTEX
  5
224
  8
Layer_0
  10
187.93625
  20
190.93623
  0
VERTEX
  5
225
  8
Layer_0
  10
188
  20
190.90999
  0
VERTEX
  5
226
  8
Layer_0
  10
194
  20
190.90999
  0
VERTEX
  5
227
  8
Layer_0
  10
194.06375
  20
190.93623
  0
VERTEX
  5
228
  8
Layer_0
  10
194.09
  20
191
  0
VERTEX
  5
229
  8
Layer_0
  10
194.09
  20
193.90999
  0
VERTEX
  5
22a
  8
Layer_0
  10
194.05624
  20
193.94374
  0
VERTEX
  5
22b
  8
Layer_0
  10
194.09
  20
193.90999
  0
VERTEX
  5
22c
  8
Layer_0
  10
199.91
  20
193.90999
  0
VERTEX
  5
22d
  8
Layer_0
  10
199.94376
  20
193.94374
  0
VERTEX
  5
22e
  8
Layer_0
  10
199.91
  20
193.90999
  0
VERTEX
  5
22f
  8
Layer_0
  10
199.91
  20
191
  0
VERTEX
  5
230
  8
Layer_0
  10
199.93625
  20
190.93623
  0
VERTEX
  5
231
  8
Layer_0
  10
200
  20
190.90999
  0
VERTEX
  5
232
  8
Layer_0
  10
206
  20
190.90999
  0
VERTEX
  5
233
  8
Layer_0
  10
206.06375
  20
190.93623
  0
VERTEX
  5
234
  8
Layer_0
  10
206.09
  20
191
  0
VERTEX
  5
235
  8
Layer_0
  10
206.09
  20
193.90999
  0
VERTEX
  5
236
  8
Layer_0
  10
206.05624
  20
193.94374
  0
VERTEX
  5
237
  8
Layer_0
  10
206.09
  20
193.90999
  0
VERTEX
  5
238
  8
Layer_0
  10
211.91
  20
193.90999
  0
VERTEX
  5
239
  8
Layer_0
  10
211.94376
  20
193.94374
  0
VERTEX
  5
23a
  8
Layer_0
  10
211.91
  20
193.90999
  0
VERTEX
  5
23b
  8
Layer_0
  10
211.91
  20
191
  0
VERTEX
  5
23c
  8
Layer_0
  10
211.93625
  20
190.93623
  0
VERTEX
  5
23d
  8
Layer_0
  10
212
  20
190.90999
  0
VERTEX
  5
23e
  8
Layer_0
  10
218
  20
190.90999
  0
VERTEX
  5
23f
  8
Layer_0
  10
218.06375
  20
190.93623
  0
VERTEX
  5
240
  8
Layer_0
  10
218.09
  20
191
  0
VERTEX
  5
241
  8
Layer_0
  10
218.09
  20
193.90999
  0
VERTEX
  5
242
  8
Layer_0
  10
218.05624
  20
193.94374
  0
VERTEX
  5
243
  8
Layer_0
  10
218.09
  20
193.90999
  0
VERTEX
  5
244
  8
Layer_0
  10
223.91
  20
193.90999
  0
VERTEX
  5
245
  8
Layer_0
  10
223.94376
  20
193.94374
  0
VERTEX
  5
246
  8
Layer_0
  10
223.91
  20
193.90999
  0
VERTEX
  5
247
  8
Layer_0
  10
223.91
  20
191
  0
VERTEX
  5
248
  8
Layer_0
  10
223.93625
  20
190.93623
  0
VERTEX
  5
249
  8
Layer_0
  10
224
  20
190.90999
  0
VERTEX
  5
24a
  8
Layer_0
  10
230
  20
190.90999
  0
VERTEX
  5
24b
  8
Layer_0
  10
230.06375
  20
190.93623
  0
VERTEX
  5
24c
  8
Layer_0
  10
230.09
  20
191
  0
VERTEX
  5
24d
  8
Layer_0
  10
230.09
  20
193.90999
  0
VERTEX
  5
24e
  8
Layer_0
  10
230.05624
  20
193.94374
  0
VERTEX
  5
24f
  8
Layer_0
  10
230.09
  20
193.90999
  0
VERTEX
  5
250
  8
Layer_0
  10
232
  20
193.90999
  0
VERTEX
  5
251
  8
Layer_0
  10
232.06375
  20
193.93623
  0
VERTEX
  5
252
  8
Layer_0
  10
232.09
  20
194
  0
VERTEX
  5
253
  8
Layer_0
  10
232.09
  20
197.40999
  0
VERTEX
  5
254
  8
Layer_0
  10
232.05624
  20
197.44374
  0
VERTEX
  5
255
  8
Layer_0
  10
232.09
  20
197.40999
  0
VERTEX
  5
256
  8
Layer_0
  10
235
  20
197.40999
  0
VERTEX
  5
257
  8
Layer_0
  10
235.06375
  20
197.43623
  0
VERTEX
  5
258
  8
Layer_0
  10
235.09
  20
197.5
  0
VERTEX
  5
259
  8
Layer_0
  10
235.09
  20
203.5
  0
VERTEX
  5
25a
  8
Layer_0
  10
235.06375
  20
203.56374
  0
VERTEX
  5
25b
  8
Layer_0
  10
235
  20
203.59
  0
VERTEX
  5
25c
  8
Layer_0
  10
232.09
  20
203.59
  0
VERTEX
  5
25d
  8
Layer_0
  10
232.05624
  20
203.55624
  0
VERTEX
  5
25e
  8
Layer_0
  10
232.09
  20
203.59
  0
VERTEX
  5
25f
  8
Layer_0
  10
232.09
  20
209.40999
  0
VERTEX
  5
260
  8
Layer_0
  10
232.05624
  20
209.44374
  0
VERTEX
  5
261
  8
Layer_0
  10
232.09
  20
209.40999
  0
VERTEX
  5
262
  8
Layer_0
  10
235
  20
209.40999
  0
VERTEX
  5
263
  8
Layer_0
  10
235.06375
  20
209.43623
  0
VERTEX
  5
264
  8
Layer_0
  10
235.09
  20
209.5
  0
VERTEX
  5
265
  8
Layer_0
  10
235.09
  20
215.5
  0
VERTEX
  5
266
  8
Layer_0
  10
235.06375
  20
215.56374
  0
VERTEX
  5
267
  8
Layer_0
  10
235
  20
215.59
  0
VERTEX
  5
268
  8
Layer_0
  10
232.09
  20
215.59
  0
VERTEX
  5
269
  8
Layer_0
  10
232.05624
  20
215.55624
  0
VERTEX
  5
26a
  8
Layer_0
  10
232.09
  20
215.59
  0
VERTEX
  5
26b
  8
Layer_0
  10
232.09
  20
218.90999
  0
VERTEX
  5
26c
  8
Layer_0
  10
232.05624
  20
218.94374
  0
VERTEX
  5
26d
  8
Layer_0
  10
232.09
  20
218.90999
  0
VERTEX
  5
26e
  8
Layer_0
  10
235
  20
218.90999
  0
VERTEX
  5
26f
  8
Layer_0
  10
235.06375
  20
218.93623
  0
VERTEX
  5
270
  8
Layer_0
  10
235.09
  20
219
  0
VERTEX
  5
271
  8
Layer_0
  10
235.07483
  20
219.92343
  0
VERTEX
  5
272
  8
Layer_0
  10
235.02942
  20
220.84409
  0
VERTEX
  5
273
  8
Layer_0
  10
234.95396
  20
221.76129
  0
VERTEX
  5
274
  8
Layer_0
  10
234.84868
  20
222.67433
  0
VERTEX
  5
275
  8
Layer_0
  10
234.71373
  20
223.58246
  0
VERTEX
  5
276
  8
Layer_0
  10
234.54932
  20
224.48499
  0
VERTEX
  5
277
  8
Layer_0
  10
234.35562
  20
225.3812
  0
VERTEX
  5
278
  8
Layer_0
  10
234.13287
  20
226.27037
  0
VERTEX
  5
279
  8
Layer_0
  10
233.88123
  20
227.15181
  0
VERTEX
  5
27a
  8
Layer_0
  10
233.60089
  20
228.02478
  0
VERTEX
  5
27b
  8
Layer_0
  10
233.29205
  20
228.88858
  0
VERTEX
  5
27c
  8
Layer_0
  10
232.9549
  20
229.74248
  0
VERTEX
  5
27d
  8
Layer_0
  10
232.58963
  20
230.58577
  0
VERTEX
  5
27e
  8
Layer_0
  10
232.19643
  20
231.41777
  0
VERTEX
  5
27f
  8
Layer_0
  10
231.7755
  20
232.23775
  0
VERTEX
  5
280
  8
Layer_0
  10
231.32701
  20
233.04498
  0
VERTEX
  5
281
  8
Layer_0
  10
230.85207
  20
233.83704
  0
VERTEX
  5
282
  8
Layer_0
  10
230.35233
  20
234.6116
  0
VERTEX
  5
283
  8
Layer_0
  10
229.82831
  20
235.36816
  0
VERTEX
  5
284
  8
Layer_0
  10
229.28056
  20
236.10617
  0
VERTEX
  5
285
  8
Layer_0
  10
228.70958
  20
236.82513
  0
VERTEX
  5
286
  8
Layer_0
  10
228.11589
  20
237.52452
  0
VERTEX
  5
287
  8
Layer_0
  10
227.50003
  20
238.20381
  0
VERTEX
  5
288
  8
Layer_0
  10
226.8625
  20
238.86249
  0
VERTEX
  5
289
  8
Layer_0
  10
226.20384
  20
239.50003
  0
VERTEX
  5
28a
  8
Layer_0
  10
225.52455
  20
240.11589
  0
VERTEX
  5
28b
  8
Layer_0
  10
224.82516
  20
240.70958
  0
VERTEX
  5
28c
  8
Layer_0
  10
224.10619
  20
241.28055
  0
VERTEX
  5
28d
  8
Layer_0
  10
223.36816
  20
241.82831
  0
VERTEX
  5
28e
  8
Layer_0
  10
222.6116
  20
242.35233
  0
VERTEX
  5
28f
  8
Layer_0
  10
221.83704
  20
242.85205
  0
VERTEX
  5
290
  8
Layer_0
  10
221.045
  20
243.327
  0
VERTEX
  5
291
  8
Layer_0
  10
220.23778
  20
243.77547
  0
VERTEX
  5
292
  8
Layer_0
  10
219.4178
  20
244.19641
  0
VERTEX
  5
293
  8
Layer_0
  10
218.5858
  20
244.58961
  0
VERTEX
  5
294
  8
Layer_0
  10
217.74249
  20
244.9549
  0
VERTEX
  5
295
  8
Layer_0
  10
216.88858
  20
245.29205
  0
VERTEX
  5
296
  8
Layer_0
  10
216.02478
  20
245.60089
  0
VERTEX
  5
297
  8
Layer_0
  10
215.15181
  20
245.88123
  0
VERTEX
  5
298
  8
Layer_0
  10
214.27037
  20
246.13287
  0
VERTEX
  5
299
  8
Layer_0
  10
213.3812
  20
246.35562
  0
VERTEX
  5
29a
  8
Layer_0
  10
212.48499
  20
246.54932
  0
VERTEX
  5
29b
  8
Layer_0
  10
211.58246
  20
246.71373
  0
VERTEX
  5
29c
  8
Layer_0
  10
210.67433
  20
246.84868
  0
VERTEX
  5
29d
  8
Layer_0
  10
209.76129
  20
246.95396
  0
VERTEX
  5
29e
  8
Layer_0
  10
208.84409
  20
247.02942
  0
VERTEX
  5
29f
  8
Layer_0
  10
207.92343
  20
247.07483
  0
VERTEX
  5
2a0
  8
Layer_0
  10
207
  20
247.09
  0
VERTEX
  5
2a1
  8
Layer_0
  10
67
  20
247.09
  0
VERTEX
  5
2a2
  8
Layer_0
  10
66.076569
  20
247.07483
  0
VERTEX
  5
2a3
  8
Layer_0
  10
65.155899
  20
247.02942
  0
VERTEX
  5
2a4
  8
Layer_0
  10
64.238701
  20
246.95396
  0
VERTEX
  5
2a5
  8
Layer_0
  10
63.325676
  20
246.84868
  0
VERTEX
  5
2a6
  8
Layer_0
  10
62.417542
  20
246.71373
  0
VERTEX
  5
2a7
  8
Layer_0
  10
61.515011
  20
246.54932
  0
VERTEX
  5
2a8
  8
Layer_0
  10
60.618801
  20
246.35562
  0
VERTEX
  5
2a9
  8
Layer_0
  10
59.72963
  20
246.13287
  0
VERTEX
  5
2aa
  8
Layer_0
  10
58.848198
  20
245.88123
  0
VERTEX
  5
2ab
  8
Layer_0
  10
57.975227
  20
245.60089
  0
VERTEX
  5
2ac
  8
Layer_0
  10
57.111427
  20
245.29205
  0
VERTEX
  5
2ad
  8
Layer_0
  10
56.257519
  20
244.9549
  0
VERTEX
  5
2ae
  8
Layer_0
  10
55.414207
  20
244.58961
  0
VERTEX
  5
2af
  8
Layer_0
  10
54.582207
  20
244.19641
  0
VERTEX
  5
2b0
  8
Layer_0
  10
53.762238
  20
243.77547
  0
VERTEX
  5
2b1
  8
Layer_0
  10
52.955002
  20
243.327
  0
VERTEX
  5
2b2
  8
Layer_0
  10
52.162949
  20
242.85205
  0
VERTEX
  5
2b3
  8
Layer_0
  10
51.38839
  20
242.35233
  0
VERTEX
  5
2b4
  8
Layer_0
  10
50.631836
  20
241.82831
  0
VERTEX
  5
2b5
  8
Layer_0
  10
49.893814
  20
241.28055
  0
VERTEX
  5
2b6
  8
Layer_0
  10
49.17485
  20
240.70958
  0
VERTEX
  5
2b7
  8
Layer_0
  10
48.475464
  20
240.11589
  0
VERTEX
  5
2b8
  8
Layer_0
  10
47.796173
  20
239.50003
  0
VERTEX
  5
2b9
  8
Layer_0
  10
47.137505
  20
238.86249
  0
VERTEX
  5
2ba
  8
Layer_0
  10
46.499969
  20
238.20381
  0
VERTEX
  5
2bb
  8
Layer_0
  10
45.884102
  20
237.52452
  0
VERTEX
  5
2bc
  8
Layer_0
  10
45.290421
  20
236.82513
  0
VERTEX
  5
2bd
  8
Layer_0
  10
44.71944
  20
236.10617
  0
VERTEX
  5
2be
  8
Layer_0
  10
44.171692
  20
235.36816
  0
VERTEX
  5
2bf
  8
Layer_0
  10
43.647686
  20
234.6116
  0
VERTEX
  5
2c0
  8
Layer_0
  10
43.147949
  20
233.83704
  0
VERTEX
  5
2c1
  8
Layer_0
  10
42.673004
  20
233.04498
  0
VERTEX
  5
2c2
  8
Layer_0
  10
42.224525
  20
232.23775
  0
VERTEX
  5
2c3
  8
Layer_0
  10
41.803589
  20
231.41777
  0
VERTEX
  5
2c4
  8
Layer_0
  10
41.410385
  20
230.58577
  0
VERTEX
  5
2c5
  8
Layer_0
  10
41.045113
  20
229.74248
  0
VERTEX
  5
2c6
  8
Layer_0
  10
40.707958
  20
228.88858
  0
VERTEX
  5
2c7
  8
Layer_0
  10
40.399117
  20
228.02478
  0
VERTEX
  5
2c8
  8
Layer_0
  10
40.118774
  20
227.15181
  0
VERTEX
  5
2c9
  8
Layer_0
  10
39.86713
  20
226.27037
  0
VERTEX
  5
2ca
  8
Layer_0
  10
39.644371
  20
225.3812
  0
VERTEX
  5
2cb
  8
Layer_0
  10
39.450691
  20
224.48499
  0
VERTEX
  5
2cc
  8
Layer_0
  10
39.286282
  20
223.58246
  0
VERTEX
  5
2cd
  8
Layer_0
  10
39.151333
  20
222.67433
  0
VERTEX
  5
2ce
  8
Layer_0
  10
39.046036
  20
221.76129
  0
VERTEX
  5
2cf
  8
Layer_0
  10
38.970589
  20
220.84409
  0
VERTEX
  5
2d0
  8
Layer_0
  10
38.925179
  20
219.92343
  0
VERTEX
  5
2d1
  8
Layer_0
  10
38.910004
  20
219
  0
VERTEX
  5
2d2
  8
Layer_0
  10
38.936256
  20
218.93623
  0
VERTEX
  5
2d3
  8
Layer_0
  10
39.000004
  20
218.90999
  0
VERTEX
  5
2d4
  8
Layer_0
  10
41.910004
  20
218.90999
  0
VERTEX
  5
2d5
  8
Layer_0
  10
41.943752
  20
218.94374
  0
VERTEX
  5
2d6
  8
Layer_0
  10
41.910004
  20
218.90999
  0
VERTEX
  5
2d7
  8
Layer_0
  10
41.910004
  20
215.59
  0
VERTEX
  5
2d8
  8
Layer_0
  10
41.943752
  20
215.55624
  0
VERTEX
  5
2d9
  8
Layer_0
  10
41.910004
  20
215.59
  0
VERTEX
  5
2da
  8
Layer_0
  10
39.000004
  20
215.59
  0
VERTEX
  5
2db
  8
Layer_0
  10
38.936256
  20
215.56374
  0
VERTEX
  5
2dc
  8
Layer_0
  10
38.910004
  20
215.5
  0
VERTEX
  5
2dd
  8
Layer_0
  10
38.910004
  20
209.5
  0
VERTEX
  5
2de
  8
Layer_0
  10
38.936256
  20
209.43623
  0
VERTEX
  5
2df
  8
Layer_0
  10
39.000004
  20
209.40999
  0
VERTEX
  5
2e0
  8
Layer_0
  10
41.910004
  20
209.40999
  0
VERTEX
  5
2e1
  8
Layer_0
  10
41.943752
  20
209.44374
  0
VERTEX
  5
2e2
  8
Layer_0
  10
41.910004
  20
209.40999
  0
VERTEX
  5
2e3
  8
Layer_0
  10
41.910004
  20
203.59
  0
VERTEX
  5
2e4
  8
Layer_0
  10
41.943752
  20
203.55624
  0
VERTEX
  5
2e5
  8
Layer_0
  10
41.910004
  20
203.59
  0
VERTEX
  5
2e6
  8
Layer_0
  10
39.000004
  20
203.59
  0
VERTEX
  5
2e7
  8
Layer_0
  10
38.936256
  20
203.56374
  0
VERTEX
  5
2e8
  8
Layer_0
  10
38.910004
  20
203.5
  0
VERTEX
  5
2e9
  8
Layer_0
  10
38.910004
  20
197.5
  0
VERTEX
  5
2ea
  8
Layer_0
  10
38.936256
  20
197.43623
  0
VERTEX
  5
2eb
  8
Layer_0
  10
39.000004
  20
197.40999
  0
VERTEX
  5
2ec
  8
Layer_0
  10
41.910004
  20
197.40999
  0
VERTEX
  5
2ed
  8
Layer_0
  10
41.943752
  20
197.44374
  0
VERTEX
  5
2ee
  8
Layer_0
  10
41.910004
  20
197.40999
  0
VERTEX
  5
2ef
  8
Layer_0
  10
41.910004
  20
194
  0
SEQEND
  0
POLYLINE
  5
2f1
  8
Layer_0
  62
0
  70
1
  66
1
  10
0
  20
0
  30
0
  0
VERTEX
  5
2f1
  8
Layer_0
  10
73.000015
  20
139.5
  0
VERTEX
  5
2f2
  8
Layer_0
  10
70.090012
  20
139.5
  0
VERTEX
  5
2f3
  8
Layer_0
  10
70.056259
  20
139.46625
  0
VERTEX
  5
2f4
  8
Layer_0
  10
70.090012
  20
139.5
  0
VERTEX
  5
2f5
  8
Layer_0
  10
70.090012
  20
142.32001
  0
VERTEX
  5
2f6
  8
Layer_0
  10
70.056259
  20
142.35376
  0
VERTEX
  5
2f7
  8
Layer_0
  10
70.090012
  20
142.32001
  0
VERTEX
  5
2f8
  8
Layer_0
  10
75.910004
  20
142.32001
  0
VERTEX
  5
2f9
  8
Layer_0
  10
75.943756
  20
142.35376
  0
VERTEX
  5
2fa
  8
Layer_0
  10
75.910004
  20
142.32001
  0
VERTEX
  5
2fb
  8
Layer_0
  10
75.910004
  20
139.5
  0
VERTEX
  5
2fc
  8
Layer_0
  10
75.943756
  20
139.46625
  0
VERTEX
  5
2fd
  8
Layer_0
  10
75.910004
  20
139.5
  0
VERTEX
  5
2fe
  8
Layer_0
  10
73.000015
  20
139.5
  0
SEQEND
  0
POLYLINE
  5
300
  8
Layer_0
  62
0
  70
1
  66
1
  10
0
  20
0
  30
0
  0
VERTEX
  5
300
  8
Layer_0
  10
85
  20
139.5
  0
VERTEX
  5
301
  8
Layer_0
  10
82.090012
  20
139.5
  0
VERTEX
  5
302
  8
Layer_0
  10
82.056259
  20
139.46625
  0
VERTEX
  5
303
  8
Layer_0
  10
82.090012
  20
139.5
  0
VERTEX
  5
304
  8
Layer_0
  10
82.090012
  20
142.32001
  0
VERTEX
  5
305
  8
Layer_0
  10
82.056259
  20
142.35376
  0
VERTEX
  5
306
  8
Layer_0
  10
82.090012
  20
142.32001
  0
VERTEX
  5
307
  8
Layer_0
  10
87.910004
  20
142.32001
  0
VERTEX
  5
308
  8
Layer_0
  10
87.943756
  20
142.35376
  0
VERTEX
  5
309
  8
Layer_0
  10
87.910004
  20
142.32001
  0
VERTEX
  5
30a
  8
Layer_0
  10
87.910004
  20
139.5
  0
VERTEX
  5
30b
  8
Layer_0
  10
87.943756
  20
139.46625
  0
VERTEX
  5
30c
  8
Layer_0
  10
87.910004
  20
139.5
  0
VERTEX
  5
30d
  8
Layer_0
  10
85
  20
139.5
  0
SEQEND
  0
POLYLINE
  5
30f
  8
Layer_0
  62
0
  70
1
  66
1
  10
0
  20
0
  30
0
  0
VERTEX
  5
30f
  8
Layer_0
  10
97
  20
139.5
  0
VERTEX
  5
310
  8
Layer_0
  10
94.089996
  20
139.5
  0
VERTEX
  5
311
  8
Layer_0
  10
94.056244
  20
139.46625
  0
VERTEX
  5
312
  8
Layer_0
  10
94.089996
  20
139.5
  0
VERTEX
  5
313
  8
Layer_0
  10
94.089996
  20
142.32001
  0
VERTEX
  5
314
  8
Layer_0
  10
94.056244
  20
142.35376
  0
VERTEX
  5
315
  8
Layer_0
  10
94.089996
  20
142.32001
  0
VERTEX
  5
316
  8
Layer_0
  10
99.910004
  20
142.32001
  0
VERTEX
  5
317
  8
Layer_0
  10
99.943756
  20
142.35376
  0
VERTEX
  5
318
  8
Layer_0
  10
99.910004
  20
142.32001
  0
VERTEX
  5
319
  8
Layer_0
  10
99.910004
  20
139.5
  0
VERTEX
  5
31a
  8
Layer_0
  10
99.943756
  20
139.46625
  0
VERTEX
  5
31b
  8
Layer_0
  10
99.910004
  20
139.5
  0
VERTEX
  5
31c
  8
Layer_0
  10
97
  20
139.5
  0
SEQEND
  0
POLYLINE
  5
31e
  8
Layer_0
  62
0
  70
1
  66
1
  10
0
  20
0
  30
0
  0
VERTEX
  5
31e
  8
Layer_0
  10
109
  20
139.5
  0
VERTEX
  5
31f
  8
Layer_0
  10
106.09
  20
139.5
  0
VERTEX
  5
320
  8
Layer_0
  10
106.05624
  20
139.46625
  0
VERTEX
  5
321
  8
Layer_0
  10
106.09
  20
139.5
  0
VERTEX
  5
322
  8
Layer_0
  10
106.09
  20
142.32001
  0
VERTEX
  5
323
  8
Layer_0
  10
106.05624
  20
142.35376
  0
VERTEX
  5
324
  8
Layer_0
  10
106.09
  20
142.32001
  0
VERTEX
  5
325
  8
Layer_0
  10
111.91
  20
142.32001
  0
VERTEX
  5
326
  8
Layer_0
  10
111.94376
  20
142.35376
  0
VERTEX
  5
327
  8
Layer_0
  10
111.91
  20
142.32001
  0
VERTEX
  5
328
  8
Layer_0
  10
111.91
  20
139.5
  0
VERTEX
  5
329
  8
Layer_0
  10
111.94376
  20
139.46625
  0
VERTEX
  5
32a
  8
Layer_0
  10
111.91
  20
139.5
  0
VERTEX
  5
32b
  8
Layer_0
  10
109
  20
139.5
  0
SEQEND
  0
POLYLINE
  5
32d
  8
Layer_0
  62
0
  70
1
  66
1
  10
0
  20
0
  30
0
  0
VERTEX
  5
32d
  8
Layer_0
  10
121
  20
139.5
  0
VERTEX
  5
32e
  8
Layer_0
  10
118.09
  20
139.5
  0
VERTEX
  5
32f
  8
Layer_0
  10
118.05624
  20
139.46625
  0
VERTEX
  5
330
  8
Layer_0
  10
118.09
  20
139.5
  0
VERTEX
  5
331
  8
Layer_0
  10
118.09
  20
142.32001
  0
VERTEX
  5
332
  8
Layer_0
  10
118.05624
  20
142.35376
  0
VERTEX
  5
333
  8
Layer_0
  10
118.09
  20
142.32001
  0
VERTEX
  5
334
  8
Layer_0
  10
123.91
  20
142.32001
  0
VERTEX
  5
335
  8
Layer_0
  10
123.94376
  20
142.35376
  0
VERTEX
  5
336
  8
Layer_0
  10
123.91
  20
142.32001
  0
VERTEX
  5
337
  8
Layer_0
  10
123.91
  20
139.5
  0
VERTEX
  5
338
  8
Layer_0
  10
123.94376
  20
139.46625
  0
VERTEX
  5
339
  8
Layer_0
  10
123.91
  20
139.5
  0
VERTEX
  5
33a
  8
Layer_0
  10
121
  20
139.5
  0
SEQEND
  0
POLYLINE
  5
33c
  8
Layer_0
  62
0
  70
1
  66
1
  10
0
  20
0
  30
0
  0
VERTEX
  5
33c
  8
Layer_0
  10
133
  20
139.5
  0
VERTEX
  5
33d
  8
Layer_0
  10
130.09
  20
139.5
  0
VERTEX
  5
33e
  8
Layer_0
  10
130.05624
  20
139.46625
  0
VERTEX
  5
33f
  8
Layer_0
  10
130.09
  20
139.5
  0
VERTEX
  5
340
  8
Layer_0
  10
130.09
  20
142.32001
  0
VERTEX
  5
341
  8
Layer_0
  10
130.05624
  20
142.35376
  0
VERTEX
  5
342
  8
Layer_0
  10
130.09
  20
142.32001
  0
VERTEX
  5
343
  8
Layer_0
  10
135.91
  20
142.32001
  0
VERTEX
  5
344
  8
Layer_0
  10
135.94376
  20
142.35376
  0
VERTEX
  5
345
  8
Layer_0
  10
135.91
  20
142.32001
  0
VERTEX
  5
346
  8
Layer_0
  10
135.91
  20
139.5
  0
VERTEX
  5
347
  8
Layer_0
  10
135.94376
  20
139.46625
  0
VERTEX
  5
348
  8
Layer_0
  10
135.91
  20
139.5
  0
VERTEX
  5
349
  8
Layer_0
  10
133
  20
139.5
  0
SEQEND
  0
POLYLINE
  5
34b
  8
Layer_0
  62
0
  70
1
  66
1
  10
0
  20
0
  30
0
  0
VERTEX
  5
34b
  8
Layer_0
  10
145
  20
139.5
  0
VERTEX
  5
34c
  8
Layer_0
  10
142.09
  20
139.5
  0
VERTEX
  5
34d
  8
Layer_0
  10
142.05624
  20
139.46625
  0
VERTEX
  5
34e
  8
Layer_0
  10
142.09
  20
139.5
  0
VERTEX
  5
34f
  8
Layer_0
  10
142.09
  20
142.32001
  0
VERTEX
  5
350
  8
Layer_0
  10
142.05624
  20
142.35376
  0
VERTEX
  5
351
  8
Layer_0
  10
142.09
  20
142.32001
  0
VERTEX
  5
352
  8
Layer_0
  10
147.91
  20
142.32001
  0
VERTEX
  5
353
  8
Layer_0
  10
147.94376
  20
142.35376
  0
VERTEX
  5
354
  8
Layer_0
  10
147.91
  20
142.32001
  0
VERTEX
  5
355
  8
Layer_0
  10
147.91
  20
139.5
  0
VERTEX
  5
356
  8
Layer_0
  10
147.94376
  20
139.46625
  0
VERTEX
  5
357
  8
Layer_0
  10
147.91
  20
139.5
  0
VERTEX
  5
358
  8
Layer_0
  10
145
  20
139.5
  0
SEQEND
  0
POLYLINE
  5
35a
  8
Layer_0
  62
0
  70
1
  66
1
  10
0
  20
0
  30
0
  0
VERTEX
  5
35a
  8
Layer_0
  10
157
  20
139.5
  0
VERTEX
  5
35b
  8
Layer_0
  10
154.09
  20
139.5
  0
VERTEX
  5
35c
  8
Layer_0
  10
154.05624
  20
139.46625
  0
VERTEX
  5
35d
  8
Layer_0
  10
154.09
  20
139.5
  0
VERTEX
  5
35e
  8
Layer_0
  10
154.09
  20
142.32001
  0
VERTEX
  5
35f
  8
Layer_0
  10
154.05624
  20
142.35376
  0
VERTEX
  5
360
  8
Layer_0
  10
154.09
  20
142.32001
  0
VERTEX
  5
361
  8
Layer_0
  10
159.91
  20
142.32001
  0
VERTEX
  5
362
  8
Layer_0
  10
159.94376
  20
142.35376
  0
VERTEX
  5
363
  8
Layer_0
  10
159.91
  20
142.32001
  0
VERTEX
  5
364
  8
Layer_0
  10
159.91
  20
139.5
  0
VERTEX
  5
365
  8
Layer_0
  10
159.94376
  20
139.46625
  0
VERTEX
  5
366
  8
Layer_0
  10
159.91
  20
139.5
  0
VERTEX
  5
367
  8
Layer_0
  10
157
  20
139.5
  0
SEQEND
  0
POLYLINE
  5
369
  8
Layer_0
  62
0
  70
1
  66
1
  10
0
  20
0
  30
0
  0
VERTEX
  5
369
  8
Layer_0
  10
169
  20
139.5
  0
VERTEX
  5
36a
  8
Layer_0
  10
166.09
  20
139.5
  0
VERTEX
  5
36b
  8
Layer_0
  10
166.05624
  20
139.46625
  0
VERTEX
  5
36c
  8
Layer_0
  10
166.09
  20
139.5
  0
VERTEX
  5
36d
  8
Layer_0
  10
166.09
  20
142.32001
  0
VERTEX
  5
36e
  8
Layer_0
  10
166.05624
  20
142.35376
  0
VERTEX
  5
36f
  8
Layer_0
  10
166.09
  20
142.32001
  0
VERTEX
  5
370
  8
Layer_0
  10
171.91
  20
142.32001
  0
VERTEX
  5
371
  8
Layer_0
  10
171.94376
  20
142.35376
  0
VERTEX
  5
372
  8
Layer_0
  10
171.91
  20
142.32001
  0
VERTEX
  5
373
  8
Layer_0
  10
171.91
  20
139.5
  0
VERTEX
  5
374
  8
Layer_0
  10
171.94376
  20
139.46625
  0
VERTEX
  5
375
  8
Layer_0
  10
171.91
  20
139.5
  0
VERTEX
  5
376
  8
Layer_0
  10
169
  20
139.5
  0
SEQEND
  0
POLYLINE
  5
378
  8
Layer_0
  62
0
  70
1
  66
1
  10
0
  20
0
  30
0
  0
VERTEX
  5
378
  8
Layer_0
  10
181
  20
139.5
  0
VERTEX
  5
379
  8
Layer_0
  10
178.09
  20
139.5
  0
VERTEX
  5
37a
  8
Layer_0
  10
178.05624
  20
139.46625
  0
VERTEX
  5
37b
  8
Layer_0
  10
178.09
  20
139.5
  0
VERTEX
  5
37c
  8
Layer_0
  10
178.09
  20
142.32001
  0
VERTEX
  5
37d
  8
Layer_0
  10
178.05624
  20
142.35376
  0
VERTEX
  5
37e
  8
Layer_0
  10
178.09
  20
142.32001
  0
VERTEX
  5
37f
  8
Layer_0
  10
183.91
  20
142.32001
  0
VERTEX
  5
380
  8
Layer_0
  10
183.94376
  20
142.35376
  0
VERTEX
  5
381
  8
Layer_0
  10
183.91
  20
142.32001
  0
VERTEX
  5
382
  8
Layer_0
  10
183.91
  20
139.5
  0
VERTEX
  5
383
  8
Layer_0
  10
183.94376
  20
139.46625
  0
VERTEX
  5
384
  8
Layer_0
  10
183.91
  20
139.5
  0
VERTEX
  5
385
  8
Layer_0
  10
181
  20
139.5
  0
SEQEND
  0
POLYLINE
  5
387
  8
Layer_0
  62
0
  70
1
  66
1
  10
0
  20
0
  30
0
  0
VERTEX
  5
387
  8
Layer_0
  10
193
  20
139.5
  0
VERTEX
  5
388
  8
Layer_0
  10
190.09
  20
139.5
  0
VERTEX
  5
389
  8
Layer_0
  10
190.05624
  20
139.46625
  0
VERTEX
  5
38a
  8
Layer_0
  10
190.09
  20
139.5
  0
VERTEX
  5
38b
  8
Layer_0
  10
190.09
  20
142.32001
  0
VERTEX
  5
38c
  8
Layer_0
  10
190.05624
  20
142.35376
  0
VERTEX
  5
38d
  8
Layer_0
  10
190.09
  20
142.32001
  0
VERTEX
  5
38e
  8
Layer_0
  10
195.91
  20
142.32001
  0
VERTEX
  5
38f
  8
Layer_0
  10
195.94376
  20
142.35376
  0
VERTEX
  5
390
  8
Layer_0
  10
195.91
  20
142.32001
  0
VERTEX
  5
391
  8
Layer_0
  10
195.91
  20
139.5
  0
VERTEX
  5
392
  8
Layer_0
  10
195.94376
  20
139.46625
  0
VERTEX
  5
393
  8
Layer_0
  10
195.91
  20
139.5
  0
VERTEX
  5
394
  8
Layer_0
  10
193
  20
139.5
  0
SEQEND
  0
POLYLINE
  5
396
  8
Layer_0
  62
0
  70
1
  66
1
  10
0
  20
0
  30
0
  0
VERTEX
  5
396
  8
Layer_0
  10
58.602005
  20
143.495
  0
VERTEX
  5
397
  8
Layer_0
  10
61.41301
  20
142.742
  0
VERTEX
  5
398
  8
Layer_0
  10
61.45388
  20
142.76599
  0
VERTEX
  5
399
  8
Layer_0
  10
61.41301
  20
142.742
  0
VERTEX
  5
39a
  8
Layer_0
  10
60.683014
  20
140.01801
  0
VERTEX
  5
39b
  8
Layer_0
  10
60.706635
  20
139.97675
  0
VERTEX
  5
39c
  8
Layer_0
  10
60.683014
  20
140.01801
  0
VERTEX
  5
39d
  8
Layer_0
  10
55.061005
  20
141.52499
  0
VERTEX
  5
39e
  8
Layer_0
  10
55.01976
  20
141.50098
  0
VERTEX
  5
39f
  8
Layer_0
  10
55.061005
  20
141.52499
  0
VERTEX
  5
3a0
  8
Layer_0
  10
55.791016
  20
144.24899
  0
VERTEX
  5
3a1
  8
Layer_0
  10
55.767014
  20
144.28986
  0
VERTEX
  5
3a2
  8
Layer_0
  10
55.791016
  20
144.24899
  0
VERTEX
  5
3a3
  8
Layer_0
  10
58.602005
  20
143.495
  0
SEQEND
  0
POLYLINE
  5
3a5
  8
Layer_0
  62
0
  70
1
  66
1
  10
0
  20
0
  30
0
  0
VERTEX
  5
3a5
  8
Layer_0
  10
50.984009
  20
147.89398
  0
VERTEX
  5
3a6
  8
Layer_0
  10
53.041016
  20
145.836
  0
VERTEX
  5
3a7
  8
Layer_0
  10
53.089012
  20
145.836
  0
VERTEX
  5
3a8
  8
Layer_0
  10
53.041016
  20
145.836
  0
VERTEX
  5
3a9
  8
Layer_0
  10
51.047012
  20
143.84198
  0
VERTEX
  5
3aa
  8
Layer_0
  10
51.047386
  20
143.79401
  0
VERTEX
  5
3ab
  8
Layer_0
  10
51.047012
  20
143.84198
  0
VERTEX
  5
3ac
  8
Layer_0
  10
46.932007
  20
147.95697
  0
VERTEX
  5
3ad
  8
Layer_0
  10
46.88401
  20
147.95734
  0
VERTEX
  5
3ae
  8
Layer_0
  10
46.932007
  20
147.95697
  0
VERTEX
  5
3af
  8
Layer_0
  10
48.92601
  20
149.95099
  0
VERTEX
  5
3b0
  8
Layer_0
  10
48.92601
  20
149.99896
  0
VERTEX
  5
3b1
  8
Layer_0
  10
48.92601
  20
149.95099
  0
VERTEX
  5
3b2
  8
Layer_0
  10
50.984009
  20
147.89398
  0
SEQEND
  0
POLYLINE
  5
3b4
  8
Layer_0
  62
0
  70
1
  66
1
  10
0
  20
0
  30
0
  0
VERTEX
  5
3b4
  8
Layer_0
  10
46.585007
  20
155.51199
  0
VERTEX
  5
3b5
  8
Layer_0
  10
47.339005
  20
152.70099
  0
VERTEX
  5
3b6
  8
Layer_0
  10
47.37989
  20
152.67699
  0
VERTEX
  5
3b7
  8
Layer_0
  10
47.339005
  20
152.70099
  0
VERTEX
  5
3b8
  8
Layer_0
  10
44.615005
  20
151.97098
  0
VERTEX
  5
3b9
  8
Layer_0
  10
44.591011
  20
151.92975
  0
VERTEX
  5
3ba
  8
Layer_0
  10
44.615005
  20
151.97098
  0
VERTEX
  5
3bb
  8
Layer_0
  10
43.108017
  20
157.59299
  0
VERTEX
  5
3bc
  8
Layer_0
  10
43.066761
  20
157.61662
  0
VERTEX
  5
3bd
  8
Layer_0
  10
43.108017
  20
157.59299
  0
VERTEX
  5
3be
  8
Layer_0
  10
45.832016
  20
158.323
  0
VERTEX
  5
3bf
  8
Layer_0
  10
45.85601
  20
158.36386
  0
VERTEX
  5
3c0
  8
Layer_0
  10
45.832016
  20
158.323
  0
VERTEX
  5
3c1
  8
Layer_0
  10
46.585007
  20
155.51199
  0
SEQEND
  0
POLYLINE
  5
3c3
  8
Layer_0
  62
0
  70
1
  66
1
  10
0
  20
0
  30
0
  0
VERTEX
  5
3c3
  8
Layer_0
  10
208.12802
  20
140.771
  0
VERTEX
  5
3c4
  8
Layer_0
  10
205.31702
  20
140.01801
  0
VERTEX
  5
3c5
  8
Layer_0
  10
205.29338
  20
139.97675
  0
VERTEX
  5
3c6
  8
Layer_0
  10
205.31702
  20
140.01801
  0
VERTEX
  5
3c7
  8
Layer_0
  10
204.58701
  20
142.742
  0
VERTEX
  5
3c8
  8
Layer_0
  10
204.54614
  20
142.76599
  0
VERTEX
  5
3c9
  8
Layer_0
  10
204.58701
  20
142.742
  0
VERTEX
  5
3ca
  8
Layer_0
  10
210.20901
  20
144.24899
  0
VERTEX
  5
3cb
  8
Layer_0
  10
210.23302
  20
144.28986
  0
VERTEX
  5
3cc
  8
Layer_0
  10
210.20901
  20
144.24899
  0
VERTEX
  5
3cd
  8
Layer_0
  10
210.93903
  20
141.52499
  0
VERTEX
  5
3ce
  8
Layer_0
  10
210.98026
  20
141.50098
  0
VERTEX
  5
3cf
  8
Layer_0
  10
210.93903
  20
141.52499
  0
VERTEX
  5
3d0
  8
Layer_0
  10
208.12802
  20
140.771
  0
SEQEND
  0
POLYLINE
  5
3d2
  8
Layer_0
  62
0
  70
1
  66
1
  10
0
  20
0
  30
0
  0
VERTEX
  5
3d2
  8
Layer_0
  10
217.01001
  20
145.89999
  0
VERTEX
  5
3d3
  8
Layer_0
  10
214.953
  20
143.84198
  0
VERTEX
  5
3d4
  8
Layer_0
  10
214.95264
  20
143.79401
  0
VERTEX
  5
3d5
  8
Layer_0
  10
214.953
  20
143.84198
  0
VERTEX
  5
3d6
  8
Layer_0
  10
212.95901
  20
145.836
  0
VERTEX
  5
3d7
  8
Layer_0
  10
212.91101
  20
145.836
  0
VERTEX
  5
3d8
  8
Layer_0
  10
212.95901
  20
145.836
  0
VERTEX
  5
3d9
  8
Layer_0
  10
217.07401
  20
149.95099
  0
VERTEX
  5
3da
  8
Layer_0
  10
217.07401
  20
149.99896
  0
VERTEX
  5
3db
  8
Layer_0
  10
217.07401
  20
149.95099
  0
VERTEX
  5
3dc
  8
Layer_0
  10
219.06802
  20
147.95697
  0
VERTEX
  5
3dd
  8
Layer_0
  10
219.11603
  20
147.95734
  0
VERTEX
  5
3de
  8
Layer_0
  10
219.06802
  20
147.95697
  0
VERTEX
  5
3df
  8
Layer_0
  10
217.01001
  20
145.89999
  0
SEQEND
  0
POLYLINE
  5
3e1
  8
Layer_0
  62
0
  70
1
  66
1
  10
0
  20
0
  30
0
  0
VERTEX
  5
3e1
  8
Layer_0
  10
222.13901
  20
154.78198
  0
VERTEX
  5
3e2
  8
Layer_0
  10
221.38501
  20
151.97098
  0
VERTEX
  5
3e3
  8
Layer_0
  10
221.40901
  20
151.92975
  0
VERTEX
  5
3e4
  8
Layer_0
  10
221.38501
  20
151.97098
  0
VERTEX
  5
3e5
  8
Layer_0
  10
218.66101
  20
152.70099
  0
VERTEX
  5
3e6
  8
Layer_0
  10
218.62013
  20
152.67699
  0
VERTEX
  5
3e7
  8
Layer_0
  10
218.66101
  20
152.70099
  0
VERTEX
  5
3e8
  8
Layer_0
  10
220.168
  20
158.323
  0
VERTEX
  5
3e9
  8
Layer_0
  10
220.14401
  20
158.36386
  0
VERTEX
  5
3ea
  8
Layer_0
  10
220.168
  20
158.323
  0
VERTEX
  5
3eb
  8
Layer_0
  10
222.892
  20
157.59299
  0
VERTEX
  5
3ec
  8
Layer_0
  10
222.93326
  20
157.61662
  0
VERTEX
  5
3ed
  8
Layer_0
  10
222.892
  20
157.59299
  0
VERTEX
  5
3ee
  8
Layer_0
  10
222.13901
  20
154.78198
  0
SEQEND
  0
POLYLINE
  5
3f0
  8
Layer_0
  62
0
  66
1
  10
0
  20
0
  30
0
  0
VERTEX
  5
3f0
  8
Layer_0
  10
38.000015
  20
134.90997
  0
VERTEX
  5
3f1
  8
Layer_0
  10
39.910004
  20
134.90997
  0
VERTEX
  5
3f2
  8
Layer_0
  10
39.943756
  20
134.94373
  0
VERTEX
  5
3f3
  8
Layer_0
  10
39.910004
  20
134.90997
  0
VERTEX
  5
3f4
  8
Layer_0
  10
39.910004
  20
132
  0
VERTEX
  5
3f5
  8
Layer_0
  10
39.936256
  20
131.93622
  0
VERTEX
  5
3f6
  8
Layer_0
  10
40.000015
  20
131.90997
  0
VERTEX
  5
3f7
  8
Layer_0
  10
46.000015
  20
131.90997
  0
VERTEX
  5
3f8
  8
Layer_0
  10
46.063766
  20
131.93622
  0
VERTEX
  5
3f9
  8
Layer_0
  10
46.090012
  20
132
  0
VERTEX
  5
3fa
  8
Layer_0
  10
46.090012
  20
134.90997
  0
VERTEX
  5
3fb
  8
Layer_0
  10
46.056263
  20
134.94373
  0
VERTEX
  5
3fc
  8
Layer_0
  10
46.090012
  20
134.90997
  0
VERTEX
  5
3fd
  8
Layer_0
  10
51.910004
  20
134.90997
  0
VERTEX
  5
3fe
  8
Layer_0
  10
51.943756
  20
134.94373
  0
VERTEX
  5
3ff
  8
Layer_0
  10
51.910004
  20
134.90997
  0
VERTEX
  5
400
  8
Layer_0
  10
51.910004
  20
132
  0
VERTEX
  5
401
  8
Layer_0
  10
51.936256
  20
131.93622
  0
VERTEX
  5
402
  8
Layer_0
  10
52.000015
  20
131.90997
  0
VERTEX
  5
403
  8
Layer_0
  10
58.000015
  20
131.90997
  0
VERTEX
  5
404
  8
Layer_0
  10
58.063766
  20
131.93622
  0
VERTEX
  5
405
  8
Layer_0
  10
58.090012
  20
132
  0
VERTEX
  5
406
  8
Layer_0
  10
58.090012
  20
134.90997
  0
VERTEX
  5
407
  8
Layer_0
  10
58.056263
  20
134.94373
  0
VERTEX
  5
408
  8
Layer_0
  10
58.090012
  20
134.90997
  0
VERTEX
  5
409
  8
Layer_0
  10
63.910004
  20
134.90997
  0
VERTEX
  5
40a
  8
Layer_0
  10
63.943756
  20
134.94373
  0
VERTEX
  5
40b
  8
Layer_0
  10
63.910004
  20
134.90997
  0
VERTEX
  5
40c
  8
Layer_0
  10
63.910004
  20
132
  0
VERTEX
  5
40d
  8
Layer_0
  10
63.936256
  20
131.93622
  0
VERTEX
  5
40e
  8
Layer_0
  10
64.000015
  20
131.90997
  0
VERTEX
  5
40f
  8
Layer_0
  10
70.000015
  20
131.90997
  0
VERTEX
  5
410
  8
Layer_0
  10
70.063766
  20
131.93622
  0
VERTEX
  5
411
  8
Layer_0
  10
70.090012
  20
132
  0
VERTEX
  5
412
  8
Layer_0
  10
70.090012
  20
134.90997
  0
VERTEX
  5
413
  8
Layer_0
  10
70.056259
  20
134.94373
  0
VERTEX
  5
414
  8
Layer_0
  10
70.090012
  20
134.90997
  0
VERTEX
  5
415
  8
Layer_0
  10
75.910004
  20
134.90997
  0
VERTEX
  5
416
  8
Layer_0
  10
75.943756
  20
134.94373
  0
VERTEX
  5
417
  8
Layer_0
  10
75.910004
  20
134.90997
  0
VERTEX
  5
418
  8
Layer_0
  10
75.910004
  20
132
  0
VERTEX
  5
419
  8
Layer_0
  10
75.936264
  20
131.93622
  0
VERTEX
  5
41a
  8
Layer_0
  10
76.000015
  20
131.90997
  0
VERTEX
  5
41b
  8
Layer_0
  10
82.000015
  20
131.90997
  0
VERTEX
  5
41c
  8
Layer_0
  10
82.063766
  20
131.93622
  0
VERTEX
  5
41d
  8
Layer_0
  10
82.090012
  20
132
  0
VERTEX
  5
41e
  8
Layer_0
  10
82.090012
  20
134.90997
  0
VERTEX
  5
41f
  8
Layer_0
  10
82.056259
  20
134.94373
  0
VERTEX
  5
420
  8
Layer_0
  10
82.090012
  20
134.90997
  0
VERTEX
  5
421
  8
Layer_0
  10
87.910004
  20
134.90997
  0
VERTEX
  5
422
  8
Layer_0
  10
87.943756
  20
134.94373
  0
VERTEX
  5
423
  8
Layer_0
  10
87.910004
  20
134.90997
  0
VERTEX
  5
424
  8
Layer_0
  10
87.910004
  20
132
  0
VERTEX
  5
425
  8
Layer_0
  10
87.936256
  20
131.93622
  0
VERTEX
  5
426
  8
Layer_0
  10
88
  20
131.90997
  0
VERTEX
  5
427
  8
Layer_0
  10
94
  20
131.90997
  0
VERTEX
  5
428
  8
Layer_0
  10
94.063751
  20
131.93622
  0
VERTEX
  5
429
  8
Layer_0
  10
94.089996
  20
132
  0
VERTEX
  5
42a
  8
Layer_0
  10
94.089996
  20
134.90997
  0
VERTEX
  5
42b
  8
Layer_0
  10
94.056244
  20
134.94373
  0
VERTEX
  5
42c
  8
Layer_0
  10
94.089996
  20
134.90997
  0
VERTEX
  5
42d
  8
Layer_0
  10
99.910004
  20
134.90997
  0
VERTEX
  5
42e
  8
Layer_0
  10
99.943756
  20
134.94373
  0
VERTEX
  5
42f
  8
Layer_0
  10
99.910004
  20
134.90997
  0
VERTEX
  5
430
  8
Layer_0
  10
99.910004
  20
132
  0
VERTEX
  5
431
  8
Layer_0
  10
99.936256
  20
131.93622
  0
VERTEX
  5
432
  8
Layer_0
  10
100
  20
131.90997
  0
VERTEX
  5
433
  8
Layer_0
  10
106
  20
131.90997
  0
VERTEX
  5
434
  8
Layer_0
  10
106.06375
  20
131.93622
  0
VERTEX
  5
435
  8
Layer_0
  10
106.09
  20
132
  0
VERTEX
  5
436
  8
Layer_0
  10
106.09
  20
134.90997
  0
VERTEX
  5
437
  8
Layer_0
  10
106.05624
  20
134.94373
  0
VERTEX
  5
438
  8
Layer_0
  10
106.09
  20
134.90997
  0
VERTEX
  5
439
  8
Layer_0
  10
111.91
  20
134.90997
  0
VERTEX
  5
43a
  8
Layer_0
  10
111.94376
  20
134.94373
  0
VERTEX
  5
43b
  8
Layer_0
  10
111.91
  20
134.90997
  0
VERTEX
  5
43c
  8
Layer_0
  10
111.91
  20
132
  0
VERTEX
  5
43d
  8
Layer_0
  10
111.93626
  20
131.93622
  0
VERTEX
  5
43e
  8
Layer_0
  10
112
  20
131.90997
  0
VERTEX
  5
43f
  8
Layer_0
  10
118
  20
131.90997
  0
VERTEX
  5
440
  8
Layer_0
  10
118.06375
  20
131.93622
  0
VERTEX
  5
441
  8
Layer_0
  10
118.09
  20
132
  0
VERTEX
  5
442
  8
Layer_0
  10
118.09
  20
134.90997
  0
VERTEX
  5
443
  8
Layer_0
  10
118.05624
  20
134.94373
  0
VERTEX
  5
444
  8
Layer_0
  10
118.09
  20
134.90997
  0
VERTEX
  5
445
  8
Layer_0
  10
123.91
  20
134.90997
  0
VERTEX
  5
446
  8
Layer_0
  10
123.94376
  20
134.94373
  0
VERTEX
  5
447
  8
Layer_0
  10
123.91
  20
134.90997
  0
VERTEX
  5
448
  8
Layer_0
  10
123.91
  20
132
  0
VERTEX
  5
449
  8
Layer_0
  10
123.93626
  20
131.93622
  0
VERTEX
  5
44a
  8
Layer_0
  10
124
  20
131.90997
  0
VERTEX
  5
44b
  8
Layer_0
  10
130
  20
131.90997
  0
VERTEX
  5
44c
  8
Layer_0
  10
130.06375
  20
131.93622
  0
VERTEX
  5
44d
  8
Layer_0
  10
130.09
  20
132
  0
VERTEX
  5
44e
  8
Layer_0
  10
130.09
  20
134.90997
  0
VERTEX
  5
44f
  8
Layer_0
  10
130.05624
  20
134.94373
  0
VERTEX
  5
450
  8
Layer_0
  10
130.09
  20
134.90997
  0
VERTEX
  5
451
  8
Layer_0
  10
135.91
  20
134.90997
  0
VERTEX
  5
452
  8
Layer_0
  10
135.94376
  20
134.94373
  0
VERTEX
  5
453
  8
Layer_0
  10
135.91
  20
134.90997
  0
VERTEX
  5
454
  8
Layer_0
  10
135.91
  20
132
  0
VERTEX
  5
455
  8
Layer_0
  10
135.93626
  20
131.93622
  0
VERTEX
  5
456
  8
Layer_0
  10
136
  20
131.90997
  0
VERTEX
  5
457
  8
Layer_0
  10
142
  20
131.90997
  0
VERTEX
  5
458
  8
Layer_0
  10
142.06375
  20
131.93622
  0
VERTEX
  5
459
  8
Layer_0
  10
142.09
  20
132
  0
VERTEX
  5
45a
  8
Layer_0
  10
142.09
  20
134.90997
  0
VERTEX
  5
45b
  8
Layer_0
  10
142.05624
  20
134.94373
  0
VERTEX
  5
45c
  8
Layer_0
  10
142.09
  20
134.90997
  0
VERTEX
  5
45d
  8
Layer_0
  10
147.91
  20
134.90997
  0
VERTEX
  5
45e
  8
Layer_0
  10
147.94376
  20
134.94373
  0
VERTEX
  5
45f
  8
Layer_0
  10
147.91
  20
134.90997
  0
VERTEX
  5
460
  8
Layer_0
  10
147.91
  20
132
  0
VERTEX
  5
461
  8
Layer_0
  10
147.93626
  20
131.93622
  0
VERTEX
  5
462
  8
Layer_0
  10
148
  20
131.90997
  0
VERTEX
  5
463
  8
Layer_0
  10
154
  20
131.90997
  0
VERTEX
  5
464
  8
Layer_0
  10
154.06375
  20
131.93622
  0
VERTEX
  5
465
  8
Layer_0
  10
154.09
  20
132
  0
VERTEX
  5
466
  8
Layer_0
  10
154.09
  20
134.90997
  0
VERTEX
  5
467
  8
Layer_0
  10
154.05624
  20
134.94373
  0
VERTEX
  5
468
  8
Layer_0
  10
154.09
  20
134.90997
  0
VERTEX
  5
469
  8
Layer_0
  10
159.91
  20
134.90997
  0
VERTEX
  5
46a
  8
Layer_0
  10
159.94376
  20
134.94373
  0
VERTEX
  5
46b
  8
Layer_0
  10
159.91
  20
134.90997
  0
VERTEX
  5
46c
  8
Layer_0
  10
159.91
  20
132
  0
VERTEX
  5
46d
  8
Layer_0
  10
159.93626
  20
131.93622
  0
VERTEX
  5
46e
  8
Layer_0
  10
160
  20
131.90997
  0
VERTEX
  5
46f
  8
Layer_0
  10
166
  20
131.90997
  0
VERTEX
  5
470
  8
Layer_0
  10
166.06375
  20
131.93622
  0
VERTEX
  5
471
  8
Layer_0
  10
166.09
  20
132
  0
VERTEX
  5
472
  8
Layer_0
  10
166.09
  20
134.90997
  0
VERTEX
  5
473
  8
Layer_0
  10
166.05624
  20
134.94373
  0
VERTEX
  5
474
  8
Layer_0
  10
166.09
  20
134.90997
  0
VERTEX
  5
475
  8
Layer_0
  10
171.91
  20
134.90997
  0
VERTEX
  5
476
  8
Layer_0
  10
171.94376
  20
134.94373
  0
VERTEX
  5
477
  8
Layer_0
  10
171.91
  20
134.90997
  0
VERTEX
  5
478
  8
Layer_0
  10
171.91
  20
132
  0
VERTEX
  5
479
  8
Layer_0
  10
171.93626
  20
131.93622
  0
VERTEX
  5
47a
  8
Layer_0
  10
172
  20
131.90997
  0
VERTEX
  5
47b
  8
Layer_0
  10
178
  20
131.90997
  0
VERTEX
  5
47c
  8
Layer_0
  10
178.06375
  20
131.93622
  0
VERTEX
  5
47d
  8
Layer_0
  10
178.09
  20
132
  0
VERTEX
  5
47e
  8
Layer_0
  10
178.09
  20
134.90997
  0
VERTEX
  5
47f
  8
Layer_0
  10
178.05624
  20
134.94373
  0
VERTEX
  5
480
  8
Layer_0
  10
178.09
  20
134.90997
  0
VERTEX
  5
481
  8
Layer_0
  10
183.91
  20
134.90997
  0
VERTEX
  5
482
  8
Layer_0
  10
183.94376
  20
134.94373
  0
VERTEX
  5
483
  8
Layer_0
  10
183.91
  20
134.90997
  0
VERTEX
  5
484
  8
Layer_0
  10
183.91
  20
132
  0
VERTEX
  5
485
  8
Layer_0
  10
183.93626
  20
131.93622
  0
VERTEX
  5
486
  8
Layer_0
  10
184
  20
131.90997
  0
VERTEX
  5
487
  8
Layer_0
  10
190
  20
131.90997
  0
VERTEX
  5
488
  8
Layer_0
  10
190.06375
  20
131.93622
  0
VERTEX
  5
489
  8
Layer_0
  10
190.09
  20
132
  0
VERTEX
  5
48a
  8
Layer_0
  10
190.09
  20
134.90997
  0
VERTEX
  5
48b
  8
Layer_0
  10
190.05624
  20
134.94373
  0
VERTEX
  5
48c
  8
Layer_0
  10
190.09
  20
134.90997
  0
VERTEX
  5
48d
  8
Layer_0
  10
195.91
  20
134.90997
  0
VERTEX
  5
48e
  8
Layer_0
  10
195.94376
  20
134.94373
  0
VERTEX
  5
48f
  8
Layer_0
  10
195.91
  20
134.90997
  0
VERTEX
  5
490
  8
Layer_0
  10
195.91
  20
132
  0
VERTEX
  5
491
  8
Layer_0
  10
195.93626
  20
131.93622
  0
VERTEX
  5
492
  8
Layer_0
  10
196
  20
131.90997
  0
VERTEX
  5
493
  8
Layer_0
  10
202
  20
131.90997
  0
VERTEX
  5
494
  8
Layer_0
  10
202.06375
  20
131.93622
  0
VERTEX
  5
495
  8
Layer_0
  10
202.09
  20
132
  0
VERTEX
  5
496
  8
Layer_0
  10
202.09
  20
134.90997
  0
VERTEX
  5
497
  8
Layer_0
  10
202.05624
  20
134.94373
  0
VERTEX
  5
498
  8
Layer_0
  10
202.09
  20
134.90997
  0
VERTEX
  5
499
  8
Layer_0
  10
207.91
  20
134.90997
  0
VERTEX
  5
49a
  8
Layer_0
  10
207.94376
  20
134.94373
  0
VERTEX
  5
49b
  8
Layer_0
  10
207.91
  20
134.90997
  0
VERTEX
  5
49c
  8
Layer_0
  10
207.91
  20
132
  0
VERTEX
  5
49d
  8
Layer_0
  10
207.93626
  20
131.93622
  0
VERTEX
  5
49e
  8
Layer_0
  10
208
  20
131.90997
  0
VERTEX
  5
49f
  8
Layer_0
  10
214
  20
131.90997
  0
VERTEX
  5
4a0
  8
Layer_0
  10
214.06375
  20
131.93622
  0
VERTEX
  5
4a1
  8
Layer_0
  10
214.09
  20
132
  0
VERTEX
  5
4a2
  8
Layer_0
  10
214.09
  20
134.90997
  0
VERTEX
  5
4a3
  8
Layer_0
  10
214.05624
  20
134.94373
  0
VERTEX
  5
4a4
  8
Layer_0
  10
214.09
  20
134.90997
  0
VERTEX
  5
4a5
  8
Layer_0
  10
219.91
  20
134.90997
  0
VERTEX
  5
4a6
  8
Layer_0
  10
219.94376
  20
134.94373
  0
VERTEX
  5
4a7
  8
Layer_0
  10
219.91
  20
134.90997
  0
VERTEX
  5
4a8
  8
Layer_0
  10
219.91
  20
132
  0
VERTEX
  5
4a9
  8
Layer_0
  10
219.93626
  20
131.93622
  0
VERTEX
  5
4aa
  8
Layer_0
  10
220
  20
131.90997
  0
VERTEX
  5
4ab
  8
Layer_0
  10
226
  20
131.90997
  0
VERTEX
  5
4ac
  8
Layer_0
  10
226.06375
  20
131.93622
  0
VERTEX
  5
4ad
  8
Layer_0
  10
226.09
  20
132
  0
VERTEX
  5
4ae
  8
Layer_0
  10
226.09
  20
134.90997
  0
VERTEX
  5
4af
  8
Layer_0
  10
226.05624
  20
134.94373
  0
VERTEX
  5
4b0
  8
Layer_0
  10
226.09
  20
134.90997
  0
VERTEX
  5
4b1
  8
Layer_0
  10
228
  20
134.90997
  0
VERTEX
  5
4b2
  8
Layer_0
  10
228.06375
  20
134.93622
  0
VERTEX
  5
4b3
  8
Layer_0
  10
228.09
  20
135
  0
VERTEX
  5
4b4
  8
Layer_0
  10
228.09
  20
138.40997
  0
VERTEX
  5
4b5
  8
Layer_0
  10
228.05624
  20
138.44373
  0
VERTEX
  5
4b6
  8
Layer_0
  10
228.09
  20
138.40997
  0
VERTEX
  5
4b7
  8
Layer_0
  10
231
  20
138.40997
  0
VERTEX
  5
4b8
  8
Layer_0
  10
231.06375
  20
138.43622
  0
VERTEX
  5
4b9
  8
Layer_0
  10
231.09
  20
138.5
  0
VERTEX
  5
4ba
  8
Layer_0
  10
231.09
  20
144.5
  0
VERTEX
  5
4bb
  8
Layer_0
  10
231.06375
  20
144.56375
  0
VERTEX
  5
4bc
  8
Layer_0
  10
231
  20
144.59
  0
VERTEX
  5
4bd
  8
Layer_0
  10
228.09
  20
144.59
  0
VERTEX
  5
4be
  8
Layer_0
  10
228.05624
  20
144.55624
  0
VERTEX
  5
4bf
  8
Layer_0
  10
228.09
  20
144.59
  0
VERTEX
  5
4c0
  8
Layer_0
  10
228.09
  20
150.40999
  0
VERTEX
  5
4c1
  8
Layer_0
  10
228.05624
  20
150.44374
  0
VERTEX
  5
4c2
  8
Layer_0
  10
228.09
  20
150.40999
  0
VERTEX
  5
4c3
  8
Layer_0
  10
231
  20
150.40999
  0
VERTEX
  5
4c4
  8
Layer_0
  10
231.06375
  20
150.43623
  0
VERTEX
  5
4c5
  8
Layer_0
  10
231.09
  20
150.5
  0
VERTEX
  5
4c6
  8
Layer_0
  10
231.09
  20
156.5
  0
VERTEX
  5
4c7
  8
Layer_0
  10
231.06375
  20
156.56374
  0
VERTEX
  5
4c8
  8
Layer_0
  10
231
  20
156.59
  0
VERTEX
  5
4c9
  8
Layer_0
  10
228.09
  20
156.59
  0
VERTEX
  5
4ca
  8
Layer_0
  10
228.05624
  20
156.55624
  0
VERTEX
  5
4cb
  8
Layer_0
  10
228.09
  20
156.59
  0
VERTEX
  5
4cc
  8
Layer_0
  10
228.09
  20
159.90999
  0
VERTEX
  5
4cd
  8
Layer_0
  10
228.05624
  20
159.94374
  0
VERTEX
  5
4ce
  8
Layer_0
  10
228.09
  20
159.90999
  0
VERTEX
  5
4cf
  8
Layer_0
  10
231
  20
159.90999
  0
VERTEX
  5
4d0
  8
Layer_0
  10
231.06375
  20
159.93623
  0
VERTEX
  5
4d1
  8
Layer_0
  10
231.09
  20
160
  0
VERTEX
  5
4d2
  8
Layer_0
  10
231.07483
  20
160.92343
  0
VERTEX
  5
4d3
  8
Layer_0
  10
231.02942
  20
161.84409
  0
VERTEX
  5
4d4
  8
Layer_0
  10
230.95396
  20
162.76129
  0
VERTEX
  5
4d5
  8
Layer_0
  10
230.84868
  20
163.67433
  0
VERTEX
  5
4d6
  8
Layer_0
  10
230.71373
  20
164.58246
  0
VERTEX
  5
4d7
  8
Layer_0
  10
230.54932
  20
165.48499
  0
VERTEX
  5
4d8
  8
Layer_0
  10
230.35562
  20
166.3812
  0
VERTEX
  5
4d9
  8
Layer_0
  10
230.13287
  20
167.27037
  0
VERTEX
  5
4da
  8
Layer_0
  10
229.88123
  20
168.15181
  0
VERTEX
  5
4db
  8
Layer_0
  10
229.60089
  20
169.02478
  0
VERTEX
  5
4dc
  8
Layer_0
  10
229.29205
  20
169.88858
  0
VERTEX
  5
4dd
  8
Layer_0
  10
228.9549
  20
170.74248
  0
VERTEX
  5
4de
  8
Layer_0
  10
228.58961
  20
171.58577
  0
VERTEX
  5
4df
  8
Layer_0
  10
228.19641
  20
172.41777
  0
VERTEX
  5
4e0
  8
Layer_0
  10
227.77548
  20
173.23775
  0
VERTEX
  5
4e1
  8
Layer_0
  10
227.327
  20
174.04498
  0
VERTEX
  5
4e2
  8
Layer_0
  10
226.85207
  20
174.83704
  0
VERTEX
  5
4e3
  8
Layer_0
  10
226.35233
  20
175.6116
  0
VERTEX
  5
4e4
  8
Layer_0
  10
225.82831
  20
176.36816
  0
VERTEX
  5
4e5
  8
Layer_0
  10
225.28056
  20
177.10617
  0
VERTEX
  5
4e6
  8
Layer_0
  10
224.70958
  20
177.82513
  0
VERTEX
  5
4e7
  8
Layer_0
  10
224.11589
  20
178.52452
  0
VERTEX
  5
4e8
  8
Layer_0
  10
223.50003
  20
179.20381
  0
VERTEX
  5
4e9
  8
Layer_0
  10
222.8625
  20
179.86249
  0
VERTEX
  5
4ea
  8
Layer_0
  10
222.20384
  20
180.50003
  0
VERTEX
  5
4eb
  8
Layer_0
  10
221.52455
  20
181.11589
  0
VERTEX
  5
4ec
  8
Layer_0
  10
220.82516
  20
181.70958
  0
VERTEX
  5
4ed
  8
Layer_0
  10
220.1062
  20
182.28055
  0
VERTEX
  5
4ee
  8
Layer_0
  10
219.36819
  20
182.82831
  0
VERTEX
  5
4ef
  8
Layer_0
  10
218.61163
  20
183.35233
  0
VERTEX
  5
4f0
  8
Layer_0
  10
217.83707
  20
183.85205
  0
VERTEX
  5
4f1
  8
Layer_0
  10
217.04501
  20
184.327
  0
VERTEX
  5
4f2
  8
Layer_0
  10
216.23778
  20
184.77547
  0
VERTEX
  5
4f3
  8
Layer_0
  10
215.4178
  20
185.19641
  0
VERTEX
  5
4f4
  8
Layer_0
  10
214.5858
  20
185.58961
  0
VERTEX
  5
4f5
  8
Layer_0
  10
213.74251
  20
185.9549
  0
VERTEX
  5
4f6
  8
Layer_0
  10
212.88861
  20
186.29205
  0
VERTEX
  5
4f7
  8
Layer_0
  10
212.02481
  20
186.60089
  0
VERTEX
  5
4f8
  8
Layer_0
  10
211.15182
  20
186.88123
  0
VERTEX
  5
4f9
  8
Layer_0
  10
210.27039
  20
187.13287
  0
VERTEX
  5
4fa
  8
Layer_0
  10
209.38121
  20
187.35562
  0
VERTEX
  5
4fb
  8
Layer_0
  10
208.48499
  20
187.54932
  0
VERTEX
  5
4fc
  8
Layer_0
  10
207.58246
  20
187.71373
  0
VERTEX
  5
4fd
  8
Layer_0
  10
206.67433
  20
187.84868
  0
VERTEX
  5
4fe
  8
Layer_0
  10
205.76129
  20
187.95396
  0
VERTEX
  5
4ff
  8
Layer_0
  10
204.84409
  20
188.02942
  0
VERTEX
  5
500
  8
Layer_0
  10
203.92343
  20
188.07483
  0
VERTEX
  5
501
  8
Layer_0
  10
203
  20
188.09
  0
VERTEX
  5
502
  8
Layer_0
  10
63.000015
  20
188.09
  0
VERTEX
  5
503
  8
Layer_0
  10
62.076591
  20
188.07483
  0
VERTEX
  5
504
  8
Layer_0
  10
61.155918
  20
188.02942
  0
VERTEX
  5
505
  8
Layer_0
  10
60.238708
  20
187.95396
  0
VERTEX
  5
506
  8
Layer_0
  10
59.325684
  20
187.84868
  0
VERTEX
  5
507
  8
Layer_0
  10
58.417549
  20
187.71373
  0
VERTEX
  5
508
  8
Layer_0
  10
57.515022
  20
187.54932
  0
VERTEX
  5
509
  8
Layer_0
  10
56.618816
  20
187.35562
  0
VERTEX
  5
50a
  8
Layer_0
  10
55.729637
  20
187.13287
  0
VERTEX
  5
50b
  8
Layer_0
  10
54.848206
  20
186.88123
  0
VERTEX
  5
50c
  8
Layer_0
  10
53.975235
  20
186.60089
  0
VERTEX
  5
50d
  8
Layer_0
  10
53.111439
  20
186.29205
  0
VERTEX
  5
50e
  8
Layer_0
  10
52.25753
  20
185.9549
  0
VERTEX
  5
50f
  8
Layer_0
  10
51.414223
  20
185.58961
  0
VERTEX
  5
510
  8
Layer_0
  10
50.582222
  20
185.19641
  0
VERTEX
  5
511
  8
Layer_0
  10
49.762249
  20
184.77547
  0
VERTEX
  5
512
  8
Layer_0
  10
48.955017
  20
184.327
  0
VERTEX
  5
513
  8
Layer_0
  10
48.162964
  20
183.85205
  0
VERTEX
  5
514
  8
Layer_0
  10
47.388397
  20
183.35233
  0
VERTEX
  5
515
  8
Layer_0
  10
46.631844
  20
182.82831
  0
VERTEX
  5
516
  8
Layer_0
  10
45.893826
  20
182.28055
  0
VERTEX
  5
517
  8
Layer_0
  10
45.174858
  20
181.70958
  0
VERTEX
  5
518
  8
Layer_0
  10
44.475471
  20
181.11589
  0
VERTEX
  5
519
  8
Layer_0
  10
43.796181
  20
180.50003
  0
VERTEX
  5
51a
  8
Layer_0
  10
43.137512
  20
179.86249
  0
VERTEX
  5
51b
  8
Layer_0
  10
42.499977
  20
179.20381
  0
VERTEX
  5
51c
  8
Layer_0
  10
41.884109
  20
178.52452
  0
VERTEX
  5
51d
  8
Layer_0
  10
41.290428
  20
177.82513
  0
VERTEX
  5
51e
  8
Layer_0
  10
40.719444
  20
177.10617
  0
VERTEX
  5
51f
  8
Layer_0
  10
40.171692
  20
176.36816
  0
VERTEX
  5
520
  8
Layer_0
  10
39.647686
  20
175.6116
  0
VERTEX
  5
521
  8
Layer_0
  10
39.147949
  20
174.83704
  0
VERTEX
  5
522
  8
Layer_0
  10
38.673004
  20
174.04498
  0
VERTEX
  5
523
  8
Layer_0
  10
38.224525
  20
173.23775
  0
VERTEX
  5
524
  8
Layer_0
  10
37.803589
  20
172.41777
  0
VERTEX
  5
525
  8
Layer_0
  10
37.410385
  20
171.58577
  0
VERTEX
  5
526
  8
Layer_0
  10
37.045113
  20
170.74248
  0
VERTEX
  5
527
  8
Layer_0
  10
36.707958
  20
169.88858
  0
VERTEX
  5
528
  8
Layer_0
  10
36.399117
  20
169.02478
  0
VERTEX
  5
529
  8
Layer_0
  10
36.118774
  20
168.15181
  0
VERTEX
  5
52a
  8
Layer_0
  10
35.86713
  20
167.27037
  0
VERTEX
  5
52b
  8
Layer_0
  10
35.644371
  20
166.3812
  0
VERTEX
  5
52c
  8
Layer_0
  10
35.450691
  20
165.48499
  0
VERTEX
  5
52d
  8
Layer_0
  10
35.286282
  20
164.58246
  0
VERTEX
  5
52e
  8
Layer_0
  10
35.151333
  20
163.67433
  0
VERTEX
  5
52f
  8
Layer_0
  10
35.046036
  20
162.76129
  0
VERTEX
  5
530
  8
Layer_0
  10
34.970589
  20
161.84409
  0
VERTEX
  5
531
  8
Layer_0
  10
34.925179
  20
160.92343
  0
VERTEX
  5
532
  8
Layer_0
  10
34.910004
  20
160
  0
VERTEX
  5
533
  8
Layer_0
  10
34.936256
  20
159.93623
  0
VERTEX
  5
534
  8
Layer_0
  10
35.000015
  20
159.90999
  0
VERTEX
  5
535
  8
Layer_0
  10
37.910004
  20
159.90999
  0
VERTEX
  5
536
  8
Layer_0
  10
37.943756
  20
159.94374
  0
VERTEX
  5
537
  8
Layer_0
  10
37.910004
  20
159.90999
  0
VERTEX
  5
538
  8
Layer_0
  10
37.910004
  20
156.59
  0
VERTEX
  5
539
  8
Layer_0
  10
37.943756
  20
156.55624
  0
VERTEX
  5
53a
  8
Layer_0
  10
37.910004
  20
156.59
  0
VERTEX
  5
53b
  8
Layer_0
  10
35.000015
  20
156.59
  0
VERTEX
  5
53c
  8
Layer_0
  10
34.936256
  20
156.56374
  0
VERTEX
  5
53d
  8
Layer_0
  10
34.910004
  20
156.5
  0
VERTEX
  5
53e
  8
Layer_0
  10
34.910004
  20
150.5
  0
VERTEX
  5
53f
  8
Layer_0
  10
34.936256
  20
150.43623
  0
VERTEX
  5
540
  8
Layer_0
  10
35.000015
  20
150.40999
  0
VERTEX
  5
541
  8
Layer_0
  10
37.910004
  20
150.40999
  0
VERTEX
  5
542
  8
Layer_0
  10
37.943756
  20
150.44374
  0
VERTEX
  5
543
  8
Layer_0
  10
37.910004
  20
150.40999
  0
VERTEX
  5
544
  8
Layer_0
  10
37.910004
  20
144.59
  0
VERTEX
  5
545
  8
Layer_0
  10
37.943756
  20
144.55624
  0
VERTEX
  5
546
  8
Layer_0
  10
37.910004
  20
144.59
  0
VERTEX
  5
547
  8
Layer_0
  10
35.000015
  20
144.59
  0
VERTEX
  5
548
  8
Layer_0
  10
34.936256
  20
144.56375
  0
VERTEX
  5
549
  8
Layer_0
  10
34.910004
  20
144.5
  0
VERTEX
  5
54a
  8
Layer_0
  10
34.910004
  20
138.5
  0
VERTEX
  5
54b
  8
Layer_0
  10
34.936256
  20
138.43622
  0
VERTEX
  5
54c
  8
Layer_0
  10
35.000015
  20
138.40997
  0
VERTEX
  5
54d
  8
Layer_0
  10
37.910004
  20
138.40997
  0
VERTEX
  5
54e
  8
Layer_0
  10
37.943756
  20
138.44373
  0
VERTEX
  5
54f
  8
Layer_0
  10
37.910004
  20
138.40997
  0
VERTEX
  5
550
  8
Layer_0
  10
37.910004
  20
135
  0
SEQEND
  0
POLYLINE
  5
552
  8
Layer_0
  62
0
  70
1
  66
1
  10
0
  20
0
  30
0
  0
VERTEX
  5
552
  8
Layer_0
  10
119
  20
100.90997
  0
VERTEX
  5
553
  8
Layer_0
  10
122.90997
  20
100.90997
  0
VERTEX
  5
554
  8
Layer_0
  10
122.94373
  20
100.94373
  0
VERTEX
  5
555
  8
Layer_0
  10
122.90997
  20
100.90997
  0
VERTEX
  5
556
  8
Layer_0
  10
122.90997
  20
98
  0
VERTEX
  5
557
  8
Layer_0
  10
122.93623
  20
97.936218
  0
VERTEX
  5
558
  8
Layer_0
  10
123
  20
97.909973
  0
VERTEX
  5
559
  8
Layer_0
  10
129
  20
97.909973
  0
VERTEX
  5
55a
  8
Layer_0
  10
129.06374
  20
97.936218
  0
VERTEX
  5
55b
  8
Layer_0
  10
129.09
  20
98
  0
VERTEX
  5
55c
  8
Layer_0
  10
129.09
  20
100.90997
  0
VERTEX
  5
55d
  8
Layer_0
  10
129.05624
  20
100.94373
  0
VERTEX
  5
55e
  8
Layer_0
  10
129.09
  20
100.90997
  0
VERTEX
  5
55f
  8
Layer_0
  10
134.90997
  20
100.90997
  0
VERTEX
  5
560
  8
Layer_0
  10
134.94373
  20
100.94373
  0
VERTEX
  5
561
  8
Layer_0
  10
134.90997
  20
100.90997
  0
VERTEX
  5
562
  8
Layer_0
  10
134.90997
  20
98
  0
VERTEX
  5
563
  8
Layer_0
  10
134.93623
  20
97.936218
  0
VERTEX
  5
564
  8
Layer_0
  10
135
  20
97.909973
  0
VERTEX
  5
565
  8
Layer_0
  10
141
  20
97.909973
  0
VERTEX
  5
566
  8
Layer_0
  10
141.06374
  20
97.936218
  0
VERTEX
  5
567
  8
Layer_0
  10
141.09
  20
98
  0
VERTEX
  5
568
  8
Layer_0
  10
141.09
  20
100.90997
  0
VERTEX
  5
569
  8
Layer_0
  10
141.05624
  20
100.94373
  0
VERTEX
  5
56a
  8
Layer_0
  10
141.09
  20
100.90997
  0
VERTEX
  5
56b
  8
Layer_0
  10
146.90997
  20
100.90997
  0
VERTEX
  5
56c
  8
Layer_0
  10
146.94373
  20
100.94373
  0
VERTEX
  5
56d
  8
Layer_0
  10
146.90997
  20
100.90997
  0
VERTEX
  5
56e
  8
Layer_0
  10
146.90997
  20
98
  0
VERTEX
  5
56f
  8
Layer_0
  10
146.93623
  20
97.936218
  0
VERTEX
  5
570
  8
Layer_0
  10
147
  20
97.909973
  0
VERTEX
  5
571
  8
Layer_0
  10
153
  20
97.909973
  0
VERTEX
  5
572
  8
Layer_0
  10
153.06374
  20
97.936218
  0
VERTEX
  5
573
  8
Layer_0
  10
153.09
  20
98
  0
VERTEX
  5
574
  8
Layer_0
  10
153.09
  20
100.90997
  0
VERTEX
  5
575
  8
Layer_0
  10
153.05624
  20
100.94373
  0
VERTEX
  5
576
  8
Layer_0
  10
153.09
  20
100.90997
  0
VERTEX
  5
577
  8
Layer_0
  10
158.90997
  20
100.90997
  0
VERTEX
  5
578
  8
Layer_0
  10
158.94373
  20
100.94373
  0
VERTEX
  5
579
  8
Layer_0
  10
158.90997
  20
100.90997
  0
VERTEX
  5
57a
  8
Layer_0
  10
158.90997
  20
98
  0
VERTEX
  5
57b
  8
Layer_0
  10
158.93623
  20
97.936218
  0
VERTEX
  5
57c
  8
Layer_0
  10
159
  20
97.909973
  0
VERTEX
  5
57d
  8
Layer_0
  10
165
  20
97.909973
  0
VERTEX
  5
57e
  8
Layer_0
  10
165.06374
  20
97.936218
  0
VERTEX
  5
57f
  8
Layer_0
  10
165.09
  20
98
  0
VERTEX
  5
580
  8
Layer_0
  10
165.09
  20
100.90997
  0
VERTEX
  5
581
  8
Layer_0
  10
165.05624
  20
100.94373
  0
VERTEX
  5
582
  8
Layer_0
  10
165.09
  20
100.90997
  0
VERTEX
  5
583
  8
Layer_0
  10
172
  20
100.90997
  0
VERTEX
  5
584
  8
Layer_0
  10
172.06374
  20
100.93622
  0
VERTEX
  5
585
  8
Layer_0
  10
172.09
  20
101
  0
VERTEX
  5
586
  8
Layer_0
  10
172.09
  20
104.5
  0
VERTEX
  5
587
  8
Layer_0
  10
172.06374
  20
104.56375
  0
VERTEX
  5
588
  8
Layer_0
  10
172
  20
104.59
  0
VERTEX
  5
589
  8
Layer_0
  10
169.09
  20
104.59
  0
VERTEX
  5
58a
  8
Layer_0
  10
169.05624
  20
104.55624
  0
VERTEX
  5
58b
  8
Layer_0
  10
169.09
  20
104.59
  0
VERTEX
  5
58c
  8
Layer_0
  10
169.09
  20
110.40997
  0
VERTEX
  5
58d
  8
Layer_0
  10
169.05624
  20
110.44373
  0
VERTEX
  5
58e
  8
Layer_0
  10
169.09
  20
110.40997
  0
VERTEX
  5
58f
  8
Layer_0
  10
172
  20
110.40997
  0
VERTEX
  5
590
  8
Layer_0
  10
172.06374
  20
110.43622
  0
VERTEX
  5
591
  8
Layer_0
  10
172.09
  20
110.5
  0
VERTEX
  5
592
  8
Layer_0
  10
172.09
  20
116.5
  0
VERTEX
  5
593
  8
Layer_0
  10
172.06374
  20
116.56375
  0
VERTEX
  5
594
  8
Layer_0
  10
172
  20
116.59
  0
VERTEX
  5
595
  8
Layer_0
  10
169.09
  20
116.59
  0
VERTEX
  5
596
  8
Layer_0
  10
169.05624
  20
116.55624
  0
VERTEX
  5
597
  8
Layer_0
  10
169.09
  20
116.59
  0
VERTEX
  5
598
  8
Layer_0
  10
169.09
  20
122.40997
  0
VERTEX
  5
599
  8
Layer_0
  10
169.05624
  20
122.44373
  0
VERTEX
  5
59a
  8
Layer_0
  10
169.09
  20
122.40997
  0
VERTEX
  5
59b
  8
Layer_0
  10
172
  20
122.40997
  0
VERTEX
  5
59c
  8
Layer_0
  10
172.06374
  20
122.43622
  0
VERTEX
  5
59d
  8
Layer_0
  10
172.09
  20
122.5
  0
VERTEX
  5
59e
  8
Layer_0
  10
172.09
  20
126
  0
VERTEX
  5
59f
  8
Layer_0
  10
172.06374
  20
126.06375
  0
VERTEX
  5
5a0
  8
Layer_0
  10
172
  20
126.09
  0
VERTEX
  5
5a1
  8
Layer_0
  10
116
  20
126.09
  0
VERTEX
  5
5a2
  8
Layer_0
  10
115.93623
  20
126.06375
  0
VERTEX
  5
5a3
  8
Layer_0
  10
115.90997
  20
126
  0
VERTEX
  5
5a4
  8
Layer_0
  10
115.90997
  20
122.5
  0
VERTEX
  5
5a5
  8
Layer_0
  10
115.93623
  20
122.43622
  0
VERTEX
  5
5a6
  8
Layer_0
  10
116
  20
122.40997
  0
VERTEX
  5
5a7
  8
Layer_0
  10
118.90997
  20
122.40997
  0
VERTEX
  5
5a8
  8
Layer_0
  10
118.94373
  20
122.44373
  0
VERTEX
  5
5a9
  8
Layer_0
  10
118.90997
  20
122.40997
  0
VERTEX
  5
5aa
  8
Layer_0
  10
118.90997
  20
116.59
  0
VERTEX
  5
5ab
  8
Layer_0
  10
118.94373
  20
116.55624
  0
VERTEX
  5
5ac
  8
Layer_0
  10
118.90997
  20
116.59
  0
VERTEX
  5
5ad
  8
Layer_0
  10
116
  20
116.59
  0
VERTEX
  5
5ae
  8
Layer_0
  10
115.93623
  20
116.56375
  0
VERTEX
  5
5af
  8
Layer_0
  10
115.90997
  20
116.5
  0
VERTEX
  5
5b0
  8
Layer_0
  10
115.90997
  20
110.5
  0
VERTEX
  5
5b1
  8
Layer_0
  10
115.93623
  20
110.43622
  0
VERTEX
  5
5b2
  8
Layer_0
  10
116
  20
110.40997
  0
VERTEX
  5
5b3
  8
Layer_0
  10
118.90997
  20
110.40997
  0
VERTEX
  5
5b4
  8
Layer_0
  10
118.94373
  20
110.44373
  0
VERTEX
  5
5b5
  8
Layer_0
  10
118.90997
  20
110.40997
  0
VERTEX
  5
5b6
  8
Layer_0
  10
118.90997
  20
104.59
  0
VERTEX
  5
5b7
  8
Layer_0
  10
118.94373
  20
104.55624
  0
VERTEX
  5
5b8
  8
Layer_0
  10
118.90997
  20
104.59
  0
VERTEX
  5
5b9
  8
Layer_0
  10
116
  20
104.59
  0
VERTEX
  5
5ba
  8
Layer_0
  10
115.93623
  20
104.56375
  0
VERTEX
  5
5bb
  8
Layer_0
  10
115.90997
  20
104.5
  0
VERTEX
  5
5bc
  8
Layer_0
  10
115.90997
  20
101
  0
VERTEX
  5
5bd
  8
Layer_0
  10
115.93623
  20
100.93622
  0
VERTEX
  5
5be
  8
Layer_0
  10
116
  20
100.90997
  0
VERTEX
  5
5bf
  8
Layer_0
  10
119
  20
100.90997
  0
SEQEND
  0
POLYLINE
  5
5c1
  8
Layer_0
  62
0
  70
1
  66
1
  10
0
  20
0
  30
0
  0
VERTEX
  5
5c1
  8
Layer_0
  10
59
  20
98.909973
  0
VERTEX
  5
5c2
  8
Layer_0
  10
62.910004
  20
98.909973
  0
VERTEX
  5
5c3
  8
Layer_0
  10
62.943752
  20
98.943726
  0
VERTEX
  5
5c4
  8
Layer_0
  10
62.910004
  20
98.909973
  0
VERTEX
  5
5c5
  8
Layer_0
  10
62.910004
  20
96
  0
VERTEX
  5
5c6
  8
Layer_0
  10
62.936245
  20
95.936218
  0
VERTEX
  5
5c7
  8
Layer_0
  10
63
  20
95.909973
  0
VERTEX
  5
5c8
  8
Layer_0
  10
69
  20
95.909973
  0
VERTEX
  5
5c9
  8
Layer_0
  10
69.063744
  20
95.936218
  0
VERTEX
  5
5ca
  8
Layer_0
  10
69.089996
  20
96
  0
VERTEX
  5
5cb
  8
Layer_0
  10
69.089996
  20
98.909973
  0
VERTEX
  5
5cc
  8
Layer_0
  10
69.056244
  20
98.943726
  0
VERTEX
  5
5cd
  8
Layer_0
  10
69.089996
  20
98.909973
  0
VERTEX
  5
5ce
  8
Layer_0
  10
74.910004
  20
98.909973
  0
VERTEX
  5
5cf
  8
Layer_0
  10
74.943756
  20
98.943726
  0
VERTEX
  5
5d0
  8
Layer_0
  10
74.910004
  20
98.909973
  0
VERTEX
  5
5d1
  8
Layer_0
  10
74.910004
  20
96
  0
VERTEX
  5
5d2
  8
Layer_0
  10
74.936249
  20
95.936218
  0
VERTEX
  5
5d3
  8
Layer_0
  10
75
  20
95.909973
  0
VERTEX
  5
5d4
  8
Layer_0
  10
81
  20
95.909973
  0
VERTEX
  5
5d5
  8
Layer_0
  10
81.063744
  20
95.936218
  0
VERTEX
  5
5d6
  8
Layer_0
  10
81.089996
  20
96
  0
VERTEX
  5
5d7
  8
Layer_0
  10
81.089996
  20
98.909973
  0
VERTEX
  5
5d8
  8
Layer_0
  10
81.056244
  20
98.943726
  0
VERTEX
  5
5d9
  8
Layer_0
  10
81.089996
  20
98.909973
  0
VERTEX
  5
5da
  8
Layer_0
  10
86.910004
  20
98.909973
  0
VERTEX
  5
5db
  8
Layer_0
  10
86.943756
  20
98.943726
  0
VERTEX
  5
5dc
  8
Layer_0
  10
86.910004
  20
98.909973
  0
VERTEX
  5
5dd
  8
Layer_0
  10
86.910004
  20
96
  0
VERTEX
  5
5de
  8
Layer_0
  10
86.936249
  20
95.936218
  0
VERTEX
  5
5df
  8
Layer_0
  10
87
  20
95.909973
  0
VERTEX
  5
5e0
  8
Layer_0
  10
93
  20
95.909973
  0
VERTEX
  5
5e1
  8
Layer_0
  10
93.063744
  20
95.936218
  0
VERTEX
  5
5e2
  8
Layer_0
  10
93.089996
  20
96
  0
VERTEX
  5
5e3
  8
Layer_0
  10
93.089996
  20
98.909973
  0
VERTEX
  5
5e4
  8
Layer_0
  10
93.056244
  20
98.943726
  0
VERTEX
  5
5e5
  8
Layer_0
  10
93.089996
  20
98.909973
  0
VERTEX
  5
5e6
  8
Layer_0
  10
98.910004
  20
98.909973
  0
VERTEX
  5
5e7
  8
Layer_0
  10
98.943756
  20
98.943726
  0
VERTEX
  5
5e8
  8
Layer_0
  10
98.910004
  20
98.909973
  0
VERTEX
  5
5e9
  8
Layer_0
  10
98.910004
  20
96
  0
VERTEX
  5
5ea
  8
Layer_0
  10
98.936249
  20
95.936218
  0
VERTEX
  5
5eb
  8
Layer_0
  10
99
  20
95.909973
  0
VERTEX
  5
5ec
  8
Layer_0
  10
105
  20
95.909973
  0
VERTEX
  5
5ed
  8
Layer_0
  10
105.06373
  20
95.936218
  0
VERTEX
  5
5ee
  8
Layer_0
  10
105.08997
  20
96
  0
VERTEX
  5
5ef
  8
Layer_0
  10
105.08997
  20
98.909973
  0
VERTEX
  5
5f0
  8
Layer_0
  10
105.05623
  20
98.943726
  0
VERTEX
  5
5f1
  8
Layer_0
  10
105.08997
  20
98.909973
  0
VERTEX
  5
5f2
  8
Layer_0
  10
112
  20
98.909973
  0
VERTEX
  5
5f3
  8
Layer_0
  10
112.06373
  20
98.936218
  0
VERTEX
  5
5f4
  8
Layer_0
  10
112.08997
  20
99
  0
VERTEX
  5
5f5
  8
Layer_0
  10
112.08997
  20
102.5
  0
VERTEX
  5
5f6
  8
Layer_0
  10
112.06373
  20
102.56375
  0
VERTEX
  5
5f7
  8
Layer_0
  10
112
  20
102.59
  0
VERTEX
  5
5f8
  8
Layer_0
  10
109.08997
  20
102.59
  0
VERTEX
  5
5f9
  8
Layer_0
  10
109.05623
  20
102.55624
  0
VERTEX
  5
5fa
  8
Layer_0
  10
109.08997
  20
102.59
  0
VERTEX
  5
5fb
  8
Layer_0
  10
109.08997
  20
108.40997
  0
VERTEX
  5
5fc
  8
Layer_0
  10
109.05623
  20
108.44373
  0
VERTEX
  5
5fd
  8
Layer_0
  10
109.08997
  20
108.40997
  0
VERTEX
  5
5fe
  8
Layer_0
  10
112
  20
108.40997
  0
VERTEX
  5
5ff
  8
Layer_0
  10
112.06373
  20
108.43622
  0
VERTEX
  5
600
  8
Layer_0
  10
112.08997
  20
108.5
  0
VERTEX
  5
601
  8
Layer_0
  10
112.08997
  20
114.5
  0
VERTEX
  5
602
  8
Layer_0
  10
112.06373
  20
114.56375
  0
VERTEX
  5
603
  8
Layer_0
  10
112
  20
114.59
  0
VERTEX
  5
604
  8
Layer_0
  10
109.08997
  20
114.59
  0
VERTEX
  5
605
  8
Layer_0
  10
109.05623
  20
114.55624
  0
VERTEX
  5
606
  8
Layer_0
  10
109.08997
  20
114.59
  0
VERTEX
  5
607
  8
Layer_0
  10
109.08997
  20
120.40997
  0
VERTEX
  5
608
  8
Layer_0
  10
109.05623
  20
120.44373
  0
VERTEX
  5
609
  8
Layer_0
  10
109.08997
  20
120.40997
  0
VERTEX
  5
60a
  8
Layer_0
  10
112
  20
120.40997
  0
VERTEX
  5
60b
  8
Layer_0
  10
112.06373
  20
120.43622
  0
VERTEX
  5
60c
  8
Layer_0
  10
112.08997
  20
120.5
  0
VERTEX
  5
60d
  8
Layer_0
  10
112.08997
  20
124
  0
VERTEX
  5
60e
  8
Layer_0
  10
112.06373
  20
124.06375
  0
VERTEX
  5
60f
  8
Layer_0
  10
112
  20
124.09
  0
VERTEX
  5
610
  8
Layer_0
  10
56
  20
124.09
  0
VERTEX
  5
611
  8
Layer_0
  10
55.936245
  20
124.06375
  0
VERTEX
  5
612
  8
Layer_0
  10
55.910004
  20
124
  0
VERTEX
  5
613
  8
Layer_0
  10
55.910004
  20
120.5
  0
VERTEX
  5
614
  8
Layer_0
  10
55.936245
  20
120.43622
  0
VERTEX
  5
615
  8
Layer_0
  10
56
  20
120.40997
  0
VERTEX
  5
616
  8
Layer_0
  10
58.910004
  20
120.40997
  0
VERTEX
  5
617
  8
Layer_0
  10
58.943752
  20
120.44373
  0
VERTEX
  5
618
  8
Layer_0
  10
58.910004
  20
120.40997
  0
VERTEX
  5
619
  8
Layer_0
  10
58.910004
  20
114.59
  0
VERTEX
  5
61a
  8
Layer_0
  10
58.943752
  20
114.55624
  0
VERTEX
  5
61b
  8
Layer_0
  10
58.910004
  20
114.59
  0
VERTEX
  5
61c
  8
Layer_0
  10
56
  20
114.59
  0
VERTEX
  5
61d
  8
Layer_0
  10
55.936245
  20
114.56375
  0
VERTEX
  5
61e
  8
Layer_0
  10
55.910004
  20
114.5
  0
VERTEX
  5
61f
  8
Layer_0
  10
55.910004
  20
108.5
  0
VERTEX
  5
620
  8
Layer_0
  10
55.936245
  20
108.43622
  0
VERTEX
  5
621
  8
Layer_0
  10
56
  20
108.40997
  0
VERTEX
  5
622
  8
Layer_0
  10
58.910004
  20
108.40997
  0
VERTEX
  5
623
  8
Layer_0
  10
58.943752
  20
108.44373
  0
VERTEX
  5
624
  8
Layer_0
  10
58.910004
  20
108.40997
  0
VERTEX
  5
625
  8
Layer_0
  10
58.910004
  20
102.59
  0
VERTEX
  5
626
  8
Layer_0
  10
58.943752
  20
102.55624
  0
VERTEX
  5
627
  8
Layer_0
  10
58.910004
  20
102.59
  0
VERTEX
  5
628
  8
Layer_0
  10
56
  20
102.59
  0
VERTEX
  5
629
  8
Layer_0
  10
55.936245
  20
102.56375
  0
VERTEX
  5
62a
  8
Layer_0
  10
55.910004
  20
102.5
  0
VERTEX
  5
62b
  8
Layer_0
  10
55.910004
  20
99
  0
VERTEX
  5
62c
  8
Layer_0
  10
55.936245
  20
98.936218
  0
VERTEX
  5
62d
  8
Layer_0
  10
56
  20
98.909973
  0
VERTEX
  5
62e
  8
Layer_0
  10
59
  20
98.909973
  0
SEQEND
  0
POLYLINE
  5
630
  8
Layer_0
  62
0
  70
1
  66
1
  10
0
  20
0
  30
0
  0
VERTEX
  5
630
  8
Layer_0
  10
238.66
  20
358.84
  0
VERTEX
  5
631
  8
Layer_0
  10
238.65999
  20
333.84
  0
VERTEX
  5
632
  8
Layer_0
  10
238.68623
  20
333.77625
  0
VERTEX
  5
633
  8
Layer_0
  10
238.75
  20
333.74997
  0
VERTEX
  5
634
  8
Layer_0
  10
263.75
  20
333.74997
  0
VERTEX
  5
635
  8
Layer_0
  10
263.77325
  20
333.75299
  0
VERTEX
  5
636
  8
Layer_0
  10
263.79498
  20
333.76199
  0
VERTEX
  5
637
  8
Layer_0
  10
263.81378
  20
333.77625
  0
VERTEX
  5
638
  8
Layer_0
  10
263.828
  20
333.79501
  0
VERTEX
  5
639
  8
Layer_0
  10
263.83701
  20
333.81674
  0
VERTEX
  5
63a
  8
Layer_0
  10
263.84
  20
333.84
  0
VERTEX
  5
63b
  8
Layer_0
  10
263.83701
  20
333.86325
  0
VERTEX
  5
63c
  8
Layer_0
  10
263.828
  20
333.88498
  0
VERTEX
  5
63d
  8
Layer_0
  10
263.81378
  20
333.90375
  0
VERTEX
  5
63e
  8
Layer_0
  10
263.79498
  20
333.918
  0
VERTEX
  5
63f
  8
Layer_0
  10
263.77325
  20
333.927
  0
VERTEX
  5
640
  8
Layer_0
  10
263.75
  20
333.93002
  0
VERTEX
  5
641
  8
Layer_0
  10
262.93109
  20
333.94348
  0
VERTEX
  5
642
  8
Layer_0
  10
262.11462
  20
333.98376
  0
VERTEX
  5
643
  8
Layer_0
  10
261.30124
  20
334.05066
  0
VERTEX
  5
644
  8
Layer_0
  10
260.49158
  20
334.14404
  0
VERTEX
  5
645
  8
Layer_0
  10
259.68628
  20
334.26367
  0
VERTEX
  5
646
  8
Layer_0
  10
258.88593
  20
334.40948
  0
VERTEX
  5
647
  8
Layer_0
  10
258.09122
  20
334.58124
  0
VERTEX
  5
648
  8
Layer_0
  10
257.30273
  20
334.77878
  0
VERTEX
  5
649
  8
Layer_0
  10
256.52112
  20
335.00192
  0
VERTEX
  5
64a
  8
Layer_0
  10
255.74699
  20
335.25052
  0
VERTEX
  5
64b
  8
Layer_0
  10
254.98099
  20
335.52441
  0
VERTEX
  5
64c
  8
Layer_0
  10
254.22375
  20
335.82339
  0
VERTEX
  5
64d
  8
Layer_0
  10
253.47591
  20
336.14731
  0
VERTEX
  5
64e
  8
Layer_0
  10
252.73807
  20
336.496
  0
VERTEX
  5
64f
  8
Layer_0
  10
252.01089
  20
336.86929
  0
VERTEX
  5
650
  8
Layer_0
  10
251.29498
  20
337.267
  0
VERTEX
  5
651
  8
Layer_0
  10
250.59253
  20
337.6882
  0
VERTEX
  5
652
  8
Layer_0
  10
249.90561
  20
338.13138
  0
VERTEX
  5
653
  8
Layer_0
  10
249.23471
  20
338.59607
  0
VERTEX
  5
654
  8
Layer_0
  10
248.58022
  20
339.08179
  0
VERTEX
  5
655
  8
Layer_0
  10
247.94263
  20
339.5881
  0
VERTEX
  5
656
  8
Layer_0
  10
247.32245
  20
340.11456
  0
VERTEX
  5
657
  8
Layer_0
  10
246.72009
  20
340.66068
  0
VERTEX
  5
658
  8
Layer_0
  10
246.136
  20
341.22601
  0
VERTEX
  5
659
  8
Layer_0
  10
245.57068
  20
341.81006
  0
VERTEX
  5
65a
  8
Layer_0
  10
245.02457
  20
342.41245
  0
VERTEX
  5
65b
  8
Layer_0
  10
244.49811
  20
343.03265
  0
VERTEX
  5
65c
  8
Layer_0
  10
243.99179
  20
343.6702
  0
VERTEX
  5
65d
  8
Layer_0
  10
243.50607
  20
344.32468
  0
VERTEX
  5
65e
  8
Layer_0
  10
243.04138
  20
344.99561
  0
VERTEX
  5
65f
  8
Layer_0
  10
242.59821
  20
345.68253
  0
VERTEX
  5
660
  8
Layer_0
  10
242.177
  20
346.38498
  0
VERTEX
  5
661
  8
Layer_0
  10
241.77928
  20
347.10089
  0
VERTEX
  5
662
  8
Layer_0
  10
241.40599
  20
347.82806
  0
VERTEX
  5
663
  8
Layer_0
  10
241.05728
  20
348.56592
  0
VERTEX
  5
664
  8
Layer_0
  10
240.73337
  20
349.31375
  0
VERTEX
  5
665
  8
Layer_0
  10
240.43439
  20
350.07098
  0
VERTEX
  5
666
  8
Layer_0
  10
240.16051
  20
350.83698
  0
VERTEX
  5
667
  8
Layer_0
  10
239.91191
  20
351.61111
  0
VERTEX
  5
668
  8
Layer_0
  10
239.68875
  20
352.39273
  0
VERTEX
  5
669
  8
Layer_0
  10
239.49121
  20
353.18121
  0
VERTEX
  5
66a
  8
Layer_0
  10
239.31946
  20
353.97595
  0
VERTEX
  5
66b
  8
Layer_0
  10
239.17368
  20
354.77628
  0
VERTEX
  5
66c
  8
Layer_0
  10
239.05399
  20
355.5816
  0
VERTEX
  5
66d
  8
Layer_0
  10
238.96062
  20
356.39124
  0
VERTEX
  5
66e
  8
Layer_0
  10
238.89371
  20
357.20462
  0
VERTEX
  5
66f
  8
Layer_0
  10
238.85345
  20
358.02109
  0
VERTEX
  5
670
  8
Layer_0
  10
238.84
  20
358.84
  0
VERTEX
  5
671
  8
Layer_0
  10
238.83699
  20
358.81674
  0
VERTEX
  5
672
  8
Layer_0
  10
238.828
  20
358.79501
  0
VERTEX
  5
673
  8
Layer_0
  10
238.81375
  20
358.77625
  0
VERTEX
  5
674
  8
Layer_0
  10
238.795
  20
358.76199
  0
VERTEX
  5
675
  8
Layer_0
  10
238.77325
  20
358.75299
  0
VERTEX
  5
676
  8
Layer_0
  10
238.75
  20
358.74997
  0
VERTEX
  5
677
  8
Layer_0
  10
238.72675
  20
358.75299
  0
VERTEX
  5
678
  8
Layer_0
  10
238.70499
  20
358.76199
  0
VERTEX
  5
679
  8
Layer_0
  10
238.68625
  20
358.77625
  0
VERTEX
  5
67a
  8
Layer_0
  10
238.672
  20
358.79501
  0
VERTEX
  5
67b
  8
Layer_0
  10
238.66301
  20
358.81674
  0
VERTEX
  5
67c
  8
Layer_0
  10
238.66
  20
358.84
  0
SEQEND
  0
POLYLINE
  5
67e
  8
Layer_0
  62
0
  70
1
  66
1
  10
0
  20
0
  30
0
  0
VERTEX
  5
67e
  8
Layer_0
  10
265.34
  20
333.84
  0
VERTEX
  5
67f
  8
Layer_0
  10
265.34
  20
358.84
  0
VERTEX
  5
680
  8
Layer_0
  10
265.31375
  20
358.90375
  0
VERTEX
  5
681
  8
Layer_0
  10
265.25
  20
358.93002
  0
VERTEX
  5
682
  8
Layer_0
  10
240.25
  20
358.93002
  0
VERTEX
  5
683
  8
Layer_0
  10
240.22675
  20
358.927
  0
VERTEX
  5
684
  8
Layer_0
  10
240.20499
  20
358.918
  0
VERTEX
  5
685
  8
Layer_0
  10
240.18625
  20
358.90375
  0
VERTEX
  5
686
  8
Layer_0
  10
240.172
  20
358.88498
  0
VERTEX
  5
687
  8
Layer_0
  10
240.16301
  20
358.86325
  0
VERTEX
  5
688
  8
Layer_0
  10
240.16
  20
358.84
  0
VERTEX
  5
689
  8
Layer_0
  10
240.16301
  20
358.81674
  0
VERTEX
  5
68a
  8
Layer_0
  10
240.172
  20
358.79501
  0
VERTEX
  5
68b
  8
Layer_0
  10
240.18625
  20
358.77625
  0
VERTEX
  5
68c
  8
Layer_0
  10
240.20499
  20
358.76199
  0
VERTEX
  5
68d
  8
Layer_0
  10
240.22675
  20
358.75299
  0
VERTEX
  5
68e
  8
Layer_0
  10
240.25
  20
358.74997
  0
VERTEX
  5
68f
  8
Layer_0
  10
241.06892
  20
358.73651
  0
VERTEX
  5
690
  8
Layer_0
  10
241.88538
  20
358.69623
  0
VERTEX
  5
691
  8
Layer_0
  10
242.69873
  20
358.62933
  0
VERTEX
  5
692
  8
Layer_0
  10
243.50839
  20
358.53598
  0
VERTEX
  5
693
  8
Layer_0
  10
244.31369
  20
358.41629
  0
VERTEX
  5
694
  8
Layer_0
  10
245.11403
  20
358.27051
  0
VERTEX
  5
695
  8
Layer_0
  10
245.90875
  20
358.09875
  0
VERTEX
  5
696
  8
Layer_0
  10
246.69724
  20
357.90121
  0
VERTEX
  5
697
  8
Layer_0
  10
247.47885
  20
357.67807
  0
VERTEX
  5
698
  8
Layer_0
  10
248.25298
  20
357.42947
  0
VERTEX
  5
699
  8
Layer_0
  10
249.01898
  20
357.15558
  0
VERTEX
  5
69a
  8
Layer_0
  10
249.77621
  20
356.8566
  0
VERTEX
  5
69b
  8
Layer_0
  10
250.52406
  20
356.53268
  0
VERTEX
  5
69c
  8
Layer_0
  10
251.2619
  20
356.18399
  0
VERTEX
  5
69d
  8
Layer_0
  10
251.98907
  20
355.8107
  0
VERTEX
  5
69e
  8
Layer_0
  10
252.70499
  20
355.41299
  0
VERTEX
  5
69f
  8
Layer_0
  10
253.40744
  20
354.99179
  0
VERTEX
  5
6a0
  8
Layer_0
  10
254.09436
  20
354.54861
  0
VERTEX
  5
6a1
  8
Layer_0
  10
254.76529
  20
354.08392
  0
VERTEX
  5
6a2
  8
Layer_0
  10
255.41977
  20
353.59821
  0
VERTEX
  5
6a3
  8
Layer_0
  10
256.05734
  20
353.09189
  0
VERTEX
  5
6a4
  8
Layer_0
  10
256.67752
  20
352.56543
  0
VERTEX
  5
6a5
  8
Layer_0
  10
257.27988
  20
352.01932
  0
VERTEX
  5
6a6
  8
Layer_0
  10
257.86398
  20
351.45398
  0
VERTEX
  5
6a7
  8
Layer_0
  10
258.42932
  20
350.8699
  0
VERTEX
  5
6a8
  8
Layer_0
  10
258.97543
  20
350.26755
  0
VERTEX
  5
6a9
  8
Layer_0
  10
259.50189
  20
349.64734
  0
VERTEX
  5
6aa
  8
Layer_0
  10
260.00821
  20
349.0098
  0
VERTEX
  5
6ab
  8
Layer_0
  10
260.49393
  20
348.35532
  0
VERTEX
  5
6ac
  8
Layer_0
  10
260.95862
  20
347.68439
  0
VERTEX
  5
6ad
  8
Layer_0
  10
261.40179
  20
346.99747
  0
VERTEX
  5
6ae
  8
Layer_0
  10
261.823
  20
346.29501
  0
VERTEX
  5
6af
  8
Layer_0
  10
262.22073
  20
345.5791
  0
VERTEX
  5
6b0
  8
Layer_0
  10
262.59399
  20
344.8519
  0
VERTEX
  5
6b1
  8
Layer_0
  10
262.94269
  20
344.11407
  0
VERTEX
  5
6b2
  8
Layer_0
  10
263.26663
  20
343.36621
  0
VERTEX
  5
6b3
  8
Layer_0
  10
263.56561
  20
342.60898
  0
VERTEX
  5
6b4
  8
Layer_0
  10
263.83948
  20
341.84296
  0
VERTEX
  5
6b5
  8
Layer_0
  10
264.08807
  20
341.06885
  0
VERTEX
  5
6b6
  8
Layer_0
  10
264.31122
  20
340.28723
  0
VERTEX
  5
6b7
  8
Layer_0
  10
264.50876
  20
339.49875
  0
VERTEX
  5
6b8
  8
Layer_0
  10
264.68051
  20
338.70404
  0
VERTEX
  5
6b9
  8
Layer_0
  10
264.82629
  20
337.90369
  0
VERTEX
  5
6ba
  8
Layer_0
  10
264.94598
  20
337.09839
  0
VERTEX
  5
6bb
  8
Layer_0
  10
265.03937
  20
336.28873
  0
VERTEX
  5
6bc
  8
Layer_0
  10
265.10626
  20
335.47537
  0
VERTEX
  5
6bd
  8
Layer_0
  10
265.14655
  20
334.65891
  0
VERTEX
  5
6be
  8
Layer_0
  10
265.15997
  20
333.84
  0
VERTEX
  5
6bf
  8
Layer_0
  10
265.16296
  20
333.86325
  0
VERTEX
  5
6c0
  8
Layer_0
  10
265.172
  20
333.88498
  0
VERTEX
  5
6c1
  8
Layer_0
  10
265.18622
  20
333.90375
  0
VERTEX
  5
6c2
  8
Layer_0
  10
265.20499
  20
333.918
  0
VERTEX
  5
6c3
  8
Layer_0
  10
265.22675
  20
333.927
  0
VERTEX
  5
6c4
  8
Layer_0
  10
265.25
  20
333.93002
  0
VERTEX
  5
6c5
  8
Layer_0
  10
265.27325
  20
333.927
  0
VERTEX
  5
6c6
  8
Layer_0
  10
265.29498
  20
333.918
  0
VERTEX
  5
6c7
  8
Layer_0
  10
265.31378
  20
333.90375
  0
VERTEX
  5
6c8
  8
Layer_0
  10
265.328
  20
333.88498
  0
VERTEX
  5
6c9
  8
Layer_0
  10
265.33701
  20
333.86325
  0
VERTEX
  5
6ca
  8
Layer_0
  10
265.34
  20
333.84
  0
SEQEND
  0
POLYLINE
  5
6cc
  8
Layer_0
  62
0
  70
1
  66
1
  10
0
  20
0
  30
0
  0
VERTEX
  5
6cc
  8
Layer_0
  10
238.65999
  20
332.16
  0
VERTEX
  5
6cd
  8
Layer_0
  10
238.65999
  20
307.16
  0
VERTEX
  5
6ce
  8
Layer_0
  10
238.68623
  20
307.09625
  0
VERTEX
  5
6cf
  8
Layer_0
  10
238.75
  20
307.06998
  0
VERTEX
  5
6d0
  8
Layer_0
  10
263.75
  20
307.06998
  0
VERTEX
  5
6d1
  8
Layer_0
  10
263.77325
  20
307.073
  0
VERTEX
  5
6d2
  8
Layer_0
  10
263.79498
  20
307.082
  0
VERTEX
  5
6d3
  8
Layer_0
  10
263.81378
  20
307.09625
  0
VERTEX
  5
6d4
  8
Layer_0
  10
263.828
  20
307.11502
  0
VERTEX
  5
6d5
  8
Layer_0
  10
263.83701
  20
307.13675
  0
VERTEX
  5
6d6
  8
Layer_0
  10
263.84
  20
307.16
  0
VERTEX
  5
6d7
  8
Layer_0
  10
263.83701
  20
307.18326
  0
VERTEX
  5
6d8
  8
Layer_0
  10
263.828
  20
307.20499
  0
VERTEX
  5
6d9
  8
Layer_0
  10
263.81378
  20
307.22375
  0
VERTEX
  5
6da
  8
Layer_0
  10
263.79498
  20
307.23801
  0
VERTEX
  5
6db
  8
Layer_0
  10
263.77325
  20
307.24698
  0
VERTEX
  5
6dc
  8
Layer_0
  10
263.75
  20
307.24997
  0
VERTEX
  5
6dd
  8
Layer_0
  10
262.93109
  20
307.26343
  0
VERTEX
  5
6de
  8
Layer_0
  10
262.11462
  20
307.30371
  0
VERTEX
  5
6df
  8
Layer_0
  10
261.30124
  20
307.37061
  0
VERTEX
  5
6e0
  8
Layer_0
  10
260.49158
  20
307.46399
  0
VERTEX
  5
6e1
  8
Layer_0
  10
259.68628
  20
307.58362
  0
VERTEX
  5
6e2
  8
Layer_0
  10
258.88593
  20
307.72943
  0
VERTEX
  5
6e3
  8
Layer_0
  10
258.09122
  20
307.90118
  0
VERTEX
  5
6e4
  8
Layer_0
  10
257.30273
  20
308.09872
  0
VERTEX
  5
6e5
  8
Layer_0
  10
256.52112
  20
308.3219
  0
VERTEX
  5
6e6
  8
Layer_0
  10
255.74699
  20
308.5705
  0
VERTEX
  5
6e7
  8
Layer_0
  10
254.98099
  20
308.84436
  0
VERTEX
  5
6e8
  8
Layer_0
  10
254.22375
  20
309.14337
  0
VERTEX
  5
6e9
  8
Layer_0
  10
253.47591
  20
309.46729
  0
VERTEX
  5
6ea
  8
Layer_0
  10
252.73807
  20
309.81598
  0
VERTEX
  5
6eb
  8
Layer_0
  10
252.01089
  20
310.18927
  0
VERTEX
  5
6ec
  8
Layer_0
  10
251.29498
  20
310.58701
  0
VERTEX
  5
6ed
  8
Layer_0
  10
250.59253
  20
311.00821
  0
VERTEX
  5
6ee
  8
Layer_0
  10
249.90561
  20
311.45139
  0
VERTEX
  5
6ef
  8
Layer_0
  10
249.23468
  20
311.91608
  0
VERTEX
  5
6f0
  8
Layer_0
  10
248.5802
  20
312.40179
  0
VERTEX
  5
6f1
  8
Layer_0
  10
247.94263
  20
312.90811
  0
VERTEX
  5
6f2
  8
Layer_0
  10
247.32243
  20
313.43457
  0
VERTEX
  5
6f3
  8
Layer_0
  10
246.72006
  20
313.98068
  0
VERTEX
  5
6f4
  8
Layer_0
  10
246.13599
  20
314.54602
  0
VERTEX
  5
6f5
  8
Layer_0
  10
245.57065
  20
315.13007
  0
VERTEX
  5
6f6
  8
Layer_0
  10
245.02454
  20
315.73245
  0
VERTEX
  5
6f7
  8
Layer_0
  10
244.49808
  20
316.35266
  0
VERTEX
  5
6f8
  8
Layer_0
  10
243.99176
  20
316.99023
  0
VERTEX
  5
6f9
  8
Layer_0
  10
243.50604
  20
317.64471
  0
VERTEX
  5
6fa
  8
Layer_0
  10
243.04135
  20
318.31561
  0
VERTEX
  5
6fb
  8
Layer_0
  10
242.59818
  20
319.00256
  0
VERTEX
  5
6fc
  8
Layer_0
  10
242.17699
  20
319.70499
  0
VERTEX
  5
6fd
  8
Layer_0
  10
241.77928
  20
320.4209
  0
VERTEX
  5
6fe
  8
Layer_0
  10
241.40599
  20
321.14807
  0
VERTEX
  5
6ff
  8
Layer_0
  10
241.05728
  20
321.88593
  0
VERTEX
  5
700
  8
Layer_0
  10
240.73337
  20
322.63376
  0
VERTEX
  5
701
  8
Layer_0
  10
240.43439
  20
323.39099
  0
VERTEX
  5
702
  8
Layer_0
  10
240.16051
  20
324.15698
  0
VERTEX
  5
703
  8
Layer_0
  10
239.9119
  20
324.93112
  0
VERTEX
  5
704
  8
Layer_0
  10
239.68875
  20
325.71274
  0
VERTEX
  5
705
  8
Layer_0
  10
239.49121
  20
326.50122
  0
VERTEX
  5
706
  8
Layer_0
  10
239.31946
  20
327.29596
  0
VERTEX
  5
707
  8
Layer_0
  10
239.17368
  20
328.09628
  0
VERTEX
  5
708
  8
Layer_0
  10
239.05399
  20
328.90161
  0
VERTEX
  5
709
  8
Layer_0
  10
238.96062
  20
329.71124
  0
VERTEX
  5
70a
  8
Layer_0
  10
238.89371
  20
330.52463
  0
VERTEX
  5
70b
  8
Layer_0
  10
238.85345
  20
331.34109
  0
VERTEX
  5
70c
  8
Layer_0
  10
238.84
  20
332.16
  0
VERTEX
  5
70d
  8
Layer_0
  10
238.83699
  20
332.13675
  0
VERTEX
  5
70e
  8
Layer_0
  10
238.82799
  20
332.11502
  0
VERTEX
  5
70f
  8
Layer_0
  10
238.81374
  20
332.09625
  0
VERTEX
  5
710
  8
Layer_0
  10
238.79498
  20
332.082
  0
VERTEX
  5
711
  8
Layer_0
  10
238.77325
  20
332.073
  0
VERTEX
  5
712
  8
Layer_0
  10
238.75
  20
332.06998
  0
VERTEX
  5
713
  8
Layer_0
  10
238.72675
  20
332.073
  0
VERTEX
  5
714
  8
Layer_0
  10
238.70499
  20
332.082
  0
VERTEX
  5
715
  8
Layer_0
  10
238.68625
  20
332.09625
  0
VERTEX
  5
716
  8
Layer_0
  10
238.672
  20
332.11502
  0
VERTEX
  5
717
  8
Layer_0
  10
238.66299
  20
332.13675
  0
VERTEX
  5
718
  8
Layer_0
  10
238.65999
  20
332.16
  0
SEQEND
  0
POLYLINE
  5
71a
  8
Layer_0
  62
0
  70
1
  66
1
  10
0
  20
0
  30
0
  0
VERTEX
  5
71a
  8
Layer_0
  10
265.34
  20
307.16
  0
VERTEX
  5
71b
  8
Layer_0
  10
265.34
  20
332.16
  0
VERTEX
  5
71c
  8
Layer_0
  10
265.31375
  20
332.22372
  0
VERTEX
  5
71d
  8
Layer_0
  10
265.25
  20
332.24997
  0
VERTEX
  5
71e
  8
Layer_0
  10
240.25
  20
332.24997
  0
VERTEX
  5
71f
  8
Layer_0
  10
240.22675
  20
332.24698
  0
VERTEX
  5
720
  8
Layer_0
  10
240.20499
  20
332.23801
  0
VERTEX
  5
721
  8
Layer_0
  10
240.18625
  20
332.22375
  0
VERTEX
  5
722
  8
Layer_0
  10
240.172
  20
332.20499
  0
VERTEX
  5
723
  8
Layer_0
  10
240.16299
  20
332.18326
  0
VERTEX
  5
724
  8
Layer_0
  10
240.15999
  20
332.16
  0
VERTEX
  5
725
  8
Layer_0
  10
240.16299
  20
332.13675
  0
VERTEX
  5
726
  8
Layer_0
  10
240.172
  20
332.11502
  0
VERTEX
  5
727
  8
Layer_0
  10
240.18625
  20
332.09625
  0
VERTEX
  5
728
  8
Layer_0
  10
240.20499
  20
332.082
  0
VERTEX
  5
729
  8
Layer_0
  10
240.22675
  20
332.073
  0
VERTEX
  5
72a
  8
Layer_0
  10
240.25
  20
332.06998
  0
VERTEX
  5
72b
  8
Layer_0
  10
241.06892
  20
332.05652
  0
VERTEX
  5
72c
  8
Layer_0
  10
241.88538
  20
332.01624
  0
VERTEX
  5
72d
  8
Layer_0
  10
242.69873
  20
331.94934
  0
VERTEX
  5
72e
  8
Layer_0
  10
243.50839
  20
331.85596
  0
VERTEX
  5
72f
  8
Layer_0
  10
244.31369
  20
331.73633
  0
VERTEX
  5
730
  8
Layer_0
  10
245.11403
  20
331.59052
  0
VERTEX
  5
731
  8
Layer_0
  10
245.90875
  20
331.41876
  0
VERTEX
  5
732
  8
Layer_0
  10
246.69724
  20
331.22122
  0
VERTEX
  5
733
  8
Layer_0
  10
247.47885
  20
330.99808
  0
VERTEX
  5
734
  8
Layer_0
  10
248.25298
  20
330.74948
  0
VERTEX
  5
735
  8
Layer_0
  10
249.01898
  20
330.47559
  0
VERTEX
  5
736
  8
Layer_0
  10
249.77621
  20
330.17661
  0
VERTEX
  5
737
  8
Layer_0
  10
250.52406
  20
329.85269
  0
VERTEX
  5
738
  8
Layer_0
  10
251.2619
  20
329.504
  0
VERTEX
  5
739
  8
Layer_0
  10
251.98907
  20
329.13071
  0
VERTEX
  5
73a
  8
Layer_0
  10
252.70499
  20
328.733
  0
VERTEX
  5
73b
  8
Layer_0
  10
253.40744
  20
328.3118
  0
VERTEX
  5
73c
  8
Layer_0
  10
254.09436
  20
327.86862
  0
VERTEX
  5
73d
  8
Layer_0
  10
254.76529
  20
327.40393
  0
VERTEX
  5
73e
  8
Layer_0
  10
255.41977
  20
326.91821
  0
VERTEX
  5
73f
  8
Layer_0
  10
256.05734
  20
326.4119
  0
VERTEX
  5
740
  8
Layer_0
  10
256.67752
  20
325.88544
  0
VERTEX
  5
741
  8
Layer_0
  10
257.27988
  20
325.33932
  0
VERTEX
  5
742
  8
Layer_0
  10
257.86398
  20
324.77399
  0
VERTEX
  5
743
  8
Layer_0
  10
258.42932
  20
324.18994
  0
VERTEX
  5
744
  8
Layer_0
  10
258.97543
  20
323.58755
  0
VERTEX
  5
745
  8
Layer_0
  10
259.50189
  20
322.96735
  0
VERTEX
  5
746
  8
Layer_0
  10
260.00821
  20
322.32977
  0
VERTEX
  5
747
  8
Layer_0
  10
260.49393
  20
321.67529
  0
VERTEX
  5
748
  8
Layer_0
  10
260.95862
  20
321.00439
  0
VERTEX
  5
749
  8
Layer_0
  10
261.40179
  20
320.31744
  0
VERTEX
  5
74a
  8
Layer_0
  10
261.823
  20
319.61502
  0
VERTEX
  5
74b
  8
Layer_0
  10
262.22073
  20
318.89911
  0
VERTEX
  5
74c
  8
Layer_0
  10
262.59399
  20
318.17191
  0
VERTEX
  5
74d
  8
Layer_0
  10
262.94269
  20
317.43408
  0
VERTEX
  5
74e
  8
Layer_0
  10
263.26663
  20
316.68622
  0
VERTEX
  5
74f
  8
Layer_0
  10
263.56561
  20
315.92896
  0
VERTEX
  5
750
  8
Layer_0
  10
263.83948
  20
315.16296
  0
VERTEX
  5
751
  8
Layer_0
  10
264.08807
  20
314.38885
  0
VERTEX
  5
752
  8
Layer_0
  10
264.31122
  20
313.60724
  0
VERTEX
  5
753
  8
Layer_0
  10
264.50876
  20
312.81876
  0
VERTEX
  5
754
  8
Layer_0
  10
264.68051
  20
312.02405
  0
VERTEX
  5
755
  8
Layer_0
  10
264.82629
  20
311.22369
  0
VERTEX
  5
756
  8
Layer_0
  10
264.94598
  20
310.4184
  0
VERTEX
  5
757
  8
Layer_0
  10
265.03937
  20
309.60873
  0
VERTEX
  5
758
  8
Layer_0
  10
265.10626
  20
308.79538
  0
VERTEX
  5
759
  8
Layer_0
  10
265.14655
  20
307.97891
  0
VERTEX
  5
75a
  8
Layer_0
  10
265.15997
  20
307.16
  0
VERTEX
  5
75b
  8
Layer_0
  10
265.16296
  20
307.18326
  0
VERTEX
  5
75c
  8
Layer_0
  10
265.172
  20
307.20499
  0
VERTEX
  5
75d
  8
Layer_0
  10
265.18622
  20
307.22375
  0
VERTEX
  5
75e
  8
Layer_0
  10
265.20499
  20
307.23801
  0
VERTEX
  5
75f
  8
Layer_0
  10
265.22675
  20
307.24698
  0
VERTEX
  5
760
  8
Layer_0
  10
265.25
  20
307.24997
  0
VERTEX
  5
761
  8
Layer_0
  10
265.27325
  20
307.24698
  0
VERTEX
  5
762
  8
Layer_0
  10
265.29498
  20
307.23801
  0
VERTEX
  5
763
  8
Layer_0
  10
265.31378
  20
307.22375
  0
VERTEX
  5
764
  8
Layer_0
  10
265.328
  20
307.20499
  0
VERTEX
  5
765
  8
Layer_0
  10
265.33701
  20
307.18326
  0
VERTEX
  5
766
  8
Layer_0
  10
265.34
  20
307.16
  0
SEQEND
  0
POLYLINE
  5
768
  8
Layer_0
  62
0
  70
1
  66
1
  10
0
  20
0
  30
0
  0
VERTEX
  5
768
  8
Layer_0
  10
41.000004
  20
304.91
  0
VERTEX
  5
769
  8
Layer_0
  10
43.000004
  20
304.91
  0
VERTEX
  5
76a
  8
Layer_0
  10
43.063751
  20
304.93625
  0
VERTEX
  5
76b
  8
Layer_0
  10
43.090004
  20
305
  0
VERTEX
  5
76c
  8
Layer_0
  10
43.090004
  20
307.91
  0
VERTEX
  5
76d
  8
Layer_0
  10
43.056255
  20
307.94376
  0
VERTEX
  5
76e
  8
Layer_0
  10
43.090004
  20
307.91
  0
VERTEX
  5
76f
  8
Layer_0
  10
48.910004
  20
307.91
  0
VERTEX
  5
770
  8
Layer_0
  10
48.943752
  20
307.94376
  0
VERTEX
  5
771
  8
Layer_0
  10
48.910004
  20
307.91
  0
VERTEX
  5
772
  8
Layer_0
  10
48.910004
  20
305
  0
VERTEX
  5
773
  8
Layer_0
  10
48.936256
  20
304.93625
  0
VERTEX
  5
774
  8
Layer_0
  10
49.000004
  20
304.91
  0
VERTEX
  5
775
  8
Layer_0
  10
55.000004
  20
304.91
  0
VERTEX
  5
776
  8
Layer_0
  10
55.063751
  20
304.93625
  0
VERTEX
  5
777
  8
Layer_0
  10
55.090004
  20
305
  0
VERTEX
  5
778
  8
Layer_0
  10
55.090004
  20
307.91
  0
VERTEX
  5
779
  8
Layer_0
  10
55.056255
  20
307.94376
  0
VERTEX
  5
77a
  8
Layer_0
  10
55.090004
  20
307.91
  0
VERTEX
  5
77b
  8
Layer_0
  10
60.910004
  20
307.91
  0
VERTEX
  5
77c
  8
Layer_0
  10
60.943752
  20
307.94376
  0
VERTEX
  5
77d
  8
Layer_0
  10
60.910004
  20
307.91
  0
VERTEX
  5
77e
  8
Layer_0
  10
60.910004
  20
305
  0
VERTEX
  5
77f
  8
Layer_0
  10
60.936256
  20
304.93625
  0
VERTEX
  5
780
  8
Layer_0
  10
61.000004
  20
304.91
  0
VERTEX
  5
781
  8
Layer_0
  10
67
  20
304.91
  0
VERTEX
  5
782
  8
Layer_0
  10
67.063751
  20
304.93625
  0
VERTEX
  5
783
  8
Layer_0
  10
67.090004
  20
305
  0
VERTEX
  5
784
  8
Layer_0
  10
67.090004
  20
307.91
  0
VERTEX
  5
785
  8
Layer_0
  10
67.056252
  20
307.94376
  0
VERTEX
  5
786
  8
Layer_0
  10
67.090004
  20
307.91
  0
VERTEX
  5
787
  8
Layer_0
  10
72.910004
  20
307.91
  0
VERTEX
  5
788
  8
Layer_0
  10
72.943756
  20
307.94376
  0
VERTEX
  5
789
  8
Layer_0
  10
72.910004
  20
307.91
  0
VERTEX
  5
78a
  8
Layer_0
  10
72.910004
  20
305
  0
VERTEX
  5
78b
  8
Layer_0
  10
72.936256
  20
304.93625
  0
VERTEX
  5
78c
  8
Layer_0
  10
73
  20
304.91
  0
VERTEX
  5
78d
  8
Layer_0
  10
79
  20
304.91
  0
VERTEX
  5
78e
  8
Layer_0
  10
79.063751
  20
304.93625
  0
VERTEX
  5
78f
  8
Layer_0
  10
79.090004
  20
305
  0
VERTEX
  5
790
  8
Layer_0
  10
79.090004
  20
307.91
  0
VERTEX
  5
791
  8
Layer_0
  10
79.056252
  20
307.94376
  0
VERTEX
  5
792
  8
Layer_0
  10
79.090004
  20
307.91
  0
VERTEX
  5
793
  8
Layer_0
  10
84.910004
  20
307.91
  0
VERTEX
  5
794
  8
Layer_0
  10
84.943756
  20
307.94376
  0
VERTEX
  5
795
  8
Layer_0
  10
84.910004
  20
307.91
  0
VERTEX
  5
796
  8
Layer_0
  10
84.910004
  20
305
  0
VERTEX
  5
797
  8
Layer_0
  10
84.936256
  20
304.93625
  0
VERTEX
  5
798
  8
Layer_0
  10
85
  20
304.91
  0
VERTEX
  5
799
  8
Layer_0
  10
91
  20
304.91
  0
VERTEX
  5
79a
  8
Layer_0
  10
91.063751
  20
304.93625
  0
VERTEX
  5
79b
  8
Layer_0
  10
91.090004
  20
305
  0
VERTEX
  5
79c
  8
Layer_0
  10
91.090004
  20
307.91
  0
VERTEX
  5
79d
  8
Layer_0
  10
91.056252
  20
307.94376
  0
VERTEX
  5
79e
  8
Layer_0
  10
91.090004
  20
307.91
  0
VERTEX
  5
79f
  8
Layer_0
  10
96.910004
  20
307.91
  0
VERTEX
  5
7a0
  8
Layer_0
  10
96.943756
  20
307.94376
  0
VERTEX
  5
7a1
  8
Layer_0
  10
96.910004
  20
307.91
  0
VERTEX
  5
7a2
  8
Layer_0
  10
96.910004
  20
305
  0
VERTEX
  5
7a3
  8
Layer_0
  10
96.936256
  20
304.93625
  0
VERTEX
  5
7a4
  8
Layer_0
  10
97
  20
304.91
  0
VERTEX
  5
7a5
  8
Layer_0
  10
103
  20
304.91
  0
VERTEX
  5
7a6
  8
Layer_0
  10
103.06375
  20
304.93625
  0
VERTEX
  5
7a7
  8
Layer_0
  10
103.09
  20
305
  0
VERTEX
  5
7a8
  8
Layer_0
  10
103.09
  20
307.91
  0
VERTEX
  5
7a9
  8
Layer_0
  10
103.05625
  20
307.94376
  0
VERTEX
  5
7aa
  8
Layer_0
  10
103.09
  20
307.91
  0
VERTEX
  5
7ab
  8
Layer_0
  10
108.91
  20
307.91
  0
VERTEX
  5
7ac
  8
Layer_0
  10
108.94376
  20
307.94376
  0
VERTEX
  5
7ad
  8
Layer_0
  10
108.91
  20
307.91
  0
VERTEX
  5
7ae
  8
Layer_0
  10
108.91
  20
305
  0
VERTEX
  5
7af
  8
Layer_0
  10
108.93626
  20
304.93625
  0
VERTEX
  5
7b0
  8
Layer_0
  10
109
  20
304.91
  0
VERTEX
  5
7b1
  8
Layer_0
  10
115
  20
304.91
  0
VERTEX
  5
7b2
  8
Layer_0
  10
115.06375
  20
304.93625
  0
VERTEX
  5
7b3
  8
Layer_0
  10
115.09
  20
305
  0
VERTEX
  5
7b4
  8
Layer_0
  10
115.09
  20
307.91
  0
VERTEX
  5
7b5
  8
Layer_0
  10
115.05625
  20
307.94376
  0
VERTEX
  5
7b6
  8
Layer_0
  10
115.09
  20
307.91
  0
VERTEX
  5
7b7
  8
Layer_0
  10
120.91
  20
307.91
  0
VERTEX
  5
7b8
  8
Layer_0
  10
120.94376
  20
307.94376
  0
VERTEX
  5
7b9
  8
Layer_0
  10
120.91
  20
307.91
  0
VERTEX
  5
7ba
  8
Layer_0
  10
120.91
  20
305
  0
VERTEX
  5
7bb
  8
Layer_0
  10
120.93626
  20
304.93625
  0
VERTEX
  5
7bc
  8
Layer_0
  10
121
  20
304.91
  0
VERTEX
  5
7bd
  8
Layer_0
  10
127
  20
304.91
  0
VERTEX
  5
7be
  8
Layer_0
  10
127.06375
  20
304.93625
  0
VERTEX
  5
7bf
  8
Layer_0
  10
127.09
  20
305
  0
VERTEX
  5
7c0
  8
Layer_0
  10
127.09
  20
307.91
  0
VERTEX
  5
7c1
  8
Layer_0
  10
127.05625
  20
307.94376
  0
VERTEX
  5
7c2
  8
Layer_0
  10
127.09
  20
307.91
  0
VERTEX
  5
7c3
  8
Layer_0
  10
132.91
  20
307.91
  0
VERTEX
  5
7c4
  8
Layer_0
  10
132.94376
  20
307.94376
  0
VERTEX
  5
7c5
  8
Layer_0
  10
132.91
  20
307.91
  0
VERTEX
  5
7c6
  8
Layer_0
  10
132.91
  20
305
  0
VERTEX
  5
7c7
  8
Layer_0
  10
132.93626
  20
304.93625
  0
VERTEX
  5
7c8
  8
Layer_0
  10
133
  20
304.91
  0
VERTEX
  5
7c9
  8
Layer_0
  10
139
  20
304.91
  0
VERTEX
  5
7ca
  8
Layer_0
  10
139.06375
  20
304.93625
  0
VERTEX
  5
7cb
  8
Layer_0
  10
139.09
  20
305
  0
VERTEX
  5
7cc
  8
Layer_0
  10
139.09
  20
307.91
  0
VERTEX
  5
7cd
  8
Layer_0
  10
139.05624
  20
307.94376
  0
VERTEX
  5
7ce
  8
Layer_0
  10
139.09
  20
307.91
  0
VERTEX
  5
7cf
  8
Layer_0
  10
144.91
  20
307.91
  0
VERTEX
  5
7d0
  8
Layer_0
  10
144.94376
  20
307.94376
  0
VERTEX
  5
7d1
  8
Layer_0
  10
144.91
  20
307.91
  0
VERTEX
  5
7d2
  8
Layer_0
  10
144.91
  20
305
  0
VERTEX
  5
7d3
  8
Layer_0
  10
144.93626
  20
304.93625
  0
VERTEX
  5
7d4
  8
Layer_0
  10
145
  20
304.91
  0
VERTEX
  5
7d5
  8
Layer_0
  10
151
  20
304.91
  0
VERTEX
  5
7d6
  8
Layer_0
  10
151.06375
  20
304.93625
  0
VERTEX
  5
7d7
  8
Layer_0
  10
151.09
  20
305
  0
VERTEX
  5
7d8
  8
Layer_0
  10
151.09
  20
307.91
  0
VERTEX
  5
7d9
  8
Layer_0
  10
151.05624
  20
307.94376
  0
VERTEX
  5
7da
  8
Layer_0
  10
151.09
  20
307.91
  0
VERTEX
  5
7db
  8
Layer_0
  10
156.91
  20
307.91
  0
VERTEX
  5
7dc
  8
Layer_0
  10
156.94376
  20
307.94376
  0
VERTEX
  5
7dd
  8
Layer_0
  10
156.91
  20
307.91
  0
VERTEX
  5
7de
  8
Layer_0
  10
156.91
  20
305
  0
VERTEX
  5
7df
  8
Layer_0
  10
156.93625
  20
304.93625
  0
VERTEX
  5
7e0
  8
Layer_0
  10
157
  20
304.91
  0
VERTEX
  5
7e1
  8
Layer_0
  10
163
  20
304.91
  0
VERTEX
  5
7e2
  8
Layer_0
  10
163.06375
  20
304.93625
  0
VERTEX
  5
7e3
  8
Layer_0
  10
163.09
  20
305
  0
VERTEX
  5
7e4
  8
Layer_0
  10
163.09
  20
307.91
  0
VERTEX
  5
7e5
  8
Layer_0
  10
163.05624
  20
307.94376
  0
VERTEX
  5
7e6
  8
Layer_0
  10
163.09
  20
307.91
  0
VERTEX
  5
7e7
  8
Layer_0
  10
168.91
  20
307.91
  0
VERTEX
  5
7e8
  8
Layer_0
  10
168.94376
  20
307.94376
  0
VERTEX
  5
7e9
  8
Layer_0
  10
168.91
  20
307.91
  0
VERTEX
  5
7ea
  8
Layer_0
  10
168.91
  20
305
  0
VERTEX
  5
7eb
  8
Layer_0
  10
168.93625
  20
304.93625
  0
VERTEX
  5
7ec
  8
Layer_0
  10
169
  20
304.91
  0
VERTEX
  5
7ed
  8
Layer_0
  10
175
  20
304.91
  0
VERTEX
  5
7ee
  8
Layer_0
  10
175.06375
  20
304.93625
  0
VERTEX
  5
7ef
  8
Layer_0
  10
175.09
  20
305
  0
VERTEX
  5
7f0
  8
Layer_0
  10
175.09
  20
307.91
  0
VERTEX
  5
7f1
  8
Layer_0
  10
175.05624
  20
307.94376
  0
VERTEX
  5
7f2
  8
Layer_0
  10
175.09
  20
307.91
  0
VERTEX
  5
7f3
  8
Layer_0
  10
180.91
  20
307.91
  0
VERTEX
  5
7f4
  8
Layer_0
  10
180.94376
  20
307.94376
  0
VERTEX
  5
7f5
  8
Layer_0
  10
180.91
  20
307.91
  0
VERTEX
  5
7f6
  8
Layer_0
  10
180.91
  20
305
  0
VERTEX
  5
7f7
  8
Layer_0
  10
180.93625
  20
304.93625
  0
VERTEX
  5
7f8
  8
Layer_0
  10
181
  20
304.91
  0
VERTEX
  5
7f9
  8
Layer_0
  10
187
  20
304.91
  0
VERTEX
  5
7fa
  8
Layer_0
  10
187.06375
  20
304.93625
  0
VERTEX
  5
7fb
  8
Layer_0
  10
187.09
  20
305
  0
VERTEX
  5
7fc
  8
Layer_0
  10
187.09
  20
307.91
  0
VERTEX
  5
7fd
  8
Layer_0
  10
187.05624
  20
307.94376
  0
VERTEX
  5
7fe
  8
Layer_0
  10
187.09
  20
307.91
  0
VERTEX
  5
7ff
  8
Layer_0
  10
192.91
  20
307.91
  0
VERTEX
  5
800
  8
Layer_0
  10
192.94376
  20
307.94376
  0
VERTEX
  5
801
  8
Layer_0
  10
192.91
  20
307.91
  0
VERTEX
  5
802
  8
Layer_0
  10
192.91
  20
305
  0
VERTEX
  5
803
  8
Layer_0
  10
192.93625
  20
304.93625
  0
VERTEX
  5
804
  8
Layer_0
  10
193
  20
304.91
  0
VERTEX
  5
805
  8
Layer_0
  10
199
  20
304.91
  0
VERTEX
  5
806
  8
Layer_0
  10
199.06375
  20
304.93625
  0
VERTEX
  5
807
  8
Layer_0
  10
199.09
  20
305
  0
VERTEX
  5
808
  8
Layer_0
  10
199.09
  20
307.91
  0
VERTEX
  5
809
  8
Layer_0
  10
199.05624
  20
307.94376
  0
VERTEX
  5
80a
  8
Layer_0
  10
199.09
  20
307.91
  0
VERTEX
  5
80b
  8
Layer_0
  10
204.91
  20
307.91
  0
VERTEX
  5
80c
  8
Layer_0
  10
204.94376
  20
307.94376
  0
VERTEX
  5
80d
  8
Layer_0
  10
204.91
  20
307.91
  0
VERTEX
  5
80e
  8
Layer_0
  10
204.91
  20
305
  0
VERTEX
  5
80f
  8
Layer_0
  10
204.93625
  20
304.93625
  0
VERTEX
  5
810
  8
Layer_0
  10
205
  20
304.91
  0
VERTEX
  5
811
  8
Layer_0
  10
211
  20
304.91
  0
VERTEX
  5
812
  8
Layer_0
  10
211.06375
  20
304.93625
  0
VERTEX
  5
813
  8
Layer_0
  10
211.09
  20
305
  0
VERTEX
  5
814
  8
Layer_0
  10
211.09
  20
307.91
  0
VERTEX
  5
815
  8
Layer_0
  10
211.05624
  20
307.94376
  0
VERTEX
  5
816
  8
Layer_0
  10
211.09
  20
307.91
  0
VERTEX
  5
817
  8
Layer_0
  10
216.91
  20
307.91
  0
VERTEX
  5
818
  8
Layer_0
  10
216.94376
  20
307.94376
  0
VERTEX
  5
819
  8
Layer_0
  10
216.91
  20
307.91
  0
VERTEX
  5
81a
  8
Layer_0
  10
216.91
  20
305
  0
VERTEX
  5
81b
  8
Layer_0
  10
216.93625
  20
304.93625
  0
VERTEX
  5
81c
  8
Layer_0
  10
217
  20
304.91
  0
VERTEX
  5
81d
  8
Layer_0
  10
223
  20
304.91
  0
VERTEX
  5
81e
  8
Layer_0
  10
223.06375
  20
304.93625
  0
VERTEX
  5
81f
  8
Layer_0
  10
223.09
  20
305
  0
VERTEX
  5
820
  8
Layer_0
  10
223.09
  20
307.91
  0
VERTEX
  5
821
  8
Layer_0
  10
223.05624
  20
307.94376
  0
VERTEX
  5
822
  8
Layer_0
  10
223.09
  20
307.91
  0
VERTEX
  5
823
  8
Layer_0
  10
228.91
  20
307.91
  0
VERTEX
  5
824
  8
Layer_0
  10
228.94376
  20
307.94376
  0
VERTEX
  5
825
  8
Layer_0
  10
228.91
  20
307.91
  0
VERTEX
  5
826
  8
Layer_0
  10
228.91
  20
305
  0
VERTEX
  5
827
  8
Layer_0
  10
228.93625
  20
304.93625
  0
VERTEX
  5
828
  8
Layer_0
  10
229
  20
304.91
  0
VERTEX
  5
829
  8
Layer_0
  10
234
  20
304.91
  0
VERTEX
  5
82a
  8
Layer_0
  10
234.06375
  20
304.93625
  0
VERTEX
  5
82b
  8
Layer_0
  10
234.09
  20
305
  0
VERTEX
  5
82c
  8
Layer_0
  10
234.09
  20
312
  0
VERTEX
  5
82d
  8
Layer_0
  10
234.06375
  20
312.06375
  0
VERTEX
  5
82e
  8
Layer_0
  10
234
  20
312.09
  0
VERTEX
  5
82f
  8
Layer_0
  10
231.09
  20
312.09
  0
VERTEX
  5
830
  8
Layer_0
  10
231.05624
  20
312.05624
  0
VERTEX
  5
831
  8
Layer_0
  10
231.09
  20
312.09
  0
VERTEX
  5
832
  8
Layer_0
  10
231.09
  20
317.91
  0
VERTEX
  5
833
  8
Layer_0
  10
231.05624
  20
317.94376
  0
VERTEX
  5
834
  8
Layer_0
  10
231.09
  20
317.91
  0
VERTEX
  5
835
  8
Layer_0
  10
234
  20
317.91
  0
VERTEX
  5
836
  8
Layer_0
  10
234.06375
  20
317.93625
  0
VERTEX
  5
837
  8
Layer_0
  10
234.09
  20
318
  0
VERTEX
  5
838
  8
Layer_0
  10
234.09
  20
324
  0
VERTEX
  5
839
  8
Layer_0
  10
234.06375
  20
324.06375
  0
VERTEX
  5
83a
  8
Layer_0
  10
234
  20
324.09
  0
VERTEX
  5
83b
  8
Layer_0
  10
231.09
  20
324.09
  0
VERTEX
  5
83c
  8
Layer_0
  10
231.05624
  20
324.05624
  0
VERTEX
  5
83d
  8
Layer_0
  10
231.09
  20
324.09
  0
VERTEX
  5
83e
  8
Layer_0
  10
231.09
  20
329.91
  0
VERTEX
  5
83f
  8
Layer_0
  10
231.05624
  20
329.94376
  0
VERTEX
  5
840
  8
Layer_0
  10
231.09
  20
329.91
  0
VERTEX
  5
841
  8
Layer_0
  10
234
  20
329.91
  0
VERTEX
  5
842
  8
Layer_0
  10
234.06375
  20
329.93625
  0
VERTEX
  5
843
  8
Layer_0
  10
234.09
  20
330
  0
VERTEX
  5
844
  8
Layer_0
  10
234.09
  20
336
  0
VERTEX
  5
845
  8
Layer_0
  10
234.06375
  20
336.06375
  0
VERTEX
  5
846
  8
Layer_0
  10
234
  20
336.09
  0
VERTEX
  5
847
  8
Layer_0
  10
231.09
  20
336.09
  0
VERTEX
  5
848
  8
Layer_0
  10
231.05624
  20
336.05624
  0
VERTEX
  5
849
  8
Layer_0
  10
231.09
  20
336.09
  0
VERTEX
  5
84a
  8
Layer_0
  10
231.09
  20
341.91
  0
VERTEX
  5
84b
  8
Layer_0
  10
231.05624
  20
341.94376
  0
VERTEX
  5
84c
  8
Layer_0
  10
231.09
  20
341.91
  0
VERTEX
  5
84d
  8
Layer_0
  10
234
  20
341.91
  0
VERTEX
  5
84e
  8
Layer_0
  10
234.06375
  20
341.93625
  0
VERTEX
  5
84f
  8
Layer_0
  10
234.09
  20
342
  0
VERTEX
  5
850
  8
Layer_0
  10
234.09
  20
348
  0
VERTEX
  5
851
  8
Layer_0
  10
234.06375
  20
348.06375
  0
VERTEX
  5
852
  8
Layer_0
  10
234
  20
348.09
  0
VERTEX
  5
853
  8
Layer_0
  10
231.09
  20
348.09
  0
VERTEX
  5
854
  8
Layer_0
  10
231.05624
  20
348.05624
  0
VERTEX
  5
855
  8
Layer_0
  10
231.09
  20
348.09
  0
VERTEX
  5
856
  8
Layer_0
  10
231.09
  20
353.91
  0
VERTEX
  5
857
  8
Layer_0
  10
231.05624
  20
353.94376
  0
VERTEX
  5
858
  8
Layer_0
  10
231.09
  20
353.91
  0
VERTEX
  5
859
  8
Layer_0
  10
234
  20
353.91
  0
VERTEX
  5
85a
  8
Layer_0
  10
234.06375
  20
353.93625
  0
VERTEX
  5
85b
  8
Layer_0
  10
234.09
  20
354
  0
VERTEX
  5
85c
  8
Layer_0
  10
234.09
  20
361
  0
VERTEX
  5
85d
  8
Layer_0
  10
234.06375
  20
361.06375
  0
VERTEX
  5
85e
  8
Layer_0
  10
234
  20
361.09
  0
VERTEX
  5
85f
  8
Layer_0
  10
229
  20
361.09
  0
VERTEX
  5
860
  8
Layer_0
  10
228.93625
  20
361.06375
  0
VERTEX
  5
861
  8
Layer_0
  10
228.91
  20
361
  0
VERTEX
  5
862
  8
Layer_0
  10
228.91
  20
358.09
  0
VERTEX
  5
863
  8
Layer_0
  10
228.94376
  20
358.05624
  0
VERTEX
  5
864
  8
Layer_0
  10
228.91
  20
358.09
  0
VERTEX
  5
865
  8
Layer_0
  10
223.09
  20
358.09
  0
VERTEX
  5
866
  8
Layer_0
  10
223.05624
  20
358.05624
  0
VERTEX
  5
867
  8
Layer_0
  10
223.09
  20
358.09
  0
VERTEX
  5
868
  8
Layer_0
  10
223.09
  20
361
  0
VERTEX
  5
869
  8
Layer_0
  10
223.06375
  20
361.06375
  0
VERTEX
  5
86a
  8
Layer_0
  10
223
  20
361.09
  0
VERTEX
  5
86b
  8
Layer_0
  10
217
  20
361.09
  0
VERTEX
  5
86c
  8
Layer_0
  10
216.93625
  20
361.06375
  0
VERTEX
  5
86d
  8
Layer_0
  10
216.91
  20
361
  0
VERTEX
  5
86e
  8
Layer_0
  10
216.91
  20
358.09
  0
VERTEX
  5
86f
  8
Layer_0
  10
216.94376
  20
358.05624
  0
VERTEX
  5
870
  8
Layer_0
  10
216.91
  20
358.09
  0
VERTEX
  5
871
  8
Layer_0
  10
211.09
  20
358.09
  0
VERTEX
  5
872
  8
Layer_0
  10
211.05624
  20
358.05624
  0
VERTEX
  5
873
  8
Layer_0
  10
211.09
  20
358.09
  0
VERTEX
  5
874
  8
Layer_0
  10
211.09
  20
361
  0
VERTEX
  5
875
  8
Layer_0
  10
211.06375
  20
361.06375
  0
VERTEX
  5
876
  8
Layer_0
  10
211
  20
361.09
  0
VERTEX
  5
877
  8
Layer_0
  10
205
  20
361.09
  0
VERTEX
  5
878
  8
Layer_0
  10
204.93625
  20
361.06375
  0
VERTEX
  5
879
  8
Layer_0
  10
204.91
  20
361
  0
VERTEX
  5
87a
  8
Layer_0
  10
204.91
  20
358.09
  0
VERTEX
  5
87b
  8
Layer_0
  10
204.94376
  20
358.05624
  0
VERTEX
  5
87c
  8
Layer_0
  10
204.91
  20
358.09
  0
VERTEX
  5
87d
  8
Layer_0
  10
199.09
  20
358.09
  0
VERTEX
  5
87e
  8
Layer_0
  10
199.05624
  20
358.05624
  0
VERTEX
  5
87f
  8
Layer_0
  10
199.09
  20
358.09
  0
VERTEX
  5
880
  8
Layer_0
  10
199.09
  20
361
  0
VERTEX
  5
881
  8
Layer_0
  10
199.06375
  20
361.06375
  0
VERTEX
  5
882
  8
Layer_0
  10
199
  20
361.09
  0
VERTEX
  5
883
  8
Layer_0
  10
193
  20
361.09
  0
VERTEX
  5
884
  8
Layer_0
  10
192.93625
  20
361.06375
  0
VERTEX
  5
885
  8
Layer_0
  10
192.91
  20
361
  0
VERTEX
  5
886
  8
Layer_0
  10
192.91
  20
358.09
  0
VERTEX
  5
887
  8
Layer_0
  10
192.94376
  20
358.05624
  0
VERTEX
  5
888
  8
Layer_0
  10
192.91
  20
358.09
  0
VERTEX
  5
889
  8
Layer_0
  10
187.09
  20
358.09
  0
VERTEX
  5
88a
  8
Layer_0
  10
187.05624
  20
358.05624
  0
VERTEX
  5
88b
  8
Layer_0
  10
187.09
  20
358.09
  0
VERTEX
  5
88c
  8
Layer_0
  10
187.09
  20
361
  0
VERTEX
  5
88d
  8
Layer_0
  10
187.06375
  20
361.06375
  0
VERTEX
  5
88e
  8
Layer_0
  10
187
  20
361.09
  0
VERTEX
  5
88f
  8
Layer_0
  10
181
  20
361.09
  0
VERTEX
  5
890
  8
Layer_0
  10
180.93625
  20
361.06375
  0
VERTEX
  5
891
  8
Layer_0
  10
180.91
  20
361
  0
VERTEX
  5
892
  8
Layer_0
  10
180.91
  20
358.09
  0
VERTEX
  5
893
  8
Layer_0
  10
180.94376
  20
358.05624
  0
VERTEX
  5
894
  8
Layer_0
  10
180.91
  20
358.09
  0
VERTEX
  5
895
  8
Layer_0
  10
175.09
  20
358.09
  0
VERTEX
  5
896
  8
Layer_0
  10
175.05624
  20
358.05624
  0
VERTEX
  5
897
  8
Layer_0
  10
175.09
  20
358.09
  0
VERTEX
  5
898
  8
Layer_0
  10
175.09
  20
361
  0
VERTEX
  5
899
  8
Layer_0
  10
175.06375
  20
361.06375
  0
VERTEX
  5
89a
  8
Layer_0
  10
175
  20
361.09
  0
VERTEX
  5
89b
  8
Layer_0
  10
169
  20
361.09
  0
VERTEX
  5
89c
  8
Layer_0
  10
168.93625
  20
361.06375
  0
VERTEX
  5
89d
  8
Layer_0
  10
168.91
  20
361
  0
VERTEX
  5
89e
  8
Layer_0
  10
168.91
  20
358.09
  0
VERTEX
  5
89f
  8
Layer_0
  10
168.94376
  20
358.05624
  0
VERTEX
  5
8a0
  8
Layer_0
  10
168.91
  20
358.09
  0
VERTEX
  5
8a1
  8
Layer_0
  10
163.09
  20
358.09
  0
VERTEX
  5
8a2
  8
Layer_0
  10
163.05624
  20
358.05624
  0
VERTEX
  5
8a3
  8
Layer_0
  10
163.09
  20
358.09
  0
VERTEX
  5
8a4
  8
Layer_0
  10
163.09
  20
361
  0
VERTEX
  5
8a5
  8
Layer_0
  10
163.06375
  20
361.06375
  0
VERTEX
  5
8a6
  8
Layer_0
  10
163
  20
361.09
  0
VERTEX
  5
8a7
  8
Layer_0
  10
157
  20
361.09
  0
VERTEX
  5
8a8
  8
Layer_0
  10
156.93625
  20
361.06375
  0
VERTEX
  5
8a9
  8
Layer_0
  10
156.91
  20
361
  0
VERTEX
  5
8aa
  8
Layer_0
  10
156.91
  20
358.09
  0
VERTEX
  5
8ab
  8
Layer_0
  10
156.94376
  20
358.05624
  0
VERTEX
  5
8ac
  8
Layer_0
  10
156.91
  20
358.09
  0
VERTEX
  5
8ad
  8
Layer_0
  10
151.09
  20
358.09
  0
VERTEX
  5
8ae
  8
Layer_0
  10
151.05624
  20
358.05624
  0
VERTEX
  5
8af
  8
Layer_0
  10
151.09
  20
358.09
  0
VERTEX
  5
8b0
  8
Layer_0
  10
151.09
  20
361
  0
VERTEX
  5
8b1
  8
Layer_0
  10
151.06375
  20
361.06375
  0
VERTEX
  5
8b2
  8
Layer_0
  10
151
  20
361.09
  0
VERTEX
  5
8b3
  8
Layer_0
  10
145
  20
361.09
  0
VERTEX
  5
8b4
  8
Layer_0
  10
144.93626
  20
361.06375
  0
VERTEX
  5
8b5
  8
Layer_0
  10
144.91
  20
361
  0
VERTEX
  5
8b6
  8
Layer_0
  10
144.91
  20
358.09
  0
VERTEX
  5
8b7
  8
Layer_0
  10
144.94376
  20
358.05624
  0
VERTEX
  5
8b8
  8
Layer_0
  10
144.91
  20
358.09
  0
VERTEX
  5
8b9
  8
Layer_0
  10
139.09
  20
358.09
  0
VERTEX
  5
8ba
  8
Layer_0
  10
139.05624
  20
358.05624
  0
VERTEX
  5
8bb
  8
Layer_0
  10
139.09
  20
358.09
  0
VERTEX
  5
8bc
  8
Layer_0
  10
139.09
  20
361
  0
VERTEX
  5
8bd
  8
Layer_0
  10
139.06375
  20
361.06375
  0
VERTEX
  5
8be
  8
Layer_0
  10
139
  20
361.09
  0
VERTEX
  5
8bf
  8
Layer_0
  10
133
  20
361.09
  0
VERTEX
  5
8c0
  8
Layer_0
  10
132.93626
  20
361.06375
  0
VERTEX
  5
8c1
  8
Layer_0
  10
132.91
  20
361
  0
VERTEX
  5
8c2
  8
Layer_0
  10
132.91
  20
358.09
  0
VERTEX
  5
8c3
  8
Layer_0
  10
132.94376
  20
358.05624
  0
VERTEX
  5
8c4
  8
Layer_0
  10
132.91
  20
358.09
  0
VERTEX
  5
8c5
  8
Layer_0
  10
127.09
  20
358.09
  0
VERTEX
  5
8c6
  8
Layer_0
  10
127.05625
  20
358.05624
  0
VERTEX
  5
8c7
  8
Layer_0
  10
127.09
  20
358.09
  0
VERTEX
  5
8c8
  8
Layer_0
  10
127.09
  20
361
  0
VERTEX
  5
8c9
  8
Layer_0
  10
127.06375
  20
361.06375
  0
VERTEX
  5
8ca
  8
Layer_0
  10
127
  20
361.09
  0
VERTEX
  5
8cb
  8
Layer_0
  10
121
  20
361.09
  0
VERTEX
  5
8cc
  8
Layer_0
  10
120.93626
  20
361.06375
  0
VERTEX
  5
8cd
  8
Layer_0
  10
120.91
  20
361
  0
VERTEX
  5
8ce
  8
Layer_0
  10
120.91
  20
358.09
  0
VERTEX
  5
8cf
  8
Layer_0
  10
120.94376
  20
358.05624
  0
VERTEX
  5
8d0
  8
Layer_0
  10
120.91
  20
358.09
  0
VERTEX
  5
8d1
  8
Layer_0
  10
115.09
  20
358.09
  0
VERTEX
  5
8d2
  8
Layer_0
  10
115.05625
  20
358.05624
  0
VERTEX
  5
8d3
  8
Layer_0
  10
115.09
  20
358.09
  0
VERTEX
  5
8d4
  8
Layer_0
  10
115.09
  20
361
  0
VERTEX
  5
8d5
  8
Layer_0
  10
115.06375
  20
361.06375
  0
VERTEX
  5
8d6
  8
Layer_0
  10
115
  20
361.09
  0
VERTEX
  5
8d7
  8
Layer_0
  10
109
  20
361.09
  0
VERTEX
  5
8d8
  8
Layer_0
  10
108.93626
  20
361.06375
  0
VERTEX
  5
8d9
  8
Layer_0
  10
108.91
  20
361
  0
VERTEX
  5
8da
  8
Layer_0
  10
108.91
  20
358.09
  0
VERTEX
  5
8db
  8
Layer_0
  10
108.94376
  20
358.05624
  0
VERTEX
  5
8dc
  8
Layer_0
  10
108.91
  20
358.09
  0
VERTEX
  5
8dd
  8
Layer_0
  10
103.09
  20
358.09
  0
VERTEX
  5
8de
  8
Layer_0
  10
103.05625
  20
358.05624
  0
VERTEX
  5
8df
  8
Layer_0
  10
103.09
  20
358.09
  0
VERTEX
  5
8e0
  8
Layer_0
  10
103.09
  20
361
  0
VERTEX
  5
8e1
  8
Layer_0
  10
103.06375
  20
361.06375
  0
VERTEX
  5
8e2
  8
Layer_0
  10
103
  20
361.09
  0
VERTEX
  5
8e3
  8
Layer_0
  10
97
  20
361.09
  0
VERTEX
  5
8e4
  8
Layer_0
  10
96.936256
  20
361.06375
  0
VERTEX
  5
8e5
  8
Layer_0
  10
96.910004
  20
361
  0
VERTEX
  5
8e6
  8
Layer_0
  10
96.910004
  20
358.09
  0
VERTEX
  5
8e7
  8
Layer_0
  10
96.943756
  20
358.05624
  0
VERTEX
  5
8e8
  8
Layer_0
  10
96.910004
  20
358.09
  0
VERTEX
  5
8e9
  8
Layer_0
  10
91.090004
  20
358.09
  0
VERTEX
  5
8ea
  8
Layer_0
  10
91.056252
  20
358.05624
  0
VERTEX
  5
8eb
  8
Layer_0
  10
91.090004
  20
358.09
  0
VERTEX
  5
8ec
  8
Layer_0
  10
91.090004
  20
361
  0
VERTEX
  5
8ed
  8
Layer_0
  10
91.063751
  20
361.06375
  0
VERTEX
  5
8ee
  8
Layer_0
  10
91
  20
361.09
  0
VERTEX
  5
8ef
  8
Layer_0
  10
85
  20
361.09
  0
VERTEX
  5
8f0
  8
Layer_0
  10
84.936256
  20
361.06375
  0
VERTEX
  5
8f1
  8
Layer_0
  10
84.910004
  20
361
  0
VERTEX
  5
8f2
  8
Layer_0
  10
84.910004
  20
358.09
  0
VERTEX
  5
8f3
  8
Layer_0
  10
84.943756
  20
358.05624
  0
VERTEX
  5
8f4
  8
Layer_0
  10
84.910004
  20
358.09
  0
VERTEX
  5
8f5
  8
Layer_0
  10
79.090004
  20
358.09
  0
VERTEX
  5
8f6
  8
Layer_0
  10
79.056252
  20
358.05624
  0
VERTEX
  5
8f7
  8
Layer_0
  10
79.090004
  20
358.09
  0
VERTEX
  5
8f8
  8
Layer_0
  10
79.090004
  20
361
  0
VERTEX
  5
8f9
  8
Layer_0
  10
79.063751
  20
361.06375
  0
VERTEX
  5
8fa
  8
Layer_0
  10
79
  20
361.09
  0
VERTEX
  5
8fb
  8
Layer_0
  10
73
  20
361.09
  0
VERTEX
  5
8fc
  8
Layer_0
  10
72.936256
  20
361.06375
  0
VERTEX
  5
8fd
  8
Layer_0
  10
72.910004
  20
361
  0
VERTEX
  5
8fe
  8
Layer_0
  10
72.910004
  20
358.09
  0
VERTEX
  5
8ff
  8
Layer_0
  10
72.943756
  20
358.05624
  0
VERTEX
  5
900
  8
Layer_0
  10
72.910004
  20
358.09
  0
VERTEX
  5
901
  8
Layer_0
  10
67.090004
  20
358.09
  0
VERTEX
  5
902
  8
Layer_0
  10
67.056252
  20
358.05624
  0
VERTEX
  5
903
  8
Layer_0
  10
67.090004
  20
358.09
  0
VERTEX
  5
904
  8
Layer_0
  10
67.090004
  20
361
  0
VERTEX
  5
905
  8
Layer_0
  10
67.063751
  20
361.06375
  0
VERTEX
  5
906
  8
Layer_0
  10
67
  20
361.09
  0
VERTEX
  5
907
  8
Layer_0
  10
61.000004
  20
361.09
  0
VERTEX
  5
908
  8
Layer_0
  10
60.936256
  20
361.06375
  0
VERTEX
  5
909
  8
Layer_0
  10
60.910004
  20
361
  0
VERTEX
  5
90a
  8
Layer_0
  10
60.910004
  20
358.09
  0
VERTEX
  5
90b
  8
Layer_0
  10
60.943752
  20
358.05624
  0
VERTEX
  5
90c
  8
Layer_0
  10
60.910004
  20
358.09
  0
VERTEX
  5
90d
  8
Layer_0
  10
55.090004
  20
358.09
  0
VERTEX
  5
90e
  8
Layer_0
  10
55.056255
  20
358.05624
  0
VERTEX
  5
90f
  8
Layer_0
  10
55.090004
  20
358.09
  0
VERTEX
  5
910
  8
Layer_0
  10
55.090004
  20
361
  0
VERTEX
  5
911
  8
Layer_0
  10
55.063751
  20
361.06375
  0
VERTEX
  5
912
  8
Layer_0
  10
55.000004
  20
361.09
  0
VERTEX
  5
913
  8
Layer_0
  10
49.000004
  20
361.09
  0
VERTEX
  5
914
  8
Layer_0
  10
48.936256
  20
361.06375
  0
VERTEX
  5
915
  8
Layer_0
  10
48.910004
  20
361
  0
VERTEX
  5
916
  8
Layer_0
  10
48.910004
  20
358.09
  0
VERTEX
  5
917
  8
Layer_0
  10
48.943752
  20
358.05624
  0
VERTEX
  5
918
  8
Layer_0
  10
48.910004
  20
358.09
  0
VERTEX
  5
919
  8
Layer_0
  10
43.090004
  20
358.09
  0
VERTEX
  5
91a
  8
Layer_0
  10
43.056255
  20
358.05624
  0
VERTEX
  5
91b
  8
Layer_0
  10
43.090004
  20
358.09
  0
VERTEX
  5
91c
  8
Layer_0
  10
43.090004
  20
361
  0
VERTEX
  5
91d
  8
Layer_0
  10
43.063751
  20
361.06375
  0
VERTEX
  5
91e
  8
Layer_0
  10
43.000004
  20
361.09
  0
VERTEX
  5
91f
  8
Layer_0
  10
38.000004
  20
361.09
  0
VERTEX
  5
920
  8
Layer_0
  10
37.936256
  20
361.06375
  0
VERTEX
  5
921
  8
Layer_0
  10
37.910004
  20
361
  0
VERTEX
  5
922
  8
Layer_0
  10
37.910004
  20
354
  0
VERTEX
  5
923
  8
Layer_0
  10
37.936256
  20
353.93625
  0
VERTEX
  5
924
  8
Layer_0
  10
38.000004
  20
353.91
  0
VERTEX
  5
925
  8
Layer_0
  10
40.910004
  20
353.91
  0
VERTEX
  5
926
  8
Layer_0
  10
40.943752
  20
353.94376
  0
VERTEX
  5
927
  8
Layer_0
  10
40.910004
  20
353.91
  0
VERTEX
  5
928
  8
Layer_0
  10
40.910004
  20
348.09
  0
VERTEX
  5
929
  8
Layer_0
  10
40.943752
  20
348.05624
  0
VERTEX
  5
92a
  8
Layer_0
  10
40.910004
  20
348.09
  0
VERTEX
  5
92b
  8
Layer_0
  10
38.000004
  20
348.09
  0
VERTEX
  5
92c
  8
Layer_0
  10
37.936256
  20
348.06375
  0
VERTEX
  5
92d
  8
Layer_0
  10
37.910004
  20
348
  0
VERTEX
  5
92e
  8
Layer_0
  10
37.910004
  20
342
  0
VERTEX
  5
92f
  8
Layer_0
  10
37.936256
  20
341.93625
  0
VERTEX
  5
930
  8
Layer_0
  10
38.000004
  20
341.91
  0
VERTEX
  5
931
  8
Layer_0
  10
40.910004
  20
341.91
  0
VERTEX
  5
932
  8
Layer_0
  10
40.943752
  20
341.94376
  0
VERTEX
  5
933
  8
Layer_0
  10
40.910004
  20
341.91
  0
VERTEX
  5
934
  8
Layer_0
  10
40.910004
  20
336.09
  0
VERTEX
  5
935
  8
Layer_0
  10
40.943752
  20
336.05624
  0
VERTEX
  5
936
  8
Layer_0
  10
40.910004
  20
336.09
  0
VERTEX
  5
937
  8
Layer_0
  10
38.000004
  20
336.09
  0
VERTEX
  5
938
  8
Layer_0
  10
37.936256
  20
336.06375
  0
VERTEX
  5
939
  8
Layer_0
  10
37.910004
  20
336
  0
VERTEX
  5
93a
  8
Layer_0
  10
37.910004
  20
330
  0
VERTEX
  5
93b
  8
Layer_0
  10
37.936256
  20
329.93625
  0
VERTEX
  5
93c
  8
Layer_0
  10
38.000004
  20
329.91
  0
VERTEX
  5
93d
  8
Layer_0
  10
40.910004
  20
329.91
  0
VERTEX
  5
93e
  8
Layer_0
  10
40.943752
  20
329.94376
  0
VERTEX
  5
93f
  8
Layer_0
  10
40.910004
  20
329.91
  0
VERTEX
  5
940
  8
Layer_0
  10
40.910004
  20
324.09
  0
VERTEX
  5
941
  8
Layer_0
  10
40.943752
  20
324.05624
  0
VERTEX
  5
942
  8
Layer_0
  10
40.910004
  20
324.09
  0
VERTEX
  5
943
  8
Layer_0
  10
38.000004
  20
324.09
  0
VERTEX
  5
944
  8
Layer_0
  10
37.936256
  20
324.06375
  0
VERTEX
  5
945
  8
Layer_0
  10
37.910004
  20
324
  0
VERTEX
  5
946
  8
Layer_0
  10
37.910004
  20
318
  0
VERTEX
  5
947
  8
Layer_0
  10
37.936256
  20
317.93625
  0
VERTEX
  5
948
  8
Layer_0
  10
38.000004
  20
317.91
  0
VERTEX
  5
949
  8
Layer_0
  10
40.910004
  20
317.91
  0
VERTEX
  5
94a
  8
Layer_0
  10
40.943752
  20
317.94376
  0
VERTEX
  5
94b
  8
Layer_0
  10
40.910004
  20
317.91
  0
VERTEX
  5
94c
  8
Layer_0
  10
40.910004
  20
312.09
  0
VERTEX
  5
94d
  8
Layer_0
  10
40.943752
  20
312.05624
  0
VERTEX
  5
94e
  8
Layer_0
  10
40.910004
  20
312.09
  0
VERTEX
  5
94f
  8
Layer_0
  10
38.000004
  20
312.09
  0
VERTEX
  5
950
  8
Layer_0
  10
37.936256
  20
312.06375
  0
VERTEX
  5
951
  8
Layer_0
  10
37.910004
  20
312
  0
VERTEX
  5
952
  8
Layer_0
  10
37.910004
  20
305
  0
VERTEX
  5
953
  8
Layer_0
  10
37.936256
  20
304.93625
  0
VERTEX
  5
954
  8
Layer_0
  10
38.000004
  20
304.91
  0
VERTEX
  5
955
  8
Layer_0
  10
41.000004
  20
304.91
  0
SEQEND
  0
POLYLINE
  5
957
  8
Layer_0
  62
0
  70
1
  66
1
  10
0
  20
0
  30
0
  0
VERTEX
  5
957
  8
Layer_0
  10
54.639999
  20
263.91
  0
VERTEX
  5
958
  8
Layer_0
  10
54.639999
  20
261
  0
VERTEX
  5
959
  8
Layer_0
  10
54.673752
  20
260.96625
  0
VERTEX
  5
95a
  8
Layer_0
  10
54.639999
  20
261
  0
VERTEX
  5
95b
  8
Layer_0
  10
51.820007
  20
261
  0
VERTEX
  5
95c
  8
Layer_0
  10
51.786259
  20
260.96625
  0
VERTEX
  5
95d
  8
Layer_0
  10
51.820007
  20
261
  0
VERTEX
  5
95e
  8
Layer_0
  10
51.820007
  20
266.82001
  0
VERTEX
  5
95f
  8
Layer_0
  10
51.786259
  20
266.85376
  0
VERTEX
  5
960
  8
Layer_0
  10
51.820007
  20
266.82001
  0
VERTEX
  5
961
  8
Layer_0
  10
54.639999
  20
266.82001
  0
VERTEX
  5
962
  8
Layer_0
  10
54.673752
  20
266.85376
  0
VERTEX
  5
963
  8
Layer_0
  10
54.639999
  20
266.82001
  0
VERTEX
  5
964
  8
Layer_0
  10
54.639999
  20
263.91
  0
SEQEND
  0
POLYLINE
  5
966
  8
Layer_0
  62
0
  70
1
  66
1
  10
0
  20
0
  30
0
  0
VERTEX
  5
966
  8
Layer_0
  10
54.639999
  20
275.91
  0
VERTEX
  5
967
  8
Layer_0
  10
54.639999
  20
273
  0
VERTEX
  5
968
  8
Layer_0
  10
54.673752
  20
272.96625
  0
VERTEX
  5
969
  8
Layer_0
  10
54.639999
  20
273
  0
VERTEX
  5
96a
  8
Layer_0
  10
51.820007
  20
273
  0
VERTEX
  5
96b
  8
Layer_0
  10
51.786259
  20
272.96625
  0
VERTEX
  5
96c
  8
Layer_0
  10
51.820007
  20
273
  0
VERTEX
  5
96d
  8
Layer_0
  10
51.820007
  20
278.82001
  0
VERTEX
  5
96e
  8
Layer_0
  10
51.786259
  20
278.85376
  0
VERTEX
  5
96f
  8
Layer_0
  10
51.820007
  20
278.82001
  0
VERTEX
  5
970
  8
Layer_0
  10
54.639999
  20
278.82001
  0
VERTEX
  5
971
  8
Layer_0
  10
54.673752
  20
278.85376
  0
VERTEX
  5
972
  8
Layer_0
  10
54.639999
  20
278.82001
  0
VERTEX
  5
973
  8
Layer_0
  10
54.639999
  20
275.91
  0
SEQEND
  0
POLYLINE
  5
975
  8
Layer_0
  62
0
  70
1
  66
1
  10
0
  20
0
  30
0
  0
VERTEX
  5
975
  8
Layer_0
  10
54.639999
  20
287.91
  0
VERTEX
  5
976
  8
Layer_0
  10
54.639999
  20
285
  0
VERTEX
  5
977
  8
Layer_0
  10
54.673752
  20
284.96625
  0
VERTEX
  5
978
  8
Layer_0
  10
54.639999
  20
285
  0
VERTEX
  5
979
  8
Layer_0
  10
51.820007
  20
285
  0
VERTEX
  5
97a
  8
Layer_0
  10
51.786259
  20
284.96625
  0
VERTEX
  5
97b
  8
Layer_0
  10
51.820007
  20
285
  0
VERTEX
  5
97c
  8
Layer_0
  10
51.820007
  20
290.82001
  0
VERTEX
  5
97d
  8
Layer_0
  10
51.786259
  20
290.85376
  0
VERTEX
  5
97e
  8
Layer_0
  10
51.820007
  20
290.82001
  0
VERTEX
  5
97f
  8
Layer_0
  10
54.639999
  20
290.82001
  0
VERTEX
  5
980
  8
Layer_0
  10
54.673752
  20
290.85376
  0
VERTEX
  5
981
  8
Layer_0
  10
54.639999
  20
290.82001
  0
VERTEX
  5
982
  8
Layer_0
  10
54.639999
  20
287.91
  0
SEQEND
  0
POLYLINE
  5
984
  8
Layer_0
  62
0
  70
1
  66
1
  10
0
  20
0
  30
0
  0
VERTEX
  5
984
  8
Layer_0
  10
50.230011
  20
251.20999
  0
VERTEX
  5
985
  8
Layer_0
  10
277.77002
  20
251.20999
  0
VERTEX
  5
986
  8
Layer_0
  10
277.83374
  20
251.23625
  0
VERTEX
  5
987
  8
Layer_0
  10
277.85999
  20
251.3
  0
VERTEX
  5
988
  8
Layer_0
  10
277.85999
  20
300.70001
  0
VERTEX
  5
989
  8
Layer_0
  10
277.83374
  20
300.76373
  0
VERTEX
  5
98a
  8
Layer_0
  10
277.77002
  20
300.79001
  0
VERTEX
  5
98b
  8
Layer_0
  10
50.230011
  20
300.79001
  0
VERTEX
  5
98c
  8
Layer_0
  10
50.166252
  20
300.76373
  0
VERTEX
  5
98d
  8
Layer_0
  10
50.139999
  20
300.70001
  0
VERTEX
  5
98e
  8
Layer_0
  10
50.139999
  20
251.3
  0
VERTEX
  5
98f
  8
Layer_0
  10
50.166252
  20
251.23625
  0
VERTEX
  5
990
  8
Layer_0
  10
50.230011
  20
251.20999
  0
SEQEND
  0
POLYLINE
  5
992
  8
Layer_0
  62
0
  66
1
  10
0
  20
0
  30
0
  0
VERTEX
  5
992
  8
Layer_0
  10
59
  20
251.20999
  0
VERTEX
  5
993
  8
Layer_0
  10
59
  20
273
  0
SEQEND
  0
POLYLINE
  5
995
  8
Layer_0
  62
0
  66
1
  10
0
  20
0
  30
0
  0
VERTEX
  5
995
  8
Layer_0
  10
59
  20
279
  0
VERTEX
  5
996
  8
Layer_0
  10
59
  20
300.79001
  0
SEQEND
  0
POLYLINE
  5
998
  8
Layer_0
  62
0
  66
1
  10
0
  20
0
  30
0
  0
VERTEX
  5
998
  8
Layer_0
  10
61.25
  20
294.79001
  0
VERTEX
  5
999
  8
Layer_0
  10
61.25
  20
257.20999
  0
SEQEND
  0
POLYLINE
  5
99b
  8
Layer_0
  62
0
  66
1
  10
0
  20
0
  30
0
  0
VERTEX
  5
99b
  8
Layer_0
  10
63.5
  20
251.20999
  0
VERTEX
  5
99c
  8
Layer_0
  10
63.5
  20
273
  0
SEQEND
  0
POLYLINE
  5
99e
  8
Layer_0
  62
0
  66
1
  10
0
  20
0
  30
0
  0
VERTEX
  5
99e
  8
Layer_0
  10
63.5
  20
279
  0
VERTEX
  5
99f
  8
Layer_0
  10
63.5
  20
300.79001
  0
SEQEND
  0
POLYLINE
  5
9a1
  8
Layer_0
  62
0
  66
1
  10
0
  20
0
  30
0
  0
VERTEX
  5
9a1
  8
Layer_0
  10
65.75
  20
294.79001
  0
VERTEX
  5
9a2
  8
Layer_0
  10
65.75
  20
257.20999
  0
SEQEND
  0
POLYLINE
  5
9a4
  8
Layer_0
  62
0
  66
1
  10
0
  20
0
  30
0
  0
VERTEX
  5
9a4
  8
Layer_0
  10
68
  20
251.20999
  0
VERTEX
  5
9a5
  8
Layer_0
  10
68
  20
273
  0
SEQEND
  0
POLYLINE
  5
9a7
  8
Layer_0
  62
0
  66
1
  10
0
  20
0
  30
0
  0
VERTEX
  5
9a7
  8
Layer_0
  10
68
  20
279
  0
VERTEX
  5
9a8
  8
Layer_0
  10
68
  20
300.79001
  0
SEQEND
  0
POLYLINE
  5
9aa
  8
Layer_0
  62
0
  66
1
  10
0
  20
0
  30
0
  0
VERTEX
  5
9aa
  8
Layer_0
  10
70.25
  20
294.79001
  0
VERTEX
  5
9ab
  8
Layer_0
  10
70.25
  20
257.20999
  0
SEQEND
  0
POLYLINE
  5
9ad
  8
Layer_0
  62
0
  66
1
  10
0
  20
0
  30
0
  0
VERTEX
  5
9ad
  8
Layer_0
  10
72.5
  20
251.20999
  0
VERTEX
  5
9ae
  8
Layer_0
  10
72.5
  20
273
  0
SEQEND
  0
POLYLINE
  5
9b0
  8
Layer_0
  62
0
  66
1
  10
0
  20
0
  30
0
  0
VERTEX
  5
9b0
  8
Layer_0
  10
72.5
  20
279
  0
VERTEX
  5
9b1
  8
Layer_0
  10
72.5
  20
300.79001
  0
SEQEND
  0
POLYLINE
  5
9b3
  8
Layer_0
  62
0
  66
1
  10
0
  20
0
  30
0
  0
VERTEX
  5
9b3
  8
Layer_0
  10
74.75
  20
294.79001
  0
VERTEX
  5
9b4
  8
Layer_0
  10
74.75
  20
257.20999
  0
SEQEND
  0
POLYLINE
  5
9b6
  8
Layer_0
  62
0
  66
1
  10
0
  20
0
  30
0
  0
VERTEX
  5
9b6
  8
Layer_0
  10
77
  20
251.20999
  0
VERTEX
  5
9b7
  8
Layer_0
  10
77
  20
273
  0
SEQEND
  0
POLYLINE
  5
9b9
  8
Layer_0
  62
0
  66
1
  10
0
  20
0
  30
0
  0
VERTEX
  5
9b9
  8
Layer_0
  10
77
  20
279
  0
VERTEX
  5
9ba
  8
Layer_0
  10
77
  20
300.79001
  0
SEQEND
  0
POLYLINE
  5
9bc
  8
Layer_0
  62
0
  66
1
  10
0
  20
0
  30
0
  0
VERTEX
  5
9bc
  8
Layer_0
  10
79.25
  20
294.79001
  0
VERTEX
  5
9bd
  8
Layer_0
  10
79.25
  20
257.20999
  0
SEQEND
  0
POLYLINE
  5
9bf
  8
Layer_0
  62
0
  66
1
  10
0
  20
0
  30
0
  0
VERTEX
  5
9bf
  8
Layer_0
  10
81.5
  20
251.20999
  0
VERTEX
  5
9c0
  8
Layer_0
  10
81.5
  20
273
  0
SEQEND
  0
POLYLINE
  5
9c2
  8
Layer_0
  62
0
  66
1
  10
0
  20
0
  30
0
  0
VERTEX
  5
9c2
  8
Layer_0
  10
81.5
  20
279
  0
VERTEX
  5
9c3
  8
Layer_0
  10
81.5
  20
300.79001
  0
SEQEND
  0
POLYLINE
  5
9c5
  8
Layer_0
  62
0
  66
1
  10
0
  20
0
  30
0
  0
VERTEX
  5
9c5
  8
Layer_0
  10
83.75
  20
294.79001
  0
VERTEX
  5
9c6
  8
Layer_0
  10
83.75
  20
257.20999
  0
SEQEND
  0
POLYLINE
  5
9c8
  8
Layer_0
  62
0
  66
1
  10
0
  20
0
  30
0
  0
VERTEX
  5
9c8
  8
Layer_0
  10
86
  20
251.20999
  0
VERTEX
  5
9c9
  8
Layer_0
  10
86
  20
273
  0
SEQEND
  0
POLYLINE
  5
9cb
  8
Layer_0
  62
0
  66
1
  10
0
  20
0
  30
0
  0
VERTEX
  5
9cb
  8
Layer_0
  10
86
  20
279
  0
VERTEX
  5
9cc
  8
Layer_0
  10
86
  20
300.79001
  0
SEQEND
  0
POLYLINE
  5
9ce
  8
Layer_0
  62
0
  66
1
  10
0
  20
0
  30
0
  0
VERTEX
  5
9ce
  8
Layer_0
  10
88.25
  20
294.79001
  0
VERTEX
  5
9cf
  8
Layer_0
  10
88.25
  20
257.20999
  0
SEQEND
  0
POLYLINE
  5
9d1
  8
Layer_0
  62
0
  66
1
  10
0
  20
0
  30
0
  0
VERTEX
  5
9d1
  8
Layer_0
  10
90.5
  20
251.20999
  0
VERTEX
  5
9d2
  8
Layer_0
  10
90.5
  20
273
  0
SEQEND
  0
POLYLINE
  5
9d4
  8
Layer_0
  62
0
  66
1
  10
0
  20
0
  30
0
  0
VERTEX
  5
9d4
  8
Layer_0
  10
90.5
  20
279
  0
VERTEX
  5
9d5
  8
Layer_0
  10
90.5
  20
300.79001
  0
SEQEND
  0
POLYLINE
  5
9d7
  8
Layer_0
  62
0
  66
1
  10
0
  20
0
  30
0
  0
VERTEX
  5
9d7
  8
Layer_0
  10
92.75
  20
294.79001
  0
VERTEX
  5
9d8
  8
Layer_0
  10
92.75
  20
257.20999
  0
SEQEND
  0
POLYLINE
  5
9da
  8
Layer_0
  62
0
  66
1
  10
0
  20
0
  30
0
  0
VERTEX
  5
9da
  8
Layer_0
  10
95
  20
251.20999
  0
VERTEX
  5
9db
  8
Layer_0
  10
95
  20
273
  0
SEQEND
  0
POLYLINE
  5
9dd
  8
Layer_0
  62
0
  66
1
  10
0
  20
0
  30
0
  0
VERTEX
  5
9dd
  8
Layer_0
  10
95
  20
279
  0
VERTEX
  5
9de
  8
Layer_0
  10
95
  20
300.79001
  0
SEQEND
  0
POLYLINE
  5
9e0
  8
Layer_0
  62
0
  66
1
  10
0
  20
0
  30
0
  0
VERTEX
  5
9e0
  8
Layer_0
  10
97.25
  20
294.79001
  0
VERTEX
  5
9e1
  8
Layer_0
  10
97.25
  20
257.20999
  0
SEQEND
  0
POLYLINE
  5
9e3
  8
Layer_0
  62
0
  66
1
  10
0
  20
0
  30
0
  0
VERTEX
  5
9e3
  8
Layer_0
  10
99.500015
  20
251.20999
  0
VERTEX
  5
9e4
  8
Layer_0
  10
99.500015
  20
273
  0
SEQEND
  0
POLYLINE
  5
9e6
  8
Layer_0
  62
0
  66
1
  10
0
  20
0
  30
0
  0
VERTEX
  5
9e6
  8
Layer_0
  10
99.500015
  20
279
  0
VERTEX
  5
9e7
  8
Layer_0
  10
99.500015
  20
300.79001
  0
SEQEND
  0
POLYLINE
  5
9e9
  8
Layer_0
  62
0
  66
1
  10
0
  20
0
  30
0
  0
VERTEX
  5
9e9
  8
Layer_0
  10
101.75002
  20
294.79001
  0
VERTEX
  5
9ea
  8
Layer_0
  10
101.75002
  20
257.20999
  0
SEQEND
  0
POLYLINE
  5
9ec
  8
Layer_0
  62
0
  66
1
  10
0
  20
0
  30
0
  0
VERTEX
  5
9ec
  8
Layer_0
  10
104.00002
  20
251.20999
  0
VERTEX
  5
9ed
  8
Layer_0
  10
104.00002
  20
273
  0
SEQEND
  0
POLYLINE
  5
9ef
  8
Layer_0
  62
0
  66
1
  10
0
  20
0
  30
0
  0
VERTEX
  5
9ef
  8
Layer_0
  10
104.00002
  20
279
  0
VERTEX
  5
9f0
  8
Layer_0
  10
104.00002
  20
300.79001
  0
SEQEND
  0
POLYLINE
  5
9f2
  8
Layer_0
  62
0
  66
1
  10
0
  20
0
  30
0
  0
VERTEX
  5
9f2
  8
Layer_0
  10
106.25002
  20
294.79001
  0
VERTEX
  5
9f3
  8
Layer_0
  10
106.25002
  20
257.20999
  0
SEQEND
  0
POLYLINE
  5
9f5
  8
Layer_0
  62
0
  66
1
  10
0
  20
0
  30
0
  0
VERTEX
  5
9f5
  8
Layer_0
  10
108.50002
  20
251.20999
  0
VERTEX
  5
9f6
  8
Layer_0
  10
108.50002
  20
273
  0
SEQEND
  0
POLYLINE
  5
9f8
  8
Layer_0
  62
0
  66
1
  10
0
  20
0
  30
0
  0
VERTEX
  5
9f8
  8
Layer_0
  10
108.50002
  20
279
  0
VERTEX
  5
9f9
  8
Layer_0
  10
108.50002
  20
300.79001
  0
SEQEND
  0
POLYLINE
  5
9fb
  8
Layer_0
  62
0
  66
1
  10
0
  20
0
  30
0
  0
VERTEX
  5
9fb
  8
Layer_0
  10
110.75002
  20
294.79001
  0
VERTEX
  5
9fc
  8
Layer_0
  10
110.75002
  20
257.20999
  0
SEQEND
  0
POLYLINE
  5
9fe
  8
Layer_0
  62
0
  66
1
  10
0
  20
0
  30
0
  0
VERTEX
  5
9fe
  8
Layer_0
  10
113.00002
  20
251.20999
  0
VERTEX
  5
9ff
  8
Layer_0
  10
113.00002
  20
273
  0
SEQEND
  0
POLYLINE
  5
a01
  8
Layer_0
  62
0
  66
1
  10
0
  20
0
  30
0
  0
VERTEX
  5
a01
  8
Layer_0
  10
113.00002
  20
279
  0
VERTEX
  5
a02
  8
Layer_0
  10
113.00002
  20
300.79001
  0
SEQEND
  0
POLYLINE
  5
a04
  8
Layer_0
  62
0
  66
1
  10
0
  20
0
  30
0
  0
VERTEX
  5
a04
  8
Layer_0
  10
115.25002
  20
294.79001
  0
VERTEX
  5
a05
  8
Layer_0
  10
115.25002
  20
257.20999
  0
SEQEND
  0
POLYLINE
  5
a07
  8
Layer_0
  62
0
  66
1
  10
0
  20
0
  30
0
  0
VERTEX
  5
a07
  8
Layer_0
  10
117.50002
  20
251.20999
  0
VERTEX
  5
a08
  8
Layer_0
  10
117.50002
  20
273
  0
SEQEND
  0
POLYLINE
  5
a0a
  8
Layer_0
  62
0
  66
1
  10
0
  20
0
  30
0
  0
VERTEX
  5
a0a
  8
Layer_0
  10
117.50002
  20
279
  0
VERTEX
  5
a0b
  8
Layer_0
  10
117.50002
  20
300.79001
  0
SEQEND
  0
POLYLINE
  5
a0d
  8
Layer_0
  62
0
  66
1
  10
0
  20
0
  30
0
  0
VERTEX
  5
a0d
  8
Layer_0
  10
119.75002
  20
294.79001
  0
VERTEX
  5
a0e
  8
Layer_0
  10
119.75002
  20
257.20999
  0
SEQEND
  0
POLYLINE
  5
a10
  8
Layer_0
  62
0
  66
1
  10
0
  20
0
  30
0
  0
VERTEX
  5
a10
  8
Layer_0
  10
122.00002
  20
251.20999
  0
VERTEX
  5
a11
  8
Layer_0
  10
122.00002
  20
273
  0
SEQEND
  0
POLYLINE
  5
a13
  8
Layer_0
  62
0
  66
1
  10
0
  20
0
  30
0
  0
VERTEX
  5
a13
  8
Layer_0
  10
122.00002
  20
279
  0
VERTEX
  5
a14
  8
Layer_0
  10
122.00002
  20
300.79001
  0
SEQEND
  0
POLYLINE
  5
a16
  8
Layer_0
  62
0
  66
1
  10
0
  20
0
  30
0
  0
VERTEX
  5
a16
  8
Layer_0
  10
124.25002
  20
294.79001
  0
VERTEX
  5
a17
  8
Layer_0
  10
124.25002
  20
257.20999
  0
SEQEND
  0
POLYLINE
  5
a19
  8
Layer_0
  62
0
  66
1
  10
0
  20
0
  30
0
  0
VERTEX
  5
a19
  8
Layer_0
  10
126.50002
  20
251.20999
  0
VERTEX
  5
a1a
  8
Layer_0
  10
126.50002
  20
273
  0
SEQEND
  0
POLYLINE
  5
a1c
  8
Layer_0
  62
0
  66
1
  10
0
  20
0
  30
0
  0
VERTEX
  5
a1c
  8
Layer_0
  10
126.50002
  20
279
  0
VERTEX
  5
a1d
  8
Layer_0
  10
126.50002
  20
300.79001
  0
SEQEND
  0
POLYLINE
  5
a1f
  8
Layer_0
  62
0
  66
1
  10
0
  20
0
  30
0
  0
VERTEX
  5
a1f
  8
Layer_0
  10
128.75002
  20
294.79001
  0
VERTEX
  5
a20
  8
Layer_0
  10
128.75002
  20
257.20999
  0
SEQEND
  0
POLYLINE
  5
a22
  8
Layer_0
  62
0
  66
1
  10
0
  20
0
  30
0
  0
VERTEX
  5
a22
  8
Layer_0
  10
131.00002
  20
251.20999
  0
VERTEX
  5
a23
  8
Layer_0
  10
131.00002
  20
273
  0
SEQEND
  0
POLYLINE
  5
a25
  8
Layer_0
  62
0
  66
1
  10
0
  20
0
  30
0
  0
VERTEX
  5
a25
  8
Layer_0
  10
131.00002
  20
279
  0
VERTEX
  5
a26
  8
Layer_0
  10
131.00002
  20
300.79001
  0
SEQEND
  0
POLYLINE
  5
a28
  8
Layer_0
  62
0
  66
1
  10
0
  20
0
  30
0
  0
VERTEX
  5
a28
  8
Layer_0
  10
133.25002
  20
294.79001
  0
VERTEX
  5
a29
  8
Layer_0
  10
133.25002
  20
257.20999
  0
SEQEND
  0
POLYLINE
  5
a2b
  8
Layer_0
  62
0
  66
1
  10
0
  20
0
  30
0
  0
VERTEX
  5
a2b
  8
Layer_0
  10
135.50002
  20
251.20999
  0
VERTEX
  5
a2c
  8
Layer_0
  10
135.50002
  20
273
  0
SEQEND
  0
POLYLINE
  5
a2e
  8
Layer_0
  62
0
  66
1
  10
0
  20
0
  30
0
  0
VERTEX
  5
a2e
  8
Layer_0
  10
135.50002
  20
279
  0
VERTEX
  5
a2f
  8
Layer_0
  10
135.50002
  20
300.79001
  0
SEQEND
  0
POLYLINE
  5
a31
  8
Layer_0
  62
0
  66
1
  10
0
  20
0
  30
0
  0
VERTEX
  5
a31
  8
Layer_0
  10
137.75002
  20
294.79001
  0
VERTEX
  5
a32
  8
Layer_0
  10
137.75002
  20
257.20999
  0
SEQEND
  0
POLYLINE
  5
a34
  8
Layer_0
  62
0
  66
1
  10
0
  20
0
  30
0
  0
VERTEX
  5
a34
  8
Layer_0
  10
140.00002
  20
251.20999
  0
VERTEX
  5
a35
  8
Layer_0
  10
140.00002
  20
273
  0
SEQEND
  0
POLYLINE
  5
a37
  8
Layer_0
  62
0
  66
1
  10
0
  20
0
  30
0
  0
VERTEX
  5
a37
  8
Layer_0
  10
140.00002
  20
279
  0
VERTEX
  5
a38
  8
Layer_0
  10
140.00002
  20
300.79001
  0
SEQEND
  0
POLYLINE
  5
a3a
  8
Layer_0
  62
0
  66
1
  10
0
  20
0
  30
0
  0
VERTEX
  5
a3a
  8
Layer_0
  10
142.25002
  20
294.79001
  0
VERTEX
  5
a3b
  8
Layer_0
  10
142.25002
  20
257.20999
  0
SEQEND
  0
POLYLINE
  5
a3d
  8
Layer_0
  62
0
  66
1
  10
0
  20
0
  30
0
  0
VERTEX
  5
a3d
  8
Layer_0
  10
144.50002
  20
251.20999
  0
VERTEX
  5
a3e
  8
Layer_0
  10
144.50002
  20
273
  0
SEQEND
  0
POLYLINE
  5
a40
  8
Layer_0
  62
0
  66
1
  10
0
  20
0
  30
0
  0
VERTEX
  5
a40
  8
Layer_0
  10
144.50002
  20
279
  0
VERTEX
  5
a41
  8
Layer_0
  10
144.50002
  20
300.79001
  0
SEQEND
  0
POLYLINE
  5
a43
  8
Layer_0
  62
0
  66
1
  10
0
  20
0
  30
0
  0
VERTEX
  5
a43
  8
Layer_0
  10
146.75002
  20
294.79001
  0
VERTEX
  5
a44
  8
Layer_0
  10
146.75002
  20
257.20999
  0
SEQEND
  0
POLYLINE
  5
a46
  8
Layer_0
  62
0
  66
1
  10
0
  20
0
  30
0
  0
VERTEX
  5
a46
  8
Layer_0
  10
149.00002
  20
251.20999
  0
VERTEX
  5
a47
  8
Layer_0
  10
149.00002
  20
273
  0
SEQEND
  0
POLYLINE
  5
a49
  8
Layer_0
  62
0
  66
1
  10
0
  20
0
  30
0
  0
VERTEX
  5
a49
  8
Layer_0
  10
149.00002
  20
279
  0
VERTEX
  5
a4a
  8
Layer_0
  10
149.00002
  20
300.79001
  0
SEQEND
  0
POLYLINE
  5
a4c
  8
Layer_0
  62
0
  66
1
  10
0
  20
0
  30
0
  0
VERTEX
  5
a4c
  8
Layer_0
  10
151.25002
  20
294.79001
  0
VERTEX
  5
a4d
  8
Layer_0
  10
151.25002
  20
257.20999
  0
SEQEND
  0
POLYLINE
  5
a4f
  8
Layer_0
  62
0
  66
1
  10
0
  20
0
  30
0
  0
VERTEX
  5
a4f
  8
Layer_0
  10
153.50002
  20
251.20999
  0
VERTEX
  5
a50
  8
Layer_0
  10
153.50002
  20
273
  0
SEQEND
  0
POLYLINE
  5
a52
  8
Layer_0
  62
0
  66
1
  10
0
  20
0
  30
0
  0
VERTEX
  5
a52
  8
Layer_0
  10
153.50002
  20
279
  0
VERTEX
  5
a53
  8
Layer_0
  10
153.50002
  20
300.79001
  0
SEQEND
  0
POLYLINE
  5
a55
  8
Layer_0
  62
0
  66
1
  10
0
  20
0
  30
0
  0
VERTEX
  5
a55
  8
Layer_0
  10
155.75002
  20
294.79001
  0
VERTEX
  5
a56
  8
Layer_0
  10
155.75002
  20
257.20999
  0
SEQEND
  0
POLYLINE
  5
a58
  8
Layer_0
  62
0
  66
1
  10
0
  20
0
  30
0
  0
VERTEX
  5
a58
  8
Layer_0
  10
158.00002
  20
251.20999
  0
VERTEX
  5
a59
  8
Layer_0
  10
158.00002
  20
273
  0
SEQEND
  0
POLYLINE
  5
a5b
  8
Layer_0
  62
0
  66
1
  10
0
  20
0
  30
0
  0
VERTEX
  5
a5b
  8
Layer_0
  10
158.00002
  20
279
  0
VERTEX
  5
a5c
  8
Layer_0
  10
158.00002
  20
300.79001
  0
SEQEND
  0
POLYLINE
  5
a5e
  8
Layer_0
  62
0
  66
1
  10
0
  20
0
  30
0
  0
VERTEX
  5
a5e
  8
Layer_0
  10
160.25002
  20
294.79001
  0
VERTEX
  5
a5f
  8
Layer_0
  10
160.25002
  20
257.20999
  0
SEQEND
  0
POLYLINE
  5
a61
  8
Layer_0
  62
0
  66
1
  10
0
  20
0
  30
0
  0
VERTEX
  5
a61
  8
Layer_0
  10
162.50002
  20
251.20999
  0
VERTEX
  5
a62
  8
Layer_0
  10
162.50002
  20
273
  0
SEQEND
  0
POLYLINE
  5
a64
  8
Layer_0
  62
0
  66
1
  10
0
  20
0
  30
0
  0
VERTEX
  5
a64
  8
Layer_0
  10
162.50002
  20
279
  0
VERTEX
  5
a65
  8
Layer_0
  10
162.50002
  20
300.79001
  0
SEQEND
  0
POLYLINE
  5
a67
  8
Layer_0
  62
0
  66
1
  10
0
  20
0
  30
0
  0
VERTEX
  5
a67
  8
Layer_0
  10
164.75002
  20
294.79001
  0
VERTEX
  5
a68
  8
Layer_0
  10
164.75002
  20
257.20999
  0
SEQEND
  0
POLYLINE
  5
a6a
  8
Layer_0
  62
0
  66
1
  10
0
  20
0
  30
0
  0
VERTEX
  5
a6a
  8
Layer_0
  10
167.00002
  20
251.20999
  0
VERTEX
  5
a6b
  8
Layer_0
  10
167.00002
  20
273
  0
SEQEND
  0
POLYLINE
  5
a6d
  8
Layer_0
  62
0
  66
1
  10
0
  20
0
  30
0
  0
VERTEX
  5
a6d
  8
Layer_0
  10
167.00002
  20
279
  0
VERTEX
  5
a6e
  8
Layer_0
  10
167.00002
  20
300.79001
  0
SEQEND
  0
POLYLINE
  5
a70
  8
Layer_0
  62
0
  66
1
  10
0
  20
0
  30
0
  0
VERTEX
  5
a70
  8
Layer_0
  10
169.25002
  20
294.79001
  0
VERTEX
  5
a71
  8
Layer_0
  10
169.25002
  20
257.20999
  0
SEQEND
  0
POLYLINE
  5
a73
  8
Layer_0
  62
0
  66
1
  10
0
  20
0
  30
0
  0
VERTEX
  5
a73
  8
Layer_0
  10
171.50002
  20
251.20999
  0
VERTEX
  5
a74
  8
Layer_0
  10
171.50002
  20
273
  0
SEQEND
  0
POLYLINE
  5
a76
  8
Layer_0
  62
0
  66
1
  10
0
  20
0
  30
0
  0
VERTEX
  5
a76
  8
Layer_0
  10
171.50002
  20
279
  0
VERTEX
  5
a77
  8
Layer_0
  10
171.50002
  20
300.79001
  0
SEQEND
  0
POLYLINE
  5
a79
  8
Layer_0
  62
0
  66
1
  10
0
  20
0
  30
0
  0
VERTEX
  5
a79
  8
Layer_0
  10
173.75002
  20
294.79001
  0
VERTEX
  5
a7a
  8
Layer_0
  10
173.75002
  20
257.20999
  0
SEQEND
  0
POLYLINE
  5
a7c
  8
Layer_0
  62
0
  66
1
  10
0
  20
0
  30
0
  0
VERTEX
  5
a7c
  8
Layer_0
  10
176.00002
  20
251.20999
  0
VERTEX
  5
a7d
  8
Layer_0
  10
176.00002
  20
273
  0
SEQEND
  0
POLYLINE
  5
a7f
  8
Layer_0
  62
0
  66
1
  10
0
  20
0
  30
0
  0
VERTEX
  5
a7f
  8
Layer_0
  10
176.00002
  20
279
  0
VERTEX
  5
a80
  8
Layer_0
  10
176.00002
  20
300.79001
  0
SEQEND
  0
POLYLINE
  5
a82
  8
Layer_0
  62
0
  66
1
  10
0
  20
0
  30
0
  0
VERTEX
  5
a82
  8
Layer_0
  10
178.25002
  20
294.79001
  0
VERTEX
  5
a83
  8
Layer_0
  10
178.25002
  20
257.20999
  0
SEQEND
  0
POLYLINE
  5
a85
  8
Layer_0
  62
0
  66
1
  10
0
  20
0
  30
0
  0
VERTEX
  5
a85
  8
Layer_0
  10
180.50002
  20
251.20999
  0
VERTEX
  5
a86
  8
Layer_0
  10
180.50002
  20
273
  0
SEQEND
  0
POLYLINE
  5
a88
  8
Layer_0
  62
0
  66
1
  10
0
  20
0
  30
0
  0
VERTEX
  5
a88
  8
Layer_0
  10
180.50002
  20
279
  0
VERTEX
  5
a89
  8
Layer_0
  10
180.50002
  20
300.79001
  0
SEQEND
  0
POLYLINE
  5
a8b
  8
Layer_0
  62
0
  66
1
  10
0
  20
0
  30
0
  0
VERTEX
  5
a8b
  8
Layer_0
  10
182.75002
  20
294.79001
  0
VERTEX
  5
a8c
  8
Layer_0
  10
182.75002
  20
257.20999
  0
SEQEND
  0
POLYLINE
  5
a8e
  8
Layer_0
  62
0
  66
1
  10
0
  20
0
  30
0
  0
VERTEX
  5
a8e
  8
Layer_0
  10
185.00002
  20
251.20999
  0
VERTEX
  5
a8f
  8
Layer_0
  10
185.00002
  20
273
  0
SEQEND
  0
POLYLINE
  5
a91
  8
Layer_0
  62
0
  66
1
  10
0
  20
0
  30
0
  0
VERTEX
  5
a91
  8
Layer_0
  10
185.00002
  20
279
  0
VERTEX
  5
a92
  8
Layer_0
  10
185.00002
  20
300.79001
  0
SEQEND
  0
POLYLINE
  5
a94
  8
Layer_0
  62
0
  66
1
  10
0
  20
0
  30
0
  0
VERTEX
  5
a94
  8
Layer_0
  10
187.25002
  20
294.79001
  0
VERTEX
  5
a95
  8
Layer_0
  10
187.25002
  20
257.20999
  0
SEQEND
  0
POLYLINE
  5
a97
  8
Layer_0
  62
0
  66
1
  10
0
  20
0
  30
0
  0
VERTEX
  5
a97
  8
Layer_0
  10
189.50002
  20
251.20999
  0
VERTEX
  5
a98
  8
Layer_0
  10
189.50002
  20
273
  0
SEQEND
  0
POLYLINE
  5
a9a
  8
Layer_0
  62
0
  66
1
  10
0
  20
0
  30
0
  0
VERTEX
  5
a9a
  8
Layer_0
  10
189.50002
  20
279
  0
VERTEX
  5
a9b
  8
Layer_0
  10
189.50002
  20
300.79001
  0
SEQEND
  0
POLYLINE
  5
a9d
  8
Layer_0
  62
0
  66
1
  10
0
  20
0
  30
0
  0
VERTEX
  5
a9d
  8
Layer_0
  10
191.75002
  20
294.79001
  0
VERTEX
  5
a9e
  8
Layer_0
  10
191.75002
  20
257.20999
  0
SEQEND
  0
POLYLINE
  5
aa0
  8
Layer_0
  62
0
  66
1
  10
0
  20
0
  30
0
  0
VERTEX
  5
aa0
  8
Layer_0
  10
194.00002
  20
251.20999
  0
VERTEX
  5
aa1
  8
Layer_0
  10
194.00002
  20
273
  0
SEQEND
  0
POLYLINE
  5
aa3
  8
Layer_0
  62
0
  66
1
  10
0
  20
0
  30
0
  0
VERTEX
  5
aa3
  8
Layer_0
  10
194.00002
  20
279
  0
VERTEX
  5
aa4
  8
Layer_0
  10
194.00002
  20
300.79001
  0
SEQEND
  0
POLYLINE
  5
aa6
  8
Layer_0
  62
0
  66
1
  10
0
  20
0
  30
0
  0
VERTEX
  5
aa6
  8
Layer_0
  10
196.25002
  20
294.79001
  0
VERTEX
  5
aa7
  8
Layer_0
  10
196.25002
  20
257.20999
  0
SEQEND
  0
POLYLINE
  5
aa9
  8
Layer_0
  62
0
  66
1
  10
0
  20
0
  30
0
  0
VERTEX
  5
aa9
  8
Layer_0
  10
198.50002
  20
251.20999
  0
VERTEX
  5
aaa
  8
Layer_0
  10
198.50002
  20
273
  0
SEQEND
  0
POLYLINE
  5
aac
  8
Layer_0
  62
0
  66
1
  10
0
  20
0
  30
0
  0
VERTEX
  5
aac
  8
Layer_0
  10
198.50002
  20
279
  0
VERTEX
  5
aad
  8
Layer_0
  10
198.50002
  20
300.79001
  0
SEQEND
  0
POLYLINE
  5
aaf
  8
Layer_0
  62
0
  66
1
  10
0
  20
0
  30
0
  0
VERTEX
  5
aaf
  8
Layer_0
  10
200.75002
  20
294.79001
  0
VERTEX
  5
ab0
  8
Layer_0
  10
200.75002
  20
257.20999
  0
SEQEND
  0
POLYLINE
  5
ab2
  8
Layer_0
  62
0
  66
1
  10
0
  20
0
  30
0
  0
VERTEX
  5
ab2
  8
Layer_0
  10
203.00002
  20
251.20999
  0
VERTEX
  5
ab3
  8
Layer_0
  10
203.00002
  20
273
  0
SEQEND
  0
POLYLINE
  5
ab5
  8
Layer_0
  62
0
  66
1
  10
0
  20
0
  30
0
  0
VERTEX
  5
ab5
  8
Layer_0
  10
203.00002
  20
279
  0
VERTEX
  5
ab6
  8
Layer_0
  10
203.00002
  20
300.79001
  0
SEQEND
  0
POLYLINE
  5
ab8
  8
Layer_0
  62
0
  66
1
  10
0
  20
0
  30
0
  0
VERTEX
  5
ab8
  8
Layer_0
  10
205.25002
  20
294.79001
  0
VERTEX
  5
ab9
  8
Layer_0
  10
205.25002
  20
257.20999
  0
SEQEND
  0
POLYLINE
  5
abb
  8
Layer_0
  62
0
  66
1
  10
0
  20
0
  30
0
  0
VERTEX
  5
abb
  8
Layer_0
  10
207.50002
  20
251.20999
  0
VERTEX
  5
abc
  8
Layer_0
  10
207.50002
  20
273
  0
SEQEND
  0
POLYLINE
  5
abe
  8
Layer_0
  62
0
  66
1
  10
0
  20
0
  30
0
  0
VERTEX
  5
abe
  8
Layer_0
  10
207.50002
  20
279
  0
VERTEX
  5
abf
  8
Layer_0
  10
207.50002
  20
300.79001
  0
SEQEND
  0
POLYLINE
  5
ac1
  8
Layer_0
  62
0
  66
1
  10
0
  20
0
  30
0
  0
VERTEX
  5
ac1
  8
Layer_0
  10
209.75002
  20
294.79001
  0
VERTEX
  5
ac2
  8
Layer_0
  10
209.75002
  20
257.20999
  0
SEQEND
  0
POLYLINE
  5
ac4
  8
Layer_0
  62
0
  66
1
  10
0
  20
0
  30
0
  0
VERTEX
  5
ac4
  8
Layer_0
  10
212.00002
  20
251.20999
  0
VERTEX
  5
ac5
  8
Layer_0
  10
212.00002
  20
273
  0
SEQEND
  0
POLYLINE
  5
ac7
  8
Layer_0
  62
0
  66
1
  10
0
  20
0
  30
0
  0
VERTEX
  5
ac7
  8
Layer_0
  10
212.00002
  20
279
  0
VERTEX
  5
ac8
  8
Layer_0
  10
212.00002
  20
300.79001
  0
SEQEND
  0
POLYLINE
  5
aca
  8
Layer_0
  62
0
  66
1
  10
0
  20
0
  30
0
  0
VERTEX
  5
aca
  8
Layer_0
  10
214.25002
  20
294.79001
  0
VERTEX
  5
acb
  8
Layer_0
  10
214.25002
  20
257.20999
  0
SEQEND
  0
POLYLINE
  5
acd
  8
Layer_0
  62
0
  66
1
  10
0
  20
0
  30
0
  0
VERTEX
  5
acd
  8
Layer_0
  10
216.50002
  20
251.20999
  0
VERTEX
  5
ace
  8
Layer_0
  10
216.50002
  20
273
  0
SEQEND
  0
POLYLINE
  5
ad0
  8
Layer_0
  62
0
  66
1
  10
0
  20
0
  30
0
  0
VERTEX
  5
ad0
  8
Layer_0
  10
216.50002
  20
279
  0
VERTEX
  5
ad1
  8
Layer_0
  10
216.50002
  20
300.79001
  0
SEQEND
  0
POLYLINE
  5
ad3
  8
Layer_0
  62
0
  66
1
  10
0
  20
0
  30
0
  0
VERTEX
  5
ad3
  8
Layer_0
  10
218.75002
  20
294.79001
  0
VERTEX
  5
ad4
  8
Layer_0
  10
218.75002
  20
257.20999
  0
SEQEND
  0
POLYLINE
  5
ad6
  8
Layer_0
  62
0
  66
1
  10
0
  20
0
  30
0
  0
VERTEX
  5
ad6
  8
Layer_0
  10
221.00002
  20
251.20999
  0
VERTEX
  5
ad7
  8
Layer_0
  10
221.00002
  20
273
  0
SEQEND
  0
POLYLINE
  5
ad9
  8
Layer_0
  62
0
  66
1
  10
0
  20
0
  30
0
  0
VERTEX
  5
ad9
  8
Layer_0
  10
221.00002
  20
279
  0
VERTEX
  5
ada
  8
Layer_0
  10
221.00002
  20
300.79001
  0
SEQEND
  0
POLYLINE
  5
adc
  8
Layer_0
  62
0
  66
1
  10
0
  20
0
  30
0
  0
VERTEX
  5
adc
  8
Layer_0
  10
223.25002
  20
294.79001
  0
VERTEX
  5
add
  8
Layer_0
  10
223.25002
  20
257.20999
  0
SEQEND
  0
POLYLINE
  5
adf
  8
Layer_0
  62
0
  66
1
  10
0
  20
0
  30
0
  0
VERTEX
  5
adf
  8
Layer_0
  10
225.50002
  20
251.20999
  0
VERTEX
  5
ae0
  8
Layer_0
  10
225.50002
  20
273
  0
SEQEND
  0
POLYLINE
  5
ae2
  8
Layer_0
  62
0
  66
1
  10
0
  20
0
  30
0
  0
VERTEX
  5
ae2
  8
Layer_0
  10
225.50002
  20
279
  0
VERTEX
  5
ae3
  8
Layer_0
  10
225.50002
  20
300.79001
  0
SEQEND
  0
POLYLINE
  5
ae5
  8
Layer_0
  62
0
  66
1
  10
0
  20
0
  30
0
  0
VERTEX
  5
ae5
  8
Layer_0
  10
227.75002
  20
294.79001
  0
VERTEX
  5
ae6
  8
Layer_0
  10
227.75002
  20
257.20999
  0
SEQEND
  0
POLYLINE
  5
ae8
  8
Layer_0
  62
0
  66
1
  10
0
  20
0
  30
0
  0
VERTEX
  5
ae8
  8
Layer_0
  10
230.00002
  20
251.20999
  0
VERTEX
  5
ae9
  8
Layer_0
  10
230.00002
  20
273
  0
SEQEND
  0
POLYLINE
  5
aeb
  8
Layer_0
  62
0
  66
1
  10
0
  20
0
  30
0
  0
VERTEX
  5
aeb
  8
Layer_0
  10
230.00002
  20
279
  0
VERTEX
  5
aec
  8
Layer_0
  10
230.00002
  20
300.79001
  0
SEQEND
  0
POLYLINE
  5
aee
  8
Layer_0
  62
0
  66
1
  10
0
  20
0
  30
0
  0
VERTEX
  5
aee
  8
Layer_0
  10
232.25002
  20
294.79001
  0
VERTEX
  5
aef
  8
Layer_0
  10
232.25002
  20
257.20999
  0
SEQEND
  0
POLYLINE
  5
af1
  8
Layer_0
  62
0
  66
1
  10
0
  20
0
  30
0
  0
VERTEX
  5
af1
  8
Layer_0
  10
234.50002
  20
251.20999
  0
VERTEX
  5
af2
  8
Layer_0
  10
234.50002
  20
273
  0
SEQEND
  0
POLYLINE
  5
af4
  8
Layer_0
  62
0
  66
1
  10
0
  20
0
  30
0
  0
VERTEX
  5
af4
  8
Layer_0
  10
234.50002
  20
279
  0
VERTEX
  5
af5
  8
Layer_0
  10
234.50002
  20
300.79001
  0
SEQEND
  0
POLYLINE
  5
af7
  8
Layer_0
  62
0
  66
1
  10
0
  20
0
  30
0
  0
VERTEX
  5
af7
  8
Layer_0
  10
236.75002
  20
294.79001
  0
VERTEX
  5
af8
  8
Layer_0
  10
236.75002
  20
257.20999
  0
SEQEND
  0
POLYLINE
  5
afa
  8
Layer_0
  62
0
  66
1
  10
0
  20
0
  30
0
  0
VERTEX
  5
afa
  8
Layer_0
  10
239.00002
  20
251.20999
  0
VERTEX
  5
afb
  8
Layer_0
  10
239.00002
  20
273
  0
SEQEND
  0
POLYLINE
  5
afd
  8
Layer_0
  62
0
  66
1
  10
0
  20
0
  30
0
  0
VERTEX
  5
afd
  8
Layer_0
  10
239.00002
  20
279
  0
VERTEX
  5
afe
  8
Layer_0
  10
239.00002
  20
300.79001
  0
SEQEND
  0
POLYLINE
  5
b00
  8
Layer_0
  62
0
  66
1
  10
0
  20
0
  30
0
  0
VERTEX
  5
b00
  8
Layer_0
  10
241.25002
  20
294.79001
  0
VERTEX
  5
b01
  8
Layer_0
  10
241.25002
  20
257.20999
  0
SEQEND
  0
POLYLINE
  5
b03
  8
Layer_0
  62
0
  66
1
  10
0
  20
0
  30
0
  0
VERTEX
  5
b03
  8
Layer_0
  10
243.50002
  20
251.20999
  0
VERTEX
  5
b04
  8
Layer_0
  10
243.50002
  20
273
  0
SEQEND
  0
POLYLINE
  5
b06
  8
Layer_0
  62
0
  66
1
  10
0
  20
0
  30
0
  0
VERTEX
  5
b06
  8
Layer_0
  10
243.50002
  20
279
  0
VERTEX
  5
b07
  8
Layer_0
  10
243.50002
  20
300.79001
  0
SEQEND
  0
POLYLINE
  5
b09
  8
Layer_0
  62
0
  66
1
  10
0
  20
0
  30
0
  0
VERTEX
  5
b09
  8
Layer_0
  10
245.75002
  20
294.79001
  0
VERTEX
  5
b0a
  8
Layer_0
  10
245.75002
  20
257.20999
  0
SEQEND
  0
POLYLINE
  5
b0c
  8
Layer_0
  62
0
  66
1
  10
0
  20
0
  30
0
  0
VERTEX
  5
b0c
  8
Layer_0
  10
248.00002
  20
251.20999
  0
VERTEX
  5
b0d
  8
Layer_0
  10
248.00002
  20
273
  0
SEQEND
  0
POLYLINE
  5
b0f
  8
Layer_0
  62
0
  66
1
  10
0
  20
0
  30
0
  0
VERTEX
  5
b0f
  8
Layer_0
  10
248.00002
  20
279
  0
VERTEX
  5
b10
  8
Layer_0
  10
248.00002
  20
300.79001
  0
SEQEND
  0
POLYLINE
  5
b12
  8
Layer_0
  62
0
  66
1
  10
0
  20
0
  30
0
  0
VERTEX
  5
b12
  8
Layer_0
  10
250.25002
  20
294.79001
  0
VERTEX
  5
b13
  8
Layer_0
  10
250.25002
  20
257.20999
  0
SEQEND
  0
POLYLINE
  5
b15
  8
Layer_0
  62
0
  66
1
  10
0
  20
0
  30
0
  0
VERTEX
  5
b15
  8
Layer_0
  10
252.50002
  20
251.20999
  0
VERTEX
  5
b16
  8
Layer_0
  10
252.50002
  20
273
  0
SEQEND
  0
POLYLINE
  5
b18
  8
Layer_0
  62
0
  66
1
  10
0
  20
0
  30
0
  0
VERTEX
  5
b18
  8
Layer_0
  10
252.50002
  20
279
  0
VERTEX
  5
b19
  8
Layer_0
  10
252.50002
  20
300.79001
  0
SEQEND
  0
POLYLINE
  5
b1b
  8
Layer_0
  62
0
  66
1
  10
0
  20
0
  30
0
  0
VERTEX
  5
b1b
  8
Layer_0
  10
254.75002
  20
294.79001
  0
VERTEX
  5
b1c
  8
Layer_0
  10
254.75002
  20
257.20999
  0
SEQEND
  0
POLYLINE
  5
b1e
  8
Layer_0
  62
0
  66
1
  10
0
  20
0
  30
0
  0
VERTEX
  5
b1e
  8
Layer_0
  10
257
  20
251.20999
  0
VERTEX
  5
b1f
  8
Layer_0
  10
257
  20
273
  0
SEQEND
  0
POLYLINE
  5
b21
  8
Layer_0
  62
0
  66
1
  10
0
  20
0
  30
0
  0
VERTEX
  5
b21
  8
Layer_0
  10
257
  20
279
  0
VERTEX
  5
b22
  8
Layer_0
  10
257
  20
300.79001
  0
SEQEND
  0
POLYLINE
  5
b24
  8
Layer_0
  62
0
  66
1
  10
0
  20
0
  30
0
  0
VERTEX
  5
b24
  8
Layer_0
  10
259.25
  20
294.79001
  0
VERTEX
  5
b25
  8
Layer_0
  10
259.25
  20
257.20999
  0
SEQEND
  0
POLYLINE
  5
b27
  8
Layer_0
  62
0
  66
1
  10
0
  20
0
  30
0
  0
VERTEX
  5
b27
  8
Layer_0
  10
261.5
  20
251.20999
  0
VERTEX
  5
b28
  8
Layer_0
  10
261.5
  20
273
  0
SEQEND
  0
POLYLINE
  5
b2a
  8
Layer_0
  62
0
  66
1
  10
0
  20
0
  30
0
  0
VERTEX
  5
b2a
  8
Layer_0
  10
261.5
  20
279
  0
VERTEX
  5
b2b
  8
Layer_0
  10
261.5
  20
300.79001
  0
SEQEND
  0
POLYLINE
  5
b2d
  8
Layer_0
  62
0
  66
1
  10
0
  20
0
  30
0
  0
VERTEX
  5
b2d
  8
Layer_0
  10
263.75
  20
294.79001
  0
VERTEX
  5
b2e
  8
Layer_0
  10
263.75
  20
257.20999
  0
SEQEND
  0
POLYLINE
  5
b30
  8
Layer_0
  62
0
  66
1
  10
0
  20
0
  30
0
  0
VERTEX
  5
b30
  8
Layer_0
  10
266
  20
251.20999
  0
VERTEX
  5
b31
  8
Layer_0
  10
266
  20
273
  0
SEQEND
  0
POLYLINE
  5
b33
  8
Layer_0
  62
0
  66
1
  10
0
  20
0
  30
0
  0
VERTEX
  5
b33
  8
Layer_0
  10
266
  20
279
  0
VERTEX
  5
b34
  8
Layer_0
  10
266
  20
300.79001
  0
SEQEND
  0
POLYLINE
  5
b36
  8
Layer_0
  62
0
  66
1
  10
0
  20
0
  30
0
  0
VERTEX
  5
b36
  8
Layer_0
  10
268.25
  20
294.79001
  0
VERTEX
  5
b37
  8
Layer_0
  10
268.25
  20
257.20999
  0
SEQEND
  0
POLYLINE
  5
b39
  8
Layer_0
  62
0
  66
1
  10
0
  20
0
  30
0
  0
VERTEX
  5
b39
  8
Layer_0
  10
270.5
  20
251.20999
  0
VERTEX
  5
b3a
  8
Layer_0
  10
270.5
  20
273
  0
SEQEND
  0
POLYLINE
  5
b3c
  8
Layer_0
  62
0
  66
1
  10
0
  20
0
  30
0
  0
VERTEX
  5
b3c
  8
Layer_0
  10
270.5
  20
279
  0
VERTEX
  5
b3d
  8
Layer_0
  10
270.5
  20
300.79001
  0
SEQEND
  0
POLYLINE
  5
b3f
  8
Layer_0
  62
0
  66
1
  10
0
  20
0
  30
0
  0
VERTEX
  5
b3f
  8
Layer_0
  10
272.75
  20
294.79001
  0
VERTEX
  5
b40
  8
Layer_0
  10
272.75
  20
257.20999
  0
SEQEND
  0
POLYLINE
  5
b42
  8
Layer_0
  62
0
  66
1
  10
0
  20
0
  30
0
  0
VERTEX
  5
b42
  8
Layer_0
  10
275
  20
251.20999
  0
VERTEX
  5
b43
  8
Layer_0
  10
275
  20
273
  0
SEQEND
  0
POLYLINE
  5
b45
  8
Layer_0
  62
0
  66
1
  10
0
  20
0
  30
0
  0
VERTEX
  5
b45
  8
Layer_0
  10
275
  20
279
  0
VERTEX
  5
b46
  8
Layer_0
  10
275
  20
300.79001
  0
SEQEND
  0
POLYLINE
  5
b48
  8
Layer_0
  62
0
  70
1
  66
1
  10
0
  20
0
  30
0
  0
VERTEX
  5
b48
  8
Layer_0
  10
44.500031
  20
296.79001
  0
VERTEX
  5
b49
  8
Layer_0
  10
38.500031
  20
296.79001
  0
VERTEX
  5
b4a
  8
Layer_0
  10
38.436275
  20
296.76376
  0
VERTEX
  5
b4b
  8
Layer_0
  10
38.410034
  20
296.70001
  0
VERTEX
  5
b4c
  8
Layer_0
  10
38.410004
  20
253.3
  0
VERTEX
  5
b4d
  8
Layer_0
  10
38.436245
  20
253.23625
  0
VERTEX
  5
b4e
  8
Layer_0
  10
38.5
  20
253.21001
  0
VERTEX
  5
b4f
  8
Layer_0
  10
44.5
  20
253.21001
  0
VERTEX
  5
b50
  8
Layer_0
  10
44.563744
  20
253.23625
  0
VERTEX
  5
b51
  8
Layer_0
  10
44.589996
  20
253.3
  0
VERTEX
  5
b52
  8
Layer_0
  10
44.589996
  20
259.91
  0
VERTEX
  5
b53
  8
Layer_0
  10
44.556248
  20
259.94376
  0
VERTEX
  5
b54
  8
Layer_0
  10
44.589996
  20
259.91
  0
VERTEX
  5
b55
  8
Layer_0
  10
47.5
  20
259.91
  0
VERTEX
  5
b56
  8
Layer_0
  10
47.563744
  20
259.93628
  0
VERTEX
  5
b57
  8
Layer_0
  10
47.589996
  20
260
  0
VERTEX
  5
b58
  8
Layer_0
  10
47.589996
  20
266
  0
VERTEX
  5
b59
  8
Layer_0
  10
47.563744
  20
266.06375
  0
VERTEX
  5
b5a
  8
Layer_0
  10
47.5
  20
266.09
  0
VERTEX
  5
b5b
  8
Layer_0
  10
44.589996
  20
266.09003
  0
VERTEX
  5
b5c
  8
Layer_0
  10
44.556248
  20
266.05627
  0
VERTEX
  5
b5d
  8
Layer_0
  10
44.589996
  20
266.09003
  0
VERTEX
  5
b5e
  8
Layer_0
  10
44.589996
  20
271.91
  0
VERTEX
  5
b5f
  8
Layer_0
  10
44.556248
  20
271.94376
  0
VERTEX
  5
b60
  8
Layer_0
  10
44.589996
  20
271.91
  0
VERTEX
  5
b61
  8
Layer_0
  10
47.5
  20
271.91
  0
VERTEX
  5
b62
  8
Layer_0
  10
47.563744
  20
271.93628
  0
VERTEX
  5
b63
  8
Layer_0
  10
47.589996
  20
272
  0
VERTEX
  5
b64
  8
Layer_0
  10
47.590027
  20
278
  0
VERTEX
  5
b65
  8
Layer_0
  10
47.563774
  20
278.06375
  0
VERTEX
  5
b66
  8
Layer_0
  10
47.500031
  20
278.09
  0
VERTEX
  5
b67
  8
Layer_0
  10
44.590027
  20
278.09003
  0
VERTEX
  5
b68
  8
Layer_0
  10
44.556278
  20
278.05627
  0
VERTEX
  5
b69
  8
Layer_0
  10
44.590027
  20
278.09003
  0
VERTEX
  5
b6a
  8
Layer_0
  10
44.590027
  20
283.91
  0
VERTEX
  5
b6b
  8
Layer_0
  10
44.556278
  20
283.94376
  0
VERTEX
  5
b6c
  8
Layer_0
  10
44.590027
  20
283.91
  0
VERTEX
  5
b6d
  8
Layer_0
  10
47.500031
  20
283.91
  0
VERTEX
  5
b6e
  8
Layer_0
  10
47.563774
  20
283.93625
  0
VERTEX
  5
b6f
  8
Layer_0
  10
47.590027
  20
284
  0
VERTEX
  5
b70
  8
Layer_0
  10
47.590027
  20
290
  0
VERTEX
  5
b71
  8
Layer_0
  10
47.563774
  20
290.06375
  0
VERTEX
  5
b72
  8
Layer_0
  10
47.500031
  20
290.09
  0
VERTEX
  5
b73
  8
Layer_0
  10
44.590027
  20
290.09003
  0
VERTEX
  5
b74
  8
Layer_0
  10
44.556278
  20
290.05627
  0
VERTEX
  5
b75
  8
Layer_0
  10
44.590027
  20
290.09003
  0
VERTEX
  5
b76
  8
Layer_0
  10
44.590027
  20
296.70001
  0
VERTEX
  5
b77
  8
Layer_0
  10
44.563774
  20
296.76376
  0
VERTEX
  5
b78
  8
Layer_0
  10
44.500031
  20
296.79001
  0
SEQEND
  0
POLYLINE
  5
b7a
  8
Layer_0
  62
0
  70
1
  66
1
  10
0
  20
0
  30
0
  0
VERTEX
  5
b7a
  8
Layer_0
  10
180.91002
  20
129.073
  0
VERTEX
  5
b7b
  8
Layer_0
  10
180.91002
  20
127.63397
  0
VERTEX
  5
b7c
  8
Layer_0
  10
180.94377
  20
127.60022
  0
VERTEX
  5
b7d
  8
Layer_0
  10
180.91002
  20
127.63397
  0
VERTEX
  5
b7e
  8
Layer_0
  10
178.00002
  20
127.63397
  0
VERTEX
  5
b7f
  8
Layer_0
  10
177.93626
  20
127.60773
  0
VERTEX
  5
b80
  8
Layer_0
  10
177.91
  20
127.54401
  0
VERTEX
  5
b81
  8
Layer_0
  10
177.91
  20
121.54401
  0
VERTEX
  5
b82
  8
Layer_0
  10
177.93626
  20
121.48026
  0
VERTEX
  5
b83
  8
Layer_0
  10
178.00002
  20
121.45398
  0
VERTEX
  5
b84
  8
Layer_0
  10
180.91002
  20
121.45398
  0
VERTEX
  5
b85
  8
Layer_0
  10
180.94377
  20
121.48773
  0
VERTEX
  5
b86
  8
Layer_0
  10
180.91002
  20
121.45398
  0
VERTEX
  5
b87
  8
Layer_0
  10
180.91
  20
119.211
  0
VERTEX
  5
b88
  8
Layer_0
  10
180.93626
  20
119.14725
  0
VERTEX
  5
b89
  8
Layer_0
  10
181.00002
  20
119.12097
  0
VERTEX
  5
b8a
  8
Layer_0
  10
191.00002
  20
119.12097
  0
VERTEX
  5
b8b
  8
Layer_0
  10
191.06377
  20
119.14725
  0
VERTEX
  5
b8c
  8
Layer_0
  10
191.09001
  20
119.211
  0
VERTEX
  5
b8d
  8
Layer_0
  10
191.09001
  20
120.62097
  0
VERTEX
  5
b8e
  8
Layer_0
  10
191.05626
  20
120.65472
  0
VERTEX
  5
b8f
  8
Layer_0
  10
191.09001
  20
120.62097
  0
VERTEX
  5
b90
  8
Layer_0
  10
196.91002
  20
120.62097
  0
VERTEX
  5
b91
  8
Layer_0
  10
196.94377
  20
120.65472
  0
VERTEX
  5
b92
  8
Layer_0
  10
196.91002
  20
120.62097
  0
VERTEX
  5
b93
  8
Layer_0
  10
196.91
  20
119.211
  0
VERTEX
  5
b94
  8
Layer_0
  10
196.93626
  20
119.14725
  0
VERTEX
  5
b95
  8
Layer_0
  10
197.00002
  20
119.12097
  0
VERTEX
  5
b96
  8
Layer_0
  10
203.00002
  20
119.12097
  0
VERTEX
  5
b97
  8
Layer_0
  10
203.06377
  20
119.14725
  0
VERTEX
  5
b98
  8
Layer_0
  10
203.09001
  20
119.211
  0
VERTEX
  5
b99
  8
Layer_0
  10
203.09001
  20
120.62097
  0
VERTEX
  5
b9a
  8
Layer_0
  10
203.05626
  20
120.65472
  0
VERTEX
  5
b9b
  8
Layer_0
  10
203.09001
  20
120.62097
  0
VERTEX
  5
b9c
  8
Layer_0
  10
208.91002
  20
120.62097
  0
VERTEX
  5
b9d
  8
Layer_0
  10
208.94377
  20
120.65472
  0
VERTEX
  5
b9e
  8
Layer_0
  10
208.91002
  20
120.62097
  0
VERTEX
  5
b9f
  8
Layer_0
  10
208.91
  20
119.211
  0
VERTEX
  5
ba0
  8
Layer_0
  10
208.93626
  20
119.14725
  0
VERTEX
  5
ba1
  8
Layer_0
  10
209.00002
  20
119.12097
  0
VERTEX
  5
ba2
  8
Layer_0
  10
215.00002
  20
119.12097
  0
VERTEX
  5
ba3
  8
Layer_0
  10
215.06377
  20
119.14725
  0
VERTEX
  5
ba4
  8
Layer_0
  10
215.09001
  20
119.211
  0
VERTEX
  5
ba5
  8
Layer_0
  10
215.09001
  20
120.62097
  0
VERTEX
  5
ba6
  8
Layer_0
  10
215.05626
  20
120.65472
  0
VERTEX
  5
ba7
  8
Layer_0
  10
215.09001
  20
120.62097
  0
VERTEX
  5
ba8
  8
Layer_0
  10
220.91002
  20
120.62097
  0
VERTEX
  5
ba9
  8
Layer_0
  10
220.94377
  20
120.65472
  0
VERTEX
  5
baa
  8
Layer_0
  10
220.91002
  20
120.62097
  0
VERTEX
  5
bab
  8
Layer_0
  10
220.91002
  20
119.211
  0
VERTEX
  5
bac
  8
Layer_0
  10
220.93626
  20
119.14725
  0
VERTEX
  5
bad
  8
Layer_0
  10
221.00002
  20
119.12097
  0
VERTEX
  5
bae
  8
Layer_0
  10
231.00002
  20
119.12097
  0
VERTEX
  5
baf
  8
Layer_0
  10
231.06377
  20
119.14725
  0
VERTEX
  5
bb0
  8
Layer_0
  10
231.09001
  20
119.211
  0
VERTEX
  5
bb1
  8
Layer_0
  10
231.09001
  20
121.45398
  0
VERTEX
  5
bb2
  8
Layer_0
  10
231.05626
  20
121.48773
  0
VERTEX
  5
bb3
  8
Layer_0
  10
231.09001
  20
121.45398
  0
VERTEX
  5
bb4
  8
Layer_0
  10
234.00002
  20
121.45398
  0
VERTEX
  5
bb5
  8
Layer_0
  10
234.06377
  20
121.48026
  0
VERTEX
  5
bb6
  8
Layer_0
  10
234.09001
  20
121.54401
  0
VERTEX
  5
bb7
  8
Layer_0
  10
234.09001
  20
127.54401
  0
VERTEX
  5
bb8
  8
Layer_0
  10
234.06377
  20
127.60773
  0
VERTEX
  5
bb9
  8
Layer_0
  10
234.00002
  20
127.63397
  0
VERTEX
  5
bba
  8
Layer_0
  10
231.09001
  20
127.63397
  0
VERTEX
  5
bbb
  8
Layer_0
  10
231.05626
  20
127.60022
  0
VERTEX
  5
bbc
  8
Layer_0
  10
231.09001
  20
127.63397
  0
VERTEX
  5
bbd
  8
Layer_0
  10
231.09001
  20
129.073
  0
VERTEX
  5
bbe
  8
Layer_0
  10
231.06377
  20
129.13675
  0
VERTEX
  5
bbf
  8
Layer_0
  10
231.00002
  20
129.16302
  0
VERTEX
  5
bc0
  8
Layer_0
  10
181.00002
  20
129.16302
  0
VERTEX
  5
bc1
  8
Layer_0
  10
180.93626
  20
129.13675
  0
VERTEX
  5
bc2
  8
Layer_0
  10
180.91002
  20
129.073
  0
SEQEND
  0
POLYLINE
  5
bc4
  8
Layer_0
  62
0
  70
1
  66
1
  10
0
  20
0
  30
0
  0
VERTEX
  5
bc4
  8
Layer_0
  10
180.91
  20
116.72699
  0
VERTEX
  5
bc5
  8
Layer_0
  10
180.91
  20
115.28699
  0
VERTEX
  5
bc6
  8
Layer_0
  10
180.94376
  20
115.25323
  0
VERTEX
  5
bc7
  8
Layer_0
  10
180.91
  20
115.28699
  0
VERTEX
  5
bc8
  8
Layer_0
  10
178.00002
  20
115.28699
  0
VERTEX
  5
bc9
  8
Layer_0
  10
177.93626
  20
115.26074
  0
VERTEX
  5
bca
  8
Layer_0
  10
177.91
  20
115.19702
  0
VERTEX
  5
bcb
  8
Layer_0
  10
177.91
  20
109.19702
  0
VERTEX
  5
bcc
  8
Layer_0
  10
177.93626
  20
109.13364
  0
VERTEX
  5
bcd
  8
Layer_0
  10
178.00002
  20
109.10699
  0
VERTEX
  5
bce
  8
Layer_0
  10
180.91
  20
109.10699
  0
VERTEX
  5
bcf
  8
Layer_0
  10
180.94376
  20
109.14075
  0
VERTEX
  5
bd0
  8
Layer_0
  10
180.91
  20
109.10699
  0
VERTEX
  5
bd1
  8
Layer_0
  10
180.91
  20
106.86401
  0
VERTEX
  5
bd2
  8
Layer_0
  10
180.93626
  20
106.80063
  0
VERTEX
  5
bd3
  8
Layer_0
  10
181.00002
  20
106.77399
  0
VERTEX
  5
bd4
  8
Layer_0
  10
191.00002
  20
106.77399
  0
VERTEX
  5
bd5
  8
Layer_0
  10
191.06377
  20
106.80063
  0
VERTEX
  5
bd6
  8
Layer_0
  10
191.09001
  20
106.86401
  0
VERTEX
  5
bd7
  8
Layer_0
  10
191.09001
  20
108.27399
  0
VERTEX
  5
bd8
  8
Layer_0
  10
191.05626
  20
108.30774
  0
VERTEX
  5
bd9
  8
Layer_0
  10
191.09001
  20
108.27399
  0
VERTEX
  5
bda
  8
Layer_0
  10
196.91
  20
108.27399
  0
VERTEX
  5
bdb
  8
Layer_0
  10
196.94376
  20
108.30774
  0
VERTEX
  5
bdc
  8
Layer_0
  10
196.91
  20
108.27399
  0
VERTEX
  5
bdd
  8
Layer_0
  10
196.91
  20
106.86401
  0
VERTEX
  5
bde
  8
Layer_0
  10
196.93626
  20
106.80063
  0
VERTEX
  5
bdf
  8
Layer_0
  10
197.00002
  20
106.77399
  0
VERTEX
  5
be0
  8
Layer_0
  10
203.00002
  20
106.77399
  0
VERTEX
  5
be1
  8
Layer_0
  10
203.06377
  20
106.80063
  0
VERTEX
  5
be2
  8
Layer_0
  10
203.09001
  20
106.86401
  0
VERTEX
  5
be3
  8
Layer_0
  10
203.09001
  20
108.27399
  0
VERTEX
  5
be4
  8
Layer_0
  10
203.05626
  20
108.30774
  0
VERTEX
  5
be5
  8
Layer_0
  10
203.09001
  20
108.27399
  0
VERTEX
  5
be6
  8
Layer_0
  10
208.91
  20
108.27399
  0
VERTEX
  5
be7
  8
Layer_0
  10
208.94376
  20
108.30774
  0
VERTEX
  5
be8
  8
Layer_0
  10
208.91
  20
108.27399
  0
VERTEX
  5
be9
  8
Layer_0
  10
208.91
  20
106.86401
  0
VERTEX
  5
bea
  8
Layer_0
  10
208.93626
  20
106.80063
  0
VERTEX
  5
beb
  8
Layer_0
  10
209.00002
  20
106.77399
  0
VERTEX
  5
bec
  8
Layer_0
  10
215.00002
  20
106.77399
  0
VERTEX
  5
bed
  8
Layer_0
  10
215.06377
  20
106.80063
  0
VERTEX
  5
bee
  8
Layer_0
  10
215.09001
  20
106.86401
  0
VERTEX
  5
bef
  8
Layer_0
  10
215.09001
  20
108.27399
  0
VERTEX
  5
bf0
  8
Layer_0
  10
215.05626
  20
108.30774
  0
VERTEX
  5
bf1
  8
Layer_0
  10
215.09001
  20
108.27399
  0
VERTEX
  5
bf2
  8
Layer_0
  10
220.91
  20
108.27399
  0
VERTEX
  5
bf3
  8
Layer_0
  10
220.94376
  20
108.30774
  0
VERTEX
  5
bf4
  8
Layer_0
  10
220.91
  20
108.27399
  0
VERTEX
  5
bf5
  8
Layer_0
  10
220.91
  20
106.86401
  0
VERTEX
  5
bf6
  8
Layer_0
  10
220.93626
  20
106.80063
  0
VERTEX
  5
bf7
  8
Layer_0
  10
221.00002
  20
106.77399
  0
VERTEX
  5
bf8
  8
Layer_0
  10
231.00002
  20
106.77399
  0
VERTEX
  5
bf9
  8
Layer_0
  10
231.06377
  20
106.80063
  0
VERTEX
  5
bfa
  8
Layer_0
  10
231.09001
  20
106.86401
  0
VERTEX
  5
bfb
  8
Layer_0
  10
231.09001
  20
109.10699
  0
VERTEX
  5
bfc
  8
Layer_0
  10
231.05626
  20
109.14075
  0
VERTEX
  5
bfd
  8
Layer_0
  10
231.09001
  20
109.10699
  0
VERTEX
  5
bfe
  8
Layer_0
  10
234.00002
  20
109.10699
  0
VERTEX
  5
bff
  8
Layer_0
  10
234.06377
  20
109.13364
  0
VERTEX
  5
c00
  8
Layer_0
  10
234.09001
  20
109.19702
  0
VERTEX
  5
c01
  8
Layer_0
  10
234.09001
  20
115.19702
  0
VERTEX
  5
c02
  8
Layer_0
  10
234.06377
  20
115.26074
  0
VERTEX
  5
c03
  8
Layer_0
  10
234.00002
  20
115.28699
  0
VERTEX
  5
c04
  8
Layer_0
  10
231.09001
  20
115.28699
  0
VERTEX
  5
c05
  8
Layer_0
  10
231.05626
  20
115.25323
  0
VERTEX
  5
c06
  8
Layer_0
  10
231.09001
  20
115.28699
  0
VERTEX
  5
c07
  8
Layer_0
  10
231.09001
  20
116.72699
  0
VERTEX
  5
c08
  8
Layer_0
  10
231.09001
  20
116.03101
  0
VERTEX
  5
c09
  8
Layer_0
  10
231.06377
  20
116.09436
  0
VERTEX
  5
c0a
  8
Layer_0
  10
231.00002
  20
116.12097
  0
VERTEX
  5
c0b
  8
Layer_0
  10
221.09001
  20
116.12097
  0
VERTEX
  5
c0c
  8
Layer_0
  10
221.05626
  20
116.08722
  0
VERTEX
  5
c0d
  8
Layer_0
  10
221.09001
  20
116.12097
  0
VERTEX
  5
c0e
  8
Layer_0
  10
221.09001
  20
117.53101
  0
VERTEX
  5
c0f
  8
Layer_0
  10
221.06377
  20
117.59436
  0
VERTEX
  5
c10
  8
Layer_0
  10
221.00002
  20
117.62097
  0
VERTEX
  5
c11
  8
Layer_0
  10
215.00002
  20
117.62097
  0
VERTEX
  5
c12
  8
Layer_0
  10
214.93626
  20
117.59436
  0
VERTEX
  5
c13
  8
Layer_0
  10
214.91002
  20
117.53101
  0
VERTEX
  5
c14
  8
Layer_0
  10
214.91002
  20
116.12097
  0
VERTEX
  5
c15
  8
Layer_0
  10
214.94377
  20
116.08722
  0
VERTEX
  5
c16
  8
Layer_0
  10
214.91002
  20
116.12097
  0
VERTEX
  5
c17
  8
Layer_0
  10
209.09001
  20
116.12097
  0
VERTEX
  5
c18
  8
Layer_0
  10
209.05626
  20
116.08722
  0
VERTEX
  5
c19
  8
Layer_0
  10
209.09001
  20
116.12097
  0
VERTEX
  5
c1a
  8
Layer_0
  10
209.09001
  20
117.53101
  0
VERTEX
  5
c1b
  8
Layer_0
  10
209.06377
  20
117.59436
  0
VERTEX
  5
c1c
  8
Layer_0
  10
209.00002
  20
117.62097
  0
VERTEX
  5
c1d
  8
Layer_0
  10
203.00002
  20
117.62097
  0
VERTEX
  5
c1e
  8
Layer_0
  10
202.93626
  20
117.59436
  0
VERTEX
  5
c1f
  8
Layer_0
  10
202.91
  20
117.53101
  0
VERTEX
  5
c20
  8
Layer_0
  10
202.91
  20
116.12097
  0
VERTEX
  5
c21
  8
Layer_0
  10
202.94376
  20
116.08722
  0
VERTEX
  5
c22
  8
Layer_0
  10
202.91
  20
116.12097
  0
VERTEX
  5
c23
  8
Layer_0
  10
197.09001
  20
116.12097
  0
VERTEX
  5
c24
  8
Layer_0
  10
197.05626
  20
116.08722
  0
VERTEX
  5
c25
  8
Layer_0
  10
197.09001
  20
116.12097
  0
VERTEX
  5
c26
  8
Layer_0
  10
197.09001
  20
117.53101
  0
VERTEX
  5
c27
  8
Layer_0
  10
197.06377
  20
117.59436
  0
VERTEX
  5
c28
  8
Layer_0
  10
197.00002
  20
117.62097
  0
VERTEX
  5
c29
  8
Layer_0
  10
191.00002
  20
117.62097
  0
VERTEX
  5
c2a
  8
Layer_0
  10
190.93626
  20
117.59436
  0
VERTEX
  5
c2b
  8
Layer_0
  10
190.91
  20
117.53101
  0
VERTEX
  5
c2c
  8
Layer_0
  10
190.91
  20
116.12097
  0
VERTEX
  5
c2d
  8
Layer_0
  10
190.94376
  20
116.08722
  0
VERTEX
  5
c2e
  8
Layer_0
  10
190.91
  20
116.12097
  0
VERTEX
  5
c2f
  8
Layer_0
  10
181.00002
  20
116.12097
  0
VERTEX
  5
c30
  8
Layer_0
  10
180.93626
  20
116.09436
  0
VERTEX
  5
c31
  8
Layer_0
  10
180.91
  20
116.03101
  0
VERTEX
  5
c32
  8
Layer_0
  10
180.91
  20
116.72699
  0
SEQEND
  0
POLYLINE
  5
c34
  8
Layer_0
  62
0
  70
1
  66
1
  10
0
  20
0
  30
0
  0
VERTEX
  5
c34
  8
Layer_0
  10
180.91
  20
104.38
  0
VERTEX
  5
c35
  8
Layer_0
  10
180.91
  20
102.94098
  0
VERTEX
  5
c36
  8
Layer_0
  10
180.94376
  20
102.90723
  0
VERTEX
  5
c37
  8
Layer_0
  10
180.91
  20
102.94098
  0
VERTEX
  5
c38
  8
Layer_0
  10
178.00002
  20
102.94098
  0
VERTEX
  5
c39
  8
Layer_0
  10
177.93626
  20
102.91473
  0
VERTEX
  5
c3a
  8
Layer_0
  10
177.91
  20
102.85101
  0
VERTEX
  5
c3b
  8
Layer_0
  10
177.91
  20
96.851013
  0
VERTEX
  5
c3c
  8
Layer_0
  10
177.93626
  20
96.787262
  0
VERTEX
  5
c3d
  8
Layer_0
  10
178.00002
  20
96.760986
  0
VERTEX
  5
c3e
  8
Layer_0
  10
180.91
  20
96.760986
  0
VERTEX
  5
c3f
  8
Layer_0
  10
180.94376
  20
96.794739
  0
VERTEX
  5
c40
  8
Layer_0
  10
180.91
  20
96.760986
  0
VERTEX
  5
c41
  8
Layer_0
  10
180.91
  20
94.927002
  0
VERTEX
  5
c42
  8
Layer_0
  10
180.93626
  20
94.863251
  0
VERTEX
  5
c43
  8
Layer_0
  10
181
  20
94.836975
  0
VERTEX
  5
c44
  8
Layer_0
  10
191
  20
94.836975
  0
VERTEX
  5
c45
  8
Layer_0
  10
191.06375
  20
94.863251
  0
VERTEX
  5
c46
  8
Layer_0
  10
191.09001
  20
94.927002
  0
VERTEX
  5
c47
  8
Layer_0
  10
191.09001
  20
95.612976
  0
VERTEX
  5
c48
  8
Layer_0
  10
191.05626
  20
95.646729
  0
VERTEX
  5
c49
  8
Layer_0
  10
191.09001
  20
95.612976
  0
VERTEX
  5
c4a
  8
Layer_0
  10
196.91
  20
95.612976
  0
VERTEX
  5
c4b
  8
Layer_0
  10
196.94376
  20
95.646729
  0
VERTEX
  5
c4c
  8
Layer_0
  10
196.91
  20
95.612976
  0
VERTEX
  5
c4d
  8
Layer_0
  10
196.91
  20
94.927002
  0
VERTEX
  5
c4e
  8
Layer_0
  10
196.93626
  20
94.863251
  0
VERTEX
  5
c4f
  8
Layer_0
  10
197
  20
94.836975
  0
VERTEX
  5
c50
  8
Layer_0
  10
203
  20
94.836975
  0
VERTEX
  5
c51
  8
Layer_0
  10
203.06375
  20
94.863251
  0
VERTEX
  5
c52
  8
Layer_0
  10
203.09001
  20
94.927002
  0
VERTEX
  5
c53
  8
Layer_0
  10
203.09001
  20
95.612976
  0
VERTEX
  5
c54
  8
Layer_0
  10
203.05626
  20
95.646729
  0
VERTEX
  5
c55
  8
Layer_0
  10
203.09001
  20
95.612976
  0
VERTEX
  5
c56
  8
Layer_0
  10
208.91
  20
95.612976
  0
VERTEX
  5
c57
  8
Layer_0
  10
208.94376
  20
95.646729
  0
VERTEX
  5
c58
  8
Layer_0
  10
208.91
  20
95.612976
  0
VERTEX
  5
c59
  8
Layer_0
  10
208.91
  20
94.927002
  0
VERTEX
  5
c5a
  8
Layer_0
  10
208.93626
  20
94.863251
  0
VERTEX
  5
c5b
  8
Layer_0
  10
209
  20
94.836975
  0
VERTEX
  5
c5c
  8
Layer_0
  10
215.00002
  20
94.836975
  0
VERTEX
  5
c5d
  8
Layer_0
  10
215.06377
  20
94.863251
  0
VERTEX
  5
c5e
  8
Layer_0
  10
215.09001
  20
94.927002
  0
VERTEX
  5
c5f
  8
Layer_0
  10
215.09001
  20
95.612976
  0
VERTEX
  5
c60
  8
Layer_0
  10
215.05626
  20
95.646729
  0
VERTEX
  5
c61
  8
Layer_0
  10
215.09001
  20
95.612976
  0
VERTEX
  5
c62
  8
Layer_0
  10
220.91
  20
95.612976
  0
VERTEX
  5
c63
  8
Layer_0
  10
220.94376
  20
95.646729
  0
VERTEX
  5
c64
  8
Layer_0
  10
220.91
  20
95.612976
  0
VERTEX
  5
c65
  8
Layer_0
  10
220.91
  20
94.927002
  0
VERTEX
  5
c66
  8
Layer_0
  10
220.93626
  20
94.863251
  0
VERTEX
  5
c67
  8
Layer_0
  10
221.00002
  20
94.836975
  0
VERTEX
  5
c68
  8
Layer_0
  10
231.00002
  20
94.836975
  0
VERTEX
  5
c69
  8
Layer_0
  10
231.06377
  20
94.863251
  0
VERTEX
  5
c6a
  8
Layer_0
  10
231.09001
  20
94.927002
  0
VERTEX
  5
c6b
  8
Layer_0
  10
231.09001
  20
96.760986
  0
VERTEX
  5
c6c
  8
Layer_0
  10
231.05626
  20
96.794739
  0
VERTEX
  5
c6d
  8
Layer_0
  10
231.09001
  20
96.760986
  0
VERTEX
  5
c6e
  8
Layer_0
  10
234.00002
  20
96.760986
  0
VERTEX
  5
c6f
  8
Layer_0
  10
234.06377
  20
96.787262
  0
VERTEX
  5
c70
  8
Layer_0
  10
234.09001
  20
96.851013
  0
VERTEX
  5
c71
  8
Layer_0
  10
234.09001
  20
102.85101
  0
VERTEX
  5
c72
  8
Layer_0
  10
234.06377
  20
102.91473
  0
VERTEX
  5
c73
  8
Layer_0
  10
234.00002
  20
102.94098
  0
VERTEX
  5
c74
  8
Layer_0
  10
231.09001
  20
102.94098
  0
VERTEX
  5
c75
  8
Layer_0
  10
231.05626
  20
102.90723
  0
VERTEX
  5
c76
  8
Layer_0
  10
231.09001
  20
102.94098
  0
VERTEX
  5
c77
  8
Layer_0
  10
231.09001
  20
104.38
  0
VERTEX
  5
c78
  8
Layer_0
  10
231.09001
  20
103.68402
  0
VERTEX
  5
c79
  8
Layer_0
  10
231.06377
  20
103.74774
  0
VERTEX
  5
c7a
  8
Layer_0
  10
231.00002
  20
103.77399
  0
VERTEX
  5
c7b
  8
Layer_0
  10
221.09001
  20
103.77399
  0
VERTEX
  5
c7c
  8
Layer_0
  10
221.05626
  20
103.74023
  0
VERTEX
  5
c7d
  8
Layer_0
  10
221.09001
  20
103.77399
  0
VERTEX
  5
c7e
  8
Layer_0
  10
221.09001
  20
105.18402
  0
VERTEX
  5
c7f
  8
Layer_0
  10
221.06377
  20
105.24774
  0
VERTEX
  5
c80
  8
Layer_0
  10
221.00002
  20
105.27399
  0
VERTEX
  5
c81
  8
Layer_0
  10
215.00002
  20
105.27399
  0
VERTEX
  5
c82
  8
Layer_0
  10
214.93626
  20
105.24774
  0
VERTEX
  5
c83
  8
Layer_0
  10
214.91
  20
105.18402
  0
VERTEX
  5
c84
  8
Layer_0
  10
214.91
  20
103.77399
  0
VERTEX
  5
c85
  8
Layer_0
  10
214.94376
  20
103.74023
  0
VERTEX
  5
c86
  8
Layer_0
  10
214.91
  20
103.77399
  0
VERTEX
  5
c87
  8
Layer_0
  10
209.09001
  20
103.77399
  0
VERTEX
  5
c88
  8
Layer_0
  10
209.05626
  20
103.74023
  0
VERTEX
  5
c89
  8
Layer_0
  10
209.09001
  20
103.77399
  0
VERTEX
  5
c8a
  8
Layer_0
  10
209.09001
  20
105.18402
  0
VERTEX
  5
c8b
  8
Layer_0
  10
209.06377
  20
105.24774
  0
VERTEX
  5
c8c
  8
Layer_0
  10
209.00002
  20
105.27399
  0
VERTEX
  5
c8d
  8
Layer_0
  10
203.00002
  20
105.27399
  0
VERTEX
  5
c8e
  8
Layer_0
  10
202.93626
  20
105.24774
  0
VERTEX
  5
c8f
  8
Layer_0
  10
202.91
  20
105.18402
  0
VERTEX
  5
c90
  8
Layer_0
  10
202.91
  20
103.77399
  0
VERTEX
  5
c91
  8
Layer_0
  10
202.94376
  20
103.74023
  0
VERTEX
  5
c92
  8
Layer_0
  10
202.91
  20
103.77399
  0
VERTEX
  5
c93
  8
Layer_0
  10
197.09001
  20
103.77399
  0
VERTEX
  5
c94
  8
Layer_0
  10
197.05626
  20
103.74023
  0
VERTEX
  5
c95
  8
Layer_0
  10
197.09001
  20
103.77399
  0
VERTEX
  5
c96
  8
Layer_0
  10
197.09001
  20
105.18402
  0
VERTEX
  5
c97
  8
Layer_0
  10
197.06377
  20
105.24774
  0
VERTEX
  5
c98
  8
Layer_0
  10
197.00002
  20
105.27399
  0
VERTEX
  5
c99
  8
Layer_0
  10
191.00002
  20
105.27399
  0
VERTEX
  5
c9a
  8
Layer_0
  10
190.93626
  20
105.24774
  0
VERTEX
  5
c9b
  8
Layer_0
  10
190.91
  20
105.18402
  0
VERTEX
  5
c9c
  8
Layer_0
  10
190.91
  20
103.77399
  0
VERTEX
  5
c9d
  8
Layer_0
  10
190.94376
  20
103.74023
  0
VERTEX
  5
c9e
  8
Layer_0
  10
190.91
  20
103.77399
  0
VERTEX
  5
c9f
  8
Layer_0
  10
181.00002
  20
103.77399
  0
VERTEX
  5
ca0
  8
Layer_0
  10
180.93626
  20
103.74774
  0
VERTEX
  5
ca1
  8
Layer_0
  10
180.91
  20
103.68402
  0
VERTEX
  5
ca2
  8
Layer_0
  10
180.91
  20
104.38
  0
SEQEND
  0
POLYLINE
  5
ca4
  8
Layer_0
  62
0
  70
1
  66
1
  10
0
  20
0
  30
0
  0
VERTEX
  5
ca4
  8
Layer_0
  10
245.91
  20
242
  0
VERTEX
  5
ca5
  8
Layer_0
  10
245.91
  20
235.09
  0
VERTEX
  5
ca6
  8
Layer_0
  10
245.94376
  20
235.05624
  0
VERTEX
  5
ca7
  8
Layer_0
  10
245.91
  20
235.09
  0
VERTEX
  5
ca8
  8
Layer_0
  10
243.00002
  20
235.09
  0
VERTEX
  5
ca9
  8
Layer_0
  10
242.93626
  20
235.06374
  0
VERTEX
  5
caa
  8
Layer_0
  10
242.91
  20
235
  0
VERTEX
  5
cab
  8
Layer_0
  10
242.91
  20
229
  0
VERTEX
  5
cac
  8
Layer_0
  10
242.93626
  20
228.93625
  0
VERTEX
  5
cad
  8
Layer_0
  10
243
  20
228.91
  0
VERTEX
  5
cae
  8
Layer_0
  10
245.91
  20
228.91
  0
VERTEX
  5
caf
  8
Layer_0
  10
245.94376
  20
228.94376
  0
VERTEX
  5
cb0
  8
Layer_0
  10
245.91
  20
228.91
  0
VERTEX
  5
cb1
  8
Layer_0
  10
245.91
  20
223.09
  0
VERTEX
  5
cb2
  8
Layer_0
  10
245.94376
  20
223.05624
  0
VERTEX
  5
cb3
  8
Layer_0
  10
245.91
  20
223.09
  0
VERTEX
  5
cb4
  8
Layer_0
  10
243
  20
223.09
  0
VERTEX
  5
cb5
  8
Layer_0
  10
242.93626
  20
223.06374
  0
VERTEX
  5
cb6
  8
Layer_0
  10
242.91
  20
223
  0
VERTEX
  5
cb7
  8
Layer_0
  10
242.91
  20
217
  0
VERTEX
  5
cb8
  8
Layer_0
  10
242.93626
  20
216.93625
  0
VERTEX
  5
cb9
  8
Layer_0
  10
243
  20
216.91
  0
VERTEX
  5
cba
  8
Layer_0
  10
245.91
  20
216.91
  0
VERTEX
  5
cbb
  8
Layer_0
  10
245.94376
  20
216.94376
  0
VERTEX
  5
cbc
  8
Layer_0
  10
245.91
  20
216.91
  0
VERTEX
  5
cbd
  8
Layer_0
  10
245.91
  20
211.08997
  0
VERTEX
  5
cbe
  8
Layer_0
  10
245.94376
  20
211.05623
  0
VERTEX
  5
cbf
  8
Layer_0
  10
245.91
  20
211.08997
  0
VERTEX
  5
cc0
  8
Layer_0
  10
243
  20
211.08997
  0
VERTEX
  5
cc1
  8
Layer_0
  10
242.93626
  20
211.06372
  0
VERTEX
  5
cc2
  8
Layer_0
  10
242.91
  20
211
  0
VERTEX
  5
cc3
  8
Layer_0
  10
242.91
  20
205
  0
VERTEX
  5
cc4
  8
Layer_0
  10
242.93626
  20
204.93625
  0
VERTEX
  5
cc5
  8
Layer_0
  10
243
  20
204.90997
  0
VERTEX
  5
cc6
  8
Layer_0
  10
245.91
  20
204.90997
  0
VERTEX
  5
cc7
  8
Layer_0
  10
245.94376
  20
204.94373
  0
VERTEX
  5
cc8
  8
Layer_0
  10
245.91
  20
204.90997
  0
VERTEX
  5
cc9
  8
Layer_0
  10
245.91
  20
199.08997
  0
VERTEX
  5
cca
  8
Layer_0
  10
245.94376
  20
199.05623
  0
VERTEX
  5
ccb
  8
Layer_0
  10
245.91
  20
199.08997
  0
VERTEX
  5
ccc
  8
Layer_0
  10
243
  20
199.08997
  0
VERTEX
  5
ccd
  8
Layer_0
  10
242.93626
  20
199.06372
  0
VERTEX
  5
cce
  8
Layer_0
  10
242.91
  20
199
  0
VERTEX
  5
ccf
  8
Layer_0
  10
242.91
  20
193
  0
VERTEX
  5
cd0
  8
Layer_0
  10
242.93626
  20
192.93625
  0
VERTEX
  5
cd1
  8
Layer_0
  10
243
  20
192.90997
  0
VERTEX
  5
cd2
  8
Layer_0
  10
245.91
  20
192.90997
  0
VERTEX
  5
cd3
  8
Layer_0
  10
245.94376
  20
192.94373
  0
VERTEX
  5
cd4
  8
Layer_0
  10
245.91
  20
192.90997
  0
VERTEX
  5
cd5
  8
Layer_0
  10
245.91
  20
187.08997
  0
VERTEX
  5
cd6
  8
Layer_0
  10
245.94376
  20
187.05623
  0
VERTEX
  5
cd7
  8
Layer_0
  10
245.91
  20
187.08997
  0
VERTEX
  5
cd8
  8
Layer_0
  10
243
  20
187.08997
  0
VERTEX
  5
cd9
  8
Layer_0
  10
242.93625
  20
187.06372
  0
VERTEX
  5
cda
  8
Layer_0
  10
242.91
  20
187
  0
VERTEX
  5
cdb
  8
Layer_0
  10
242.91
  20
181
  0
VERTEX
  5
cdc
  8
Layer_0
  10
242.93625
  20
180.93625
  0
VERTEX
  5
cdd
  8
Layer_0
  10
243
  20
180.90997
  0
VERTEX
  5
cde
  8
Layer_0
  10
245.91
  20
180.90997
  0
VERTEX
  5
cdf
  8
Layer_0
  10
245.94376
  20
180.94373
  0
VERTEX
  5
ce0
  8
Layer_0
  10
245.91
  20
180.90997
  0
VERTEX
  5
ce1
  8
Layer_0
  10
245.91
  20
175.08997
  0
VERTEX
  5
ce2
  8
Layer_0
  10
245.94376
  20
175.05623
  0
VERTEX
  5
ce3
  8
Layer_0
  10
245.91
  20
175.08997
  0
VERTEX
  5
ce4
  8
Layer_0
  10
243
  20
175.08997
  0
VERTEX
  5
ce5
  8
Layer_0
  10
242.93625
  20
175.06372
  0
VERTEX
  5
ce6
  8
Layer_0
  10
242.91
  20
175
  0
VERTEX
  5
ce7
  8
Layer_0
  10
242.91
  20
169
  0
VERTEX
  5
ce8
  8
Layer_0
  10
242.93625
  20
168.93625
  0
VERTEX
  5
ce9
  8
Layer_0
  10
243
  20
168.90997
  0
VERTEX
  5
cea
  8
Layer_0
  10
245.91
  20
168.90997
  0
VERTEX
  5
ceb
  8
Layer_0
  10
245.94376
  20
168.94373
  0
VERTEX
  5
cec
  8
Layer_0
  10
245.91
  20
168.90997
  0
VERTEX
  5
ced
  8
Layer_0
  10
245.91
  20
163.08997
  0
VERTEX
  5
cee
  8
Layer_0
  10
245.94376
  20
163.05623
  0
VERTEX
  5
cef
  8
Layer_0
  10
245.91
  20
163.08997
  0
VERTEX
  5
cf0
  8
Layer_0
  10
243
  20
163.08997
  0
VERTEX
  5
cf1
  8
Layer_0
  10
242.93625
  20
163.06372
  0
VERTEX
  5
cf2
  8
Layer_0
  10
242.91
  20
163
  0
VERTEX
  5
cf3
  8
Layer_0
  10
242.91
  20
157
  0
VERTEX
  5
cf4
  8
Layer_0
  10
242.93625
  20
156.93625
  0
VERTEX
  5
cf5
  8
Layer_0
  10
243
  20
156.90997
  0
VERTEX
  5
cf6
  8
Layer_0
  10
245.91
  20
156.90997
  0
VERTEX
  5
cf7
  8
Layer_0
  10
245.94376
  20
156.94373
  0
VERTEX
  5
cf8
  8
Layer_0
  10
245.91
  20
156.90997
  0
VERTEX
  5
cf9
  8
Layer_0
  10
245.90999
  20
151.08997
  0
VERTEX
  5
cfa
  8
Layer_0
  10
245.94374
  20
151.05623
  0
VERTEX
  5
cfb
  8
Layer_0
  10
245.90999
  20
151.08997
  0
VERTEX
  5
cfc
  8
Layer_0
  10
243
  20
151.08997
  0
VERTEX
  5
cfd
  8
Layer_0
  10
242.93625
  20
151.06372
  0
VERTEX
  5
cfe
  8
Layer_0
  10
242.91
  20
151
  0
VERTEX
  5
cff
  8
Layer_0
  10
242.91
  20
145
  0
VERTEX
  5
d00
  8
Layer_0
  10
242.93625
  20
144.93625
  0
VERTEX
  5
d01
  8
Layer_0
  10
243
  20
144.90997
  0
VERTEX
  5
d02
  8
Layer_0
  10
245.90999
  20
144.90997
  0
VERTEX
  5
d03
  8
Layer_0
  10
245.94374
  20
144.94373
  0
VERTEX
  5
d04
  8
Layer_0
  10
245.90999
  20
144.90997
  0
VERTEX
  5
d05
  8
Layer_0
  10
245.90999
  20
139.08997
  0
VERTEX
  5
d06
  8
Layer_0
  10
245.94374
  20
139.05621
  0
VERTEX
  5
d07
  8
Layer_0
  10
245.90999
  20
139.08997
  0
VERTEX
  5
d08
  8
Layer_0
  10
243
  20
139.08997
  0
VERTEX
  5
d09
  8
Layer_0
  10
242.93623
  20
139.06372
  0
VERTEX
  5
d0a
  8
Layer_0
  10
242.90999
  20
139
  0
VERTEX
  5
d0b
  8
Layer_0
  10
242.90999
  20
133
  0
VERTEX
  5
d0c
  8
Layer_0
  10
242.93623
  20
132.93625
  0
VERTEX
  5
d0d
  8
Layer_0
  10
243
  20
132.90997
  0
VERTEX
  5
d0e
  8
Layer_0
  10
245.90999
  20
132.90997
  0
VERTEX
  5
d0f
  8
Layer_0
  10
245.94374
  20
132.94373
  0
VERTEX
  5
d10
  8
Layer_0
  10
245.90999
  20
132.90997
  0
VERTEX
  5
d11
  8
Layer_0
  10
245.90999
  20
127.08997
  0
VERTEX
  5
d12
  8
Layer_0
  10
245.94374
  20
127.05621
  0
VERTEX
  5
d13
  8
Layer_0
  10
245.90999
  20
127.08997
  0
VERTEX
  5
d14
  8
Layer_0
  10
243
  20
127.08997
  0
VERTEX
  5
d15
  8
Layer_0
  10
242.93623
  20
127.06372
  0
VERTEX
  5
d16
  8
Layer_0
  10
242.90999
  20
127
  0
VERTEX
  5
d17
  8
Layer_0
  10
242.90999
  20
121
  0
VERTEX
  5
d18
  8
Layer_0
  10
242.93623
  20
120.93625
  0
VERTEX
  5
d19
  8
Layer_0
  10
243
  20
120.90997
  0
VERTEX
  5
d1a
  8
Layer_0
  10
245.90999
  20
120.90997
  0
VERTEX
  5
d1b
  8
Layer_0
  10
245.94374
  20
120.94373
  0
VERTEX
  5
d1c
  8
Layer_0
  10
245.90999
  20
120.90997
  0
VERTEX
  5
d1d
  8
Layer_0
  10
245.90999
  20
115.08997
  0
VERTEX
  5
d1e
  8
Layer_0
  10
245.94374
  20
115.05621
  0
VERTEX
  5
d1f
  8
Layer_0
  10
245.90999
  20
115.08997
  0
VERTEX
  5
d20
  8
Layer_0
  10
243
  20
115.08997
  0
VERTEX
  5
d21
  8
Layer_0
  10
242.93623
  20
115.06372
  0
VERTEX
  5
d22
  8
Layer_0
  10
242.90999
  20
115
  0
VERTEX
  5
d23
  8
Layer_0
  10
242.90999
  20
109
  0
VERTEX
  5
d24
  8
Layer_0
  10
242.93623
  20
108.93625
  0
VERTEX
  5
d25
  8
Layer_0
  10
243
  20
108.90997
  0
VERTEX
  5
d26
  8
Layer_0
  10
245.90999
  20
108.90997
  0
VERTEX
  5
d27
  8
Layer_0
  10
245.94374
  20
108.94373
  0
VERTEX
  5
d28
  8
Layer_0
  10
245.90999
  20
108.90997
  0
VERTEX
  5
d29
  8
Layer_0
  10
245.90999
  20
102
  0
VERTEX
  5
d2a
  8
Layer_0
  10
245.90999
  20
102.38098
  0
VERTEX
  5
d2b
  8
Layer_0
  10
245.93623
  20
102.31763
  0
VERTEX
  5
d2c
  8
Layer_0
  10
245.99998
  20
102.29102
  0
VERTEX
  5
d2d
  8
Layer_0
  10
255.90999
  20
102.29102
  0
VERTEX
  5
d2e
  8
Layer_0
  10
255.94374
  20
102.32477
  0
VERTEX
  5
d2f
  8
Layer_0
  10
255.90999
  20
102.29102
  0
VERTEX
  5
d30
  8
Layer_0
  10
255.90999
  20
101.60498
  0
VERTEX
  5
d31
  8
Layer_0
  10
255.93623
  20
101.54126
  0
VERTEX
  5
d32
  8
Layer_0
  10
255.99998
  20
101.51501
  0
VERTEX
  5
d33
  8
Layer_0
  10
262
  20
101.51501
  0
VERTEX
  5
d34
  8
Layer_0
  10
262.06375
  20
101.54126
  0
VERTEX
  5
d35
  8
Layer_0
  10
262.09
  20
101.60498
  0
VERTEX
  5
d36
  8
Layer_0
  10
262.09
  20
102.29102
  0
VERTEX
  5
d37
  8
Layer_0
  10
262.05624
  20
102.32477
  0
VERTEX
  5
d38
  8
Layer_0
  10
262.09
  20
102.29102
  0
VERTEX
  5
d39
  8
Layer_0
  10
267.90997
  20
102.29102
  0
VERTEX
  5
d3a
  8
Layer_0
  10
267.94373
  20
102.32477
  0
VERTEX
  5
d3b
  8
Layer_0
  10
267.90997
  20
102.29102
  0
VERTEX
  5
d3c
  8
Layer_0
  10
267.90997
  20
101.60498
  0
VERTEX
  5
d3d
  8
Layer_0
  10
267.93622
  20
101.54126
  0
VERTEX
  5
d3e
  8
Layer_0
  10
268
  20
101.51501
  0
VERTEX
  5
d3f
  8
Layer_0
  10
274
  20
101.51501
  0
VERTEX
  5
d40
  8
Layer_0
  10
274.06375
  20
101.54126
  0
VERTEX
  5
d41
  8
Layer_0
  10
274.09
  20
101.60498
  0
VERTEX
  5
d42
  8
Layer_0
  10
274.09
  20
102.29102
  0
VERTEX
  5
d43
  8
Layer_0
  10
274.05624
  20
102.32477
  0
VERTEX
  5
d44
  8
Layer_0
  10
274.09
  20
102.29102
  0
VERTEX
  5
d45
  8
Layer_0
  10
279.90997
  20
102.29102
  0
VERTEX
  5
d46
  8
Layer_0
  10
279.94373
  20
102.32477
  0
VERTEX
  5
d47
  8
Layer_0
  10
279.90997
  20
102.29102
  0
VERTEX
  5
d48
  8
Layer_0
  10
279.90997
  20
101.60498
  0
VERTEX
  5
d49
  8
Layer_0
  10
279.93622
  20
101.54126
  0
VERTEX
  5
d4a
  8
Layer_0
  10
280
  20
101.51501
  0
VERTEX
  5
d4b
  8
Layer_0
  10
286
  20
101.51501
  0
VERTEX
  5
d4c
  8
Layer_0
  10
286.06375
  20
101.54126
  0
VERTEX
  5
d4d
  8
Layer_0
  10
286.09
  20
101.60498
  0
VERTEX
  5
d4e
  8
Layer_0
  10
286.09
  20
102.29102
  0
VERTEX
  5
d4f
  8
Layer_0
  10
286.05624
  20
102.32477
  0
VERTEX
  5
d50
  8
Layer_0
  10
286.09
  20
102.29102
  0
VERTEX
  5
d51
  8
Layer_0
  10
296
  20
102.29102
  0
VERTEX
  5
d52
  8
Layer_0
  10
296.06375
  20
102.31763
  0
VERTEX
  5
d53
  8
Layer_0
  10
296.09
  20
102.38098
  0
VERTEX
  5
d54
  8
Layer_0
  10
296.09
  20
102
  0
VERTEX
  5
d55
  8
Layer_0
  10
296.09
  20
108.90997
  0
VERTEX
  5
d56
  8
Layer_0
  10
296.05624
  20
108.94373
  0
VERTEX
  5
d57
  8
Layer_0
  10
296.09
  20
108.90997
  0
VERTEX
  5
d58
  8
Layer_0
  10
299
  20
108.90997
  0
VERTEX
  5
d59
  8
Layer_0
  10
299.06375
  20
108.93625
  0
VERTEX
  5
d5a
  8
Layer_0
  10
299.09
  20
109
  0
VERTEX
  5
d5b
  8
Layer_0
  10
299.09
  20
115
  0
VERTEX
  5
d5c
  8
Layer_0
  10
299.06375
  20
115.06372
  0
VERTEX
  5
d5d
  8
Layer_0
  10
299
  20
115.08997
  0
VERTEX
  5
d5e
  8
Layer_0
  10
296.09
  20
115.08997
  0
VERTEX
  5
d5f
  8
Layer_0
  10
296.05624
  20
115.05621
  0
VERTEX
  5
d60
  8
Layer_0
  10
296.09
  20
115.08997
  0
VERTEX
  5
d61
  8
Layer_0
  10
296.09
  20
120.90997
  0
VERTEX
  5
d62
  8
Layer_0
  10
296.05624
  20
120.94373
  0
VERTEX
  5
d63
  8
Layer_0
  10
296.09
  20
120.90997
  0
VERTEX
  5
d64
  8
Layer_0
  10
299
  20
120.90997
  0
VERTEX
  5
d65
  8
Layer_0
  10
299.06375
  20
120.93625
  0
VERTEX
  5
d66
  8
Layer_0
  10
299.09
  20
121
  0
VERTEX
  5
d67
  8
Layer_0
  10
299.09
  20
127
  0
VERTEX
  5
d68
  8
Layer_0
  10
299.06375
  20
127.06372
  0
VERTEX
  5
d69
  8
Layer_0
  10
299
  20
127.08997
  0
VERTEX
  5
d6a
  8
Layer_0
  10
296.09
  20
127.08997
  0
VERTEX
  5
d6b
  8
Layer_0
  10
296.05624
  20
127.05621
  0
VERTEX
  5
d6c
  8
Layer_0
  10
296.09
  20
127.08997
  0
VERTEX
  5
d6d
  8
Layer_0
  10
296.09
  20
132.90997
  0
VERTEX
  5
d6e
  8
Layer_0
  10
296.05624
  20
132.94373
  0
VERTEX
  5
d6f
  8
Layer_0
  10
296.09
  20
132.90997
  0
VERTEX
  5
d70
  8
Layer_0
  10
299
  20
132.90997
  0
VERTEX
  5
d71
  8
Layer_0
  10
299.06375
  20
132.93625
  0
VERTEX
  5
d72
  8
Layer_0
  10
299.09
  20
133
  0
VERTEX
  5
d73
  8
Layer_0
  10
299.09
  20
139
  0
VERTEX
  5
d74
  8
Layer_0
  10
299.06375
  20
139.06372
  0
VERTEX
  5
d75
  8
Layer_0
  10
299
  20
139.08997
  0
VERTEX
  5
d76
  8
Layer_0
  10
296.09
  20
139.08997
  0
VERTEX
  5
d77
  8
Layer_0
  10
296.05624
  20
139.05621
  0
VERTEX
  5
d78
  8
Layer_0
  10
296.09
  20
139.08997
  0
VERTEX
  5
d79
  8
Layer_0
  10
296.09
  20
144.90997
  0
VERTEX
  5
d7a
  8
Layer_0
  10
296.05624
  20
144.94373
  0
VERTEX
  5
d7b
  8
Layer_0
  10
296.09
  20
144.90997
  0
VERTEX
  5
d7c
  8
Layer_0
  10
299
  20
144.90997
  0
VERTEX
  5
d7d
  8
Layer_0
  10
299.06375
  20
144.93625
  0
VERTEX
  5
d7e
  8
Layer_0
  10
299.09
  20
145
  0
VERTEX
  5
d7f
  8
Layer_0
  10
299.09
  20
151
  0
VERTEX
  5
d80
  8
Layer_0
  10
299.06375
  20
151.06372
  0
VERTEX
  5
d81
  8
Layer_0
  10
299
  20
151.08997
  0
VERTEX
  5
d82
  8
Layer_0
  10
296.09
  20
151.08997
  0
VERTEX
  5
d83
  8
Layer_0
  10
296.05624
  20
151.05623
  0
VERTEX
  5
d84
  8
Layer_0
  10
296.09
  20
151.08997
  0
VERTEX
  5
d85
  8
Layer_0
  10
296.09
  20
156.90997
  0
VERTEX
  5
d86
  8
Layer_0
  10
296.05624
  20
156.94373
  0
VERTEX
  5
d87
  8
Layer_0
  10
296.09
  20
156.90997
  0
VERTEX
  5
d88
  8
Layer_0
  10
299
  20
156.90997
  0
VERTEX
  5
d89
  8
Layer_0
  10
299.06375
  20
156.93625
  0
VERTEX
  5
d8a
  8
Layer_0
  10
299.09
  20
157
  0
VERTEX
  5
d8b
  8
Layer_0
  10
299.09
  20
163
  0
VERTEX
  5
d8c
  8
Layer_0
  10
299.06375
  20
163.06372
  0
VERTEX
  5
d8d
  8
Layer_0
  10
299
  20
163.08997
  0
VERTEX
  5
d8e
  8
Layer_0
  10
296.09
  20
163.08997
  0
VERTEX
  5
d8f
  8
Layer_0
  10
296.05624
  20
163.05623
  0
VERTEX
  5
d90
  8
Layer_0
  10
296.09
  20
163.08997
  0
VERTEX
  5
d91
  8
Layer_0
  10
296.09
  20
168.90997
  0
VERTEX
  5
d92
  8
Layer_0
  10
296.05624
  20
168.94373
  0
VERTEX
  5
d93
  8
Layer_0
  10
296.09
  20
168.90997
  0
VERTEX
  5
d94
  8
Layer_0
  10
299
  20
168.90997
  0
VERTEX
  5
d95
  8
Layer_0
  10
299.06375
  20
168.93625
  0
VERTEX
  5
d96
  8
Layer_0
  10
299.09
  20
169
  0
VERTEX
  5
d97
  8
Layer_0
  10
299.09
  20
175
  0
VERTEX
  5
d98
  8
Layer_0
  10
299.06375
  20
175.06372
  0
VERTEX
  5
d99
  8
Layer_0
  10
299
  20
175.08997
  0
VERTEX
  5
d9a
  8
Layer_0
  10
296.09
  20
175.08997
  0
VERTEX
  5
d9b
  8
Layer_0
  10
296.05624
  20
175.05623
  0
VERTEX
  5
d9c
  8
Layer_0
  10
296.09
  20
175.08997
  0
VERTEX
  5
d9d
  8
Layer_0
  10
296.09
  20
180.90997
  0
VERTEX
  5
d9e
  8
Layer_0
  10
296.05624
  20
180.94373
  0
VERTEX
  5
d9f
  8
Layer_0
  10
296.09
  20
180.90997
  0
VERTEX
  5
da0
  8
Layer_0
  10
299
  20
180.90997
  0
VERTEX
  5
da1
  8
Layer_0
  10
299.06375
  20
180.93625
  0
VERTEX
  5
da2
  8
Layer_0
  10
299.09
  20
181
  0
VERTEX
  5
da3
  8
Layer_0
  10
299.09
  20
187
  0
VERTEX
  5
da4
  8
Layer_0
  10
299.06375
  20
187.06372
  0
VERTEX
  5
da5
  8
Layer_0
  10
299
  20
187.08997
  0
VERTEX
  5
da6
  8
Layer_0
  10
296.09
  20
187.08997
  0
VERTEX
  5
da7
  8
Layer_0
  10
296.05624
  20
187.05623
  0
VERTEX
  5
da8
  8
Layer_0
  10
296.09
  20
187.08997
  0
VERTEX
  5
da9
  8
Layer_0
  10
296.09
  20
192.90997
  0
VERTEX
  5
daa
  8
Layer_0
  10
296.05624
  20
192.94373
  0
VERTEX
  5
dab
  8
Layer_0
  10
296.09
  20
192.90997
  0
VERTEX
  5
dac
  8
Layer_0
  10
299
  20
192.90997
  0
VERTEX
  5
dad
  8
Layer_0
  10
299.06375
  20
192.93625
  0
VERTEX
  5
dae
  8
Layer_0
  10
299.09
  20
193
  0
VERTEX
  5
daf
  8
Layer_0
  10
299.09
  20
199
  0
VERTEX
  5
db0
  8
Layer_0
  10
299.06375
  20
199.06372
  0
VERTEX
  5
db1
  8
Layer_0
  10
299
  20
199.08997
  0
VERTEX
  5
db2
  8
Layer_0
  10
296.09
  20
199.08997
  0
VERTEX
  5
db3
  8
Layer_0
  10
296.05624
  20
199.05623
  0
VERTEX
  5
db4
  8
Layer_0
  10
296.09
  20
199.08997
  0
VERTEX
  5
db5
  8
Layer_0
  10
296.09
  20
204.90997
  0
VERTEX
  5
db6
  8
Layer_0
  10
296.05624
  20
204.94373
  0
VERTEX
  5
db7
  8
Layer_0
  10
296.09
  20
204.90997
  0
VERTEX
  5
db8
  8
Layer_0
  10
299
  20
204.90997
  0
VERTEX
  5
db9
  8
Layer_0
  10
299.06375
  20
204.93625
  0
VERTEX
  5
dba
  8
Layer_0
  10
299.09
  20
205
  0
VERTEX
  5
dbb
  8
Layer_0
  10
299.09
  20
211
  0
VERTEX
  5
dbc
  8
Layer_0
  10
299.06378
  20
211.06372
  0
VERTEX
  5
dbd
  8
Layer_0
  10
299
  20
211.08997
  0
VERTEX
  5
dbe
  8
Layer_0
  10
296.09
  20
211.08997
  0
VERTEX
  5
dbf
  8
Layer_0
  10
296.05624
  20
211.05623
  0
VERTEX
  5
dc0
  8
Layer_0
  10
296.09
  20
211.08997
  0
VERTEX
  5
dc1
  8
Layer_0
  10
296.09
  20
216.91
  0
VERTEX
  5
dc2
  8
Layer_0
  10
296.05624
  20
216.94376
  0
VERTEX
  5
dc3
  8
Layer_0
  10
296.09
  20
216.91
  0
VERTEX
  5
dc4
  8
Layer_0
  10
299
  20
216.91
  0
VERTEX
  5
dc5
  8
Layer_0
  10
299.06378
  20
216.93625
  0
VERTEX
  5
dc6
  8
Layer_0
  10
299.09
  20
217
  0
VERTEX
  5
dc7
  8
Layer_0
  10
299.09
  20
223
  0
VERTEX
  5
dc8
  8
Layer_0
  10
299.06378
  20
223.06374
  0
VERTEX
  5
dc9
  8
Layer_0
  10
299
  20
223.09
  0
VERTEX
  5
dca
  8
Layer_0
  10
296.09
  20
223.09
  0
VERTEX
  5
dcb
  8
Layer_0
  10
296.05624
  20
223.05624
  0
VERTEX
  5
dcc
  8
Layer_0
  10
296.09
  20
223.09
  0
VERTEX
  5
dcd
  8
Layer_0
  10
296.09
  20
228.91
  0
VERTEX
  5
dce
  8
Layer_0
  10
296.05624
  20
228.94376
  0
VERTEX
  5
dcf
  8
Layer_0
  10
296.09
  20
228.91
  0
VERTEX
  5
dd0
  8
Layer_0
  10
299
  20
228.91
  0
VERTEX
  5
dd1
  8
Layer_0
  10
299.06378
  20
228.93625
  0
VERTEX
  5
dd2
  8
Layer_0
  10
299.09
  20
229
  0
VERTEX
  5
dd3
  8
Layer_0
  10
299.09
  20
235
  0
VERTEX
  5
dd4
  8
Layer_0
  10
299.06378
  20
235.06374
  0
VERTEX
  5
dd5
  8
Layer_0
  10
299
  20
235.09
  0
VERTEX
  5
dd6
  8
Layer_0
  10
296.09
  20
235.09
  0
VERTEX
  5
dd7
  8
Layer_0
  10
296.05624
  20
235.05624
  0
VERTEX
  5
dd8
  8
Layer_0
  10
296.09
  20
235.09
  0
VERTEX
  5
dd9
  8
Layer_0
  10
296.09
  20
242
  0
VERTEX
  5
dda
  8
Layer_0
  10
296.09
  20
241.61798
  0
VERTEX
  5
ddb
  8
Layer_0
  10
296.06378
  20
241.68173
  0
VERTEX
  5
ddc
  8
Layer_0
  10
296
  20
241.70798
  0
VERTEX
  5
ddd
  8
Layer_0
  10
286.09
  20
241.70798
  0
VERTEX
  5
dde
  8
Layer_0
  10
286.05624
  20
241.67422
  0
VERTEX
  5
ddf
  8
Layer_0
  10
286.09
  20
241.70798
  0
VERTEX
  5
de0
  8
Layer_0
  10
286.09
  20
242.39499
  0
VERTEX
  5
de1
  8
Layer_0
  10
286.06378
  20
242.45872
  0
VERTEX
  5
de2
  8
Layer_0
  10
286
  20
242.48499
  0
VERTEX
  5
de3
  8
Layer_0
  10
280
  20
242.48499
  0
VERTEX
  5
de4
  8
Layer_0
  10
279.93625
  20
242.45872
  0
VERTEX
  5
de5
  8
Layer_0
  10
279.91
  20
242.39499
  0
VERTEX
  5
de6
  8
Layer_0
  10
279.91
  20
241.70798
  0
VERTEX
  5
de7
  8
Layer_0
  10
279.94376
  20
241.67422
  0
VERTEX
  5
de8
  8
Layer_0
  10
279.91
  20
241.70798
  0
VERTEX
  5
de9
  8
Layer_0
  10
274.09
  20
241.70798
  0
VERTEX
  5
dea
  8
Layer_0
  10
274.05624
  20
241.67422
  0
VERTEX
  5
deb
  8
Layer_0
  10
274.09
  20
241.70798
  0
VERTEX
  5
dec
  8
Layer_0
  10
274.09
  20
242.39499
  0
VERTEX
  5
ded
  8
Layer_0
  10
274.06378
  20
242.45872
  0
VERTEX
  5
dee
  8
Layer_0
  10
274
  20
242.48499
  0
VERTEX
  5
def
  8
Layer_0
  10
268
  20
242.48499
  0
VERTEX
  5
df0
  8
Layer_0
  10
267.93625
  20
242.45872
  0
VERTEX
  5
df1
  8
Layer_0
  10
267.91
  20
242.39499
  0
VERTEX
  5
df2
  8
Layer_0
  10
267.91
  20
241.70798
  0
VERTEX
  5
df3
  8
Layer_0
  10
267.94376
  20
241.67422
  0
VERTEX
  5
df4
  8
Layer_0
  10
267.91
  20
241.70798
  0
VERTEX
  5
df5
  8
Layer_0
  10
262.09
  20
241.70798
  0
VERTEX
  5
df6
  8
Layer_0
  10
262.05624
  20
241.67422
  0
VERTEX
  5
df7
  8
Layer_0
  10
262.09
  20
241.70798
  0
VERTEX
  5
df8
  8
Layer_0
  10
262.09
  20
242.39499
  0
VERTEX
  5
df9
  8
Layer_0
  10
262.06378
  20
242.45872
  0
VERTEX
  5
dfa
  8
Layer_0
  10
262
  20
242.48499
  0
VERTEX
  5
dfb
  8
Layer_0
  10
256
  20
242.48499
  0
VERTEX
  5
dfc
  8
Layer_0
  10
255.93626
  20
242.45872
  0
VERTEX
  5
dfd
  8
Layer_0
  10
255.91
  20
242.39499
  0
VERTEX
  5
dfe
  8
Layer_0
  10
255.91
  20
241.70798
  0
VERTEX
  5
dff
  8
Layer_0
  10
255.94376
  20
241.67422
  0
VERTEX
  5
e00
  8
Layer_0
  10
255.91
  20
241.70798
  0
VERTEX
  5
e01
  8
Layer_0
  10
246
  20
241.70798
  0
VERTEX
  5
e02
  8
Layer_0
  10
245.93626
  20
241.68173
  0
VERTEX
  5
e03
  8
Layer_0
  10
245.91
  20
241.61798
  0
VERTEX
  5
e04
  8
Layer_0
  10
245.91
  20
242
  0
SEQEND
  0
POLYLINE
  5
e06
  8
Layer_0
  62
0
  70
1
  66
1
  10
0
  20
0
  30
0
  0
VERTEX
  5
e06
  8
Layer_0
  10
271.32202
  20
307.91
  0
VERTEX
  5
e07
  8
Layer_0
  10
272.76099
  20
307.91
  0
VERTEX
  5
e08
  8
Layer_0
  10
272.79474
  20
307.94376
  0
VERTEX
  5
e09
  8
Layer_0
  10
272.76099
  20
307.91
  0
VERTEX
  5
e0a
  8
Layer_0
  10
272.76099
  20
305
  0
VERTEX
  5
e0b
  8
Layer_0
  10
272.78763
  20
304.93625
  0
VERTEX
  5
e0c
  8
Layer_0
  10
272.85101
  20
304.91
  0
VERTEX
  5
e0d
  8
Layer_0
  10
278.85101
  20
304.91
  0
VERTEX
  5
e0e
  8
Layer_0
  10
278.91473
  20
304.93625
  0
VERTEX
  5
e0f
  8
Layer_0
  10
278.94098
  20
305
  0
VERTEX
  5
e10
  8
Layer_0
  10
278.94098
  20
307.91
  0
VERTEX
  5
e11
  8
Layer_0
  10
278.90723
  20
307.94376
  0
VERTEX
  5
e12
  8
Layer_0
  10
278.94098
  20
307.91
  0
VERTEX
  5
e13
  8
Layer_0
  10
280.38098
  20
307.91
  0
VERTEX
  5
e14
  8
Layer_0
  10
279.685
  20
307.91
  0
VERTEX
  5
e15
  8
Layer_0
  10
279.74838
  20
307.93625
  0
VERTEX
  5
e16
  8
Layer_0
  10
279.77502
  20
308
  0
VERTEX
  5
e17
  8
Layer_0
  10
279.77502
  20
317.91
  0
VERTEX
  5
e18
  8
Layer_0
  10
279.74127
  20
317.94376
  0
VERTEX
  5
e19
  8
Layer_0
  10
279.77502
  20
317.91
  0
VERTEX
  5
e1a
  8
Layer_0
  10
281.185
  20
317.91
  0
VERTEX
  5
e1b
  8
Layer_0
  10
281.24838
  20
317.93625
  0
VERTEX
  5
e1c
  8
Layer_0
  10
281.27502
  20
318
  0
VERTEX
  5
e1d
  8
Layer_0
  10
281.27502
  20
324
  0
VERTEX
  5
e1e
  8
Layer_0
  10
281.24838
  20
324.06375
  0
VERTEX
  5
e1f
  8
Layer_0
  10
281.185
  20
324.09
  0
VERTEX
  5
e20
  8
Layer_0
  10
279.77502
  20
324.09
  0
VERTEX
  5
e21
  8
Layer_0
  10
279.74127
  20
324.05624
  0
VERTEX
  5
e22
  8
Layer_0
  10
279.77502
  20
324.09
  0
VERTEX
  5
e23
  8
Layer_0
  10
279.77502
  20
329.91
  0
VERTEX
  5
e24
  8
Layer_0
  10
279.74127
  20
329.94376
  0
VERTEX
  5
e25
  8
Layer_0
  10
279.77502
  20
329.91
  0
VERTEX
  5
e26
  8
Layer_0
  10
281.185
  20
329.91
  0
VERTEX
  5
e27
  8
Layer_0
  10
281.24838
  20
329.93625
  0
VERTEX
  5
e28
  8
Layer_0
  10
281.27502
  20
330
  0
VERTEX
  5
e29
  8
Layer_0
  10
281.27502
  20
336
  0
VERTEX
  5
e2a
  8
Layer_0
  10
281.24838
  20
336.06375
  0
VERTEX
  5
e2b
  8
Layer_0
  10
281.185
  20
336.09
  0
VERTEX
  5
e2c
  8
Layer_0
  10
279.77502
  20
336.09
  0
VERTEX
  5
e2d
  8
Layer_0
  10
279.74127
  20
336.05624
  0
VERTEX
  5
e2e
  8
Layer_0
  10
279.77502
  20
336.09
  0
VERTEX
  5
e2f
  8
Layer_0
  10
279.77502
  20
341.91
  0
VERTEX
  5
e30
  8
Layer_0
  10
279.74127
  20
341.94376
  0
VERTEX
  5
e31
  8
Layer_0
  10
279.77502
  20
341.91
  0
VERTEX
  5
e32
  8
Layer_0
  10
281.185
  20
341.91
  0
VERTEX
  5
e33
  8
Layer_0
  10
281.24838
  20
341.93625
  0
VERTEX
  5
e34
  8
Layer_0
  10
281.27502
  20
342
  0
VERTEX
  5
e35
  8
Layer_0
  10
281.27502
  20
348
  0
VERTEX
  5
e36
  8
Layer_0
  10
281.24838
  20
348.06375
  0
VERTEX
  5
e37
  8
Layer_0
  10
281.185
  20
348.09
  0
VERTEX
  5
e38
  8
Layer_0
  10
279.77502
  20
348.09
  0
VERTEX
  5
e39
  8
Layer_0
  10
279.74127
  20
348.05624
  0
VERTEX
  5
e3a
  8
Layer_0
  10
279.77502
  20
348.09
  0
VERTEX
  5
e3b
  8
Layer_0
  10
279.77502
  20
358
  0
VERTEX
  5
e3c
  8
Layer_0
  10
279.74838
  20
358.06375
  0
VERTEX
  5
e3d
  8
Layer_0
  10
279.685
  20
358.09
  0
VERTEX
  5
e3e
  8
Layer_0
  10
280.38098
  20
358.09
  0
VERTEX
  5
e3f
  8
Layer_0
  10
278.94098
  20
358.09
  0
VERTEX
  5
e40
  8
Layer_0
  10
278.90723
  20
358.05624
  0
VERTEX
  5
e41
  8
Layer_0
  10
278.94098
  20
358.09
  0
VERTEX
  5
e42
  8
Layer_0
  10
278.94098
  20
361
  0
VERTEX
  5
e43
  8
Layer_0
  10
278.91473
  20
361.06375
  0
VERTEX
  5
e44
  8
Layer_0
  10
278.85101
  20
361.09
  0
VERTEX
  5
e45
  8
Layer_0
  10
272.85101
  20
361.09
  0
VERTEX
  5
e46
  8
Layer_0
  10
272.78763
  20
361.06375
  0
VERTEX
  5
e47
  8
Layer_0
  10
272.76099
  20
361
  0
VERTEX
  5
e48
  8
Layer_0
  10
272.76099
  20
358.09
  0
VERTEX
  5
e49
  8
Layer_0
  10
272.79474
  20
358.05624
  0
VERTEX
  5
e4a
  8
Layer_0
  10
272.76099
  20
358.09
  0
VERTEX
  5
e4b
  8
Layer_0
  10
270.927
  20
358.09
  0
VERTEX
  5
e4c
  8
Layer_0
  10
270.86325
  20
358.06375
  0
VERTEX
  5
e4d
  8
Layer_0
  10
270.83698
  20
358
  0
VERTEX
  5
e4e
  8
Layer_0
  10
270.83698
  20
348
  0
VERTEX
  5
e4f
  8
Layer_0
  10
270.86325
  20
347.93625
  0
VERTEX
  5
e50
  8
Layer_0
  10
270.927
  20
347.91
  0
VERTEX
  5
e51
  8
Layer_0
  10
271.61401
  20
347.91
  0
VERTEX
  5
e52
  8
Layer_0
  10
271.64777
  20
347.94376
  0
VERTEX
  5
e53
  8
Layer_0
  10
271.61401
  20
347.91
  0
VERTEX
  5
e54
  8
Layer_0
  10
271.61401
  20
342.09
  0
VERTEX
  5
e55
  8
Layer_0
  10
271.64777
  20
342.05624
  0
VERTEX
  5
e56
  8
Layer_0
  10
271.61401
  20
342.09
  0
VERTEX
  5
e57
  8
Layer_0
  10
270.927
  20
342.09
  0
VERTEX
  5
e58
  8
Layer_0
  10
270.86325
  20
342.06375
  0
VERTEX
  5
e59
  8
Layer_0
  10
270.83698
  20
342
  0
VERTEX
  5
e5a
  8
Layer_0
  10
270.83698
  20
336
  0
VERTEX
  5
e5b
  8
Layer_0
  10
270.86325
  20
335.93625
  0
VERTEX
  5
e5c
  8
Layer_0
  10
270.927
  20
335.91
  0
VERTEX
  5
e5d
  8
Layer_0
  10
271.61401
  20
335.91
  0
VERTEX
  5
e5e
  8
Layer_0
  10
271.64777
  20
335.94376
  0
VERTEX
  5
e5f
  8
Layer_0
  10
271.61401
  20
335.91
  0
VERTEX
  5
e60
  8
Layer_0
  10
271.61401
  20
330.09
  0
VERTEX
  5
e61
  8
Layer_0
  10
271.64777
  20
330.05624
  0
VERTEX
  5
e62
  8
Layer_0
  10
271.61401
  20
330.09
  0
VERTEX
  5
e63
  8
Layer_0
  10
270.927
  20
330.09
  0
VERTEX
  5
e64
  8
Layer_0
  10
270.86325
  20
330.06375
  0
VERTEX
  5
e65
  8
Layer_0
  10
270.83698
  20
330
  0
VERTEX
  5
e66
  8
Layer_0
  10
270.83698
  20
324
  0
VERTEX
  5
e67
  8
Layer_0
  10
270.86325
  20
323.93625
  0
VERTEX
  5
e68
  8
Layer_0
  10
270.927
  20
323.91
  0
VERTEX
  5
e69
  8
Layer_0
  10
271.61401
  20
323.91
  0
VERTEX
  5
e6a
  8
Layer_0
  10
271.64777
  20
323.94376
  0
VERTEX
  5
e6b
  8
Layer_0
  10
271.61401
  20
323.91
  0
VERTEX
  5
e6c
  8
Layer_0
  10
271.61401
  20
318.09
  0
VERTEX
  5
e6d
  8
Layer_0
  10
271.64777
  20
318.05624
  0
VERTEX
  5
e6e
  8
Layer_0
  10
271.61401
  20
318.09
  0
VERTEX
  5
e6f
  8
Layer_0
  10
270.927
  20
318.09
  0
VERTEX
  5
e70
  8
Layer_0
  10
270.86325
  20
318.06375
  0
VERTEX
  5
e71
  8
Layer_0
  10
270.83698
  20
318
  0
VERTEX
  5
e72
  8
Layer_0
  10
270.83698
  20
308
  0
VERTEX
  5
e73
  8
Layer_0
  10
270.86325
  20
307.93625
  0
VERTEX
  5
e74
  8
Layer_0
  10
270.927
  20
307.91
  0
VERTEX
  5
e75
  8
Layer_0
  10
271.32202
  20
307.91
  0
SEQEND
  0
POLYLINE
  5
e77
  8
Layer_0
  62
0
  70
1
  66
1
  10
0
  20
0
  30
0
  0
VERTEX
  5
e77
  8
Layer_0
  10
283.66797
  20
307.91
  0
VERTEX
  5
e78
  8
Layer_0
  10
285.10797
  20
307.91
  0
VERTEX
  5
e79
  8
Layer_0
  10
285.14172
  20
307.94376
  0
VERTEX
  5
e7a
  8
Layer_0
  10
285.10797
  20
307.91
  0
VERTEX
  5
e7b
  8
Layer_0
  10
285.10797
  20
305
  0
VERTEX
  5
e7c
  8
Layer_0
  10
285.13425
  20
304.93625
  0
VERTEX
  5
e7d
  8
Layer_0
  10
285.198
  20
304.91
  0
VERTEX
  5
e7e
  8
Layer_0
  10
291.198
  20
304.91
  0
VERTEX
  5
e7f
  8
Layer_0
  10
291.26138
  20
304.93625
  0
VERTEX
  5
e80
  8
Layer_0
  10
291.28802
  20
305
  0
VERTEX
  5
e81
  8
Layer_0
  10
291.28802
  20
307.91
  0
VERTEX
  5
e82
  8
Layer_0
  10
291.25427
  20
307.94376
  0
VERTEX
  5
e83
  8
Layer_0
  10
291.28802
  20
307.91
  0
VERTEX
  5
e84
  8
Layer_0
  10
292.72699
  20
307.91
  0
VERTEX
  5
e85
  8
Layer_0
  10
292.03101
  20
307.91
  0
VERTEX
  5
e86
  8
Layer_0
  10
292.09473
  20
307.93625
  0
VERTEX
  5
e87
  8
Layer_0
  10
292.12097
  20
308
  0
VERTEX
  5
e88
  8
Layer_0
  10
292.12097
  20
317.91
  0
VERTEX
  5
e89
  8
Layer_0
  10
292.08722
  20
317.94376
  0
VERTEX
  5
e8a
  8
Layer_0
  10
292.12097
  20
317.91
  0
VERTEX
  5
e8b
  8
Layer_0
  10
293.53101
  20
317.91
  0
VERTEX
  5
e8c
  8
Layer_0
  10
293.59473
  20
317.93625
  0
VERTEX
  5
e8d
  8
Layer_0
  10
293.62097
  20
318
  0
VERTEX
  5
e8e
  8
Layer_0
  10
293.62097
  20
324
  0
VERTEX
  5
e8f
  8
Layer_0
  10
293.59473
  20
324.06375
  0
VERTEX
  5
e90
  8
Layer_0
  10
293.53101
  20
324.09
  0
VERTEX
  5
e91
  8
Layer_0
  10
292.12097
  20
324.09
  0
VERTEX
  5
e92
  8
Layer_0
  10
292.08722
  20
324.05624
  0
VERTEX
  5
e93
  8
Layer_0
  10
292.12097
  20
324.09
  0
VERTEX
  5
e94
  8
Layer_0
  10
292.12097
  20
329.91
  0
VERTEX
  5
e95
  8
Layer_0
  10
292.08722
  20
329.94376
  0
VERTEX
  5
e96
  8
Layer_0
  10
292.12097
  20
329.91
  0
VERTEX
  5
e97
  8
Layer_0
  10
293.53101
  20
329.91
  0
VERTEX
  5
e98
  8
Layer_0
  10
293.59473
  20
329.93625
  0
VERTEX
  5
e99
  8
Layer_0
  10
293.62097
  20
330
  0
VERTEX
  5
e9a
  8
Layer_0
  10
293.62097
  20
336
  0
VERTEX
  5
e9b
  8
Layer_0
  10
293.59473
  20
336.06375
  0
VERTEX
  5
e9c
  8
Layer_0
  10
293.53101
  20
336.09
  0
VERTEX
  5
e9d
  8
Layer_0
  10
292.12097
  20
336.09
  0
VERTEX
  5
e9e
  8
Layer_0
  10
292.08722
  20
336.05624
  0
VERTEX
  5
e9f
  8
Layer_0
  10
292.12097
  20
336.09
  0
VERTEX
  5
ea0
  8
Layer_0
  10
292.12097
  20
341.91
  0
VERTEX
  5
ea1
  8
Layer_0
  10
292.08722
  20
341.94376
  0
VERTEX
  5
ea2
  8
Layer_0
  10
292.12097
  20
341.91
  0
VERTEX
  5
ea3
  8
Layer_0
  10
293.53101
  20
341.91
  0
VERTEX
  5
ea4
  8
Layer_0
  10
293.59473
  20
341.93625
  0
VERTEX
  5
ea5
  8
Layer_0
  10
293.62097
  20
342
  0
VERTEX
  5
ea6
  8
Layer_0
  10
293.62097
  20
348
  0
VERTEX
  5
ea7
  8
Layer_0
  10
293.59473
  20
348.06375
  0
VERTEX
  5
ea8
  8
Layer_0
  10
293.53101
  20
348.09
  0
VERTEX
  5
ea9
  8
Layer_0
  10
292.12097
  20
348.09
  0
VERTEX
  5
eaa
  8
Layer_0
  10
292.08722
  20
348.05624
  0
VERTEX
  5
eab
  8
Layer_0
  10
292.12097
  20
348.09
  0
VERTEX
  5
eac
  8
Layer_0
  10
292.12097
  20
358
  0
VERTEX
  5
ead
  8
Layer_0
  10
292.09473
  20
358.06375
  0
VERTEX
  5
eae
  8
Layer_0
  10
292.03101
  20
358.09
  0
VERTEX
  5
eaf
  8
Layer_0
  10
292.72699
  20
358.09
  0
VERTEX
  5
eb0
  8
Layer_0
  10
291.28802
  20
358.09
  0
VERTEX
  5
eb1
  8
Layer_0
  10
291.25427
  20
358.05624
  0
VERTEX
  5
eb2
  8
Layer_0
  10
291.28802
  20
358.09
  0
VERTEX
  5
eb3
  8
Layer_0
  10
291.28802
  20
361
  0
VERTEX
  5
eb4
  8
Layer_0
  10
291.26138
  20
361.06375
  0
VERTEX
  5
eb5
  8
Layer_0
  10
291.198
  20
361.09
  0
VERTEX
  5
eb6
  8
Layer_0
  10
285.198
  20
361.09
  0
VERTEX
  5
eb7
  8
Layer_0
  10
285.13425
  20
361.06375
  0
VERTEX
  5
eb8
  8
Layer_0
  10
285.10797
  20
361
  0
VERTEX
  5
eb9
  8
Layer_0
  10
285.10797
  20
358.09
  0
VERTEX
  5
eba
  8
Layer_0
  10
285.14172
  20
358.05624
  0
VERTEX
  5
ebb
  8
Layer_0
  10
285.10797
  20
358.09
  0
VERTEX
  5
ebc
  8
Layer_0
  10
282.86499
  20
358.09
  0
VERTEX
  5
ebd
  8
Layer_0
  10
282.80127
  20
358.06375
  0
VERTEX
  5
ebe
  8
Layer_0
  10
282.77502
  20
358
  0
VERTEX
  5
ebf
  8
Layer_0
  10
282.77502
  20
348
  0
VERTEX
  5
ec0
  8
Layer_0
  10
282.80127
  20
347.93625
  0
VERTEX
  5
ec1
  8
Layer_0
  10
282.86499
  20
347.91
  0
VERTEX
  5
ec2
  8
Layer_0
  10
284.27502
  20
347.91
  0
VERTEX
  5
ec3
  8
Layer_0
  10
284.30878
  20
347.94376
  0
VERTEX
  5
ec4
  8
Layer_0
  10
284.27502
  20
347.91
  0
VERTEX
  5
ec5
  8
Layer_0
  10
284.27502
  20
342.09
  0
VERTEX
  5
ec6
  8
Layer_0
  10
284.30878
  20
342.05624
  0
VERTEX
  5
ec7
  8
Layer_0
  10
284.27502
  20
342.09
  0
VERTEX
  5
ec8
  8
Layer_0
  10
282.86499
  20
342.09
  0
VERTEX
  5
ec9
  8
Layer_0
  10
282.80127
  20
342.06375
  0
VERTEX
  5
eca
  8
Layer_0
  10
282.77502
  20
342
  0
VERTEX
  5
ecb
  8
Layer_0
  10
282.77502
  20
336
  0
VERTEX
  5
ecc
  8
Layer_0
  10
282.80127
  20
335.93625
  0
VERTEX
  5
ecd
  8
Layer_0
  10
282.86499
  20
335.91
  0
VERTEX
  5
ece
  8
Layer_0
  10
284.27502
  20
335.91
  0
VERTEX
  5
ecf
  8
Layer_0
  10
284.30878
  20
335.94376
  0
VERTEX
  5
ed0
  8
Layer_0
  10
284.27502
  20
335.91
  0
VERTEX
  5
ed1
  8
Layer_0
  10
284.27502
  20
330.09
  0
VERTEX
  5
ed2
  8
Layer_0
  10
284.30878
  20
330.05624
  0
VERTEX
  5
ed3
  8
Layer_0
  10
284.27502
  20
330.09
  0
VERTEX
  5
ed4
  8
Layer_0
  10
282.86499
  20
330.09
  0
VERTEX
  5
ed5
  8
Layer_0
  10
282.80127
  20
330.06375
  0
VERTEX
  5
ed6
  8
Layer_0
  10
282.77502
  20
330
  0
VERTEX
  5
ed7
  8
Layer_0
  10
282.77502
  20
324
  0
VERTEX
  5
ed8
  8
Layer_0
  10
282.80127
  20
323.93625
  0
VERTEX
  5
ed9
  8
Layer_0
  10
282.86499
  20
323.91
  0
VERTEX
  5
eda
  8
Layer_0
  10
284.27502
  20
323.91
  0
VERTEX
  5
edb
  8
Layer_0
  10
284.30878
  20
323.94376
  0
VERTEX
  5
edc
  8
Layer_0
  10
284.27502
  20
323.91
  0
VERTEX
  5
edd
  8
Layer_0
  10
284.27502
  20
318.09
  0
VERTEX
  5
ede
  8
Layer_0
  10
284.30878
  20
318.05624
  0
VERTEX
  5
edf
  8
Layer_0
  10
284.27502
  20
318.09
  0
VERTEX
  5
ee0
  8
Layer_0
  10
282.86499
  20
318.09
  0
VERTEX
  5
ee1
  8
Layer_0
  10
282.80127
  20
318.06375
  0
VERTEX
  5
ee2
  8
Layer_0
  10
282.77502
  20
318
  0
VERTEX
  5
ee3
  8
Layer_0
  10
282.77502
  20
308
  0
VERTEX
  5
ee4
  8
Layer_0
  10
282.80127
  20
307.93625
  0
VERTEX
  5
ee5
  8
Layer_0
  10
282.86499
  20
307.91
  0
VERTEX
  5
ee6
  8
Layer_0
  10
283.66797
  20
307.91
  0
SEQEND
  0
POLYLINE
  5
ee8
  8
Layer_0
  62
0
  70
1
  66
1
  10
0
  20
0
  30
0
  0
VERTEX
  5
ee8
  8
Layer_0
  10
296.01501
  20
307.91
  0
VERTEX
  5
ee9
  8
Layer_0
  10
297.45398
  20
307.91
  0
VERTEX
  5
eea
  8
Layer_0
  10
297.48773
  20
307.94376
  0
VERTEX
  5
eeb
  8
Layer_0
  10
297.45398
  20
307.91
  0
VERTEX
  5
eec
  8
Layer_0
  10
297.45398
  20
305
  0
VERTEX
  5
eed
  8
Layer_0
  10
297.48026
  20
304.93625
  0
VERTEX
  5
eee
  8
Layer_0
  10
297.54401
  20
304.91
  0
VERTEX
  5
eef
  8
Layer_0
  10
303.54401
  20
304.91
  0
VERTEX
  5
ef0
  8
Layer_0
  10
303.60773
  20
304.93625
  0
VERTEX
  5
ef1
  8
Layer_0
  10
303.63397
  20
305
  0
VERTEX
  5
ef2
  8
Layer_0
  10
303.63397
  20
307.91
  0
VERTEX
  5
ef3
  8
Layer_0
  10
303.60022
  20
307.94376
  0
VERTEX
  5
ef4
  8
Layer_0
  10
303.63397
  20
307.91
  0
VERTEX
  5
ef5
  8
Layer_0
  10
305.073
  20
307.91
  0
VERTEX
  5
ef6
  8
Layer_0
  10
305.13675
  20
307.93625
  0
VERTEX
  5
ef7
  8
Layer_0
  10
305.16302
  20
308
  0
VERTEX
  5
ef8
  8
Layer_0
  10
305.16302
  20
358
  0
VERTEX
  5
ef9
  8
Layer_0
  10
305.13675
  20
358.06375
  0
VERTEX
  5
efa
  8
Layer_0
  10
305.073
  20
358.09
  0
VERTEX
  5
efb
  8
Layer_0
  10
303.63397
  20
358.09
  0
VERTEX
  5
efc
  8
Layer_0
  10
303.60022
  20
358.05624
  0
VERTEX
  5
efd
  8
Layer_0
  10
303.63397
  20
358.09
  0
VERTEX
  5
efe
  8
Layer_0
  10
303.63397
  20
361
  0
VERTEX
  5
eff
  8
Layer_0
  10
303.60773
  20
361.06375
  0
VERTEX
  5
f00
  8
Layer_0
  10
303.54401
  20
361.09
  0
VERTEX
  5
f01
  8
Layer_0
  10
297.54401
  20
361.09
  0
VERTEX
  5
f02
  8
Layer_0
  10
297.48026
  20
361.06375
  0
VERTEX
  5
f03
  8
Layer_0
  10
297.45398
  20
361
  0
VERTEX
  5
f04
  8
Layer_0
  10
297.45398
  20
358.09
  0
VERTEX
  5
f05
  8
Layer_0
  10
297.48773
  20
358.05624
  0
VERTEX
  5
f06
  8
Layer_0
  10
297.45398
  20
358.09
  0
VERTEX
  5
f07
  8
Layer_0
  10
295.211
  20
358.09
  0
VERTEX
  5
f08
  8
Layer_0
  10
295.14725
  20
358.06375
  0
VERTEX
  5
f09
  8
Layer_0
  10
295.12097
  20
358
  0
VERTEX
  5
f0a
  8
Layer_0
  10
295.12097
  20
348
  0
VERTEX
  5
f0b
  8
Layer_0
  10
295.14725
  20
347.93625
  0
VERTEX
  5
f0c
  8
Layer_0
  10
295.211
  20
347.91
  0
VERTEX
  5
f0d
  8
Layer_0
  10
296.62097
  20
347.91
  0
VERTEX
  5
f0e
  8
Layer_0
  10
296.65472
  20
347.94376
  0
VERTEX
  5
f0f
  8
Layer_0
  10
296.62097
  20
347.91
  0
VERTEX
  5
f10
  8
Layer_0
  10
296.62097
  20
342.09
  0
VERTEX
  5
f11
  8
Layer_0
  10
296.65472
  20
342.05624
  0
VERTEX
  5
f12
  8
Layer_0
  10
296.62097
  20
342.09
  0
VERTEX
  5
f13
  8
Layer_0
  10
295.211
  20
342.09
  0
VERTEX
  5
f14
  8
Layer_0
  10
295.14725
  20
342.06375
  0
VERTEX
  5
f15
  8
Layer_0
  10
295.12097
  20
342
  0
VERTEX
  5
f16
  8
Layer_0
  10
295.12097
  20
336
  0
VERTEX
  5
f17
  8
Layer_0
  10
295.14725
  20
335.93625
  0
VERTEX
  5
f18
  8
Layer_0
  10
295.211
  20
335.91
  0
VERTEX
  5
f19
  8
Layer_0
  10
296.62097
  20
335.91
  0
VERTEX
  5
f1a
  8
Layer_0
  10
296.65472
  20
335.94376
  0
VERTEX
  5
f1b
  8
Layer_0
  10
296.62097
  20
335.91
  0
VERTEX
  5
f1c
  8
Layer_0
  10
296.62097
  20
330.09
  0
VERTEX
  5
f1d
  8
Layer_0
  10
296.65472
  20
330.05624
  0
VERTEX
  5
f1e
  8
Layer_0
  10
296.62097
  20
330.09
  0
VERTEX
  5
f1f
  8
Layer_0
  10
295.211
  20
330.09
  0
VERTEX
  5
f20
  8
Layer_0
  10
295.14725
  20
330.06375
  0
VERTEX
  5
f21
  8
Layer_0
  10
295.12097
  20
330
  0
VERTEX
  5
f22
  8
Layer_0
  10
295.12097
  20
324
  0
VERTEX
  5
f23
  8
Layer_0
  10
295.14725
  20
323.93625
  0
VERTEX
  5
f24
  8
Layer_0
  10
295.211
  20
323.91
  0
VERTEX
  5
f25
  8
Layer_0
  10
296.62097
  20
323.91
  0
VERTEX
  5
f26
  8
Layer_0
  10
296.65472
  20
323.94376
  0
VERTEX
  5
f27
  8
Layer_0
  10
296.62097
  20
323.91
  0
VERTEX
  5
f28
  8
Layer_0
  10
296.62097
  20
318.09
  0
VERTEX
  5
f29
  8
Layer_0
  10
296.65472
  20
318.05624
  0
VERTEX
  5
f2a
  8
Layer_0
  10
296.62097
  20
318.09
  0
VERTEX
  5
f2b
  8
Layer_0
  10
295.211
  20
318.09
  0
VERTEX
  5
f2c
  8
Layer_0
  10
295.14725
  20
318.06375
  0
VERTEX
  5
f2d
  8
Layer_0
  10
295.12097
  20
318
  0
VERTEX
  5
f2e
  8
Layer_0
  10
295.12097
  20
308
  0
VERTEX
  5
f2f
  8
Layer_0
  10
295.14725
  20
307.93625
  0
VERTEX
  5
f30
  8
Layer_0
  10
295.211
  20
307.91
  0
VERTEX
  5
f31
  8
Layer_0
  10
296.01501
  20
307.91
  0
SEQEND
  0
POLYLINE
  5
f33
  8
Layer_0
  62
0
  70
1
  66
1
  10
0
  20
0
  30
0
  0
VERTEX
  5
f33
  8
Layer_0
  10
314.33997
  20
103
  0
VERTEX
  5
f34
  8
Layer_0
  10
314.34003
  20
243
  0
VERTEX
  5
f35
  8
Layer_0
  10
314.32486
  20
243.92343
  0
VERTEX
  5
f36
  8
Layer_0
  10
314.27945
  20
244.84412
  0
VERTEX
  5
f37
  8
Layer_0
  10
314.20398
  20
245.76132
  0
VERTEX
  5
f38
  8
Layer_0
  10
314.09869
  20
246.67435
  0
VERTEX
  5
f39
  8
Layer_0
  10
313.96378
  20
247.58247
  0
VERTEX
  5
f3a
  8
Layer_0
  10
313.79935
  20
248.48502
  0
VERTEX
  5
f3b
  8
Layer_0
  10
313.60568
  20
249.38123
  0
VERTEX
  5
f3c
  8
Layer_0
  10
313.38293
  20
250.2704
  0
VERTEX
  5
f3d
  8
Layer_0
  10
313.13129
  20
251.15184
  0
VERTEX
  5
f3e
  8
Layer_0
  10
312.85095
  20
252.02481
  0
VERTEX
  5
f3f
  8
Layer_0
  10
312.54211
  20
252.88861
  0
VERTEX
  5
f40
  8
Layer_0
  10
312.20496
  20
253.74252
  0
VERTEX
  5
f41
  8
Layer_0
  10
311.83966
  20
254.58583
  0
VERTEX
  5
f42
  8
Layer_0
  10
311.44647
  20
255.41783
  0
VERTEX
  5
f43
  8
Layer_0
  10
311.02551
  20
256.23779
  0
VERTEX
  5
f44
  8
Layer_0
  10
310.57703
  20
257.04504
  0
VERTEX
  5
f45
  8
Layer_0
  10
310.10211
  20
257.8371
  0
VERTEX
  5
f46
  8
Layer_0
  10
309.60236
  20
258.61163
  0
VERTEX
  5
f47
  8
Layer_0
  10
309.07837
  20
259.36819
  0
VERTEX
  5
f48
  8
Layer_0
  10
308.53061
  20
260.1062
  0
VERTEX
  5
f49
  8
Layer_0
  10
307.95966
  20
260.82516
  0
VERTEX
  5
f4a
  8
Layer_0
  10
307.36597
  20
261.52454
  0
VERTEX
  5
f4b
  8
Layer_0
  10
306.75006
  20
262.20386
  0
VERTEX
  5
f4c
  8
Layer_0
  10
306.11255
  20
262.86252
  0
VERTEX
  5
f4d
  8
Layer_0
  10
305.45386
  20
263.50006
  0
VERTEX
  5
f4e
  8
Layer_0
  10
304.77457
  20
264.11591
  0
VERTEX
  5
f4f
  8
Layer_0
  10
304.07516
  20
264.70959
  0
VERTEX
  5
f50
  8
Layer_0
  10
303.35623
  20
265.28058
  0
VERTEX
  5
f51
  8
Layer_0
  10
302.61819
  20
265.82834
  0
VERTEX
  5
f52
  8
Layer_0
  10
301.86163
  20
266.35236
  0
VERTEX
  5
f53
  8
Layer_0
  10
301.0871
  20
266.85208
  0
VERTEX
  5
f54
  8
Layer_0
  10
300.29504
  20
267.32703
  0
VERTEX
  5
f55
  8
Layer_0
  10
299.48779
  20
267.77551
  0
VERTEX
  5
f56
  8
Layer_0
  10
298.66785
  20
268.19644
  0
VERTEX
  5
f57
  8
Layer_0
  10
297.83582
  20
268.58963
  0
VERTEX
  5
f58
  8
Layer_0
  10
296.99252
  20
268.9549
  0
VERTEX
  5
f59
  8
Layer_0
  10
296.13861
  20
269.29205
  0
VERTEX
  5
f5a
  8
Layer_0
  10
295.27484
  20
269.60089
  0
VERTEX
  5
f5b
  8
Layer_0
  10
294.40186
  20
269.88123
  0
VERTEX
  5
f5c
  8
Layer_0
  10
293.52042
  20
270.13287
  0
VERTEX
  5
f5d
  8
Layer_0
  10
292.63123
  20
270.35565
  0
VERTEX
  5
f5e
  8
Layer_0
  10
291.73505
  20
270.54932
  0
VERTEX
  5
f5f
  8
Layer_0
  10
290.83252
  20
270.71375
  0
VERTEX
  5
f60
  8
Layer_0
  10
289.92438
  20
270.84869
  0
VERTEX
  5
f61
  8
Layer_0
  10
289.01135
  20
270.95398
  0
VERTEX
  5
f62
  8
Layer_0
  10
288.09415
  20
271.02945
  0
VERTEX
  5
f63
  8
Layer_0
  10
287.17346
  20
271.07486
  0
VERTEX
  5
f64
  8
Layer_0
  10
286.25006
  20
271.09003
  0
VERTEX
  5
f65
  8
Layer_0
  10
286.18628
  20
271.06375
  0
VERTEX
  5
f66
  8
Layer_0
  10
286.16003
  20
271
  0
VERTEX
  5
f67
  8
Layer_0
  10
286.16003
  20
268
  0
VERTEX
  5
f68
  8
Layer_0
  10
286.18628
  20
267.93628
  0
VERTEX
  5
f69
  8
Layer_0
  10
286.25006
  20
267.91003
  0
VERTEX
  5
f6a
  8
Layer_0
  10
287.06897
  20
267.89658
  0
VERTEX
  5
f6b
  8
Layer_0
  10
287.88544
  20
267.85632
  0
VERTEX
  5
f6c
  8
Layer_0
  10
288.69882
  20
267.78943
  0
VERTEX
  5
f6d
  8
Layer_0
  10
289.50848
  20
267.69604
  0
VERTEX
  5
f6e
  8
Layer_0
  10
290.31378
  20
267.57635
  0
VERTEX
  5
f6f
  8
Layer_0
  10
291.11414
  20
267.43057
  0
VERTEX
  5
f70
  8
Layer_0
  10
291.90884
  20
267.25882
  0
VERTEX
  5
f71
  8
Layer_0
  10
292.69733
  20
267.06128
  0
VERTEX
  5
f72
  8
Layer_0
  10
293.47894
  20
266.83813
  0
VERTEX
  5
f73
  8
Layer_0
  10
294.25305
  20
266.58954
  0
VERTEX
  5
f74
  8
Layer_0
  10
295.01904
  20
266.31564
  0
VERTEX
  5
f75
  8
Layer_0
  10
295.77631
  20
266.01663
  0
VERTEX
  5
f76
  8
Layer_0
  10
296.52414
  20
265.69272
  0
VERTEX
  5
f77
  8
Layer_0
  10
297.26196
  20
265.34399
  0
VERTEX
  5
f78
  8
Layer_0
  10
297.98914
  20
264.9707
  0
VERTEX
  5
f79
  8
Layer_0
  10
298.70505
  20
264.573
  0
VERTEX
  5
f7a
  8
Layer_0
  10
299.40747
  20
264.15179
  0
VERTEX
  5
f7b
  8
Layer_0
  10
300.09439
  20
263.70865
  0
VERTEX
  5
f7c
  8
Layer_0
  10
300.76532
  20
263.24396
  0
VERTEX
  5
f7d
  8
Layer_0
  10
301.41983
  20
262.75824
  0
VERTEX
  5
f7e
  8
Layer_0
  10
302.0574
  20
262.25192
  0
VERTEX
  5
f7f
  8
Layer_0
  10
302.67758
  20
261.72546
  0
VERTEX
  5
f80
  8
Layer_0
  10
303.27994
  20
261.17935
  0
VERTEX
  5
f81
  8
Layer_0
  10
303.86404
  20
260.61401
  0
VERTEX
  5
f82
  8
Layer_0
  10
304.42938
  20
260.02994
  0
VERTEX
  5
f83
  8
Layer_0
  10
304.97549
  20
259.42755
  0
VERTEX
  5
f84
  8
Layer_0
  10
305.50195
  20
258.80737
  0
VERTEX
  5
f85
  8
Layer_0
  10
306.00827
  20
258.1698
  0
VERTEX
  5
f86
  8
Layer_0
  10
306.49399
  20
257.51532
  0
VERTEX
  5
f87
  8
Layer_0
  10
306.95868
  20
256.84439
  0
VERTEX
  5
f88
  8
Layer_0
  10
307.40186
  20
256.15747
  0
VERTEX
  5
f89
  8
Layer_0
  10
307.82306
  20
255.45502
  0
VERTEX
  5
f8a
  8
Layer_0
  10
308.22079
  20
254.73911
  0
VERTEX
  5
f8b
  8
Layer_0
  10
308.59406
  20
254.01193
  0
VERTEX
  5
f8c
  8
Layer_0
  10
308.94275
  20
253.27409
  0
VERTEX
  5
f8d
  8
Layer_0
  10
309.26669
  20
252.52625
  0
VERTEX
  5
f8e
  8
Layer_0
  10
309.56567
  20
251.76901
  0
VERTEX
  5
f8f
  8
Layer_0
  10
309.83954
  20
251.00301
  0
VERTEX
  5
f90
  8
Layer_0
  10
310.08813
  20
250.22888
  0
VERTEX
  5
f91
  8
Layer_0
  10
310.31128
  20
249.44728
  0
VERTEX
  5
f92
  8
Layer_0
  10
310.50882
  20
248.65878
  0
VERTEX
  5
f93
  8
Layer_0
  10
310.68057
  20
247.86406
  0
VERTEX
  5
f94
  8
Layer_0
  10
310.82635
  20
247.06372
  0
VERTEX
  5
f95
  8
Layer_0
  10
310.94604
  20
246.25842
  0
VERTEX
  5
f96
  8
Layer_0
  10
311.03943
  20
245.44876
  0
VERTEX
  5
f97
  8
Layer_0
  10
311.10632
  20
244.63539
  0
VERTEX
  5
f98
  8
Layer_0
  10
311.14661
  20
243.81892
  0
VERTEX
  5
f99
  8
Layer_0
  10
311.16003
  20
243
  0
VERTEX
  5
f9a
  8
Layer_0
  10
311.15997
  20
103
  0
VERTEX
  5
f9b
  8
Layer_0
  10
311.14655
  20
102.18109
  0
VERTEX
  5
f9c
  8
Layer_0
  10
311.10626
  20
101.36462
  0
VERTEX
  5
f9d
  8
Layer_0
  10
311.03937
  20
100.55124
  0
VERTEX
  5
f9e
  8
Layer_0
  10
310.94598
  20
99.741608
  0
VERTEX
  5
f9f
  8
Layer_0
  10
310.82629
  20
98.93631
  0
VERTEX
  5
fa0
  8
Layer_0
  10
310.68051
  20
98.135986
  0
VERTEX
  5
fa1
  8
Layer_0
  10
310.50876
  20
97.341278
  0
VERTEX
  5
fa2
  8
Layer_0
  10
310.31122
  20
96.552795
  0
VERTEX
  5
fa3
  8
Layer_0
  10
310.08804
  20
95.771179
  0
VERTEX
  5
fa4
  8
Layer_0
  10
309.83945
  20
94.99707
  0
VERTEX
  5
fa5
  8
Layer_0
  10
309.56558
  20
94.231079
  0
VERTEX
  5
fa6
  8
Layer_0
  10
309.26657
  20
93.473816
  0
VERTEX
  5
fa7
  8
Layer_0
  10
308.94263
  20
92.725983
  0
VERTEX
  5
fa8
  8
Layer_0
  10
308.59393
  20
91.988129
  0
VERTEX
  5
fa9
  8
Layer_0
  10
308.22067
  20
91.260986
  0
VERTEX
  5
faa
  8
Layer_0
  10
307.82297
  20
90.545044
  0
VERTEX
  5
fab
  8
Layer_0
  10
307.40179
  20
89.84259
  0
VERTEX
  5
fac
  8
Layer_0
  10
306.95862
  20
89.15567
  0
VERTEX
  5
fad
  8
Layer_0
  10
306.49393
  20
88.484741
  0
VERTEX
  5
fae
  8
Layer_0
  10
306.00821
  20
87.830261
  0
VERTEX
  5
faf
  8
Layer_0
  10
305.50189
  20
87.192688
  0
VERTEX
  5
fb0
  8
Layer_0
  10
304.9754
  20
86.57251
  0
VERTEX
  5
fb1
  8
Layer_0
  10
304.42929
  20
85.970123
  0
VERTEX
  5
fb2
  8
Layer_0
  10
303.86395
  20
85.386017
  0
VERTEX
  5
fb3
  8
Layer_0
  10
303.27988
  20
84.820679
  0
VERTEX
  5
fb4
  8
Layer_0
  10
302.67749
  20
84.274567
  0
VERTEX
  5
fb5
  8
Layer_0
  10
302.05731
  20
83.748108
  0
VERTEX
  5
fb6
  8
Layer_0
  10
301.41974
  20
83.241791
  0
VERTEX
  5
fb7
  8
Layer_0
  10
300.76526
  20
82.756073
  0
VERTEX
  5
fb8
  8
Layer_0
  10
300.09433
  20
82.291382
  0
VERTEX
  5
fb9
  8
Layer_0
  10
299.40741
  20
81.848206
  0
VERTEX
  5
fba
  8
Layer_0
  10
298.70496
  20
81.427002
  0
VERTEX
  5
fbb
  8
Layer_0
  10
297.98901
  20
81.029266
  0
VERTEX
  5
fbc
  8
Layer_0
  10
297.26187
  20
80.656006
  0
VERTEX
  5
fbd
  8
Layer_0
  10
296.52402
  20
80.307312
  0
VERTEX
  5
fbe
  8
Layer_0
  10
295.77618
  20
79.983368
  0
VERTEX
  5
fbf
  8
Layer_0
  10
295.01892
  20
79.684387
  0
VERTEX
  5
fc0
  8
Layer_0
  10
294.25293
  20
79.410522
  0
VERTEX
  5
fc1
  8
Layer_0
  10
293.47882
  20
79.161926
  0
VERTEX
  5
fc2
  8
Layer_0
  10
292.6972
  20
78.938782
  0
VERTEX
  5
fc3
  8
Layer_0
  10
291.90872
  20
78.741241
  0
VERTEX
  5
fc4
  8
Layer_0
  10
291.11401
  20
78.569489
  0
VERTEX
  5
fc5
  8
Layer_0
  10
290.31366
  20
78.423706
  0
VERTEX
  5
fc6
  8
Layer_0
  10
289.50836
  20
78.304016
  0
VERTEX
  5
fc7
  8
Layer_0
  10
288.6987
  20
78.210632
  0
VERTEX
  5
fc8
  8
Layer_0
  10
287.88531
  20
78.143738
  0
VERTEX
  5
fc9
  8
Layer_0
  10
287.06885
  20
78.103455
  0
VERTEX
  5
fca
  8
Layer_0
  10
286.24994
  20
78.090027
  0
VERTEX
  5
fcb
  8
Layer_0
  10
286.18622
  20
78.063751
  0
VERTEX
  5
fcc
  8
Layer_0
  10
286.15997
  20
78
  0
VERTEX
  5
fcd
  8
Layer_0
  10
286.15997
  20
75
  0
VERTEX
  5
fce
  8
Layer_0
  10
286.18622
  20
74.936279
  0
VERTEX
  5
fcf
  8
Layer_0
  10
286.24994
  20
74.910034
  0
VERTEX
  5
fd0
  8
Layer_0
  10
287.17337
  20
74.925201
  0
VERTEX
  5
fd1
  8
Layer_0
  10
288.09406
  20
74.970612
  0
VERTEX
  5
fd2
  8
Layer_0
  10
289.01126
  20
75.046082
  0
VERTEX
  5
fd3
  8
Layer_0
  10
289.92429
  20
75.151367
  0
VERTEX
  5
fd4
  8
Layer_0
  10
290.83243
  20
75.286285
  0
VERTEX
  5
fd5
  8
Layer_0
  10
291.73495
  20
75.450714
  0
VERTEX
  5
fd6
  8
Layer_0
  10
292.63116
  20
75.644379
  0
VERTEX
  5
fd7
  8
Layer_0
  10
293.52032
  20
75.867126
  0
VERTEX
  5
fd8
  8
Layer_0
  10
294.40176
  20
76.118774
  0
VERTEX
  5
fd9
  8
Layer_0
  10
295.27475
  20
76.399109
  0
VERTEX
  5
fda
  8
Layer_0
  10
296.13855
  20
76.707947
  0
VERTEX
  5
fdb
  8
Layer_0
  10
296.99243
  20
77.045105
  0
VERTEX
  5
fdc
  8
Layer_0
  10
297.83575
  20
77.4104
  0
VERTEX
  5
fdd
  8
Layer_0
  10
298.66776
  20
77.803589
  0
VERTEX
  5
fde
  8
Layer_0
  10
299.48773
  20
78.224548
  0
VERTEX
  5
fdf
  8
Layer_0
  10
300.29495
  20
78.673035
  0
VERTEX
  5
fe0
  8
Layer_0
  10
301.08698
  20
79.14798
  0
VERTEX
  5
fe1
  8
Layer_0
  10
301.86151
  20
79.647705
  0
VERTEX
  5
fe2
  8
Layer_0
  10
302.61807
  20
80.171692
  0
VERTEX
  5
fe3
  8
Layer_0
  10
303.35611
  20
80.719482
  0
VERTEX
  5
fe4
  8
Layer_0
  10
304.07504
  20
81.290466
  0
VERTEX
  5
fe5
  8
Layer_0
  10
304.77444
  20
81.884125
  0
VERTEX
  5
fe6
  8
Layer_0
  10
305.45374
  20
82.5
  0
VERTEX
  5
fe7
  8
Layer_0
  10
306.11243
  20
83.137512
  0
VERTEX
  5
fe8
  8
Layer_0
  10
306.74994
  20
83.796204
  0
VERTEX
  5
fe9
  8
Layer_0
  10
307.36584
  20
84.475494
  0
VERTEX
  5
fea
  8
Layer_0
  10
307.95953
  20
85.174896
  0
VERTEX
  5
feb
  8
Layer_0
  10
308.53052
  20
85.893829
  0
VERTEX
  5
fec
  8
Layer_0
  10
309.07831
  20
86.631866
  0
VERTEX
  5
fed
  8
Layer_0
  10
309.60229
  20
87.388428
  0
VERTEX
  5
fee
  8
Layer_0
  10
310.10202
  20
88.162964
  0
VERTEX
  5
fef
  8
Layer_0
  10
310.57697
  20
88.955017
  0
VERTEX
  5
ff0
  8
Layer_0
  10
311.02545
  20
89.762268
  0
VERTEX
  5
ff1
  8
Layer_0
  10
311.44635
  20
90.582214
  0
VERTEX
  5
ff2
  8
Layer_0
  10
311.83957
  20
91.414246
  0
VERTEX
  5
ff3
  8
Layer_0
  10
312.20483
  20
92.257538
  0
VERTEX
  5
ff4
  8
Layer_0
  10
312.54202
  20
93.11145
  0
VERTEX
  5
ff5
  8
Layer_0
  10
312.85086
  20
93.97522
  0
VERTEX
  5
ff6
  8
Layer_0
  10
313.13123
  20
94.848206
  0
VERTEX
  5
ff7
  8
Layer_0
  10
313.38284
  20
95.729645
  0
VERTEX
  5
ff8
  8
Layer_0
  10
313.60562
  20
96.618835
  0
VERTEX
  5
ff9
  8
Layer_0
  10
313.79929
  20
97.515015
  0
VERTEX
  5
ffa
  8
Layer_0
  10
313.96371
  20
98.417542
  0
VERTEX
  5
ffb
  8
Layer_0
  10
314.09863
  20
99.325684
  0
VERTEX
  5
ffc
  8
Layer_0
  10
314.20392
  20
100.23871
  0
VERTEX
  5
ffd
  8
Layer_0
  10
314.27939
  20
101.15591
  0
VERTEX
  5
ffe
  8
Layer_0
  10
314.3248
  20
102.0766
  0
VERTEX
  5
fff
  8
Layer_0
  10
314.33997
  20
103
  0
SEQEND
  0
POLYLINE
  5
1001
  8
Layer_0
  62
0
  70
1
  66
1
  10
0
  20
0
  30
0
  0
VERTEX
  5
1001
  8
Layer_0
  10
307.33997
  20
102
  0
VERTEX
  5
1002
  8
Layer_0
  10
307.34003
  20
242
  0
VERTEX
  5
1003
  8
Layer_0
  10
307.29562
  20
243.35161
  0
VERTEX
  5
1004
  8
Layer_0
  10
307.16318
  20
244.69312
  0
VERTEX
  5
1005
  8
Layer_0
  10
306.94379
  20
246.02032
  0
VERTEX
  5
1006
  8
Layer_0
  10
306.63855
  20
247.32903
  0
VERTEX
  5
1007
  8
Layer_0
  10
306.24854
  20
248.61504
  0
VERTEX
  5
1008
  8
Layer_0
  10
305.7749
  20
249.87419
  0
VERTEX
  5
1009
  8
Layer_0
  10
305.21869
  20
251.10226
  0
VERTEX
  5
100a
  8
Layer_0
  10
304.58105
  20
252.29504
  0
VERTEX
  5
100b
  8
Layer_0
  10
303.86682
  20
253.44337
  0
VERTEX
  5
100c
  8
Layer_0
  10
303.08139
  20
254.53888
  0
VERTEX
  5
100d
  8
Layer_0
  10
302.22784
  20
255.57848
  0
VERTEX
  5
100e
  8
Layer_0
  10
301.30917
  20
256.55911
  0
VERTEX
  5
100f
  8
Layer_0
  10
300.32849
  20
257.47775
  0
VERTEX
  5
1010
  8
Layer_0
  10
299.28888
  20
258.3313
  0
VERTEX
  5
1011
  8
Layer_0
  10
298.19339
  20
259.11676
  0
VERTEX
  5
1012
  8
Layer_0
  10
297.04504
  20
259.83099
  0
VERTEX
  5
1013
  8
Layer_0
  10
295.85226
  20
260.46866
  0
VERTEX
  5
1014
  8
Layer_0
  10
294.62421
  20
261.02487
  0
VERTEX
  5
1015
  8
Layer_0
  10
293.36505
  20
261.4985
  0
VERTEX
  5
1016
  8
Layer_0
  10
292.07904
  20
261.88852
  0
VERTEX
  5
1017
  8
Layer_0
  10
290.77036
  20
262.19379
  0
VERTEX
  5
1018
  8
Layer_0
  10
289.44318
  20
262.41318
  0
VERTEX
  5
1019
  8
Layer_0
  10
288.10168
  20
262.54562
  0
VERTEX
  5
101a
  8
Layer_0
  10
286.75006
  20
262.59003
  0
VERTEX
  5
101b
  8
Layer_0
  10
286.68628
  20
262.56375
  0
VERTEX
  5
101c
  8
Layer_0
  10
286.66003
  20
262.5
  0
VERTEX
  5
101d
  8
Layer_0
  10
286.66003
  20
259.5
  0
VERTEX
  5
101e
  8
Layer_0
  10
286.68628
  20
259.43628
  0
VERTEX
  5
101f
  8
Layer_0
  10
286.75006
  20
259.41003
  0
VERTEX
  5
1020
  8
Layer_0
  10
287.89291
  20
259.3725
  0
VERTEX
  5
1021
  8
Layer_0
  10
289.02722
  20
259.26053
  0
VERTEX
  5
1022
  8
Layer_0
  10
290.14938
  20
259.07507
  0
VERTEX
  5
1023
  8
Layer_0
  10
291.25592
  20
258.81702
  0
VERTEX
  5
1024
  8
Layer_0
  10
292.34326
  20
258.48737
  0
VERTEX
  5
1025
  8
Layer_0
  10
293.40793
  20
258.08701
  0
VERTEX
  5
1026
  8
Layer_0
  10
294.44635
  20
257.61691
  0
VERTEX
  5
1027
  8
Layer_0
  10
295.45505
  20
257.078
  0
VERTEX
  5
1028
  8
Layer_0
  10
296.42618
  20
256.47375
  0
VERTEX
  5
1029
  8
Layer_0
  10
297.35254
  20
255.80942
  0
VERTEX
  5
102a
  8
Layer_0
  10
298.23157
  20
255.08755
  0
VERTEX
  5
102b
  8
Layer_0
  10
299.06079
  20
254.31076
  0
VERTEX
  5
102c
  8
Layer_0
  10
299.83762
  20
253.48154
  0
VERTEX
  5
102d
  8
Layer_0
  10
300.55945
  20
252.60248
  0
VERTEX
  5
102e
  8
Layer_0
  10
301.22379
  20
251.67612
  0
VERTEX
  5
102f
  8
Layer_0
  10
301.82803
  20
250.70502
  0
VERTEX
  5
1030
  8
Layer_0
  10
302.36694
  20
249.69635
  0
VERTEX
  5
1031
  8
Layer_0
  10
302.83704
  20
248.65793
  0
VERTEX
  5
1032
  8
Layer_0
  10
303.23737
  20
247.59326
  0
VERTEX
  5
1033
  8
Layer_0
  10
303.56705
  20
246.50591
  0
VERTEX
  5
1034
  8
Layer_0
  10
303.82507
  20
245.39938
  0
VERTEX
  5
1035
  8
Layer_0
  10
304.01056
  20
244.27719
  0
VERTEX
  5
1036
  8
Layer_0
  10
304.1225
  20
243.14288
  0
VERTEX
  5
1037
  8
Layer_0
  10
304.16003
  20
242
  0
VERTEX
  5
1038
  8
Layer_0
  10
304.15997
  20
102
  0
VERTEX
  5
1039
  8
Layer_0
  10
304.12244
  20
100.85715
  0
VERTEX
  5
103a
  8
Layer_0
  10
304.0105
  20
99.722839
  0
VERTEX
  5
103b
  8
Layer_0
  10
303.82501
  20
98.600677
  0
VERTEX
  5
103c
  8
Layer_0
  10
303.56699
  20
97.494141
  0
VERTEX
  5
103d
  8
Layer_0
  10
303.2373
  20
96.406799
  0
VERTEX
  5
103e
  8
Layer_0
  10
302.83698
  20
95.342133
  0
VERTEX
  5
103f
  8
Layer_0
  10
302.36688
  20
94.303711
  0
VERTEX
  5
1040
  8
Layer_0
  10
301.82797
  20
93.295044
  0
VERTEX
  5
1041
  8
Layer_0
  10
301.22372
  20
92.323914
  0
VERTEX
  5
1042
  8
Layer_0
  10
300.55939
  20
91.397552
  0
VERTEX
  5
1043
  8
Layer_0
  10
299.83752
  20
90.518433
  0
VERTEX
  5
1044
  8
Layer_0
  10
299.0607
  20
89.68924
  0
VERTEX
  5
1045
  8
Layer_0
  10
298.23151
  20
88.912415
  0
VERTEX
  5
1046
  8
Layer_0
  10
297.35242
  20
88.190582
  0
VERTEX
  5
1047
  8
Layer_0
  10
296.42606
  20
87.526245
  0
VERTEX
  5
1048
  8
Layer_0
  10
295.45496
  20
86.921997
  0
VERTEX
  5
1049
  8
Layer_0
  10
294.44629
  20
86.383118
  0
VERTEX
  5
104a
  8
Layer_0
  10
293.40787
  20
85.913025
  0
VERTEX
  5
104b
  8
Layer_0
  10
292.3432
  20
85.512695
  0
VERTEX
  5
104c
  8
Layer_0
  10
291.25586
  20
85.183014
  0
VERTEX
  5
104d
  8
Layer_0
  10
290.14932
  20
84.924988
  0
VERTEX
  5
104e
  8
Layer_0
  10
289.02716
  20
84.739502
  0
VERTEX
  5
104f
  8
Layer_0
  10
287.89285
  20
84.627563
  0
VERTEX
  5
1050
  8
Layer_0
  10
286.74994
  20
84.590027
  0
VERTEX
  5
1051
  8
Layer_0
  10
286.68622
  20
84.563751
  0
VERTEX
  5
1052
  8
Layer_0
  10
286.65997
  20
84.5
  0
VERTEX
  5
1053
  8
Layer_0
  10
286.65997
  20
81.5
  0
VERTEX
  5
1054
  8
Layer_0
  10
286.68622
  20
81.436279
  0
VERTEX
  5
1055
  8
Layer_0
  10
286.74994
  20
81.410034
  0
VERTEX
  5
1056
  8
Layer_0
  10
288.10156
  20
81.454437
  0
VERTEX
  5
1057
  8
Layer_0
  10
289.44305
  20
81.586884
  0
VERTEX
  5
1058
  8
Layer_0
  10
290.77023
  20
81.806274
  0
VERTEX
  5
1059
  8
Layer_0
  10
292.07895
  20
82.111511
  0
VERTEX
  5
105a
  8
Layer_0
  10
293.36499
  20
82.501526
  0
VERTEX
  5
105b
  8
Layer_0
  10
294.62411
  20
82.975159
  0
VERTEX
  5
105c
  8
Layer_0
  10
295.85217
  20
83.531372
  0
VERTEX
  5
105d
  8
Layer_0
  10
297.04495
  20
84.169006
  0
VERTEX
  5
105e
  8
Layer_0
  10
298.1933
  20
84.88324
  0
VERTEX
  5
105f
  8
Layer_0
  10
299.28882
  20
85.668671
  0
VERTEX
  5
1060
  8
Layer_0
  10
300.32843
  20
86.522217
  0
VERTEX
  5
1061
  8
Layer_0
  10
301.30908
  20
87.440887
  0
VERTEX
  5
1062
  8
Layer_0
  10
302.22772
  20
88.42157
  0
VERTEX
  5
1063
  8
Layer_0
  10
303.0813
  20
89.461182
  0
VERTEX
  5
1064
  8
Layer_0
  10
303.86673
  20
90.556671
  0
VERTEX
  5
1065
  8
Layer_0
  10
304.58096
  20
91.705017
  0
VERTEX
  5
1066
  8
Layer_0
  10
305.2186
  20
92.897797
  0
VERTEX
  5
1067
  8
Layer_0
  10
305.77481
  20
94.125854
  0
VERTEX
  5
1068
  8
Layer_0
  10
306.24847
  20
95.38501
  0
VERTEX
  5
1069
  8
Layer_0
  10
306.63849
  20
96.671021
  0
VERTEX
  5
106a
  8
Layer_0
  10
306.94373
  20
97.979736
  0
VERTEX
  5
106b
  8
Layer_0
  10
307.16312
  20
99.306946
  0
VERTEX
  5
106c
  8
Layer_0
  10
307.29556
  20
100.64841
  0
VERTEX
  5
106d
  8
Layer_0
  10
307.33997
  20
102
  0
SEQEND
  0
POLYLINE
  5
106f
  8
Layer_0
  62
0
  70
1
  66
1
  10
0
  20
0
  30
0
  0
VERTEX
  5
106f
  8
Layer_0
  10
317.9101
  20
247.00009
  0
VERTEX
  5
1070
  8
Layer_0
  10
317.90988
  20
107.00009
  0
VERTEX
  5
1071
  8
Layer_0
  10
317.92502
  20
106.07666
  0
VERTEX
  5
1072
  8
Layer_0
  10
317.97043
  20
105.15601
  0
VERTEX
  5
1073
  8
Layer_0
  10
318.0459
  20
104.23877
  0
VERTEX
  5
1074
  8
Layer_0
  10
318.15118
  20
103.32574
  0
VERTEX
  5
1075
  8
Layer_0
  10
318.2861
  20
102.4176
  0
VERTEX
  5
1076
  8
Layer_0
  10
318.45053
  20
101.51508
  0
VERTEX
  5
1077
  8
Layer_0
  10
318.6442
  20
100.61884
  0
VERTEX
  5
1078
  8
Layer_0
  10
318.86697
  20
99.729675
  0
VERTEX
  5
1079
  8
Layer_0
  10
319.11859
  20
98.848267
  0
VERTEX
  5
107a
  8
Layer_0
  10
319.39896
  20
97.975281
  0
VERTEX
  5
107b
  8
Layer_0
  10
319.70779
  20
97.111511
  0
VERTEX
  5
107c
  8
Layer_0
  10
320.04498
  20
96.257568
  0
VERTEX
  5
107d
  8
Layer_0
  10
320.41025
  20
95.414246
  0
VERTEX
  5
107e
  8
Layer_0
  10
320.80347
  20
94.582245
  0
VERTEX
  5
107f
  8
Layer_0
  10
321.22437
  20
93.762268
  0
VERTEX
  5
1080
  8
Layer_0
  10
321.67285
  20
92.955048
  0
VERTEX
  5
1081
  8
Layer_0
  10
322.1478
  20
92.163025
  0
VERTEX
  5
1082
  8
Layer_0
  10
322.64752
  20
91.388489
  0
VERTEX
  5
1083
  8
Layer_0
  10
323.17151
  20
90.631927
  0
VERTEX
  5
1084
  8
Layer_0
  10
323.7193
  20
89.89389
  0
VERTEX
  5
1085
  8
Layer_0
  10
324.29028
  20
89.174957
  0
VERTEX
  5
1086
  8
Layer_0
  10
324.88397
  20
88.475555
  0
VERTEX
  5
1087
  8
Layer_0
  10
325.49988
  20
87.796265
  0
VERTEX
  5
1088
  8
Layer_0
  10
326.13736
  20
87.137573
  0
VERTEX
  5
1089
  8
Layer_0
  10
326.79602
  20
86.500061
  0
VERTEX
  5
108a
  8
Layer_0
  10
327.47531
  20
85.884155
  0
VERTEX
  5
108b
  8
Layer_0
  10
328.17471
  20
85.290466
  0
VERTEX
  5
108c
  8
Layer_0
  10
328.89365
  20
84.719513
  0
VERTEX
  5
108d
  8
Layer_0
  10
329.63168
  20
84.171753
  0
VERTEX
  5
108e
  8
Layer_0
  10
330.38824
  20
83.647766
  0
VERTEX
  5
108f
  8
Layer_0
  10
331.16278
  20
83.14801
  0
VERTEX
  5
1090
  8
Layer_0
  10
331.95483
  20
82.673065
  0
VERTEX
  5
1091
  8
Layer_0
  10
332.76208
  20
82.224548
  0
VERTEX
  5
1092
  8
Layer_0
  10
333.58206
  20
81.80365
  0
VERTEX
  5
1093
  8
Layer_0
  10
334.41406
  20
81.410461
  0
VERTEX
  5
1094
  8
Layer_0
  10
335.25739
  20
81.045166
  0
VERTEX
  5
1095
  8
Layer_0
  10
336.11127
  20
80.708008
  0
VERTEX
  5
1096
  8
Layer_0
  10
336.97507
  20
80.39917
  0
VERTEX
  5
1097
  8
Layer_0
  10
337.84805
  20
80.118835
  0
VERTEX
  5
1098
  8
Layer_0
  10
338.72949
  20
79.867188
  0
VERTEX
  5
1099
  8
Layer_0
  10
339.61865
  20
79.644409
  0
VERTEX
  5
109a
  8
Layer_0
  10
340.51486
  20
79.450745
  0
VERTEX
  5
109b
  8
Layer_0
  10
341.41739
  20
79.286316
  0
VERTEX
  5
109c
  8
Layer_0
  10
342.32553
  20
79.151367
  0
VERTEX
  5
109d
  8
Layer_0
  10
343.23856
  20
79.046082
  0
VERTEX
  5
109e
  8
Layer_0
  10
344.15576
  20
78.970612
  0
VERTEX
  5
109f
  8
Layer_0
  10
345.07642
  20
78.925201
  0
VERTEX
  5
10a0
  8
Layer_0
  10
345.99985
  20
78.910004
  0
VERTEX
  5
10a1
  8
Layer_0
  10
346.0636
  20
78.936279
  0
VERTEX
  5
10a2
  8
Layer_0
  10
346.08984
  20
79.000031
  0
VERTEX
  5
10a3
  8
Layer_0
  10
346.08984
  20
82.000031
  0
VERTEX
  5
10a4
  8
Layer_0
  10
346.0636
  20
82.063782
  0
VERTEX
  5
10a5
  8
Layer_0
  10
345.99985
  20
82.089996
  0
VERTEX
  5
10a6
  8
Layer_0
  10
345.18097
  20
82.103455
  0
VERTEX
  5
10a7
  8
Layer_0
  10
344.3645
  20
82.143738
  0
VERTEX
  5
10a8
  8
Layer_0
  10
343.55112
  20
82.210632
  0
VERTEX
  5
10a9
  8
Layer_0
  10
342.74146
  20
82.304016
  0
VERTEX
  5
10aa
  8
Layer_0
  10
341.93616
  20
82.423706
  0
VERTEX
  5
10ab
  8
Layer_0
  10
341.1358
  20
82.569489
  0
VERTEX
  5
10ac
  8
Layer_0
  10
340.34109
  20
82.741241
  0
VERTEX
  5
10ad
  8
Layer_0
  10
339.55261
  20
82.938782
  0
VERTEX
  5
10ae
  8
Layer_0
  10
338.771
  20
83.161957
  0
VERTEX
  5
10af
  8
Layer_0
  10
337.99689
  20
83.410553
  0
VERTEX
  5
10b0
  8
Layer_0
  10
337.2309
  20
83.684418
  0
VERTEX
  5
10b1
  8
Layer_0
  10
336.47363
  20
83.983429
  0
VERTEX
  5
10b2
  8
Layer_0
  10
335.7258
  20
84.307373
  0
VERTEX
  5
10b3
  8
Layer_0
  10
334.98795
  20
84.656067
  0
VERTEX
  5
10b4
  8
Layer_0
  10
334.2608
  20
85.029358
  0
VERTEX
  5
10b5
  8
Layer_0
  10
333.54486
  20
85.427094
  0
VERTEX
  5
10b6
  8
Layer_0
  10
332.84241
  20
85.848267
  0
VERTEX
  5
10b7
  8
Layer_0
  10
332.15549
  20
86.291443
  0
VERTEX
  5
10b8
  8
Layer_0
  10
331.48456
  20
86.756134
  0
VERTEX
  5
10b9
  8
Layer_0
  10
330.83008
  20
87.241852
  0
VERTEX
  5
10ba
  8
Layer_0
  10
330.1925
  20
87.748169
  0
VERTEX
  5
10bb
  8
Layer_0
  10
329.57233
  20
88.274628
  0
VERTEX
  5
10bc
  8
Layer_0
  10
328.96994
  20
88.82074
  0
VERTEX
  5
10bd
  8
Layer_0
  10
328.38586
  20
89.386078
  0
VERTEX
  5
10be
  8
Layer_0
  10
327.82053
  20
89.970184
  0
VERTEX
  5
10bf
  8
Layer_0
  10
327.27441
  20
90.572571
  0
VERTEX
  5
10c0
  8
Layer_0
  10
326.74792
  20
91.192749
  0
VERTEX
  5
10c1
  8
Layer_0
  10
326.24161
  20
91.830322
  0
VERTEX
  5
10c2
  8
Layer_0
  10
325.75589
  20
92.484802
  0
VERTEX
  5
10c3
  8
Layer_0
  10
325.2912
  20
93.155731
  0
VERTEX
  5
10c4
  8
Layer_0
  10
324.84802
  20
93.842651
  0
VERTEX
  5
10c5
  8
Layer_0
  10
324.42685
  20
94.545074
  0
VERTEX
  5
10c6
  8
Layer_0
  10
324.02914
  20
95.260986
  0
VERTEX
  5
10c7
  8
Layer_0
  10
323.65588
  20
95.988159
  0
VERTEX
  5
10c8
  8
Layer_0
  10
323.30719
  20
96.725983
  0
VERTEX
  5
10c9
  8
Layer_0
  10
322.98325
  20
97.473816
  0
VERTEX
  5
10ca
  8
Layer_0
  10
322.68423
  20
98.231079
  0
VERTEX
  5
10cb
  8
Layer_0
  10
322.41037
  20
98.99707
  0
VERTEX
  5
10cc
  8
Layer_0
  10
322.16177
  20
99.771179
  0
VERTEX
  5
10cd
  8
Layer_0
  10
321.93863
  20
100.5528
  0
VERTEX
  5
10ce
  8
Layer_0
  10
321.74112
  20
101.34128
  0
VERTEX
  5
10cf
  8
Layer_0
  10
321.56937
  20
102.13599
  0
VERTEX
  5
10d0
  8
Layer_0
  10
321.42358
  20
102.93634
  0
VERTEX
  5
10d1
  8
Layer_0
  10
321.30389
  20
103.74164
  0
VERTEX
  5
10d2
  8
Layer_0
  10
321.21051
  20
104.5513
  0
VERTEX
  5
10d3
  8
Layer_0
  10
321.14362
  20
105.36469
  0
VERTEX
  5
10d4
  8
Layer_0
  10
321.10333
  20
106.18115
  0
VERTEX
  5
10d5
  8
Layer_0
  10
321.08987
  20
107.00009
  0
VERTEX
  5
10d6
  8
Layer_0
  10
321.09009
  20
247.00009
  0
VERTEX
  5
10d7
  8
Layer_0
  10
321.10352
  20
247.81902
  0
VERTEX
  5
10d8
  8
Layer_0
  10
321.1438
  20
248.63547
  0
VERTEX
  5
10d9
  8
Layer_0
  10
321.21069
  20
249.44882
  0
VERTEX
  5
10da
  8
Layer_0
  10
321.30408
  20
250.25848
  0
VERTEX
  5
10db
  8
Layer_0
  10
321.42377
  20
251.06378
  0
VERTEX
  5
10dc
  8
Layer_0
  10
321.56955
  20
251.86412
  0
VERTEX
  5
10dd
  8
Layer_0
  10
321.7413
  20
252.65884
  0
VERTEX
  5
10de
  8
Layer_0
  10
321.93884
  20
253.44733
  0
VERTEX
  5
10df
  8
Layer_0
  10
322.16202
  20
254.22894
  0
VERTEX
  5
10e0
  8
Layer_0
  10
322.41061
  20
255.00305
  0
VERTEX
  5
10e1
  8
Layer_0
  10
322.68448
  20
255.76904
  0
VERTEX
  5
10e2
  8
Layer_0
  10
322.98349
  20
256.52628
  0
VERTEX
  5
10e3
  8
Layer_0
  10
323.30743
  20
257.27411
  0
VERTEX
  5
10e4
  8
Layer_0
  10
323.65613
  20
258.01196
  0
VERTEX
  5
10e5
  8
Layer_0
  10
324.02939
  20
258.73914
  0
VERTEX
  5
10e6
  8
Layer_0
  10
324.42709
  20
259.45505
  0
VERTEX
  5
10e7
  8
Layer_0
  10
324.84827
  20
260.1575
  0
VERTEX
  5
10e8
  8
Layer_0
  10
325.29144
  20
260.84445
  0
VERTEX
  5
10e9
  8
Layer_0
  10
325.75613
  20
261.51538
  0
VERTEX
  5
10ea
  8
Layer_0
  10
326.24185
  20
262.16986
  0
VERTEX
  5
10eb
  8
Layer_0
  10
326.74817
  20
262.80743
  0
VERTEX
  5
10ec
  8
Layer_0
  10
327.27466
  20
263.42761
  0
VERTEX
  5
10ed
  8
Layer_0
  10
327.82077
  20
264.03
  0
VERTEX
  5
10ee
  8
Layer_0
  10
328.38611
  20
264.61407
  0
VERTEX
  5
10ef
  8
Layer_0
  10
328.97018
  20
265.17941
  0
VERTEX
  5
10f0
  8
Layer_0
  10
329.57257
  20
265.72552
  0
VERTEX
  5
10f1
  8
Layer_0
  10
330.19275
  20
266.25198
  0
VERTEX
  5
10f2
  8
Layer_0
  10
330.83032
  20
266.7583
  0
VERTEX
  5
10f3
  8
Layer_0
  10
331.4848
  20
267.24402
  0
VERTEX
  5
10f4
  8
Layer_0
  10
332.15573
  20
267.70871
  0
VERTEX
  5
10f5
  8
Layer_0
  10
332.84265
  20
268.15189
  0
VERTEX
  5
10f6
  8
Layer_0
  10
333.5451
  20
268.57309
  0
VERTEX
  5
10f7
  8
Layer_0
  10
334.26105
  20
268.97083
  0
VERTEX
  5
10f8
  8
Layer_0
  10
334.98819
  20
269.34409
  0
VERTEX
  5
10f9
  8
Layer_0
  10
335.72604
  20
269.69278
  0
VERTEX
  5
10fa
  8
Layer_0
  10
336.47388
  20
270.01669
  0
VERTEX
  5
10fb
  8
Layer_0
  10
337.23114
  20
270.31567
  0
VERTEX
  5
10fc
  8
Layer_0
  10
337.99713
  20
270.58954
  0
VERTEX
  5
10fd
  8
Layer_0
  10
338.77124
  20
270.83813
  0
VERTEX
  5
10fe
  8
Layer_0
  10
339.55286
  20
271.06128
  0
VERTEX
  5
10ff
  8
Layer_0
  10
340.34134
  20
271.25882
  0
VERTEX
  5
1100
  8
Layer_0
  10
341.13605
  20
271.43054
  0
VERTEX
  5
1101
  8
Layer_0
  10
341.9364
  20
271.57635
  0
VERTEX
  5
1102
  8
Layer_0
  10
342.7417
  20
271.69601
  0
VERTEX
  5
1103
  8
Layer_0
  10
343.55136
  20
271.78937
  0
VERTEX
  5
1104
  8
Layer_0
  10
344.36475
  20
271.85629
  0
VERTEX
  5
1105
  8
Layer_0
  10
345.18121
  20
271.89655
  0
VERTEX
  5
1106
  8
Layer_0
  10
346.00012
  20
271.91
  0
VERTEX
  5
1107
  8
Layer_0
  10
346.06387
  20
271.93628
  0
VERTEX
  5
1108
  8
Layer_0
  10
346.09012
  20
272.00003
  0
VERTEX
  5
1109
  8
Layer_0
  10
346.09012
  20
275.00003
  0
VERTEX
  5
110a
  8
Layer_0
  10
346.06387
  20
275.06375
  0
VERTEX
  5
110b
  8
Layer_0
  10
346.00012
  20
275.09
  0
VERTEX
  5
110c
  8
Layer_0
  10
345.07669
  20
275.07483
  0
VERTEX
  5
110d
  8
Layer_0
  10
344.15601
  20
275.02942
  0
VERTEX
  5
110e
  8
Layer_0
  10
343.2388
  20
274.95398
  0
VERTEX
  5
110f
  8
Layer_0
  10
342.32578
  20
274.84869
  0
VERTEX
  5
1110
  8
Layer_0
  10
341.41763
  20
274.71375
  0
VERTEX
  5
1111
  8
Layer_0
  10
340.51514
  20
274.54935
  0
VERTEX
  5
1112
  8
Layer_0
  10
339.6189
  20
274.35565
  0
VERTEX
  5
1113
  8
Layer_0
  10
338.72974
  20
274.1329
  0
VERTEX
  5
1114
  8
Layer_0
  10
337.84833
  20
273.88129
  0
VERTEX
  5
1115
  8
Layer_0
  10
336.97534
  20
273.60095
  0
VERTEX
  5
1116
  8
Layer_0
  10
336.11157
  20
273.29211
  0
VERTEX
  5
1117
  8
Layer_0
  10
335.25763
  20
272.95496
  0
VERTEX
  5
1118
  8
Layer_0
  10
334.41431
  20
272.58966
  0
VERTEX
  5
1119
  8
Layer_0
  10
333.58231
  20
272.19647
  0
VERTEX
  5
111a
  8
Layer_0
  10
332.76233
  20
271.77554
  0
VERTEX
  5
111b
  8
Layer_0
  10
331.95511
  20
271.32706
  0
VERTEX
  5
111c
  8
Layer_0
  10
331.16309
  20
270.85211
  0
VERTEX
  5
111d
  8
Layer_0
  10
330.38855
  20
270.35239
  0
VERTEX
  5
111e
  8
Layer_0
  10
329.63199
  20
269.82837
  0
VERTEX
  5
111f
  8
Layer_0
  10
328.89395
  20
269.28064
  0
VERTEX
  5
1120
  8
Layer_0
  10
328.17502
  20
268.70966
  0
VERTEX
  5
1121
  8
Layer_0
  10
327.47562
  20
268.11597
  0
VERTEX
  5
1122
  8
Layer_0
  10
326.79633
  20
267.50012
  0
VERTEX
  5
1123
  8
Layer_0
  10
326.13763
  20
266.86258
  0
VERTEX
  5
1124
  8
Layer_0
  10
325.50012
  20
266.20392
  0
VERTEX
  5
1125
  8
Layer_0
  10
324.88422
  20
265.5246
  0
VERTEX
  5
1126
  8
Layer_0
  10
324.29053
  20
264.82523
  0
VERTEX
  5
1127
  8
Layer_0
  10
323.71954
  20
264.10626
  0
VERTEX
  5
1128
  8
Layer_0
  10
323.17175
  20
263.36826
  0
VERTEX
  5
1129
  8
Layer_0
  10
322.64777
  20
262.61169
  0
VERTEX
  5
112a
  8
Layer_0
  10
322.14804
  20
261.83713
  0
VERTEX
  5
112b
  8
Layer_0
  10
321.6731
  20
261.04507
  0
VERTEX
  5
112c
  8
Layer_0
  10
321.22461
  20
260.23785
  0
VERTEX
  5
112d
  8
Layer_0
  10
320.80371
  20
259.41785
  0
VERTEX
  5
112e
  8
Layer_0
  10
320.41049
  20
258.58588
  0
VERTEX
  5
112f
  8
Layer_0
  10
320.04523
  20
257.74255
  0
VERTEX
  5
1130
  8
Layer_0
  10
319.70804
  20
256.88864
  0
VERTEX
  5
1131
  8
Layer_0
  10
319.3992
  20
256.02484
  0
VERTEX
  5
1132
  8
Layer_0
  10
319.11884
  20
255.15187
  0
VERTEX
  5
1133
  8
Layer_0
  10
318.86722
  20
254.27045
  0
VERTEX
  5
1134
  8
Layer_0
  10
318.64444
  20
253.38127
  0
VERTEX
  5
1135
  8
Layer_0
  10
318.45078
  20
252.48505
  0
VERTEX
  5
1136
  8
Layer_0
  10
318.28635
  20
251.58252
  0
VERTEX
  5
1137
  8
Layer_0
  10
318.15143
  20
250.67441
  0
VERTEX
  5
1138
  8
Layer_0
  10
318.04614
  20
249.76138
  0
VERTEX
  5
1139
  8
Layer_0
  10
317.97067
  20
248.84418
  0
VERTEX
  5
113a
  8
Layer_0
  10
317.92526
  20
247.92351
  0
VERTEX
  5
113b
  8
Layer_0
  10
317.9101
  20
247.00009
  0
SEQEND
  0
POLYLINE
  5
113d
  8
Layer_0
  62
0
  70
1
  66
1
  10
0
  20
0
  30
0
  0
VERTEX
  5
113d
  8
Layer_0
  10
323.6601
  20
247.00009
  0
VERTEX
  5
113e
  8
Layer_0
  10
323.65988
  20
107.00009
  0
VERTEX
  5
113f
  8
Layer_0
  10
323.70428
  20
105.6485
  0
VERTEX
  5
1140
  8
Layer_0
  10
323.83673
  20
104.30698
  0
VERTEX
  5
1141
  8
Layer_0
  10
324.05612
  20
102.97977
  0
VERTEX
  5
1142
  8
Layer_0
  10
324.36139
  20
101.67108
  0
VERTEX
  5
1143
  8
Layer_0
  10
324.75137
  20
100.38507
  0
VERTEX
  5
1144
  8
Layer_0
  10
325.22504
  20
99.125916
  0
VERTEX
  5
1145
  8
Layer_0
  10
325.78122
  20
97.897827
  0
VERTEX
  5
1146
  8
Layer_0
  10
326.41885
  20
96.705048
  0
VERTEX
  5
1147
  8
Layer_0
  10
327.13309
  20
95.556702
  0
VERTEX
  5
1148
  8
Layer_0
  10
327.91852
  20
94.461212
  0
VERTEX
  5
1149
  8
Layer_0
  10
328.77209
  20
93.421631
  0
VERTEX
  5
114a
  8
Layer_0
  10
329.69073
  20
92.440979
  0
VERTEX
  5
114b
  8
Layer_0
  10
330.67139
  20
91.522339
  0
VERTEX
  5
114c
  8
Layer_0
  10
331.711
  20
90.668762
  0
VERTEX
  5
114d
  8
Layer_0
  10
332.80649
  20
89.883331
  0
VERTEX
  5
114e
  8
Layer_0
  10
333.95483
  20
89.169098
  0
VERTEX
  5
114f
  8
Layer_0
  10
335.14761
  20
88.531464
  0
VERTEX
  5
1150
  8
Layer_0
  10
336.37567
  20
87.97525
  0
VERTEX
  5
1151
  8
Layer_0
  10
337.63483
  20
87.501556
  0
VERTEX
  5
1152
  8
Layer_0
  10
338.92084
  20
87.111542
  0
VERTEX
  5
1153
  8
Layer_0
  10
340.22955
  20
86.806274
  0
VERTEX
  5
1154
  8
Layer_0
  10
341.55676
  20
86.586853
  0
VERTEX
  5
1155
  8
Layer_0
  10
342.89825
  20
86.454407
  0
VERTEX
  5
1156
  8
Layer_0
  10
344.24985
  20
86.410004
  0
VERTEX
  5
1157
  8
Layer_0
  10
344.3136
  20
86.436279
  0
VERTEX
  5
1158
  8
Layer_0
  10
344.33984
  20
86.500031
  0
VERTEX
  5
1159
  8
Layer_0
  10
344.33984
  20
89.500031
  0
VERTEX
  5
115a
  8
Layer_0
  10
344.3136
  20
89.563782
  0
VERTEX
  5
115b
  8
Layer_0
  10
344.24985
  20
89.589996
  0
VERTEX
  5
115c
  8
Layer_0
  10
343.10696
  20
89.627502
  0
VERTEX
  5
115d
  8
Layer_0
  10
341.97266
  20
89.739502
  0
VERTEX
  5
115e
  8
Layer_0
  10
340.85049
  20
89.924988
  0
VERTEX
  5
115f
  8
Layer_0
  10
339.74396
  20
90.183044
  0
VERTEX
  5
1160
  8
Layer_0
  10
338.65662
  20
90.512695
  0
VERTEX
  5
1161
  8
Layer_0
  10
337.59195
  20
90.913086
  0
VERTEX
  5
1162
  8
Layer_0
  10
336.55353
  20
91.383179
  0
VERTEX
  5
1163
  8
Layer_0
  10
335.54486
  20
91.922089
  0
VERTEX
  5
1164
  8
Layer_0
  10
334.57376
  20
92.526337
  0
VERTEX
  5
1165
  8
Layer_0
  10
333.6474
  20
93.190674
  0
VERTEX
  5
1166
  8
Layer_0
  10
332.76831
  20
93.912537
  0
VERTEX
  5
1167
  8
Layer_0
  10
331.93912
  20
94.689331
  0
VERTEX
  5
1168
  8
Layer_0
  10
331.16229
  20
95.518555
  0
VERTEX
  5
1169
  8
Layer_0
  10
330.44046
  20
96.397614
  0
VERTEX
  5
116a
  8
Layer_0
  10
329.77612
  20
97.323975
  0
VERTEX
  5
116b
  8
Layer_0
  10
329.17188
  20
98.295074
  0
VERTEX
  5
116c
  8
Layer_0
  10
328.63297
  20
99.303711
  0
VERTEX
  5
116d
  8
Layer_0
  10
328.1629
  20
100.34216
  0
VERTEX
  5
116e
  8
Layer_0
  10
327.76257
  20
101.40686
  0
VERTEX
  5
116f
  8
Layer_0
  10
327.43289
  20
102.4942
  0
VERTEX
  5
1170
  8
Layer_0
  10
327.17487
  20
103.60074
  0
VERTEX
  5
1171
  8
Layer_0
  10
326.98938
  20
104.7229
  0
VERTEX
  5
1172
  8
Layer_0
  10
326.87738
  20
105.85721
  0
VERTEX
  5
1173
  8
Layer_0
  10
326.83987
  20
107.00009
  0
VERTEX
  5
1174
  8
Layer_0
  10
326.84009
  20
247.00009
  0
VERTEX
  5
1175
  8
Layer_0
  10
326.87762
  20
248.14296
  0
VERTEX
  5
1176
  8
Layer_0
  10
326.98956
  20
249.27725
  0
VERTEX
  5
1177
  8
Layer_0
  10
327.17505
  20
250.39941
  0
VERTEX
  5
1178
  8
Layer_0
  10
327.43307
  20
251.50595
  0
VERTEX
  5
1179
  8
Layer_0
  10
327.76276
  20
252.59331
  0
VERTEX
  5
117a
  8
Layer_0
  10
328.16309
  20
253.65796
  0
VERTEX
  5
117b
  8
Layer_0
  10
328.63318
  20
254.69638
  0
VERTEX
  5
117c
  8
Layer_0
  10
329.17209
  20
255.70505
  0
VERTEX
  5
117d
  8
Layer_0
  10
329.77634
  20
256.67615
  0
VERTEX
  5
117e
  8
Layer_0
  10
330.44067
  20
257.60254
  0
VERTEX
  5
117f
  8
Layer_0
  10
331.16254
  20
258.48163
  0
VERTEX
  5
1180
  8
Layer_0
  10
331.93936
  20
259.31085
  0
VERTEX
  5
1181
  8
Layer_0
  10
332.76855
  20
260.08765
  0
VERTEX
  5
1182
  8
Layer_0
  10
333.64764
  20
260.80951
  0
VERTEX
  5
1183
  8
Layer_0
  10
334.57401
  20
261.47385
  0
VERTEX
  5
1184
  8
Layer_0
  10
335.5451
  20
262.07809
  0
VERTEX
  5
1185
  8
Layer_0
  10
336.55377
  20
262.61697
  0
VERTEX
  5
1186
  8
Layer_0
  10
337.59222
  20
263.08704
  0
VERTEX
  5
1187
  8
Layer_0
  10
338.65686
  20
263.48737
  0
VERTEX
  5
1188
  8
Layer_0
  10
339.74423
  20
263.81702
  0
VERTEX
  5
1189
  8
Layer_0
  10
340.85077
  20
264.07507
  0
VERTEX
  5
118a
  8
Layer_0
  10
341.97293
  20
264.2605
  0
VERTEX
  5
118b
  8
Layer_0
  10
343.10721
  20
264.37247
  0
VERTEX
  5
118c
  8
Layer_0
  10
344.25012
  20
264.41
  0
VERTEX
  5
118d
  8
Layer_0
  10
344.31387
  20
264.43628
  0
VERTEX
  5
118e
  8
Layer_0
  10
344.34012
  20
264.50003
  0
VERTEX
  5
118f
  8
Layer_0
  10
344.34012
  20
267.50003
  0
VERTEX
  5
1190
  8
Layer_0
  10
344.31387
  20
267.56375
  0
VERTEX
  5
1191
  8
Layer_0
  10
344.25012
  20
267.59
  0
VERTEX
  5
1192
  8
Layer_0
  10
342.8985
  20
267.54559
  0
VERTEX
  5
1193
  8
Layer_0
  10
341.55701
  20
267.41315
  0
VERTEX
  5
1194
  8
Layer_0
  10
340.22983
  20
267.19376
  0
VERTEX
  5
1195
  8
Layer_0
  10
338.92111
  20
266.88855
  0
VERTEX
  5
1196
  8
Layer_0
  10
337.63507
  20
266.49854
  0
VERTEX
  5
1197
  8
Layer_0
  10
336.37595
  20
266.0249
  0
VERTEX
  5
1198
  8
Layer_0
  10
335.14789
  20
265.46872
  0
VERTEX
  5
1199
  8
Layer_0
  10
333.95511
  20
264.83109
  0
VERTEX
  5
119a
  8
Layer_0
  10
332.80676
  20
264.11685
  0
VERTEX
  5
119b
  8
Layer_0
  10
331.71124
  20
263.33142
  0
VERTEX
  5
119c
  8
Layer_0
  10
330.67163
  20
262.47784
  0
VERTEX
  5
119d
  8
Layer_0
  10
329.69098
  20
261.5592
  0
VERTEX
  5
119e
  8
Layer_0
  10
328.77234
  20
260.57855
  0
VERTEX
  5
119f
  8
Layer_0
  10
327.91876
  20
259.53894
  0
VERTEX
  5
11a0
  8
Layer_0
  10
327.13333
  20
258.44342
  0
VERTEX
  5
11a1
  8
Layer_0
  10
326.4191
  20
257.29507
  0
VERTEX
  5
11a2
  8
Layer_0
  10
325.78146
  20
256.10229
  0
VERTEX
  5
11a3
  8
Layer_0
  10
325.22525
  20
254.87424
  0
VERTEX
  5
11a4
  8
Layer_0
  10
324.75159
  20
253.61508
  0
VERTEX
  5
11a5
  8
Layer_0
  10
324.36157
  20
252.32907
  0
VERTEX
  5
11a6
  8
Layer_0
  10
324.05634
  20
251.02036
  0
VERTEX
  5
11a7
  8
Layer_0
  10
323.83694
  20
249.69316
  0
VERTEX
  5
11a8
  8
Layer_0
  10
323.7045
  20
248.35168
  0
VERTEX
  5
11a9
  8
Layer_0
  10
323.6601
  20
247.00009
  0
SEQEND
  0
ENDSEC
  0
EOF
