  0
SECTION
  2
HEADER
  0
ENDSEC
  0
SECTION
  2
TABLES
  0
TABLE
  2
LTYPE
 70
5
  0
LTYPE
  2
CONTINUOUS
 70
0
  3
CONTINUOUS
 72
65
 73
0
 40
0.0
  0
LTYPE
  2
DASHED
 70
0
  3
DASHED
 72
65
 73
2
 40
0.75
 49
0.5
 49
-0.25
  0
LTYPE
  2
DOT
 70
0
  3
DOT
 72
65
 73
2
 40
0.25
 49
0.0
 49
-0.25
  0
LTYPE
  2
CENTRE
 70
0
  3
CENTRE
 72
65
 73
4
 40
2.0
 49
1.25
 49
-0.25
 49
0.25
 49
-0.25
  0
LTYPE
  2
DASHDOT
 70
0
  3
DASHDOT
 72
65
 73
4
 40
1.0
 49
0.5
 49
-0.25
 49
0.0
 49
-0.25
  0
ENDTAB
  0
TABLE
  2
LAYER
 70
18
  0
LAYER
  2
0
 70
0
 62
7
  6
CONTINUOUS
  0
LAYER
  2
WHITE
 70
0
 62
7
  6
CONTINUOUS
  0
LAYER
  2
BLUE
 70
0
 62
5
  6
CONTINUOUS
  0
LAYER
  2
GREEN
 70
0
 62
3
  6
CONTINUOUS
  0
LAYER
  2
CYAN
 70
0
 62
4
  6
CONTINUOUS
  0
LAYER
  2
RED
 70
0
 62
1
  6
CONTINUOUS
  0
LAYER
  2
MAGENTA
 70
0
 62
6
  6
CONTINUOUS
  0
LAYER
  2
YELLOW
 70
0
 62
2
  6
CONTINUOUS
  0
LAYER
  2
SHEET
 70
0
 62
3
  6
CONTINUOUS
  0
ENDTAB
  0
ENDSEC
  0
SECTION
  2
BLOCKS
  0
ENDSEC
  0
SECTION
  2
ENTITIES
  0
LINE
  8
CYAN
 10
141.8775765366
 20
450.4939222306
 11
141.2395933673
 21
449.2275842076
  0
ARC
  8
CYAN
 10
139.6427892456
 20
446.8987923915
 40
2.8236598105
 50
55.5623778445
 51
181.0391336535
  0
LINE
  8
CYAN
 10
136.8195938093
 20
446.8475844472
 11
137.3295937583
 21
421.0075870312
  0
ARC
  8
CYAN
 10
132.8112680392
 20
420.9166173217
 40
4.5192413956
 50
291.1192100781
 51
1.1534087296
  0
LINE
  8
CYAN
 10
134.4395940432
 20
416.7009207937
 11
131.1529277052
 21
415.4542542517
  0
ARC
  8
CYAN
 10
131.6699952111
 20
414.0011140852
 40
1.5423926702
 50
109.5869667656
 51
211.8329407562
  0
LINE
  8
CYAN
 10
130.3595944507
 20
413.1875878126
 11
133.0229275177
 21
412.9042545076
  0
LINE
  8
CYAN
 10
133.0229275177
 20
412.9042545076
 11
136.3662605167
 21
414.2642543716
  0
ARC
  8
CYAN
 10
134.2270466203
 20
419.4980828279
 40
5.654130915
 50
292.2312247616
 51
358.6437258733
  0
LINE
  8
CYAN
 10
139.8795934985
 20
419.364253855
 11
140.3895934475
 21
442.710918187
  0
ARC
  8
CYAN
 10
141.7994208927
 20
442.7079871528
 40
1.409830492
 50
46.5162988917
 51
179.8808821269
  0
LINE
  8
CYAN
 10
142.7695932097
 20
443.7309180848
 11
149.2295925637
 21
437.6109186968
  0
ARC
  8
CYAN
 10
153.0865354698
 20
441.7465476055
 40
5.6550362556
 50
226.9969874287
 51
280.9383338107
  0
LINE
  8
CYAN
 10
154.1595920656
 20
436.1942521708
 11
156.5395918276
 21
436.6475854588
  0
ARC
  8
CYAN
 10
157.5702371966
 20
431.0926149161
 40
5.6497723501
 50
61.9967823252
 51
100.5108931381
  0
LINE
  8
CYAN
 10
160.2229247936
 20
436.0809188483
 11
160.7329247426
 21
435.8542522043
  0
ARC
  8
CYAN
 10
162.3086376788
 20
438.8480660618
 40
3.3831631162
 50
242.2411382024
 51
19.7432527091
  0
LINE
  8
CYAN
 10
165.4929242667
 20
439.9909184571
 11
164.4162577077
 21
442.9942514901
  0
LINE
  8
CYAN
 10
164.4162577077
 20
442.9942514901
 11
156.1995918627
 21
440.5009184061
  0
ARC
  8
CYAN
 10
155.9784566715
 20
441.3330947509
 40
0.8610564684
 50
109.6015549336
 51
284.8813638643
  0
LINE
  8
CYAN
 10
155.6895919137
 20
442.1442515751
 11
163.8495910979
 21
444.5809179982
  0
LINE
  8
CYAN
 10
163.8495910979
 20
444.5809179982
 11
163.7362577876
 21
444.7509179851
  0
ARC
  8
CYAN
 10
160.5623071743
 20
443.617897794
 40
3.3701182841
 50
19.6452807764
 51
106.5984397157
  0
LINE
  8
CYAN
 10
159.5995915345
 20
446.8475844423
 11
152.4029255886
 21
444.6942513246
  0
ARC
  8
CYAN
 10
150.4643304104
 20
451.2127885089
 40
6.8006968972
 50
235.6078118776
 51
286.5623342081
  0
LINE
  8
CYAN
 10
146.6229261666
 20
445.6009179006
 11
141.7370125651
 21
448.892480748
  0
LINE
  8
CYAN
 10
141.7370125651
 20
448.892480748
 11
142.7434128709
 21
450.006355092
  0
LINE
  8
CYAN
 10
192.5254288621
 20
448.7791105241
 11
191.6729216715
 21
448.1509176503
  0
ARC
  8
CYAN
 10
189.12035148
 20
446.9610346078
 40
2.8162805679
 50
24.9926249166
 51
149.8022506503
  0
LINE
  8
CYAN
 10
186.6862555042
 20
448.3775842955
 11
173.6529234742
 21
426.0509198615
  0
ARC
  8
CYAN
 10
169.7443349215
 20
428.3748989883
 40
4.547300678
 50
259.9345652724
 51
329.2650158892
  0
LINE
  8
CYAN
 10
168.9495906074
 20
423.8975867442
 11
165.4929242864
 21
424.5209200152
  0
ARC
  8
CYAN
 10
165.1439186556
 20
423.0404914569
 40
1.5210107319
 50
76.7349307573
 51
179.732719564
  0
LINE
  8
CYAN
 10
163.6229244734
 20
423.0475868301
 11
165.7762575914
 21
421.4042536611
  0
LINE
  8
CYAN
 10
165.7762575914
 20
421.4042536611
 11
169.3462572344
 21
420.8375870511
  0
ARC
  8
CYAN
 10
170.2795100454
 20
426.4026177725
 40
5.6427411548
 50
260.4801104254
 51
327.018878499
  0
LINE
  8
CYAN
 10
175.0129233311
 20
423.33092013
 11
187.5929220731
 21
442.994251497
  0
ARC
  8
CYAN
 10
188.7841514622
 20
442.2573936472
 40
1.4007094446
 50
14.0560310075
 51
148.2603398695
  0
LINE
  8
CYAN
 10
190.1429218181
 20
442.59758487
 11
192.4662549191
 21
434.040919059
  0
ARC
  8
CYAN
 10
197.9616579425
 20
435.5723062383
 40
5.704787558
 50
195.5713963504
 51
249.061053284
  0
LINE
  8
CYAN
 10
195.9229212358
 20
430.2442527736
 11
198.1895876758
 21
429.3942528586
  0
ARC
  8
CYAN
 10
196.1903070752
 20
424.1376492567
 40
5.6239669583
 50
30.7631405708
 51
69.1763408796
  0
LINE
  8
CYAN
 10
201.0229207261
 20
427.0142530961
 11
201.3629206921
 21
426.5042531471
  0
ARC
  8
CYAN
 10
204.2529204031
 20
428.3175862991
 40
3.4117847895
 50
212.1062559551
 51
348.503436917
  0
LINE
  8
CYAN
 10
207.5962534013
 20
427.6375863633
 11
208.2195866723
 21
430.6975860573
  0
LINE
  8
CYAN
 10
208.2195866723
 20
430.6975860573
 11
199.9462541663
 21
432.9075858363
  0
ARC
  8
CYAN
 10
200.1778234315
 20
433.7212299497
 40
0.8459557127
 50
78.7458849708
 51
254.1132462589
  0
LINE
  8
CYAN
 10
200.3429207933
 20
434.5509190053
 11
208.5595866385
 21
432.3975858873
  0
LINE
  8
CYAN
 10
208.5595866385
 20
432.3975858873
 11
208.6162533108
 21
432.5675858676
  0
ARC
  8
CYAN
 10
205.2794855548
 20
433.2371410999
 40
3.4032812501
 50
348.653721028
 51
75.6508691892
  0
LINE
  8
CYAN
 10
206.1229202276
 20
436.5342521414
 11
198.8695876204
 21
438.4609186152
  0
ARC
  8
CYAN
 10
200.5643068684
 20
445.0386629167
 40
6.7925542637
 50
204.6940571195
 51
255.5522739548
  0
LINE
  8
CYAN
 10
194.3929214014
 20
442.2009182412
 11
191.9256563448
 21
447.5980605524
  0
LINE
  8
CYAN
 10
191.9256563448
 20
447.5980605524
 11
192.9351372666
 21
448.1557477922
  0
LINE
  8
CYAN
 10
131.3136780686
 20
402.7690473527
 11
129.1249629751
 21
402.5598528109
  0
LINE
  8
CYAN
 10
129.1249629751
 20
402.5598528109
 11
129.7362611735
 21
398.7942559085
  0
ARC
  8
CYAN
 10
131.1385430846
 20
399.0248456291
 40
1.4211144139
 50
189.338086685
 51
320.1516759089
  0
LINE
  8
CYAN
 10
132.2295942575
 20
398.1142559765
 11
146.8495927939
 21
416.3042541555
  0
ARC
  8
CYAN
 10
151.2903521396
 20
412.7409767295
 40
5.6936183207
 50
74.6285469892
 51
141.2563471892
  0
LINE
  8
CYAN
 10
152.7995921989
 20
418.2309206295
 11
156.2562585199
 21
417.2675873925
  0
LINE
  8
CYAN
 10
156.2562585199
 20
417.2675873925
 11
158.1829249941
 21
415.3975875813
  0
ARC
  8
CYAN
 10
156.6517943984
 20
415.5668445009
 40
1.5404573366
 50
252.9293405004
 51
353.6919211488
  0
LINE
  8
CYAN
 10
156.1995918591
 20
414.0942543783
 11
152.856258859
 21
415.1142542766
  0
ARC
  8
CYAN
 10
151.532305196
 20
410.7441260007
 40
4.5662757745
 50
73.1455355623
 51
143.333266131
  0
LINE
  8
CYAN
 10
147.869592691
 20
413.4709211076
 11
132.5695942228
 21
392.674256523
  0
ARC
  8
CYAN
 10
130.2840864749
 20
394.3772538338
 40
2.8502185015
 50
198.6118851043
 51
323.309149289
  0
LINE
  8
CYAN
 10
127.5829280548
 20
393.467589777
 11
125.5429282587
 21
399.6442558264
  0
ARC
  8
CYAN
 10
119.0919189517
 20
397.4815528003
 40
6.8038816464
 50
18.5337443606
 51
69.0957340022
  0
LINE
  8
CYAN
 10
121.5195953277
 20
403.8375887404
 11
114.4929293663
 21
406.5575884674
  0
ARC
  8
CYAN
 10
115.683531728
 20
409.7296830508
 40
3.3881732585
 50
162.4575291862
 51
249.4270617936
  0
LINE
  8
CYAN
 10
112.4529295703
 20
410.7509213814
 11
112.5095962313
 21
410.9209213644
  0
LINE
  8
CYAN
 10
112.5095962313
 20
410.9209213644
 11
120.4429287719
 21
407.9175883312
  0
ARC
  8
CYAN
 10
120.7300502902
 20
408.7205643098
 40
0.8527656117
 50
250.324385472
 51
66.7801418737
  0
LINE
  8
CYAN
 10
121.0662620429
 20
409.5042548392
 11
113.0195961809
 21
412.5642545332
  0
LINE
  8
CYAN
 10
113.0195961809
 20
412.5642545332
 11
113.9829294148
 21
415.5675875683
  0
ARC
  8
CYAN
 10
117.2323324621
 20
414.548800381
 40
3.4053703906
 50
24.5604715482
 51
162.5921972019
  0
LINE
  8
CYAN
 10
120.3295954468
 20
415.9642541953
 11
120.5562620908
 21
415.4542542463
  0
ARC
  8
CYAN
 10
125.7105191742
 20
417.8367701438
 40
5.6782698143
 50
204.8083791034
 51
242.7008923247
  0
LINE
  8
CYAN
 10
123.1062618374
 20
412.7909211759
 11
125.3162616164
 21
411.7142546169
  0
ARC
  8
CYAN
 10
122.6701474161
 20
406.6468803505
 40
5.7166600666
 50
8.794658579
 51
62.4270462867
  0
LINE
  8
CYAN
 10
128.3195946484
 20
407.5209217034
 11
129.0279279109
 21
403.1575888064
  0
LINE
  8
CYAN
 10
129.0279279109
 20
403.1575888064
 11
131.0851212449
 21
403.9037900895
  0
LINE
  8
CYAN
 10
250.3542740769
 20
408.6853773088
 11
248.4995316406
 21
410.8588825882
  0
LINE
  8
CYAN
 10
248.4995316406
 20
410.8588825882
 11
245.4495829778
 21
408.5409216046
  0
ARC
  8
CYAN
 10
241.9812451192
 20
413.0153584287
 40
5.6612677374
 50
253.8468764715
 51
307.7808785558
  0
LINE
  8
CYAN
 10
240.4062501488
 20
407.5775883676
 11
238.0829170465
 21
408.2575882999
  0
ARC
  8
CYAN
 10
236.4884210636
 20
402.8172274836
 40
5.6692101083
 50
73.6648545316
 51
111.6202360565
  0
LINE
  8
CYAN
 10
234.3995840815
 20
408.0875883169
 11
233.8329174745
 21
407.9175883352
  0
ARC
  8
CYAN
 10
232.5628226682
 20
411.0595325543
 40
3.3889458971
 50
153.6400570673
 51
292.0104547035
  0
LINE
  8
CYAN
 10
229.5262512385
 20
412.5642545372
 11
230.9429177635
 21
415.3975875872
  0
LINE
  8
CYAN
 10
230.9429177635
 20
415.3975875872
 11
238.8195836431
 21
412.1109212489
  0
ARC
  8
CYAN
 10
239.1595836091
 20
412.9042545029
 40
0.8631208657
 50
246.8014094864
 51
66.8014094863
  0
LINE
  8
CYAN
 10
239.4995835751
 20
413.6975877569
 11
231.6795843571
 21
416.9275874339
  0
LINE
  8
CYAN
 10
231.6795843571
 20
416.9275874339
 11
231.7362510037
 21
417.0975874175
  0
ARC
  8
CYAN
 10
234.7840050071
 20
415.6196422182
 40
3.3872003894
 50
67.1451994471
 51
154.1298945223
  0
LINE
  8
CYAN
 10
236.0995839007
 20
418.7409205865
 11
243.0695832037
 21
415.8509208755
  0
ARC
  8
CYAN
 10
245.6582373431
 20
422.1400372899
 40
6.8010378272
 50
247.6275149809
 51
297.9852254762
  0
LINE
  8
CYAN
 10
248.8495826308
 20
416.1342541784
 11
254.6295820528
 21
419.2509205334
  0
ARC
  8
CYAN
 10
255.9516726507
 20
416.7447399175
 40
2.8335251593
 50
353.3699720355
 51
117.8130834384
  0
LINE
  8
CYAN
 10
258.7662483048
 20
416.4175874829
 11
255.5929152888
 21
390.7475900499
  0
ARC
  8
CYAN
 10
260.0690020387
 20
390.1820149949
 40
4.5116768208
 50
172.7985662246
 51
243.1258981518
  0
LINE
  8
CYAN
 10
258.0295817115
 20
386.1575905064
 11
261.1462480665
 21
384.5709239984
  0
ARC
  8
CYAN
 10
260.5218770594
 20
383.1581253977
 40
1.5446161467
 50
323.879233017
 51
66.1574882329
  0
LINE
  8
CYAN
 10
261.7695813372
 20
382.2475908975
 11
259.0495816092
 21
382.2475908975
  0
LINE
  8
CYAN
 10
259.0495816092
 20
382.2475908975
 11
255.8762485932
 21
383.9475907275
  0
ARC
  8
CYAN
 10
258.5257201271
 20
388.9593645832
 40
5.669001375
 50
175.667859073
 51
242.136854954
  0
LINE
  8
CYAN
 10
252.8729155642
 20
389.3875901814
 11
254.7995820382
 21
412.6775878524
  0
ARC
  8
CYAN
 10
253.385090817
 20
412.789724759
 40
1.4189292092
 50
355.4672309987
 51
126.9111814486
  0
LINE
  8
CYAN
 10
252.5329155983
 20
413.9242543961
 11
248.9912492858
 21
411.2325879986
  0
LINE
  8
CYAN
 10
248.9912492858
 20
411.2325879986
 11
251.2985917039
 21
409.4803327531
  0
LINE
  8
CYAN
 10
224.0147019334
 20
390.696702382
 11
222.9812518769
 21
393.1275898118
  0
LINE
  8
CYAN
 10
222.9812518769
 20
393.1275898118
 11
220.7995854306
 21
391.1442566787
  0
ARC
  8
CYAN
 10
218.9269567518
 20
393.296421412
 40
2.8528146115
 50
276.8979911694
 51
311.0269867797
  0
LINE
  8
CYAN
 10
219.2695855836
 20
390.4642567467
 11
212.526252924
 21
389.4442568487
  0
ARC
  8
CYAN
 10
212.769586233
 20
387.7542570177
 40
1.7074280448
 50
98.1933776233
 51
143.7341354408
  0
LINE
  8
CYAN
 10
211.392919704
 20
388.7642569167
 11
208.956253282
 21
385.1375906142
  0
ARC
  8
CYAN
 10
207.539586757
 20
386.1009238512
 40
1.7131710272
 50
235.7842978676
 51
325.7842978676
  0
LINE
  8
CYAN
 10
206.57625352
 20
384.6842573262
 11
204.026253775
 21
386.4409238172
  0
LINE
  8
CYAN
 10
204.026253775
 20
386.4409238172
 11
209.2395865875
 21
394.147589714
  0
ARC
  8
CYAN
 10
208.4987040942
 20
394.623056479
 40
0.8803269356
 50
327.3093843266
 51
54.2592114181
  0
ARC
  8
CYAN
 10
208.5250534714
 20
394.6618055634
 40
0.8334853039
 50
54.1734800058
 51
147.3951157293
  0
LINE
  8
CYAN
 10
207.8229200624
 20
395.1109229511
 11
202.6095872504
 21
387.3475903941
  0
LINE
  8
CYAN
 10
202.6095872504
 20
387.3475903941
 11
200.0029208407
 21
389.1042568836
  0
ARC
  8
CYAN
 10
200.9662540777
 20
390.5209234086
 40
1.7131710272
 50
145.7842978676
 51
235.7842978676
  0
LINE
  8
CYAN
 10
199.5495875527
 20
391.4842566456
 11
201.9862539757
 21
395.0542562886
  0
ARC
  8
CYAN
 10
200.5741820458
 20
395.988490431
 40
1.6931451703
 50
326.511171152
 51
14.5641843707
  0
LINE
  8
CYAN
 10
202.2129206207
 20
396.4142561542
 11
200.6262541127
 21
403.0442554912
  0
ARC
  8
CYAN
 10
203.3459846409
 20
403.773115274
 40
2.8157007527
 50
161.0479662369
 51
195.0021657047
  0
LINE
  8
CYAN
 10
200.6829207741
 20
404.6875886584
 11
202.7229205702
 21
410.2409214364
  0
ARC
  8
CYAN
 10
205.3674370394
 20
409.2677015113
 40
2.8179113504
 50
75.6413409104
 51
159.795662316
  0
LINE
  8
CYAN
 10
206.0662535686
 20
411.997587926
 11
207.7095867376
 21
411.600921299
  0
LINE
  8
CYAN
 10
207.7095867376
 20
411.600921299
 11
205.3295869756
 21
402.250922234
  0
LINE
  8
CYAN
 10
205.3295869756
 20
402.250922234
 11
208.6162533136
 21
401.400922319
  0
LINE
  8
CYAN
 10
208.6162533136
 20
401.400922319
 11
210.9962530756
 21
410.750921384
  0
LINE
  8
CYAN
 10
210.9962530756
 20
410.750921384
 11
212.8662528886
 21
410.240921435
  0
ARC
  8
CYAN
 10
213.2391195194
 20
411.8808546041
 40
1.6817878354
 50
257.1905997027
 51
299.0696049574
  0
LINE
  8
CYAN
 10
214.056252771
 20
410.4109214177
 11
217.229585787
 21
411.9975879257
  0
ARC
  8
CYAN
 10
218.4514775558
 20
409.449570162
 40
2.8258474868
 50
55.2322959292
 51
115.6198615293
  0
ARC
  8
CYAN
 10
218.5346580611
 20
409.4440309868
 40
2.7838820806
 50
355.4031982912
 51
56.7037923192
  0
LINE
  8
CYAN
 10
221.3095853776
 20
409.2209215365
 11
221.0262520726
 21
405.6509218935
  0
ARC
  8
CYAN
 10
222.7246922697
 20
405.5427873468
 40
1.7018790154
 50
176.3570680123
 51
217.0414204226
  0
LINE
  8
CYAN
 10
221.3662520386
 20
404.5175886726
 11
222.4995852586
 21
402.9875888256
  0
LINE
  8
CYAN
 10
222.4995852586
 20
402.9875888256
 11
214.7929193626
 21
397.2642560646
  0
LINE
  8
CYAN
 10
214.7929193626
 20
397.2642560646
 11
216.7762524976
 21
394.5442563366
  0
LINE
  8
CYAN
 10
216.7762524976
 20
394.5442563366
 11
224.5395850546
 21
400.2675890976
  0
LINE
  8
CYAN
 10
224.5395850546
 20
400.2675890976
 11
225.5595849526
 21
398.9075892336
  0
ARC
  8
CYAN
 10
223.2947541226
 20
397.2251588159
 40
2.8213526541
 50
311.4642010803
 51
36.6068247103
  0
LINE
  8
CYAN
 10
225.1629183254
 20
395.1109229468
 11
223.4475661724
 21
393.5515118987
  0
LINE
  8
CYAN
 10
223.4475661724
 20
393.5515118987
 11
225.4626175828
 21
392.0712598771
  0
LINE
  8
CYAN
 10
139.1787850327
 20
300.9881879777
 11
138.4062594413
 21
303.1125975357
  0
LINE
  8
CYAN
 10
138.4062594413
 20
303.1125975357
 11
136.7629262704
 21
302.0075976449
  0
ARC
  8
CYAN
 10
139.9454998576
 20
297.3161802554
 40
5.6690538683
 50
124.1522663323
 51
160.2598476704
  0
LINE
  8
CYAN
 10
134.6095931524
 20
299.2309312559
 11
126.7329272732
 21
300.760931103
  0
ARC
  8
CYAN
 10
126.588772816
 20
299.9276547635
 40
0.8456535729
 50
80.1851354622
 51
165.6253504182
  0
ARC
  8
CYAN
 10
126.6195939511
 20
299.9675978485
 40
0.8668332306
 50
168.690067526
 51
258.690067526
  0
LINE
  8
CYAN
 10
126.4495939681
 20
299.1175979335
 11
134.2695931648
 21
297.5875980937
  0
ARC
  8
CYAN
 10
139.9373739471
 20
297.3569972768
 40
5.6724699852
 50
177.6701339038
 51
213.9682539913
  0
LINE
  8
CYAN
 10
135.2329264018
 20
294.1875984337
 11
137.4429261807
 21
290.8442654349
  0
ARC
  8
CYAN
 10
136.0219731232
 20
289.9156303797
 40
1.6974895161
 50
304.7523104029
 51
33.1658092364
  0
LINE
  8
CYAN
 10
136.9895928927
 20
288.5209323339
 11
135.5729263677
 21
287.5575990969
  0
LINE
  8
CYAN
 10
135.5729263677
 20
287.5575990969
 11
132.5695933346
 21
292.0342653159
  0
ARC
  8
CYAN
 10
131.8391265951
 20
291.5851479283
 40
0.8574894083
 50
31.5847053022
 51
216.8466989626
  0
LINE
  8
CYAN
 10
131.1529268096
 20
291.0709320789
 11
134.1562598426
 21
286.5942658599
  0
LINE
  8
CYAN
 10
134.1562598426
 20
286.5942658599
 11
132.7395933191
 21
285.6875992849
  0
ARC
  8
CYAN
 10
131.7762600821
 20
287.1042658099
 40
1.7131710272
 50
214.2157021324
 51
304.2157021324
  0
LINE
  8
CYAN
 10
130.3595935571
 20
286.1409325729
 11
128.092927117
 21
289.4842655721
  0
ARC
  8
CYAN
 10
126.693820233
 20
288.5779501889
 40
1.6670055928
 50
32.93441472
 51
149.3571109564
  0
LINE
  8
CYAN
 10
125.259594067
 20
289.4275989111
 11
122.2562610349
 21
284.5542660667
  0
ARC
  8
CYAN
 10
120.7849188397
 20
285.4048785942
 40
1.6995262656
 50
244.2385293178
 51
329.9669290946
  0
ARC
  8
CYAN
 10
127.6970095159
 20
299.6838512993
 40
17.5635113806
 50
238.0506150983
 51
244.1762213679
  0
LINE
  8
CYAN
 10
118.4029280995
 20
284.7809327045
 11
121.519594455
 21
289.8809321953
  0
ARC
  8
CYAN
 10
120.7951920117
 20
290.3271900123
 40
0.8508260334
 50
328.3654450071
 51
151.6712762552
  0
LINE
  8
CYAN
 10
120.046261269
 20
290.7309321103
 11
116.9862615857
 21
285.7442659342
  0
ARC
  8
CYAN
 10
127.6394829667
 20
299.7410729536
 40
17.5898190022
 50
203.3445780227
 51
232.7245849972
  0
LINE
  8
CYAN
 10
111.4895954687
 20
292.7709318982
 11
117.8929281624
 21
294.9242650165
  0
ARC
  8
CYAN
 10
117.6095948574
 20
295.7175982705
 40
0.8424104781
 50
289.6538240581
 51
109.6538240581
  0
LINE
  8
CYAN
 10
117.3262615524
 20
296.5109315245
 11
111.3762621474
 21
294.5275983895
  0
LINE
  8
CYAN
 10
111.3762621474
 20
294.5275983895
 11
111.1495955034
 21
295.2642649825
  0
LINE
  8
CYAN
 10
111.1495955034
 20
295.2642649825
 11
111.4329288083
 21
296.6242648459
  0
ARC
  8
CYAN
 10
112.5085677336
 20
296.452503205
 40
1.0892663397
 50
128.5597125929
 51
170.92741308
  0
ARC
  8
CYAN
 10
106.4922569884
 20
303.9165440424
 40
8.4976125335
 50
308.9099788249
 51
348.9712034577
  0
ARC
  8
CYAN
 10
106.5074812842
 20
303.905529792
 40
8.4805660391
 50
349.0245659676
 51
28.9789442121
  0
ARC
  8
CYAN
 10
114.9485284657
 20
308.565063666
 40
1.1612103634
 50
167.9442993447
 51
208.3159053245
  0
LINE
  8
CYAN
 10
113.8129285792
 20
308.8075969751
 11
114.0962618842
 21
310.1675968391
  0
LINE
  8
CYAN
 10
114.0962618842
 20
310.1675968391
 11
114.6062618332
 21
310.7909301101
  0
LINE
  8
CYAN
 10
114.6062618332
 20
310.7909301101
 11
119.3095946962
 21
306.6542638571
  0
ARC
  8
CYAN
 10
119.8762613067
 20
307.2775971277
 40
0.8424104781
 50
227.7263109512
 51
47.7263109939
  0
LINE
  8
CYAN
 10
120.4429279167
 20
307.9009303987
 11
115.3995950877
 21
312.3209299567
  0
ARC
  8
CYAN
 10
127.7012770633
 20
299.8004750058
 40
17.5525830465
 50
105.1760485426
 51
134.4950296327
  0
LINE
  8
CYAN
 10
123.1062609782
 20
316.7409295092
 11
124.0695942152
 21
310.9609300872
  0
ARC
  8
CYAN
 10
124.8917897768
 20
311.0704283255
 40
0.8294548846
 50
187.5858903335
 51
8.1207362353
  0
LINE
  8
CYAN
 10
125.7129273843
 20
311.1875967307
 11
124.8062608083
 21
317.0809294747
  0
ARC
  8
CYAN
 10
127.8569528052
 20
299.7398030027
 40
17.6074242574
 50
93.8449394483
 51
99.977514771
  0
ARC
  8
CYAN
 10
126.7409755343
 20
315.6008461357
 40
1.7079764407
 50
7.8547809807
 51
92.171446512
  0
LINE
  8
CYAN
 10
128.4329271061
 20
315.8342629317
 11
129.3395936821
 21
310.1675968317
  0
ARC
  8
CYAN
 10
131.0168007217
 20
310.4608400446
 40
1.7026494166
 50
189.9173614207
 51
303.0855071918
  0
LINE
  8
CYAN
 10
131.9462600882
 20
309.0342636107
 11
135.3462597482
 21
311.3009300507
  0
ARC
  8
CYAN
 10
136.3095929847
 20
309.8842635253
 40
1.7131710272
 50
34.2157021325
 51
124.2157021092
  0
LINE
  8
CYAN
 10
137.7262595097
 20
310.8475967623
 11
138.6329260857
 21
309.4309302373
  0
LINE
  8
CYAN
 10
138.6329260857
 20
309.4309302373
 11
134.1562598667
 21
306.4275972043
  0
ARC
  8
CYAN
 10
134.6704757158
 20
305.7413974186
 40
0.8574894083
 50
126.8466989388
 51
301.5847053022
  0
LINE
  8
CYAN
 10
135.1195931034
 20
305.0109306791
 11
139.5962593224
 21
308.0142637121
  0
LINE
  8
CYAN
 10
139.5962593224
 20
308.0142637121
 11
140.5595925594
 21
306.5975971871
  0
ARC
  8
CYAN
 10
139.1474870094
 20
305.6555485009
 40
1.6974975144
 50
302.1023043511
 51
33.7081814886
  0
LINE
  8
CYAN
 10
140.0495926103
 20
304.2175974252
 11
138.9149856936
 21
303.4546720847
  0
LINE
  8
CYAN
 10
138.9149856936
 20
303.4546720847
 11
140.3596619553
 21
301.7534681291
  0
LINE
  8
CYAN
 10
153.5544152207
 20
254.567884633
 11
151.8985334379
 21
254.6718240143
  0
LINE
  8
CYAN
 10
151.8985334379
 20
254.6718240143
 11
152.4029247643
 21
257.3542687959
  0
ARC
  8
CYAN
 10
149.6219605252
 20
257.8706604195
 40
2.8285017957
 50
349.4806728178
 51
78.3541882415
  0
LINE
  8
CYAN
 10
150.192924986
 20
260.6409351337
 11
149.059591766
 21
260.9242684387
  0
LINE
  8
CYAN
 10
149.059591766
 20
260.9242684387
 11
147.642925241
 21
253.6709358307
  0
ARC
  8
CYAN
 10
146.8224217123
 20
253.8465572499
 40
0.83908815
 50
168.7026140468
 51
347.9186475707
  0
LINE
  8
CYAN
 10
145.9995920721
 20
254.0109357972
 11
147.3595919361
 21
261.2642684052
  0
LINE
  8
CYAN
 10
147.3595919361
 20
261.2642684052
 11
145.9995920721
 21
261.5476017102
  0
ARC
  8
CYAN
 10
146.386150592
 20
263.2005835269
 40
1.6975795638
 50
195.826819743
 51
256.837619928
  0
LINE
  8
CYAN
 10
144.7529255298
 20
262.7376015922
 11
143.7329256318
 21
266.2509345743
  0
ARC
  8
CYAN
 10
139.9228719461
 20
265.1844584233
 40
3.9564985112
 50
15.6375207269
 51
89.8061308565
  0
ARC
  8
CYAN
 10
139.9135926816
 20
265.1572680169
 40
3.9837307533
 50
89.6739962378
 51
164.0657990231
  0
LINE
  8
CYAN
 10
136.0829263986
 20
266.2509345763
 11
135.1195931616
 21
262.7376015943
  0
ARC
  8
CYAN
 10
133.4950709873
 20
263.2081101383
 40
1.6912866655
 50
280.9474187443
 51
343.8474567981
  0
LINE
  8
CYAN
 10
133.8162599571
 20
261.547601713
 11
132.4562600931
 21
261.264268408
  0
LINE
  8
CYAN
 10
132.4562600931
 20
261.264268408
 11
133.8729266181
 21
254.0109358
  0
ARC
  8
CYAN
 10
133.0229267031
 20
253.840935817
 40
0.8668332306
 50
191.3099324381
 51
11.309932474
  0
LINE
  8
CYAN
 10
132.172926788
 20
253.6709358345
 11
130.812926924
 21
260.9242684425
  0
LINE
  8
CYAN
 10
130.812926924
 20
260.9242684425
 11
129.622927043
 21
260.6409351375
  0
ARC
  8
CYAN
 10
130.2552176065
 20
257.8779404055
 40
2.8344190315
 50
102.8897596468
 51
190.6468181815
  0
LINE
  8
CYAN
 10
127.4695939246
 20
257.3542688013
 11
128.7162604666
 21
250.7242694643
  0
ARC
  8
CYAN
 10
130.356193636
 20
251.0688027632
 40
1.6757338673
 50
191.8647091277
 51
241.8750861187
  0
LINE
  8
CYAN
 10
129.5662603805
 20
249.5909362449
 11
131.3795935325
 21
248.5709363469
  0
ARC
  8
CYAN
 10
130.58243145
 20
247.1029635207
 40
1.6704525148
 50
9.5789085286
 51
61.4964470535
  0
LINE
  8
CYAN
 10
132.2295934475
 20
247.3809364659
 11
132.9095933795
 21
243.8676034839
  0
ARC
  8
CYAN
 10
134.566263409
 20
244.196566048
 40
1.6890150845
 50
191.2310491799
 51
269.5475742894
  0
LINE
  8
CYAN
 10
134.552926547
 20
242.5076036199
 11
139.086259427
 21
242.5076036199
  0
LINE
  8
CYAN
 10
139.086259427
 20
242.5076036199
 11
139.086259427
 21
252.9909359049
  0
ARC
  8
CYAN
 10
139.936259342
 20
252.9909359049
 40
0.849999915
 50
89.9999999831
 51
180.0
  0
ARC
  8
CYAN
 10
139.9362593422
 20
252.9909359049
 40
0.849999915
 50
0.0
 51
90.0
  0
LINE
  8
CYAN
 10
140.7862592572
 20
252.9909359049
 11
140.7862592596
 21
242.5076036174
  0
LINE
  8
CYAN
 10
140.7862592596
 20
242.5076036174
 11
145.2629254786
 21
242.5076036174
  0
ARC
  8
CYAN
 10
145.2836571838
 20
244.2241888116
 40
1.7167103811
 50
269.3080556279
 51
348.0115608804
  0
LINE
  8
CYAN
 10
146.9629253086
 20
243.8676034814
 11
147.5862585792
 21
247.3809364615
  0
ARC
  8
CYAN
 10
149.2977448945
 20
247.057017575
 40
1.7418693558
 50
119.6417808725
 51
169.2828635435
  0
LINE
  8
CYAN
 10
148.4362584942
 20
248.5709363425
 11
150.3062583078
 21
249.5909362408
  0
ARC
  8
CYAN
 10
149.4528583931
 20
251.116402755
 40
1.7479529456
 50
299.224192472
 51
347.0360122364
  0
LINE
  8
CYAN
 10
151.1562582228
 20
250.7242694608
 11
151.7795914933
 21
254.0392691274
  0
LINE
  8
CYAN
 10
151.7795914933
 20
254.0392691274
 11
153.2723053879
 21
253.0674146623
  0
LINE
  8
CYAN
 10
257.2788636155
 20
348.6587186784
 11
256.0179152704
 21
350.3159274253
  0
LINE
  8
CYAN
 10
256.0179152704
 20
350.3159274253
 11
252.7595822671
 21
347.3409277267
  0
ARC
  8
CYAN
 10
248.902639361
 20
351.4765566354
 40
5.6550362556
 50
259.0616661366
 51
313.0030125713
  0
LINE
  8
CYAN
 10
247.8295827601
 20
345.9242612017
 11
245.4495829967
 21
346.434261151
  0
ARC
  8
CYAN
 10
244.3498207595
 20
340.8210638489
 40
5.7199179129
 50
78.9147765901
 51
116.8515020434
  0
LINE
  8
CYAN
 10
241.7662500317
 20
345.924261202
 11
241.2562500856
 21
345.6409278985
  0
ARC
  8
CYAN
 10
239.7390289918
 20
348.6893805264
 40
3.405146586
 50
159.3375299061
 51
296.4596236924
  0
LINE
  8
CYAN
 10
236.5529172226
 20
349.8909274735
 11
237.6862504426
 21
352.8375938455
  0
LINE
  8
CYAN
 10
237.6862504426
 20
352.8375938455
 11
245.8462496273
 21
350.2875941003
  0
ARC
  8
CYAN
 10
246.1351143851
 20
351.0987509244
 40
0.8610564684
 50
250.3984450664
 51
75.1186361357
  0
LINE
  8
CYAN
 10
246.3562495763
 20
351.9309272693
 11
238.2529170533
 21
354.4242603533
  0
LINE
  8
CYAN
 10
238.2529170533
 20
354.4242603533
 11
238.3662503607
 21
354.6509269984
  0
ARC
  8
CYAN
 10
241.5248776128
 20
353.3973050276
 40
3.398307544
 50
72.2733128405
 51
158.3524547633
  0
LINE
  8
CYAN
 10
242.5595832747
 20
356.6342601334
 11
249.6995825607
 21
354.4242603544
  0
ARC
  8
CYAN
 10
251.7570314169
 20
360.886654675
 40
6.7820082683
 50
252.3399536757
 51
303.2906333705
  0
LINE
  8
CYAN
 10
255.479581988
 20
355.2175936067
 11
260.919581444
 21
358.7875932497
  0
ARC
  8
CYAN
 10
262.5171126922
 20
356.4582706113
 40
2.8245088144
 50
357.8219833096
 51
124.443697728
  0
LINE
  8
CYAN
 10
265.3395810011
 20
356.3509268261
 11
264.4895810861
 21
330.5109294101
  0
ARC
  8
CYAN
 10
268.9785720984
 20
330.3788623996
 40
4.490933311
 50
178.3148328297
 51
248.3665818299
  0
LINE
  8
CYAN
 10
267.322914136
 20
326.2042631714
 11
270.552913813
 21
324.9009299684
  0
ARC
  8
CYAN
 10
270.0358463068
 20
323.4477898021
 40
1.5423926702
 50
328.167059204
 51
70.4130332212
  0
LINE
  8
CYAN
 10
271.3462470667
 20
322.6342635286
 11
268.6829139997
 21
322.3509302236
  0
LINE
  8
CYAN
 10
268.6829139997
 20
322.3509302236
 11
265.3395810007
 21
323.7675967486
  0
ARC
  8
CYAN
 10
267.5472767237
 20
328.9843667633
 40
5.6646809083
 50
180.6079358224
 51
247.0623037761
  0
LINE
  8
CYAN
 10
261.8829146839
 20
328.9242628978
 11
261.6562480399
 21
352.2709272298
  0
ARC
  8
CYAN
 10
260.2464205947
 20
352.2679961956
 40
1.409830492
 50
0.1191178731
 51
133.4837010996
  0
LINE
  8
CYAN
 10
259.2762482779
 20
353.2909271278
 11
256.4590815559
 21
350.7187314251
  0
LINE
  8
CYAN
 10
256.4590815559
 20
350.7187314251
 11
258.04717874
 21
349.4081495256
  0
LINE
  8
CYAN
 10
247.9487854905
 20
374.6782178849
 11
249.2745826029
 21
373.2942584723
  0
LINE
  8
CYAN
 10
249.2745826029
 20
373.2942584723
 11
245.2795830024
 21
371.3675919983
  0
ARC
  8
CYAN
 10
244.693138394
 20
372.6311280095
 40
1.3929969599
 50
164.1781296952
 51
294.8974152898
  0
LINE
  8
CYAN
 10
243.3529165286
 20
373.010925168
 11
249.8129158826
 21
395.450922924
  0
ARC
  8
CYAN
 10
244.3710352195
 20
397.0437621428
 40
5.6702029883
 50
343.6852392819
 51
50.2132091763
  0
LINE
  8
CYAN
 10
247.9995827313
 20
401.4009223284
 11
245.2229163423
 21
403.6675887684
  0
LINE
  8
CYAN
 10
245.2229163423
 20
403.6675887684
 11
242.5595832753
 21
404.2342553784
  0
ARC
  8
CYAN
 10
243.5788186474
 20
403.0606928046
 40
1.5543776434
 50
130.9742112639
 51
234.3517902243
  0
LINE
  8
CYAN
 10
242.6729165963
 20
401.7975889561
 11
245.4495829853
 21
399.6442558381
  0
ARC
  8
CYAN
 10
242.6103006089
 20
396.0943923768
 40
4.5456633187
 50
341.5738497367
 51
51.3461798233
  0
LINE
  8
CYAN
 10
246.9229161697
 20
394.6575896653
 11
238.6495836637
 21
370.1775921133
  0
ARC
  8
CYAN
 10
241.3563088338
 20
369.2846283067
 40
2.8502185015
 50
161.7419874585
 51
286.4392515894
  0
LINE
  8
CYAN
 10
242.1629166431
 20
366.5509258085
 11
248.3962493531
 21
368.4209256215
  0
ARC
  8
CYAN
 10
250.3348445314
 20
361.9023884372
 40
6.8006968972
 50
55.6078118672
 51
106.5623342081
  0
LINE
  8
CYAN
 10
254.1762487762
 20
367.5142590448
 11
260.4095814862
 21
363.3209261308
  0
ARC
  8
CYAN
 10
262.2833174243
 20
366.1549049309
 40
3.3973993296
 50
236.5286003759
 51
323.0835850833
  0
LINE
  8
CYAN
 10
264.999581025
 20
364.114259382
 11
265.112914347
 21
364.227592704
  0
LINE
  8
CYAN
 10
265.112914347
 20
364.227592704
 11
258.086248383
 21
368.987592228
  0
ARC
  8
CYAN
 10
258.6004642324
 20
369.6737920135
 40
0.8574894083
 50
58.4152946978
 51
233.1533010374
  0
LINE
  8
CYAN
 10
259.04958162
 20
370.404258753
 11
266.1895809123
 21
365.5875925731
  0
LINE
  8
CYAN
 10
266.1895809123
 20
365.5875925731
 11
268.0595807253
 21
368.0809256571
  0
ARC
  8
CYAN
 10
265.3931125235
 20
370.1827813027
 40
3.3952687414
 50
321.7528941775
 51
100.5250506964
  0
LINE
  8
CYAN
 10
264.7729143873
 20
373.5209251131
 11
264.2062477784
 21
373.4075917913
  0
ARC
  8
CYAN
 10
263.2256282387
 20
379.0202922151
 40
5.6977206608
 50
242.3283148582
 51
279.9103668408
  0
LINE
  8
CYAN
 10
260.5795814744
 20
373.9742584013
 11
258.4262483524
 21
375.1075916234
  0
ARC
  8
CYAN
 10
255.7370579153
 20
370.1202483281
 40
5.6661572827
 50
61.66632092
 51
115.8155886656
  0
LINE
  8
CYAN
 10
253.2695822014
 20
375.2209249454
 11
249.8381696926
 21
373.5660593383
  0
LINE
  8
CYAN
 10
249.8381696926
 20
373.5660593383
 11
249.1747071213
 21
375.2529432267
  0
LINE
  8
CYAN
 10
168.4919045396
 20
378.1263883561
 11
167.3629240771
 21
381.3125910253
  0
LINE
  8
CYAN
 10
167.3629240771
 20
381.3125910253
 11
160.7329247429
 21
377.0909247826
  0
ARC
  8
CYAN
 10
158.9068233519
 20
379.9839645505
 40
3.4211584864
 50
210.9546757127
 51
302.2603287798
  0
LINE
  8
CYAN
 10
155.9729252189
 20
378.2242580026
 11
155.2929252869
 21
379.3575912226
  0
LINE
  8
CYAN
 10
155.2929252869
 20
379.3575912226
 11
164.4729243697
 21
384.230924069
  0
ARC
  8
CYAN
 10
164.0750893579
 20
384.9702195277
 40
0.8395418226
 50
298.2859042553
 51
109.6390736939
  0
LINE
  8
CYAN
 10
163.7929244377
 20
385.760923916
 11
154.3295920507
 21
380.774257748
  0
LINE
  8
CYAN
 10
154.3295920507
 20
380.774257748
 11
153.0262588474
 21
382.0209242903
  0
ARC
  8
CYAN
 10
151.1329797574
 20
380.03391548
 40
2.7445782417
 50
46.3837306412
 51
151.5615225886
  0
LINE
  8
CYAN
 10
148.7195926114
 20
381.3409243583
 11
146.7929261413
 21
377.7142580618
  0
ARC
  8
CYAN
 10
139.8529447236
 20
381.3713863974
 40
7.8446115099
 50
296.8247359633
 51
332.2123322978
  0
ARC
  8
CYAN
 10
163.775813779
 20
333.8966395644
 40
45.3169932939
 50
116.7298672318
 51
143.002364974
  0
ARC
  8
CYAN
 10
137.6638496117
 20
353.5623188033
 40
12.6279521635
 50
142.9682756756
 51
165.6554374532
  0
LINE
  8
CYAN
 10
125.4295949253
 20
356.6909268183
 11
122.766261859
 21
346.3209278581
  0
ARC
  8
CYAN
 10
120.346084747
 20
346.9490046295
 40
2.5003475127
 50
226.6462941401
 51
345.4517157812
  0
ARC
  8
CYAN
 10
132.1118415708
 20
359.6519239364
 40
19.8149004516
 50
167.1534196261
 51
227.1243510785
  0
ARC
  8
CYAN
 10
146.6256260987
 20
356.4099855945
 40
34.6862689247
 50
95.8178770966
 51
167.2628090576
  0
LINE
  8
CYAN
 10
143.1095931646
 20
390.9175900365
 11
148.2095926582
 21
391.4275899859
  0
ARC
  8
CYAN
 10
147.8123278226
 20
395.336501943
 40
3.9290472176
 50
275.8030762425
 51
26.5753362491
  0
ARC
  8
CYAN
 10
153.3662588099
 20
398.1142559825
 40
2.280789109
 50
153.4349488229
 51
206.5650511771
  0
LINE
  8
CYAN
 10
151.3262590139
 20
399.1342558805
 11
153.3662588099
 21
402.0242555915
  0
LINE
  8
CYAN
 10
153.3662588099
 20
402.0242555915
 11
163.6229244514
 21
393.5242564411
  0
ARC
  8
CYAN
 10
164.1786750183
 20
394.1904676871
 40
0.8675806113
 50
230.165280772
 51
53.0997484583
  0
LINE
  8
CYAN
 10
164.6995910104
 20
394.8842563051
 11
154.4429253694
 21
403.3275887941
  0
LINE
  8
CYAN
 10
154.4429253694
 20
403.3275887941
 11
156.4829251539
 21
405.1975886374
  0
ARC
  8
CYAN
 10
159.2009834277
 20
402.2507660565
 40
4.0089405213
 50
56.5127044481
 51
132.6874868845
  0
LINE
  8
CYAN
 10
161.4129246609
 20
405.5942552644
 11
164.0762577279
 21
403.8942554344
  0
ARC
  8
CYAN
 10
165.1301656697
 20
405.4778184936
 40
1.9022076418
 50
236.3550630851
 51
319.1752689074
  0
LINE
  8
CYAN
 10
166.5695908131
 20
404.2342553996
 11
172.4629235571
 21
411.2042547026
  0
LINE
  8
CYAN
 10
172.4629235571
 20
411.2042547026
 11
179.4329228601
 21
406.2175885346
  0
ARC
  8
CYAN
 10
179.94713871
 20
406.9037883197
 40
0.8574894083
 50
233.1533009936
 51
58.4152946978
  0
LINE
  8
CYAN
 10
180.3962560977
 20
407.6342550592
 11
173.4829234557
 21
412.5075879052
  0
LINE
  8
CYAN
 10
173.4829234557
 20
412.5075879052
 11
175.4095899297
 21
416.8709208022
  0
ARC
  8
CYAN
 10
180.1129227916
 20
414.8309210038
 40
5.1266889108
 50
76.5781649321
 51
156.5519373927
  0
LINE
  8
CYAN
 10
181.3029226726
 20
419.8175871718
 11
183.9095890786
 21
419.1942539008
  0
ARC
  8
CYAN
 10
185.0375584759
 20
423.9489411723
 40
4.8866518201
 50
256.6542559068
 51
12.7921659407
  0
ARC
  8
CYAN
 10
190.933088858
 20
425.2519849075
 40
1.1515846559
 50
109.9806908568
 51
191.0675311007
  0
LINE
  8
CYAN
 10
190.5395884198
 20
426.3342531852
 11
190.8229217248
 21
426.4475865072
  0
ARC
  8
CYAN
 10
191.1772078047
 20
425.3659508648
 40
1.1381802535
 50
33.5059510417
 51
108.1360328862
  0
ARC
  8
CYAN
 10
185.272100906
 20
421.3357917266
 40
8.2873814215
 50
349.8423620139
 51
34.2021913521
  0
LINE
  8
CYAN
 10
193.4295881299
 20
419.8742538318
 11
191.2195883509
 21
407.5209217338
  0
ARC
  8
CYAN
 10
195.7515612306
 20
406.7350684765
 40
4.5996025398
 50
170.162615348
 51
210.4470775576
  0
LINE
  8
CYAN
 10
191.7862549604
 20
404.4042553763
 11
194.9595879764
 21
399.0209225813
  0
ARC
  8
CYAN
 10
184.5214832202
 20
392.8313822339
 40
12.1352561
 50
246.0893433318
 51
30.6669021411
  0
ARC
  8
CYAN
 10
180.0527629834
 20
382.8616091294
 40
1.210691107
 50
70.6995516545
 51
248.1883578601
  0
ARC
  8
CYAN
 10
183.1637686506
 20
392.612359118
 40
9.0248601282
 50
252.5198486338
 51
346.9699139128
  0
ARC
  8
CYAN
 10
185.2796753432
 20
392.1499028995
 40
6.8592188204
 50
346.7484795695
 51
83.4431539395
  0
LINE
  8
CYAN
 10
186.0629222086
 20
398.9642559263
 11
175.8629232286
 21
400.1542558073
  0
ARC
  8
CYAN
 10
175.4128415022
 20
396.0813868353
 40
4.0976621656
 50
83.6939848168
 51
227.2800435542
  0
LINE
  8
CYAN
 10
172.6329235505
 20
393.0709231824
 11
174.5029233635
 21
391.3709233524
  0
ARC
  8
CYAN
 10
172.0093517384
 20
388.6481936594
 40
3.6920396031
 50
302.4970604551
 51
47.5154515643
  0
LINE
  8
CYAN
 10
173.9929234141
 20
385.5342572698
 11
167.8779664499
 21
381.6405453567
  0
LINE
  8
CYAN
 10
167.8779664499
 20
381.6405453567
 11
169.8427788682
 21
379.1049467057
  0
LINE
  8
CYAN
 10
178.2475014634
 20
374.7127698869
 11
179.2253693464
 21
370.6451944427
  0
ARC
  8
CYAN
 10
131.8173998786
 20
506.4555687217
 40
143.8470483912
 50
289.2428039343
 51
290.0976345349
  0
LINE
  8
CYAN
 10
181.2462555099
 20
371.3675916037
 11
185.2129212778
 21
372.8975912593
  0
ARC
  8
CYAN
 10
711.8695002619
 20
-1009.2035459253
 40
1479.0438484353
 50
110.6178248455
 51
110.8595934519
  0
ARC
  8
CYAN
 10
494.6340320796
 20
-427.737758556
 40
858.3263775747
 50
110.281288974
 51
110.7133921315
  0
ARC
  8
CYAN
 10
214.8307391951
 20
325.7461566353
 40
54.5837146915
 50
99.481101202
 51
108.9412825366
  0
LINE
  8
CYAN
 10
205.8395855724
 20
379.584257141
 11
207.822918816
 21
379.9242571245
  0
ARC
  8
CYAN
 10
188.7262540591
 20
498.6975785805
 40
120.2987302283
 50
279.1339832262
 51
279.7906611898
  0
LINE
  8
CYAN
 10
209.18291868
 20
380.1509237685
 11
218.8729177218
 21
382.417590211
  0
ARC
  8
CYAN
 10
216.1629513771
 20
393.9856299934
 40
11.8812230851
 50
283.1845399821
 51
334.234118467
  0
ARC
  8
CYAN
 10
228.4007805197
 20
388.0887124353
 40
1.703278196
 50
84.5377045138
 51
154.5398600053
  0
LINE
  8
CYAN
 10
228.5629167524
 20
389.7842561402
 11
232.0762497344
 21
389.3875895132
  0
LINE
  8
CYAN
 10
232.0762497344
 20
389.3875895132
 11
227.5995835152
 21
382.0775902439
  0
ARC
  8
CYAN
 10
228.29968371
 20
381.6113927876
 40
0.8411185119
 50
146.3403123159
 51
328.4212015417
  0
LINE
  8
CYAN
 10
229.0162500402
 20
381.1709236679
 11
233.4929162592
 21
388.4809229369
  0
LINE
  8
CYAN
 10
233.4929162592
 20
388.4809229369
 11
235.0795840368
 21
387.6875903605
  0
ARC
  8
CYAN
 10
233.8311740027
 20
385.1419144758
 40
2.8353118565
 50
340.0446521098
 51
63.8764759305
  0
LINE
  8
CYAN
 10
236.4962505618
 20
384.1742573785
 11
231.7362510378
 21
370.8009253825
  0
LINE
  8
CYAN
 10
231.7362510378
 20
370.8009253825
 11
230.0929178688
 21
361.8475929445
  0
LINE
  8
CYAN
 10
230.0929178688
 20
361.8475929445
 11
230.2062511908
 21
356.8042601155
  0
LINE
  8
CYAN
 10
230.2062511908
 20
356.8042601155
 11
230.2062511908
 21
352.7242605235
  0
LINE
  8
CYAN
 10
230.2062511908
 20
352.7242605235
 11
230.3762511738
 21
348.5875942705
  0
LINE
  8
CYAN
 10
230.3762511738
 20
348.5875942705
 11
230.7162511398
 21
346.0942611865
  0
LINE
  8
CYAN
 10
230.7162511398
 20
346.0942611865
 11
232.2462509868
 21
341.2209283405
  0
LINE
  8
CYAN
 10
232.2462509868
 20
341.2209283405
 11
233.3795842068
 21
336.4042621555
  0
LINE
  8
CYAN
 10
233.3795842068
 20
336.4042621555
 11
234.1162507998
 21
333.1742624785
  0
LINE
  8
CYAN
 10
234.1162507998
 20
333.1742624785
 11
234.7395840708
 21
329.6609294965
  0
ARC
  8
CYAN
 10
227.9918924378
 20
328.5058014071
 40
6.845850077
 50
327.6659121599
 51
9.7142228903
  0
LINE
  8
CYAN
 10
233.7762508337
 20
324.8442633117
 11
232.2462509867
 21
322.5209302107
  0
ARC
  8
CYAN
 10
224.6332564982
 20
327.3313449217
 40
9.0054302937
 50
247.5635110817
 51
327.7124799814
  0
LINE
  8
CYAN
 10
221.1962520969
 20
319.0075972369
 11
217.7962524369
 21
320.4242637619
  0
ARC
  8
CYAN
 10
216.4562377725
 20
317.3090508763
 40
3.3911930974
 50
66.7249516763
 51
121.5943328987
  0
LINE
  8
CYAN
 10
214.6795860812
 20
320.1975971182
 11
210.7129198112
 21
317.7042640342
  0
ARC
  8
CYAN
 10
208.2844398999
 20
321.5017262341
 40
4.5075751618
 50
248.5069966162
 51
302.5989453931
  0
LINE
  8
CYAN
 10
206.632920223
 20
317.3075974096
 11
202.269587326
 21
319.0642639006
  0
ARC
  8
CYAN
 10
200.6115057299
 20
314.9267171449
 40
4.4574126727
 50
68.1620358519
 51
118.6711405188
  0
LINE
  8
CYAN
 10
198.4729210381
 20
318.837597257
 11
194.1095881411
 21
316.400930834
  0
ARC
  8
CYAN
 10
192.5795882954
 20
319.1775972245
 40
3.1702958493
 50
241.1443388018
 51
298.8556611851
  0
LINE
  8
CYAN
 10
191.0495884498
 20
316.4009308355
 11
188.2162553998
 21
317.8742640215
  0
LINE
  8
CYAN
 10
188.2162553998
 20
317.8742640215
 11
187.8762554338
 21
318.0442640045
  0
ARC
  8
CYAN
 10
181.4210509457
 20
295.6029585579
 40
23.3512709532
 50
73.9522060898
 51
75.5375564902
  0
ARC
  8
CYAN
 10
185.1791810079
 20
312.1448178468
 40
6.4139362975
 50
71.1362964867
 51
79.0008691439
  0
LINE
  8
CYAN
 10
186.4029222409
 20
318.4409306335
 11
185.8929222919
 21
318.4409306335
  0
LINE
  8
CYAN
 10
185.8929222919
 20
318.4409306335
 11
185.3829223429
 21
318.3842639725
  0
ARC
  8
CYAN
 10
187.5898199304
 20
312.5461502003
 40
6.2413115111
 50
110.707369968
 51
119.3264169674
  0
LINE
  8
CYAN
 10
184.5329224258
 20
317.9875973447
 11
180.9629227828
 21
315.9475975487
  0
ARC
  8
CYAN
 10
178.0887985615
 20
320.9332715017
 40
5.7547836454
 50
232.8848898398
 51
299.9624413539
  0
LINE
  8
CYAN
 10
174.6162567557
 20
316.3442641785
 11
172.8029236037
 21
317.7042640425
  0
ARC
  8
CYAN
 10
171.301257087
 20
315.6642642468
 40
2.5331011614
 50
53.6428025732
 51
126.3571974233
  0
LINE
  8
CYAN
 10
169.7995905704
 20
317.7042640428
 11
167.8162574354
 21
316.2309308568
  0
ARC
  8
CYAN
 10
164.3645897067
 20
320.9343477331
 40
5.8340500874
 50
235.6521271494
 51
306.2736000444
  0
LINE
  8
CYAN
 10
161.0729247811
 20
316.1175975383
 11
158.6929250191
 21
317.7042640463
  0
ARC
  8
CYAN
 10
156.9951262547
 20
315.2673818328
 40
2.9700026207
 50
55.1347104307
 51
113.666610886
  0
LINE
  8
CYAN
 10
155.8029253076
 20
317.9875973516
 11
152.9129255966
 21
316.7975974706
  0
ARC
  8
CYAN
 10
150.4598847016
 20
322.5782863466
 40
6.2796316384
 50
242.1839535621
 51
292.9939868897
  0
LINE
  8
CYAN
 10
147.5295928072
 20
317.0242641169
 11
142.9962599272
 21
319.4042638789
  0
ARC
  8
CYAN
 10
141.7462222802
 20
316.9110110596
 40
2.7890686152
 50
63.3722700554
 51
113.8998748695
  0
LINE
  8
CYAN
 10
140.6162601647
 20
319.4609305402
 11
136.7062605557
 21
317.7609307102
  0
ARC
  8
CYAN
 10
134.5124057669
 20
322.8573264109
 40
5.5485356602
 50
221.5435586902
 51
293.2905162666
  0
LINE
  8
CYAN
 10
130.3595945286
 20
319.1775972373
 11
129.1695946476
 21
320.5375971013
  0
ARC
  8
CYAN
 10
126.0709697488
 20
317.7584356177
 40
4.1623568823
 50
41.8889795132
 51
122.3631442155
  0
LINE
  8
CYAN
 10
123.8429285132
 20
321.2742636947
 11
120.3295955312
 21
319.1209305767
  0
ARC
  8
CYAN
 10
117.5709027523
 20
323.5809952237
 40
5.2442885603
 50
152.806781566
 51
301.738117843
  0
LINE
  8
CYAN
 10
112.9062629446
 20
325.9775965604
 11
116.1362626216
 21
332.1542626094
  0
ARC
  8
CYAN
 10
133.0776486195
 20
322.7444352159
 40
19.3792520781
 50
145.8342917647
 51
150.9507037146
  0
ARC
  8
CYAN
 10
170.0295330713
 20
294.4752433555
 40
65.8823716291
 50
141.9914123989
 51
143.538919611
  0
ARC
  8
CYAN
 10
141.2524609523
 20
318.1177574187
 40
28.6641940457
 50
141.3825232508
 51
143.8067634594
  0
LINE
  8
CYAN
 10
118.8562623186
 20
336.0075955133
 11
119.8195955556
 21
337.1975953943
  0
LINE
  8
CYAN
 10
119.8195955556
 20
337.1975953943
 11
119.8762622166
 21
337.2542620553
  0
ARC
  8
CYAN
 10
161.2986082172
 20
305.3496805787
 40
52.284921989
 50
141.2899579717
 51
142.3955888268
  0
LINE
  8
CYAN
 10
120.4995954727
 20
338.0475952899
 11
121.4629287097
 21
339.010928527
  0
ARC
  8
CYAN
 10
181.529589344
 20
281.3242676022
 40
83.2811777559
 50
133.8421101378
 51
136.1578898367
  0
ARC
  8
CYAN
 10
265.4732641242
 20
188.0125917889
 40
208.7679718818
 50
131.254884663
 51
132.7195403037
  0
ARC
  8
CYAN
 10
211.5545589102
 20
245.5039705407
 40
130.018865535
 50
129.5130198499
 51
130.0981223105
  0
LINE
  8
CYAN
 10
128.8295945049
 20
345.8109277229
 11
130.3029276909
 21
347.1142609259
  0
ARC
  8
CYAN
 10
162.0308199072
 20
310.1064644101
 40
48.7466526794
 50
128.193847784
 51
130.6074735185
  0
ARC
  8
CYAN
 10
235.8312275586
 20
214.6956456574
 40
169.3677143029
 50
126.5580373938
 51
127.8578064258
  0
ARC
  8
CYAN
 10
166.5005242737
 20
308.912499541
 40
52.3934974074
 50
121.4043742361
 51
127.027030005
  0
ARC
  8
CYAN
 10
182.1583606476
 20
282.2339250363
 40
83.3245915454
 50
116.5867414156
 51
121.0348460477
  0
ARC
  8
CYAN
 10
225.1276448058
 20
196.7879370428
 40
178.9664258453
 50
114.8929803073
 51
116.6456749196
  0
ARC
  8
CYAN
 10
219.645971738
 20
209.3485414864
 40
165.2656849997
 50
113.1728326787
 51
115.002071917
  0
ARC
  8
CYAN
 10
350.1471746736
 20
-99.8816001414
 40
500.9037016554
 50
111.8552094718
 51
112.9770854657
  0
ARC
  8
CYAN
 10
232.916374224
 20
196.3770734479
 40
182.3032667518
 50
110.4651644384
 51
112.3206162445
  0
ARC
  8
CYAN
 10
251.9687724362
 20
141.5284979906
 40
240.3551746544
 50
108.4313145813
 51
110.1487778364
  0
ARC
  8
CYAN
 10
131.8173998786
 20
506.4555687217
 40
143.8470483912
 50
287.8776135868
 51
288.9876240879
  0
LINE
  8
CYAN
 10
178.6200386267
 20
370.4353998603
 11
176.5478386826
 21
373.9361799211
  0
ARC
  8
CYAN
 10
173.9049213625
 20
325.1678307229
 40
3.4563021799
 50
215.8363369695
 51
258.2248552236
  0
LINE
  8
CYAN
 10
173.1995889566
 20
321.7842629379
 11
174.1629221936
 21
321.6142629549
  0
ARC
  8
CYAN
 10
174.3742609712
 20
322.7462027322
 40
1.1514997779
 50
259.4243560937
 51
290.9645016732
  0
LINE
  8
CYAN
 10
174.7862554656
 20
321.6709296157
 11
175.8062553636
 21
322.1809295647
  0
LINE
  8
CYAN
 10
175.8062553636
 20
322.1809295647
 11
176.9395885836
 21
322.9742628187
  0
LINE
  8
CYAN
 10
176.9395885836
 20
322.9742628187
 11
177.9029218206
 21
324.1075960387
  0
LINE
  8
CYAN
 10
177.9029218206
 20
324.1075960387
 11
178.7529217356
 21
325.5242625637
  0
LINE
  8
CYAN
 10
178.7529217356
 20
325.5242625637
 11
179.9429216166
 21
328.1875956307
  0
LINE
  8
CYAN
 10
179.9429216166
 20
328.1875956307
 11
182.4929213616
 21
331.9842619177
  0
LINE
  8
CYAN
 10
182.4929213616
 20
331.9842619177
 11
184.8162544626
 21
336.1209281707
  0
LINE
  8
CYAN
 10
184.8162544626
 20
336.1209281707
 11
186.9695875806
 21
339.6342611527
  0
LINE
  8
CYAN
 10
186.9695875806
 20
339.6342611527
 11
190.7095872066
 21
345.1875939307
  0
ARC
  8
CYAN
 10
228.5076936206
 20
317.3658205666
 40
46.9334413996
 50
130.6939107162
 51
143.6446044363
  0
LINE
  8
CYAN
 10
197.9062531405
 20
352.9509264699
 11
202.2129193765
 21
356.9742594009
  0
LINE
  8
CYAN
 10
202.2129193765
 20
356.9742594009
 11
206.2929189685
 21
360.6009257049
  0
LINE
  8
CYAN
 10
206.2929189685
 20
360.6009257049
 11
210.2029185775
 21
363.6042587379
  0
LINE
  8
CYAN
 10
210.2029185775
 20
363.6042587379
 11
214.7362514575
 21
366.3809251269
  0
LINE
  8
CYAN
 10
214.7362514575
 20
366.3809251269
 11
217.6829178295
 21
368.3075916009
  0
LINE
  8
CYAN
 10
217.6829178295
 20
368.3075916009
 11
218.5329177445
 21
368.8175915499
  0
LINE
  8
CYAN
 10
218.5329177445
 20
368.8175915499
 11
219.0429176935
 21
369.1575915159
  0
LINE
  8
CYAN
 10
219.0429176935
 20
369.1575915159
 11
219.5529176425
 21
369.6109248039
  0
ARC
  8
CYAN
 10
218.760690584
 20
370.5726651215
 40
1.2460209271
 50
309.4797584822
 51
120.0759041924
  0
LINE
  8
CYAN
 10
218.1362511185
 20
371.6509246007
 11
217.5129178475
 21
371.3675912957
  0
LINE
  8
CYAN
 10
217.5129178475
 20
371.3675912957
 11
214.1129181875
 21
369.9509247707
  0
LINE
  8
CYAN
 10
214.1129181875
 20
369.9509247707
 11
208.8995853755
 21
366.3809251277
  0
LINE
  8
CYAN
 10
208.8995853755
 20
366.3809251277
 11
203.6862525635
 21
363.6042587387
  0
LINE
  8
CYAN
 10
203.6862525635
 20
363.6042587387
 11
197.3962531925
 21
359.2409258417
  0
LINE
  8
CYAN
 10
197.3962531925
 20
359.2409258417
 11
191.5029204485
 21
353.8009263857
  0
LINE
  8
CYAN
 10
191.5029204485
 20
353.8009263857
 11
185.4395877215
 21
347.7375936587
  0
LINE
  8
CYAN
 10
185.4395877215
 20
347.7375936587
 11
179.3762549945
 21
341.1075943217
  0
LINE
  8
CYAN
 10
179.3762549945
 20
341.1075943217
 11
173.5395889115
 21
333.0609284597
  0
LINE
  8
CYAN
 10
173.5395889115
 20
333.0609284597
 11
171.4995891155
 21
328.6975955627
  0
LINE
  8
CYAN
 10
171.4995891155
 20
328.6975955627
 11
170.9895891665
 21
326.9975957327
  0
LINE
  8
CYAN
 10
170.9895891665
 20
326.9975957327
 11
170.6495892005
 21
325.6375958687
  0
LINE
  8
CYAN
 10
170.6495892005
 20
325.6375958687
 11
170.7062558615
 21
324.3342626657
  0
LINE
  8
CYAN
 10
170.7062558615
 20
324.3342626657
 11
171.1029224996
 21
323.1442628019
  0
ARC
  8
CYAN
 10
175.1675753462
 20
356.7595910834
 40
2.9120719809
 50
189.1949395446
 51
274.767174855
  0
LINE
  8
CYAN
 10
175.4095887144
 20
353.8575930214
 11
180.9062548349
 21
354.3675929707
  0
LINE
  8
CYAN
 10
180.9062548349
 20
354.3675929707
 11
184.2495878339
 21
354.8209262587
  0
ARC
  8
CYAN
 10
171.7827723321
 20
387.744175086
 40
35.2045707558
 50
290.7398217612
 51
306.0954543023
  0
LINE
  8
CYAN
 10
192.5229203712
 20
359.2975924895
 11
194.9595867942
 21
361.4509256075
  0
LINE
  8
CYAN
 10
194.9595867942
 20
361.4509256075
 11
198.4162531152
 21
364.2842586575
  0
LINE
  8
CYAN
 10
198.4162531152
 20
364.2842586575
 11
201.0795861822
 21
365.7575918435
  0
LINE
  8
CYAN
 10
201.0795861822
 20
365.7575918435
 11
204.9329191302
 21
368.0242582835
  0
LINE
  8
CYAN
 10
204.9329191302
 20
368.0242582835
 11
208.5595854342
 21
370.0075914185
  0
LINE
  8
CYAN
 10
208.5595854342
 20
370.0075914185
 11
211.5062518062
 21
371.7075912485
  0
ARC
  8
CYAN
 10
233.9247201572
 20
331.4083276509
 40
46.1152726298
 50
107.4930599452
 51
119.0871745127
  0
LINE
  8
CYAN
 10
220.0629176015
 20
375.3909242048
 11
221.6495841095
 21
376.0709241368
  0
LINE
  8
CYAN
 10
221.6495841095
 20
376.0709241368
 11
222.7829173295
 21
376.5809240858
  0
LINE
  8
CYAN
 10
222.7829173295
 20
376.5809240858
 11
223.1795839565
 21
377.4309240008
  0
LINE
  8
CYAN
 10
223.1795839565
 20
377.4309240008
 11
223.1795839565
 21
377.9409239498
  0
LINE
  8
CYAN
 10
223.1795839565
 20
377.9409239498
 11
222.9529173125
 21
378.6209238818
  0
LINE
  8
CYAN
 10
222.9529173125
 20
378.6209238818
 11
222.5562506855
 21
379.0175905088
  0
ARC
  8
CYAN
 10
221.7377225621
 20
378.2331495617
 40
1.1337265491
 50
43.7817874573
 51
97.338142878
  0
LINE
  8
CYAN
 10
221.5929174484
 20
379.3575904749
 11
221.3095841434
 21
379.3009238139
  0
LINE
  8
CYAN
 10
221.3095841434
 20
379.3009238139
 11
220.0062509404
 21
379.1875904919
  0
LINE
  8
CYAN
 10
220.0062509404
 20
379.1875904919
 11
215.4162513994
 21
378.2809239159
  0
LINE
  8
CYAN
 10
215.4162513994
 20
378.2809239159
 11
210.2029185874
 21
376.6942574079
  0
LINE
  8
CYAN
 10
210.2029185874
 20
376.6942574079
 11
202.6095860134
 21
374.2575909849
  0
LINE
  8
CYAN
 10
202.6095860134
 20
374.2575909849
 11
195.4695867274
 21
372.2742578499
  0
LINE
  8
CYAN
 10
195.4695867274
 20
372.2742578499
 11
188.4429207634
 21
369.3842581389
  0
LINE
  8
CYAN
 10
188.4429207634
 20
369.3842581389
 11
184.2495878494
 21
367.9675916139
  0
LINE
  8
CYAN
 10
184.2495878494
 20
367.9675916139
 11
179.6029216474
 21
365.3609252079
  0
LINE
  8
CYAN
 10
179.6029216474
 20
365.3609252079
 11
177.1662552244
 21
362.9809254459
  0
LINE
  8
CYAN
 10
177.1662552244
 20
362.9809254459
 11
174.0495888694
 21
359.9209257519
  0
LINE
  8
CYAN
 10
174.0495888694
 20
359.9209257519
 11
172.9162556494
 21
358.5609258879
  0
ARC
  8
CYAN
 10
175.1754971425
 20
356.7205929313
 40
2.9139316251
 50
140.8344282852
 51
188.4130691571
  0
ARC
  8
CYAN
 10
200.3992139697
 20
272.7672492515
 40
87.9959991576
 50
128.2791616976
 51
138.4978849573
  0
LINE
  8
CYAN
 10
134.496259444
 20
331.0775952677
 11
132.342926326
 21
327.7342622687
  0
LINE
  8
CYAN
 10
132.342926326
 20
327.7342622687
 11
131.832926377
 21
326.3175957437
  0
LINE
  8
CYAN
 10
131.832926377
 20
326.3175957437
 11
131.832926377
 21
324.8442625577
  0
LINE
  8
CYAN
 10
131.832926377
 20
324.8442625577
 11
132.172926343
 21
323.7675959987
  0
LINE
  8
CYAN
 10
132.172926343
 20
323.7675959987
 11
132.229593033
 21
323.5975960386
  0
LINE
  8
CYAN
 10
132.229593033
 20
323.5975960386
 11
132.966259626
 21
322.8042627846
  0
LINE
  8
CYAN
 10
132.966259626
 20
322.8042627846
 11
133.249592931
 21
322.4642628186
  0
LINE
  8
CYAN
 10
133.249592931
 20
322.4642628186
 11
134.722926117
 21
321.8409295476
  0
LINE
  8
CYAN
 10
134.722926117
 20
321.8409295476
 11
135.969592659
 21
322.0109295306
  0
LINE
  8
CYAN
 10
135.969592659
 20
322.0109295306
 11
136.932925896
 21
322.8609294456
  0
LINE
  8
CYAN
 10
136.932925896
 20
322.8609294456
 11
137.896259133
 21
323.9375960046
  0
LINE
  8
CYAN
 10
137.896259133
 20
323.9375960046
 11
139.086259014
 21
325.9775958006
  0
LINE
  8
CYAN
 10
139.086259014
 20
325.9775958006
 11
141.409592115
 21
328.9809288336
  0
LINE
  8
CYAN
 10
141.409592115
 20
328.9809288336
 11
144.186258504
 21
332.6642617986
  0
LINE
  8
CYAN
 10
144.186258504
 20
332.6642617986
 11
148.209591435
 21
337.4242613226
  0
LINE
  8
CYAN
 10
148.209591435
 20
337.4242613226
 11
152.572924332
 21
341.7875942196
  0
LINE
  8
CYAN
 10
152.572924332
 20
341.7875942196
 11
156.369590619
 21
345.1875938796
  0
LINE
  8
CYAN
 10
156.369590619
 20
345.1875938796
 11
159.769590279
 21
347.9075936076
  0
LINE
  8
CYAN
 10
159.769590279
 20
347.9075936076
 11
162.036256719
 21
349.9475934036
  0
LINE
  8
CYAN
 10
162.036256719
 20
349.9475934036
 11
164.472923142
 21
351.7609265556
  0
LINE
  8
CYAN
 10
164.472923142
 20
351.7609265556
 11
165.946256328
 21
352.4409264876
  0
LINE
  8
CYAN
 10
165.946256328
 20
352.4409264876
 11
166.682922921
 21
353.2342597416
  0
LINE
  8
CYAN
 10
166.682922921
 20
353.2342597416
 11
167.079589548
 21
353.9709263346
  0
LINE
  8
CYAN
 10
167.079589548
 20
353.9709263346
 11
167.079589548
 21
354.4809262836
  0
LINE
  8
CYAN
 10
167.079589548
 20
354.4809262836
 11
166.966256226
 21
354.9342595716
  0
LINE
  8
CYAN
 10
166.966256226
 20
354.9342595716
 11
166.512922938
 21
355.1609262156
  0
LINE
  8
CYAN
 10
166.512922938
 20
355.1609262156
 11
166.002922989
 21
355.3875928596
  0
LINE
  8
CYAN
 10
166.002922989
 20
355.3875928596
 11
165.096256413
 21
355.1609262156
  0
LINE
  8
CYAN
 10
165.096256413
 20
355.1609262156
 11
164.019589854
 21
354.4242596226
  0
LINE
  8
CYAN
 10
164.019589854
 20
354.4242596226
 11
160.562923533
 21
352.3275931656
  0
LINE
  8
CYAN
 10
160.562923533
 20
352.3275931656
 11
153.139590942
 21
347.5109269806
  0
LINE
  8
CYAN
 10
153.139590942
 20
347.5109269806
 11
145.886258305
 21
341.8442608577
  0
ARC
  8
CYAN
 10
117.2306008355
 20
351.3909959686
 40
44.1105344603
 50
321.3217240695
 51
331.7475172378
  0
LINE
  8
CYAN
 10
156.0862573525
 20
330.510928751
 11
158.0129238265
 21
333.344261801
  0
LINE
  8
CYAN
 10
158.0129238265
 20
333.344261801
 11
160.4495902495
 21
337.140928088
  0
LINE
  8
CYAN
 10
160.4495902495
 20
337.140928088
 11
163.3962566215
 21
340.937594375
  0
LINE
  8
CYAN
 10
163.3962566215
 20
340.937594375
 11
165.9462563665
 21
343.544260781
  0
LINE
  8
CYAN
 10
165.9462563665
 20
343.544260781
 11
167.5329228745
 21
344.904260645
  0
LINE
  8
CYAN
 10
167.5329228745
 20
344.904260645
 11
169.1195893825
 21
346.604260475
  0
LINE
  8
CYAN
 10
169.1195893825
 20
346.604260475
 11
170.4229225855
 21
347.907593678
  0
LINE
  8
CYAN
 10
170.4229225855
 20
347.907593678
 11
171.2729225005
 21
348.984260237
  0
LINE
  8
CYAN
 10
171.2729225005
 20
348.984260237
 11
171.5562558055
 21
350.117593457
  0
LINE
  8
CYAN
 10
171.5562558055
 20
350.117593457
 11
171.4429224835
 21
350.797593389
  0
LINE
  8
CYAN
 10
171.4429224835
 20
350.797593389
 11
170.7629225515
 21
351.42092666
  0
LINE
  8
CYAN
 10
170.7629225515
 20
351.42092666
 11
169.9129226365
 21
351.477593321
  0
LINE
  8
CYAN
 10
169.9129226365
 20
351.477593321
 11
168.7795894165
 21
351.080926694
  0
LINE
  8
CYAN
 10
168.7795894165
 20
351.080926694
 11
167.0229229255
 21
349.834260152
  0
LINE
  8
CYAN
 10
167.0229229255
 20
349.834260152
 11
163.1129233165
 21
346.604260475
  0
LINE
  8
CYAN
 10
163.1129233165
 20
346.604260475
 11
158.8062570805
 21
342.750927527
  0
LINE
  8
CYAN
 10
158.8062570805
 20
342.750927527
 11
153.3662576245
 21
337.424261393
  0
LINE
  8
CYAN
 10
153.3662576245
 20
337.424261393
 11
150.1362579475
 21
333.627595106
  0
LINE
  8
CYAN
 10
150.1362579475
 20
333.627595106
 11
146.7929249485
 21
330.000928802
  0
LINE
  8
CYAN
 10
146.7929249485
 20
330.000928802
 11
145.4329250845
 21
327.394262396
  0
LINE
  8
CYAN
 10
145.4329250845
 20
327.394262396
 11
145.1495917795
 21
325.92092921
  0
LINE
  8
CYAN
 10
145.1495917795
 20
325.92092921
 11
145.2062584405
 21
324.730929329
  0
LINE
  8
CYAN
 10
145.2062584405
 20
324.730929329
 11
145.4329250845
 21
323.710929431
  0
LINE
  8
CYAN
 10
145.4329250845
 20
323.710929431
 11
145.7729250215
 21
323.2575961067
  0
LINE
  8
CYAN
 10
145.7729250215
 20
323.2575961067
 11
146.6795915975
 21
322.4642628527
  0
LINE
  8
CYAN
 10
146.6795915975
 20
322.4642628527
 11
148.0962581225
 21
322.0675962257
  0
LINE
  8
CYAN
 10
148.0962581225
 20
322.0675962257
 11
149.1729246815
 21
322.2942628697
  0
LINE
  8
CYAN
 10
149.1729246815
 20
322.2942628697
 11
150.0229245965
 21
322.4075961917
  0
LINE
  8
CYAN
 10
150.0229245965
 20
322.4075961917
 11
150.8729245115
 21
323.0309294627
  0
LINE
  8
CYAN
 10
150.8729245115
 20
323.0309294627
 11
151.6662577945
 21
323.824262753
  0
ARC
  8
CYAN
 10
161.0359321819
 20
324.6164036411
 40
2.8267401483
 50
247.1794206841
 51
285.8841207981
  0
LINE
  8
CYAN
 10
161.809590232
 20
321.8975963497
 11
161.922923554
 21
321.8975963497
  0
LINE
  8
CYAN
 10
161.922923554
 20
321.8975963497
 11
162.999590113
 21
322.2942629767
  0
LINE
  8
CYAN
 10
162.999590113
 20
322.2942629767
 11
163.679590045
 21
322.8042629257
  0
LINE
  8
CYAN
 10
163.679590045
 20
322.8042629257
 11
164.472923299
 21
323.7675961627
  0
LINE
  8
CYAN
 10
164.472923299
 20
323.7675961627
 11
180.112921735
 21
348.3042603757
  0
LINE
  8
CYAN
 10
180.112921735
 20
348.3042603757
 11
180.452921701
 21
348.9275936467
  0
LINE
  8
CYAN
 10
180.452921701
 20
348.9275936467
 11
180.736255006
 21
349.3809269347
  0
ARC
  8
CYAN
 10
179.8290476284
 20
349.8915382263
 40
1.0410327166
 50
330.6275130903
 51
112.3654235581
  0
LINE
  8
CYAN
 10
179.4329218036
 20
350.8542601217
 11
178.2995885836
 21
350.4009268337
  0
LINE
  8
CYAN
 10
178.2995885836
 20
350.4009268337
 11
177.3362553466
 21
349.8342602237
  0
LINE
  8
CYAN
 10
177.3362553466
 20
349.8342602237
 11
174.7295889406
 21
347.1709271567
  0
LINE
  8
CYAN
 10
174.7295889406
 20
347.1709271567
 11
170.5929226876
 21
343.2609275477
  0
LINE
  8
CYAN
 10
170.5929226876
 20
343.2609275477
 11
165.8895898246
 21
337.8209280917
  0
LINE
  8
CYAN
 10
165.8895898246
 20
337.8209280917
 11
159.1462571656
 21
329.4909289247
  0
ARC
  8
CYAN
 10
161.818221
 20
327.4123086185
 40
3.3852700202
 50
142.1193222289
 51
166.7607474009
  0
LINE
  8
CYAN
 10
158.5229238936
 20
328.1875957205
 11
157.8995906226
 21
325.6942626365
  0
LINE
  8
CYAN
 10
157.8995906226
 20
325.6942626365
 11
158.0129239446
 21
324.2209294505
  0
LINE
  8
CYAN
 10
158.0129239446
 20
324.2209294505
 11
158.1829239276
 21
323.4275961965
  0
LINE
  8
CYAN
 10
158.1829239276
 20
323.4275961965
 11
159.0895905036
 21
322.4642629595
  0
LINE
  8
CYAN
 10
159.0895905036
 20
322.4642629595
 11
159.3729238086
 21
322.2375963155
  0
LINE
  8
CYAN
 10
159.3729238086
 20
322.2375963155
 11
159.4295904696
 21
322.2375963155
  0
LINE
  8
CYAN
 10
159.4295904696
 20
322.2375963155
 11
159.939590419
 21
322.0109296717
  0
ARC
  8
CYAN
 10
198.9829196639
 20
347.3409269745
 40
2.1718934778
 50
262.5041423603
 51
277.4958576397
  0
ARC
  8
CYAN
 10
198.975945311
 20
351.193388128
 40
6.0128066132
 50
272.7674052727
 51
281.4826273738
  0
LINE
  8
CYAN
 10
200.1729195502
 20
345.3009271788
 11
200.7395861602
 21
345.4709271618
  0
LINE
  8
CYAN
 10
200.7395861602
 20
345.4709271618
 11
200.9662528042
 21
345.5275938228
  0
LINE
  8
CYAN
 10
200.9662528042
 20
345.5275938228
 11
201.2495861092
 21
345.5842604838
  0
LINE
  8
CYAN
 10
201.2495861092
 20
345.5842604838
 11
201.6462527362
 21
345.6975938058
  0
ARC
  8
CYAN
 10
197.6331344145
 20
365.193357239
 40
19.9045198513
 50
281.6316172098
 51
285.1533782448
  0
ARC
  8
CYAN
 10
200.2748611461
 20
353.739878231
 40
8.1708046599
 50
288.2691335955
 51
293.8058884013
  0
ARC
  8
CYAN
 10
188.9762784502
 20
378.8583709977
 40
35.713274373
 50
294.1242965816
 51
295.4259845007
  0
LINE
  8
CYAN
 10
204.30958586
 20
346.6042604019
 11
207.596252198
 21
348.0209269269
  0
LINE
  8
CYAN
 10
207.596252198
 20
348.0209269269
 11
208.446252113
 21
348.3609268929
  0
LINE
  8
CYAN
 10
208.446252113
 20
348.3609268929
 11
209.579585333
 21
348.8709268419
  0
ARC
  8
CYAN
 10
197.4212209618
 20
374.9504314547
 40
28.7744050334
 50
294.9951123862
 51
299.437110673
  0
ARC
  8
CYAN
 10
208.8443507796
 20
354.9918468219
 40
5.7801380585
 50
298.0556677909
 51
307.4147846976
  0
ARC
  8
CYAN
 10
209.1322697778
 20
354.5428584458
 40
5.2487768413
 50
307.8963485515
 51
314.475501722
  0
ARC
  8
CYAN
 10
193.4884872397
 20
370.1232824185
 40
27.3274052735
 50
314.9931931992
 51
318.1031221397
  0
ARC
  8
CYAN
 10
165.3244864108
 20
396.3593474685
 40
65.8154054941
 50
317.4753831364
 51
319.2575381309
  0
ARC
  8
CYAN
 10
188.7099940468
 20
374.5195829296
 40
33.8677663973
 50
321.4304838836
 51
323.9616195002
  0
ARC
  8
CYAN
 10
201.5904350539
 20
365.702178262
 40
18.2703192168
 50
322.5566903262
 51
329.2143637225
  0
ARC
  8
CYAN
 10
230.3785331555
 20
348.5342375028
 40
15.2482282611
 50
141.6545485646
 51
149.1608740324
  0
ARC
  8
CYAN
 10
238.7673754367
 20
341.509424735
 40
26.1874467311
 50
137.3826161315
 51
140.9872160924
  0
ARC
  8
CYAN
 10
210.7212113662
 20
366.9579576782
 40
11.6856280116
 50
318.6706387988
 51
324.0097446331
  0
LINE
  8
CYAN
 10
220.1762510711
 20
360.0909258446
 11
220.9695843251
 21
361.1675924036
  0
LINE
  8
CYAN
 10
220.9695843251
 20
361.1675924036
 11
222.3295841891
 21
363.0375922166
  0
LINE
  8
CYAN
 10
222.3295841891
 20
363.0375922166
 11
222.9529174601
 21
363.8875921316
  0
ARC
  8
CYAN
 10
207.3136311855
 20
376.2418907331
 40
19.9302776979
 50
321.692928219
 51
325.538368089
  0
ARC
  8
CYAN
 10
218.6349179082
 20
367.9449250812
 40
5.9169329234
 50
329.751462372
 51
337.1184352121
  0
LINE
  8
CYAN
 10
224.0862506964
 20
365.6442586446
 11
224.2562506794
 21
365.9842586106
  0
ARC
  8
CYAN
 10
203.9695860493
 20
373.1242579192
 40
21.5064723267
 50
340.6102098592
 51
342.5198924309
  0
LINE
  8
CYAN
 10
224.4829173313
 20
366.6642585652
 11
224.5962506533
 21
366.8909252092
  0
LINE
  8
CYAN
 10
224.5962506533
 20
366.8909252092
 11
224.6529173143
 21
367.2875918362
  0
ARC
  8
CYAN
 10
223.4607379468
 20
367.6668225688
 40
1.2510426024
 50
342.3541992731
 51
3.3957679651
  0
LINE
  8
CYAN
 10
224.7095839758
 20
367.7409251255
 11
224.5962506538
 21
368.0242584305
  0
LINE
  8
CYAN
 10
224.5962506538
 20
368.0242584305
 11
224.4262506708
 21
368.1375917525
  0
LINE
  8
CYAN
 10
224.4262506708
 20
368.1375917525
 11
223.9729173828
 21
368.1942584135
  0
LINE
  8
CYAN
 10
223.9729173828
 20
368.1942584135
 11
223.5195840948
 21
368.1942584135
  0
LINE
  8
CYAN
 10
223.5195840948
 20
368.1942584135
 11
223.2362507898
 21
368.0242584305
  0
LINE
  8
CYAN
 10
223.2362507898
 20
368.0242584305
 11
221.4229176378
 21
366.9475918715
  0
ARC
  8
CYAN
 10
214.7945484447
 20
373.9189108159
 40
9.6194888629
 50
304.4265365729
 51
313.5554514532
  0
ARC
  8
CYAN
 10
196.5012816487
 20
401.8614314374
 40
43.0158352302
 50
299.5861850265
 51
303.483398727
  0
ARC
  8
CYAN
 10
246.5072785288
 20
314.4059233251
 40
57.7270828376
 50
119.8902122813
 51
123.3247921887
  0
ARC
  8
CYAN
 10
266.4708393896
 20
285.2894752738
 40
93.0260952727
 50
123.7465864254
 51
126.4774359202
  0
ARC
  8
CYAN
 10
223.8041168976
 20
342.4685456506
 40
21.6855692735
 50
125.6461452136
 51
131.1899654525
  0
ARC
  8
CYAN
 10
236.2787853816
 20
319.5260148779
 40
47.5115553042
 50
124.2735344923
 51
140.6293153257
  0
ARC
  8
CYAN
 10
201.5895862554
 20
347.5675937907
 40
2.9253391939
 50
134.215175372
 51
148.4652080948
  0
ARC
  8
CYAN
 10
202.5012528298
 20
346.6692605456
 40
4.1822032805
 50
144.5047910174
 51
153.5676958914
  0
ARC
  8
CYAN
 10
209.4585122943
 20
343.9765860126
 40
11.6310090576
 50
156.9478459698
 51
162.6024351385
  0
LINE
  8
CYAN
 10
198.3595865749
 20
347.4542604616
 11
198.2462532529
 21
347.0009271736
  0
LINE
  8
CYAN
 10
198.2462532529
 20
347.0009271736
 11
198.1329199309
 21
346.6042605466
  0
LINE
  8
CYAN
 10
198.1329199309
 20
346.6042605466
 11
198.0762532699
 21
346.2075939196
  0
LINE
  8
CYAN
 10
198.0762532699
 20
346.2075939196
 11
198.1329199309
 21
345.9809272756
  0
LINE
  8
CYAN
 10
198.1329199309
 20
345.9809272756
 11
198.132919747
 21
345.7542604667
  0
LINE
  8
CYAN
 10
198.132919747
 20
345.7542604667
 11
198.30291973
 21
345.3575938397
  0
LINE
  8
CYAN
 10
198.30291973
 20
345.3575938397
 11
198.6995863589
 21
345.1875938565
  0
ARC
  8
CYAN
 10
165.7086916978
 20
303.5831018378
 40
51.7662718767
 50
122.6467980153
 51
148.7290208007
  0
LINE
  8
CYAN
 10
121.462927443
 20
330.4542620196
 11
120.72626085
 21
328.7542621896
  0
LINE
  8
CYAN
 10
120.72626085
 20
328.7542621896
 11
120.499594206
 21
326.9409290376
  0
LINE
  8
CYAN
 10
120.499594206
 20
326.9409290376
 11
120.8395941895
 21
325.6375958459
  0
LINE
  8
CYAN
 10
120.8395941895
 20
325.6375958459
 11
121.3495941385
 21
325.0142625749
  0
LINE
  8
CYAN
 10
121.3495941385
 20
325.0142625749
 11
122.0295940705
 21
324.6175959479
  0
LINE
  8
CYAN
 10
122.0295940705
 20
324.6175959479
 11
123.5595939175
 21
324.2775959819
  0
LINE
  8
CYAN
 10
123.5595939175
 20
324.2775959819
 11
125.3162604085
 21
324.7309292699
  0
LINE
  8
CYAN
 10
125.3162604085
 20
324.7309292699
 11
126.4495936285
 21
325.9775958119
  0
LINE
  8
CYAN
 10
126.4495936285
 20
325.9775958119
 11
127.5262601875
 21
327.8475956249
  0
LINE
  8
CYAN
 10
127.5262601875
 20
327.8475956249
 11
128.7729267295
 21
329.7175954379
  0
LINE
  8
CYAN
 10
128.7729267295
 20
329.7175954379
 11
131.3229264745
 21
333.3442617419
  0
LINE
  8
CYAN
 10
131.3229264745
 20
333.3442617419
 11
139.4262589975
 21
342.1275941969
  0
LINE
  8
CYAN
 10
139.4262589975
 20
342.1275941969
 11
140.5029255565
 21
343.3742607389
  0
LINE
  8
CYAN
 10
140.5029255565
 20
343.3742607389
 11
141.2962588105
 21
344.7342606029
  0
LINE
  8
CYAN
 10
141.2962588105
 20
344.7342606029
 11
141.9762587425
 21
345.5275938569
  0
LINE
  8
CYAN
 10
141.9762587425
 20
345.5275938569
 11
142.2595920475
 21
346.5475937549
  0
LINE
  8
CYAN
 10
142.2595920475
 20
346.5475937549
 11
142.6562586745
 21
347.2275936869
  0
LINE
  8
CYAN
 10
142.6562586745
 20
347.2275936869
 11
142.7695919965
 21
347.8509269579
  0
LINE
  8
CYAN
 10
142.7695919965
 20
347.8509269579
 11
142.5429253525
 21
348.4175935679
  0
LINE
  8
CYAN
 10
142.5429253525
 20
348.4175935679
 11
142.0895920645
 21
348.7009268729
  0
LINE
  8
CYAN
 10
142.0895920645
 20
348.7009268729
 11
141.4662587935
 21
348.8709268559
  0
LINE
  8
CYAN
 10
141.4662587935
 20
348.8709268559
 11
139.8795922855
 21
348.3609269069
  0
LINE
  8
CYAN
 10
139.8795922855
 20
348.3609269069
 11
137.782925811
 21
347.1709270146
  0
ARC
  8
CYAN
 10
211.3867289607
 20
327.6733842621
 40
4.6733619646
 50
258.890601351
 51
349.5731098124
  0
LINE
  8
CYAN
 10
215.9829180207
 20
326.8275957677
 11
220.4595842407
 21
351.7609266131
  0
ARC
  8
CYAN
 10
219.1869969095
 20
351.997467845
 40
1.2943841277
 50
349.4703555276
 51
148.8207283276
  0
ARC
  8
CYAN
 10
314.0152825486
 20
292.3722607121
 40
113.310128774
 50
147.850747109
 51
161.0293225196
  0
ARC
  8
CYAN
 10
211.3399336848
 20
327.7280491044
 40
4.7183235074
 50
161.7252151384
 51
259.5761207117
  0
ARC
  8
CYAN
 10
225.1200201375
 20
331.0232236035
 40
8.1905264827
 50
278.2567177078
 51
280.6681289228
  0
LINE
  8
CYAN
 10
226.636250426
 20
322.9742628149
 11
228.1095836215
 21
323.2575961217
  0
LINE
  8
CYAN
 10
228.1095836215
 20
323.2575961217
 11
228.6195835705
 21
323.5409294267
  0
LINE
  8
CYAN
 10
228.6195835705
 20
323.5409294267
 11
229.2995835025
 21
324.1075960367
  0
ARC
  8
CYAN
 10
228.5672758843
 20
324.9641344133
 40
1.1269127909
 50
310.5291791063
 51
342.0906857836
  0
LINE
  8
CYAN
 10
229.6395834694
 20
324.6175959865
 11
230.0362500964
 21
325.5809292235
  0
ARC
  8
CYAN
 10
217.2846513781
 20
331.5837953038
 40
14.0938877195
 50
334.7911012641
 51
339.5415903172
  0
ARC
  8
CYAN
 10
220.5799690017
 20
330.6440056652
 40
10.6813819792
 50
338.086211624
 51
342.6061401966
  0
LINE
  8
CYAN
 10
230.7729167004
 20
327.4509290614
 11
230.8295833614
 21
327.9042623494
  0
ARC
  8
CYAN
 10
227.4302503687
 20
328.5362622901
 40
3.4575842318
 50
349.4678884802
 51
1.7347007441
  0
ARC
  8
CYAN
 10
226.6875268657
 20
328.1560834664
 40
4.2266241011
 50
6.5870272529
 51
17.6024869
  0
ARC
  8
CYAN
 10
211.1095853339
 20
325.0142626432
 40
20.0986988879
 50
12.7040236117
 51
15.3684633218
  0
ARC
  8
CYAN
 10
244.4844108283
 20
335.0502346035
 40
14.7659322844
 50
195.6072009033
 51
198.5982569975
  0
LINE
  8
CYAN
 10
230.262916755
 20
331.0775953611
 11
229.866250128
 21
332.6075952081
  0
LINE
  8
CYAN
 10
229.866250128
 20
332.6075952081
 11
229.7529168113
 21
333.1742617925
  0
ARC
  8
CYAN
 10
305.169322262
 20
353.5441210642
 40
78.1189181816
 50
194.1269118714
 51
195.1148360692
  0
ARC
  8
CYAN
 10
388.1973449845
 20
368.1726730823
 40
162.3202171816
 50
191.2864626908
 51
191.980805271
  0
ARC
  8
CYAN
 10
337.8121686921
 20
359.7706006114
 40
111.2768515053
 50
191.2573337658
 51
192.121404549
  0
ARC
  8
CYAN
 10
295.652292541
 20
350.3669784693
 40
68.0996142236
 50
189.3092870561
 51
190.4223267944
  0
ARC
  8
CYAN
 10
299.1106126427
 20
352.0013767245
 40
71.7845030608
 50
188.774508449
 51
190.1501359314
  0
ARC
  8
CYAN
 10
300.0171019956
 20
351.4961518989
 40
72.6061126567
 50
186.9179297621
 51
188.2713569397
  0
ARC
  8
CYAN
 10
337.0250512739
 20
356.5597164536
 40
109.9559997959
 50
186.4710251015
 51
187.2145216886
  0
ARC
  8
CYAN
 10
164.5885009648
 20
338.421818611
 40
63.4418091877
 50
5.1962638955
 51
6.2249223785
  0
LINE
  8
CYAN
 10
227.6562504336
 20
345.300926834
 11
227.4862504506
 21
346.320926732
  0
LINE
  8
CYAN
 10
227.4862504506
 20
346.320926732
 11
227.3162504676
 21
347.794259918
  0
ARC
  8
CYAN
 10
398.5651040494
 20
370.7838429794
 40
172.7851000012
 50
187.0587069448
 51
187.6460517397
  0
ARC
  8
CYAN
 10
250.7777796698
 20
353.8484033366
 40
24.074860968
 50
188.6419665674
 51
190.282677813
  0
ARC
  8
CYAN
 10
240.2362491926
 20
350.5425928525
 40
13.2636609173
 50
178.6535522569
 51
181.346447743
  0
ARC
  8
CYAN
 10
426.3291267323
 20
361.7432206889
 40
199.6500406481
 50
182.4589277796
 51
183.1264769174
  0
LINE
  8
CYAN
 10
226.8629172031
 20
353.1775924654
 11
226.8629172031
 21
353.8575923974
  0
LINE
  8
CYAN
 10
226.8629172031
 20
353.8575923974
 11
226.8062505421
 21
354.5375923294
  0
ARC
  8
CYAN
 10
233.3788114932
 20
354.5819113872
 40
6.572710372
 50
172.4609891952
 51
180.386342021
  0
ARC
  8
CYAN
 10
222.2721985429
 20
356.1708578189
 40
4.6478644348
 50
351.0060815519
 51
0.8226848221
  0
LINE
  8
CYAN
 10
226.919583865
 20
356.2375921608
 11
226.862917204
 21
356.4642588048
  0
LINE
  8
CYAN
 10
226.862917204
 20
356.4642588048
 11
226.862917204
 21
356.8609254318
  0
LINE
  8
CYAN
 10
226.862917204
 20
356.8609254318
 11
226.692917221
 21
357.4275920418
  0
ARC
  8
CYAN
 10
225.5799125141
 20
357.1437374929
 40
1.1486308731
 50
14.3074054287
 51
162.7549931399
  0
LINE
  8
CYAN
 10
224.482917442
 20
357.4842587029
 11
224.256250798
 21
356.7475921099
  0
ARC
  8
CYAN
 10
131.2719267971
 20
387.0812558473
 40
97.8070328026
 50
341.1976409909
 51
341.932461299
  0
LINE
  8
CYAN
 10
223.859584205
 20
355.557592333
 11
223.746250883
 21
355.330925689
  0
LINE
  8
CYAN
 10
223.746250883
 20
355.330925689
 11
223.746250883
 21
355.217592367
  0
LINE
  8
CYAN
 10
223.746250883
 20
355.217592367
 11
223.122917612
 21
352.724259283
  0
LINE
  8
CYAN
 10
223.122917612
 20
352.724259283
 11
222.102917714
 21
348.417593047
  0
LINE
  8
CYAN
 10
222.102917714
 20
348.417593047
 11
221.706251087
 21
346.830926539
  0
ARC
  8
CYAN
 10
240.6900358528
 20
342.4134203037
 40
19.4909836944
 50
166.9004548415
 51
172.4898521897
  0
ARC
  8
CYAN
 10
257.1790775107
 20
337.3747417722
 40
36.6074956285
 50
168.0399058349
 51
200.0166214665
  0
ARC
  8
CYAN
 10
225.42005416
 20
325.8280413616
 40
2.814659976
 50
200.4579452111
 51
263.5988472293
  0
ARC
  8
CYAN
 10
226.4782843211
 20
331.1331153415
 40
8.2175362174
 50
260.3886476276
 51
268.7306881614
  0
ARC
  8
CYAN
 10
166.1162563136
 20
360.6009256824
 40
1.749339383
 50
294.9047688081
 51
114.9047688081
  0
LINE
  8
CYAN
 10
165.3795897206
 20
362.1875921904
 11
156.9362572316
 21
358.2775925814
  0
LINE
  8
CYAN
 10
156.9362572316
 20
358.2775925814
 11
152.2329243686
 21
356.0109261414
  0
LINE
  8
CYAN
 10
152.2329243686
 20
356.0109261414
 11
149.9095912676
 21
354.2542596504
  0
LINE
  8
CYAN
 10
149.9095912676
 20
354.2542596504
 11
148.3229247596
 21
352.5542598204
  0
LINE
  8
CYAN
 10
148.3229247596
 20
352.5542598204
 11
147.0195915566
 21
350.4009267024
  0
LINE
  8
CYAN
 10
147.0195915566
 20
350.4009267024
 11
146.7929249126
 21
349.4375934654
  0
LINE
  8
CYAN
 10
146.7929249126
 20
349.4375934654
 11
146.6229249296
 21
348.8142601944
  0
LINE
  8
CYAN
 10
146.6229249296
 20
348.8142601944
 11
146.5095916076
 21
348.1342602624
  0
LINE
  8
CYAN
 10
146.5095916076
 20
348.1342602624
 11
146.6795915906
 21
347.6242603134
  0
LINE
  8
CYAN
 10
146.6795915906
 20
347.6242603134
 11
146.8495915736
 21
347.3975936694
  0
LINE
  8
CYAN
 10
146.8495915736
 20
347.3975936694
 11
147.2462582006
 21
347.2275936864
  0
LINE
  8
CYAN
 10
147.2462582006
 20
347.2275936864
 11
147.5295915056
 21
347.2842603474
  0
LINE
  8
CYAN
 10
147.5295915056
 20
347.2842603474
 11
147.9262581326
 21
347.4542603304
  0
LINE
  8
CYAN
 10
147.9262581326
 20
347.4542603304
 11
148.6629247256
 21
348.0209269404
  0
LINE
  8
CYAN
 10
148.6629247256
 20
348.0209269404
 11
149.5695913
 21
348.7575935327
  0
LINE
  8
CYAN
 10
149.5695913
 20
348.7575935327
 11
151.609591096
 21
350.2875933797
  0
LINE
  8
CYAN
 10
151.609591096
 20
350.2875933797
 11
154.10292418
 21
351.9309265487
  0
LINE
  8
CYAN
 10
154.10292418
 20
351.9309265487
 11
156.142923976
 21
353.1209264297
  0
LINE
  8
CYAN
 10
156.142923976
 20
353.1209264297
 11
159.032923687
 21
355.0475929037
  0
LINE
  8
CYAN
 10
159.032923687
 20
355.0475929037
 11
161.526256771
 21
356.2942594457
  0
LINE
  8
CYAN
 10
161.526256771
 20
356.2942594457
 11
163.509589906
 21
357.3709260047
  0
LINE
  8
CYAN
 10
163.509589906
 20
357.3709260047
 11
164.699589787
 21
357.9942592757
  0
LINE
  8
CYAN
 10
164.699589787
 20
357.9942592757
 11
165.43625638
 21
358.3909259027
  0
LINE
  8
CYAN
 10
165.43625638
 20
358.3909259027
 11
166.8529229066
 21
359.0142591744
  0
ARC
  8
CYAN
 10
187.4513053558
 20
325.1245459137
 40
3.4451503191
 50
218.6196675402
 51
333.6906692171
  0
LINE
  8
CYAN
 10
190.5395872402
 20
323.5975961034
 11
198.586253104
 21
339.860927814
  0
ARC
  8
CYAN
 10
197.2359470541
 20
340.5329303515
 40
1.5082817505
 50
333.5419930281
 51
127.4127443669
  0
ARC
  8
CYAN
 10
220.4620130943
 20
310.2273230871
 40
39.6904755957
 50
127.4643372035
 51
155.6359859659
  0
ARC
  8
CYAN
 10
187.4203054895
 20
325.1485190187
 40
3.4361036915
 50
154.9954013476
 51
219.2546312874
  0
ARC
  8
CYAN
 10
201.1929196343
 20
332.6642619361
 40
10.3799031577
 50
246.5139061958
 51
249.8832748316
  0
ARC
  8
CYAN
 10
210.8148773385
 20
358.225062289
 40
37.6914432883
 50
249.5127624597
 51
250.5210244497
  0
ARC
  8
CYAN
 10
206.6817876382
 20
349.7799329897
 40
28.3720345577
 50
252.7033754178
 51
253.898136067
  0
ARC
  8
CYAN
 10
201.239631398
 20
329.0973253361
 40
7.0098437548
 50
249.7457747182
 51
256.048767297
  0
LINE
  8
CYAN
 10
199.549586522
 20
322.2942629534
 11
199.946253149
 21
322.2942629534
  0
LINE
  8
CYAN
 10
199.946253149
 20
322.2942629534
 11
200.399586437
 21
322.4642629364
  0
LINE
  8
CYAN
 10
200.399586437
 20
322.4642629364
 11
200.796253064
 21
322.6909295804
  0
LINE
  8
CYAN
 10
200.796253064
 20
322.6909295804
 11
201.022919708
 21
322.8042629024
  0
LINE
  8
CYAN
 10
201.022919708
 20
322.8042629024
 11
201.249586352
 21
322.9742628854
  0
LINE
  8
CYAN
 10
201.249586352
 20
322.9742628854
 11
201.532919657
 21
323.4275961734
  0
ARC
  8
CYAN
 10
193.3611963402
 20
327.0249521445
 40
8.9284955031
 50
336.2399462106
 51
340.1572347539
  0
ARC
  8
CYAN
 10
192.6336385028
 20
326.81800611
 40
9.5528241694
 50
342.8069294674
 51
346.6828330619
  0
LINE
  8
CYAN
 10
201.9295862911
 20
324.6175960736
 11
202.0995862741
 21
325.3542626666
  0
LINE
  8
CYAN
 10
202.0995862741
 20
325.3542626666
 11
202.3262529181
 21
326.2042625816
  0
ARC
  8
CYAN
 10
169.2888040861
 20
334.5874498995
 40
34.0844664757
 50
345.7618216784
 51
348.7894668858
  0
ARC
  8
CYAN
 10
230.3212501248
 20
321.9042630339
 40
28.2551066927
 50
164.3052909748
 51
167.6222220579
  0
ARC
  8
CYAN
 10
222.1020152754
 20
325.0111947723
 40
19.5169553703
 50
160.6613236961
 51
166.5595956046
  0
ARC
  8
CYAN
 10
248.3950747362
 20
314.7547469498
 40
47.7328078571
 50
155.743745464
 51
159.4959844022
  0
ARC
  8
CYAN
 10
375.9433617018
 20
257.843371131
 40
187.4017142354
 50
155.0242289764
 51
155.9003140412
  0
ARC
  8
CYAN
 10
48.7673642004
 20
409.9746652373
 40
173.414203283
 50
335.1035889731
 51
336.0085014033
  0
LINE
  8
CYAN
 10
207.1995858002
 20
339.4642613296
 11
207.7662524101
 21
340.6542612105
  0
LINE
  8
CYAN
 10
207.7662524101
 20
340.6542612105
 11
207.8229190711
 21
340.8242611935
  0
LINE
  8
CYAN
 10
207.8229190711
 20
340.8242611935
 11
207.8795857321
 21
341.0509278375
  0
LINE
  8
CYAN
 10
207.8795857321
 20
341.0509278375
 11
207.9362523931
 21
341.4475944645
  0
LINE
  8
CYAN
 10
207.9362523931
 20
341.4475944645
 11
208.1062523761
 21
341.8442610915
  0
LINE
  8
CYAN
 10
208.1062523761
 20
341.8442610915
 11
208.2762523591
 21
342.6942610065
  0
ARC
  8
CYAN
 10
207.0651061391
 20
342.9346105774
 40
1.2347643834
 50
348.7755947493
 51
125.4139193393
  0
LINE
  8
CYAN
 10
206.3495858854
 20
343.9409275499
 11
204.5362527334
 21
342.5809276859
  0
LINE
  8
CYAN
 10
204.5362527334
 20
342.5809276859
 11
203.8562527823
 21
341.9009277351
  0
ARC
  8
CYAN
 10
256.7151470175
 20
292.0789783558
 40
72.6380708701
 50
136.6941174747
 51
137.5480752931
  0
ARC
  8
CYAN
 10
237.2269160758
 20
310.8405974686
 40
45.6004502196
 50
138.4140069419
 51
140.3834037421
  0
ARC
  8
CYAN
 10
208.1154061642
 20
334.8293642978
 40
7.8790974348
 50
139.7751821248
 51
144.474850547
  0
ARC
  8
CYAN
 10
206.1342231537
 20
336.3669731495
 40
5.3741817811
 50
145.5433081483
 51
153.9438174974
  0
ARC
  8
CYAN
 10
224.1503004473
 20
326.7862632669
 40
25.7768481333
 50
152.402458318
 51
156.1776340918
  0
ARC
  8
CYAN
 10
236.1112666848
 20
320.7905517658
 40
39.1459078225
 50
155.2206193267
 51
156.854402695
  0
ARC
  8
CYAN
 10
189.8517713742
 20
339.9547209711
 40
10.9373793249
 50
336.5997971317
 51
339.7973838318
  0
ARC
  8
CYAN
 10
172.1287274635
 20
347.9768376651
 40
30.3904755924
 50
334.4600159098
 51
335.9897028895
  0
ARC
  8
CYAN
 10
233.5552497674
 20
317.3755968058
 40
38.2438022173
 50
152.7705146032
 51
154.0993830141
  0
ARC
  8
CYAN
 10
246.5307432647
 20
311.1971488633
 40
52.6148792476
 50
154.2191721289
 51
155.3785805512
  0
ARC
  8
CYAN
 10
243.17278163
 20
311.8458819839
 40
49.2985888429
 50
154.4380172585
 51
155.5281957563
  0
ARC
  8
CYAN
 10
206.6250729491
 20
328.7886981779
 40
9.0200308057
 50
157.3136826913
 51
163.8062476231
  0
ARC
  8
CYAN
 10
189.8652541148
 20
333.5312618153
 40
8.3983165181
 50
338.5072854993
 51
344.6228167902
  0
ARC
  8
CYAN
 10
182.3737833265
 20
337.0716842424
 40
16.6750679577
 50
333.8308284457
 51
336.6188903534
  0
ARC
  8
CYAN
 10
232.744565977
 20
313.3713085037
 40
38.9963287649
 50
155.2174857442
 51
156.8575362775
  0
ARC
  8
CYAN
 10
235.7667358535
 20
311.1472804263
 40
42.6580060328
 50
155.7059931162
 51
157.0352513934
  0
ARC
  8
CYAN
 10
216.0920601562
 20
319.2242040434
 40
21.3926562099
 50
156.3935821613
 51
158.3666879133
  0
LINE
  8
CYAN
 10
196.2062534663
 20
327.110929093
 11
196.0929201443
 21
326.7709291271
  0
ARC
  8
CYAN
 10
225.1017172402
 20
320.8526630362
 40
29.6063537517
 50
168.4689755851
 51
170.9213314458
  0
ARC
  8
CYAN
 10
202.8372450173
 20
324.6334714739
 40
7.0276761131
 50
172.7179002316
 51
180.1294309863
  0
LINE
  8
CYAN
 10
195.8095868355
 20
324.6175959891
 11
195.8662534965
 21
324.1642627011
  0
LINE
  8
CYAN
 10
195.8662534965
 20
324.1642627011
 11
196.0362534795
 21
323.7675960741
  0
LINE
  8
CYAN
 10
196.0362534795
 20
323.7675960741
 11
196.4895867675
 21
323.4275961081
  0
ARC
  8
CYAN
 10
202.1109195473
 20
334.2452616885
 40
12.191032394
 50
242.5416358333
 51
244.328261767
  0
LINE
  8
CYAN
 10
196.8295867421
 20
323.2575961206
 11
197.0562533813
 21
323.1442628881
  0
LINE
  8
CYAN
 10
239.0770920701
 20
311.8197736711
 11
242.7362763446
 21
314.9118090153
  0
ARC
  8
CYAN
 10
248.6135226842
 20
321.8488866621
 40
9.0920333707
 50
167.8171696527
 51
229.7279878186
  0
ARC
  8
CYAN
 10
235.3097287802
 20
324.7651755955
 40
4.5277831256
 50
347.2719274162
 51
30.3688316416
  0
ARC
  8
CYAN
 10
243.572981281
 20
329.6925910433
 40
5.0933184374
 50
119.2245837502
 51
211.1980610214
  0
LINE
  8
CYAN
 10
241.0862492494
 20
334.1375945874
 11
244.9395821955
 21
336.2909277043
  0
ARC
  8
CYAN
 10
247.7095360792
 20
331.3618791356
 40
5.6540396453
 50
44.539035238
 51
119.3344724307
  0
LINE
  8
CYAN
 10
251.7395815155
 20
335.3275944673
 11
251.8529148375
 21
335.1575944843
  0
LINE
  8
CYAN
 10
251.8529148375
 20
335.1575944843
 11
246.0162487542
 21
329.4342617231
  0
ARC
  8
CYAN
 10
246.5964234709
 20
328.7967771022
 40
0.8619682963
 50
132.3053265747
 51
315.0302337176
  0
LINE
  8
CYAN
 10
247.2062486352
 20
328.1875951811
 11
253.0429147182
 21
333.9675946031
  0
LINE
  8
CYAN
 10
253.0429147182
 20
333.9675946031
 11
255.30958114
 21
331.644261371
  0
ARC
  8
CYAN
 10
251.2238769449
 20
327.6325413821
 40
5.7259825392
 50
7.8466159963
 51
44.4765168878
  0
LINE
  8
CYAN
 10
256.896247648
 20
328.414261694
 11
257.57624758
 21
323.030928899
  0
ARC
  8
CYAN
 10
248.6263747534
 20
321.8555658358
 40
9.0267215501
 50
325.9211724111
 51
7.4816869265
  0
ARC
  8
CYAN
 10
257.0662476307
 20
316.174262918
 40
1.1474124332
 50
147.0947570591
 51
212.9052429328
  0
ARC
  8
CYAN
 10
169.6866747896
 20
261.4322503986
 40
101.9637087933
 50
351.371127309
 51
32.0570986018
  0
ARC
  8
CYAN
 10
269.2658337807
 20
246.8117964233
 40
1.4046199028
 50
191.5342897449
 51
331.1606266126
  0
ARC
  8
CYAN
 10
166.6847781083
 20
259.2157774037
 40
101.9966523384
 50
352.8558977928
 51
31.787283348
  0
ARC
  8
CYAN
 10
252.4206094982
 20
312.3772677791
 40
1.1169222229
 50
30.5068297586
 51
114.0038269865
  0
ARC
  8
CYAN
 10
248.6135226842
 20
321.8488866621
 40
9.0920333708
 50
233.5542880857
 51
291.6388058975
  0
LINE
  8
CYAN
 10
243.2123015137
 20
314.5350722892
 11
240.2829750962
 21
310.8809034318
  0
ARC
  8
CYAN
 10
248.7316462752
 20
320.6590379171
 40
3.0751639614
 50
186.4998157189
 51
232.6558614489
  0
ARC
  8
CYAN
 10
248.7725006596
 20
320.7132099093
 40
3.1430133772
 50
232.6628121697
 51
276.5846852559
  0
ARC
  8
CYAN
 10
248.7362484871
 20
320.7075959261
 40
3.141807375
 50
277.2531945607
 51
7.2531946127
  0
ARC
  8
CYAN
 10
248.7885619353
 20
320.7108959424
 40
3.0894976984
 50
7.3149726227
 51
98.3560775889
  0
ARC
  8
CYAN
 10
248.7362484861
 20
320.7075959261
 40
3.0856024599
 50
97.386043133
 51
187.3860431173
  0
ARC
  8
CYAN
 10
258.7025770737
 20
237.1128102927
 40
3.0881738444
 50
125.7972187708
 51
171.3436499995
  0
ARC
  8
CYAN
 10
258.7052391616
 20
237.0307163048
 40
3.104212053
 50
169.8528933322
 51
214.9086205654
  0
ARC
  8
CYAN
 10
258.7095808196
 20
237.0676043061
 40
3.129005564
 50
215.4170552426
 51
305.4170552765
  0
ARC
  8
CYAN
 10
258.7095808171
 20
237.0676043043
 40
3.129005564
 50
305.4170553338
 51
35.4170552765
  0
ARC
  8
CYAN
 10
258.7095808173
 20
237.067604304
 40
3.129005564
 50
35.4170552831
 51
125.4170552529
  0
LINE
  8
CYAN
 10
246.4016106553
 20
238.3796750993
 11
250.452615343
 21
237.8494825301
  0
ARC
  8
CYAN
 10
259.3330109583
 20
236.1617354927
 40
9.0393537571
 50
110.9367486082
 51
169.239094536
  0
ARC
  8
CYAN
 10
255.7094139731
 20
245.6865384989
 40
1.1515846559
 50
289.9806908568
 51
11.0675313186
  0
ARC
  8
CYAN
 10
156.7218706793
 20
226.3367903381
 40
102.0126102283
 50
11.0605925837
 51
50.0156845656
  0
ARC
  8
CYAN
 10
223.4840649247
 20
305.207182567
 40
1.4020231103
 50
72.0456675086
 51
210.2475838108
  0
ARC
  8
CYAN
 10
160.3962960678
 20
226.7486900649
 40
101.9881676113
 50
10.7951786346
 51
51.4778671307
  0
ARC
  8
CYAN
 10
261.6845805111
 20
246.1059367324
 40
1.134041332
 50
192.9946167554
 51
257.0053832081
  0
ARC
  8
CYAN
 10
259.3547532006
 20
236.1463008683
 40
9.0944756153
 50
35.526682747
 51
76.8123210847
  0
LINE
  8
CYAN
 10
266.7562466684
 20
241.4309372004
 11
269.9295796844
 21
236.9542709814
  0
ARC
  8
CYAN
 10
265.2883349895
 20
233.7058984184
 40
5.665075165
 50
357.8928710599
 51
34.9878879769
  0
LINE
  8
CYAN
 10
270.949579582
 20
233.4976046609
 11
270.892912921
 21
230.3242716449
  0
LINE
  8
CYAN
 10
270.892912921
 20
230.3242716449
 11
262.676247076
 21
230.4942716279
  0
ARC
  8
CYAN
 10
262.6762156293
 20
229.6433283168
 40
0.8509433117
 50
89.9978826224
 51
266.1838124947
  0
LINE
  8
CYAN
 10
262.6195804148
 20
228.7942717979
 11
270.8362462598
 21
228.6242718149
  0
LINE
  8
CYAN
 10
270.8362462598
 20
228.6242718149
 11
270.8362462598
 21
228.3976051709
  0
ARC
  8
CYAN
 10
265.1731169787
 20
228.5719796469
 40
5.6658132437
 50
283.8518321222
 51
358.236352135
  0
LINE
  8
CYAN
 10
266.529580024
 20
223.0709390436
 11
262.222913788
 21
221.9942724846
  0
ARC
  8
CYAN
 10
261.0477598822
 20
226.9715407457
 40
5.1141163504
 50
192.0456364439
 51
283.284491033
  0
ARC
  8
CYAN
 10
251.5760944802
 20
224.9877374043
 40
4.5631465062
 50
11.5870115238
 51
55.2626108393
  0
ARC
  8
CYAN
 10
259.3330109583
 20
236.1617354927
 40
9.0393537571
 50
173.0765510852
 51
235.23187117
  0
LINE
  8
CYAN
 10
250.3595713417
 20
237.2513674461
 11
246.322480864
 21
237.1282155961
  0
LINE
  8
CYAN
 10
192.7860215134
 20
278.9504438371
 11
191.7130180553
 21
280.9301402856
  0
LINE
  8
CYAN
 10
191.7130180553
 20
280.9301402856
 11
192.5229206956
 21
281.267599719
  0
LINE
  8
CYAN
 10
192.5229206956
 20
281.267599719
 11
193.1462539666
 21
281.550933024
  0
LINE
  8
CYAN
 10
193.1462539666
 20
281.550933024
 11
193.8262538986
 21
281.777599668
  0
LINE
  8
CYAN
 10
193.8262538986
 20
281.777599668
 11
194.4495871696
 21
282.004266312
  0
LINE
  8
CYAN
 10
194.4495871696
 20
282.004266312
 11
195.1295871016
 21
282.230932956
  0
LINE
  8
CYAN
 10
195.1295871016
 20
282.230932956
 11
195.7529203726
 21
282.400932939
  0
LINE
  8
CYAN
 10
195.7529203726
 20
282.400932939
 11
196.3762536436
 21
282.514266261
  0
LINE
  8
CYAN
 10
196.3762536436
 20
282.514266261
 11
196.9995869146
 21
282.684266244
  0
LINE
  8
CYAN
 10
196.9995869146
 20
282.684266244
 11
198.8695867276
 21
283.02426621
  0
LINE
  8
CYAN
 10
198.8695867276
 20
283.02426621
 11
200.2295865916
 21
283.250932854
  0
LINE
  8
CYAN
 10
200.2295865916
 20
283.250932854
 11
200.9095865236
 21
283.307599515
  0
LINE
  8
CYAN
 10
200.9095865236
 20
283.307599515
 11
201.6462531166
 21
283.420932837
  0
LINE
  8
CYAN
 10
201.6462531166
 20
283.420932837
 11
202.3829197096
 21
283.477599498
  0
LINE
  8
CYAN
 10
202.3829197096
 20
283.477599498
 11
203.1762529636
 21
283.59093282
  0
LINE
  8
CYAN
 10
203.1762529636
 20
283.59093282
 11
203.9695862176
 21
283.647599481
  0
LINE
  8
CYAN
 10
203.9695862176
 20
283.647599481
 11
204.7629194716
 21
283.760932803
  0
LINE
  8
CYAN
 10
204.7629194716
 20
283.760932803
 11
206.3495859796
 21
283.874266125
  0
LINE
  8
CYAN
 10
206.3495859796
 20
283.874266125
 11
207.0862525726
 21
283.930932786
  0
LINE
  8
CYAN
 10
207.0862525726
 20
283.930932786
 11
207.7662525046
 21
283.987599447
  0
LINE
  8
CYAN
 10
207.7662525046
 20
283.987599447
 11
208.3895857756
 21
283.987599447
  0
LINE
  8
CYAN
 10
208.3895857756
 20
283.987599447
 11
208.9562523856
 21
284.044266108
  0
LINE
  8
CYAN
 10
208.9562523856
 20
284.044266108
 11
210.8262521986
 21
284.044266108
  0
LINE
  8
CYAN
 10
210.8262521986
 20
284.044266108
 11
211.1662521646
 21
283.987599447
  0
LINE
  8
CYAN
 10
211.1662521646
 20
283.987599447
 11
211.5062521306
 21
283.987599447
  0
LINE
  8
CYAN
 10
211.5062521306
 20
283.987599447
 11
216.0395850106
 21
283.534266159
  0
ARC
  8
CYAN
 10
215.8154651828
 20
281.6626745859
 40
1.8849627885
 50
32.8177874823
 51
83.1714460954
  0
LINE
  8
CYAN
 10
217.3995848747
 20
282.6842662439
 11
220.1762512637
 21
278.3209333469
  0
ARC
  8
CYAN
 10
221.7113444954
 20
279.338772415
 40
1.8418761084
 50
213.5462514969
 51
280.4763148462
  0
LINE
  8
CYAN
 10
222.046251075
 20
277.5276000926
 11
225.049584108
 21
278.0376000416
  0
LINE
  8
CYAN
 10
225.049584108
 20
278.0376000416
 11
221.252917821
 21
286.3109325476
  0
ARC
  8
CYAN
 10
222.046251075
 20
286.6509325136
 40
0.8631208657
 50
23.1985905137
 51
203.1985905137
  0
LINE
  8
CYAN
 10
222.839584329
 20
286.9909324796
 11
226.5229173217
 21
278.8875999673
  0
LINE
  8
CYAN
 10
226.5229173217
 20
278.8875999673
 11
228.5062504567
 21
281.6075996953
  0
ARC
  8
CYAN
 10
225.0494482787
 20
284.2082204657
 40
4.3258189617
 50
323.0451310921
 51
34.3802110249
  0
LINE
  8
CYAN
 10
228.6195837787
 20
286.6509325243
 11
224.312917543
 21
292.8842652339
  0
LINE
  8
CYAN
 10
224.312917543
 20
292.8842652339
 11
223.916250916
 21
293.2809318609
  0
LINE
  8
CYAN
 10
223.916250916
 20
293.2809318609
 11
223.519584289
 21
293.7342651489
  0
LINE
  8
CYAN
 10
223.519584289
 20
293.7342651489
 11
223.066251001
 21
294.1309317759
  0
LINE
  8
CYAN
 10
223.066251001
 20
294.1309317759
 11
222.216251086
 21
294.9809316909
  0
LINE
  8
CYAN
 10
222.216251086
 20
294.9809316909
 11
221.762917798
 21
295.3775983179
  0
LINE
  8
CYAN
 10
221.762917798
 20
295.3775983179
 11
221.252917849
 21
295.7175982839
  0
LINE
  8
CYAN
 10
221.252917849
 20
295.7175982839
 11
220.799584561
 21
296.1142649109
  0
LINE
  8
CYAN
 10
220.799584561
 20
296.1142649109
 11
220.346251273
 21
296.4542648769
  0
LINE
  8
CYAN
 10
220.346251273
 20
296.4542648769
 11
219.949584646
 21
296.7942648429
  0
LINE
  8
CYAN
 10
219.949584646
 20
296.7942648429
 11
219.496251358
 21
297.1342648089
  0
LINE
  8
CYAN
 10
219.496251358
 20
297.1342648089
 11
219.04291807
 21
297.4175981139
  0
LINE
  8
CYAN
 10
219.04291807
 20
297.4175981139
 11
218.646251443
 21
297.7009314189
  0
LINE
  8
CYAN
 10
218.646251443
 20
297.7009314189
 11
218.192918155
 21
297.9842647239
  0
LINE
  8
CYAN
 10
218.192918155
 20
297.9842647239
 11
217.796251528
 21
298.2109313679
  0
LINE
  8
CYAN
 10
217.796251528
 20
298.2109313679
 11
217.34291824
 21
298.4942646729
  0
LINE
  8
CYAN
 10
217.34291824
 20
298.4942646729
 11
215.756251732
 21
299.4009312489
  0
LINE
  8
CYAN
 10
215.756251732
 20
299.4009312489
 11
215.359585105
 21
299.5709312319
  0
LINE
  8
CYAN
 10
215.359585105
 20
299.5709312319
 11
214.566251851
 21
300.0242645199
  0
LINE
  8
CYAN
 10
214.566251851
 20
300.0242645199
 11
214.112918563
 21
300.2509311639
  0
LINE
  8
CYAN
 10
214.112918563
 20
300.2509311639
 11
213.716251936
 21
300.4209311469
  0
LINE
  8
CYAN
 10
213.716251936
 20
300.4209311469
 11
210.996252208
 21
301.7809310109
  0
LINE
  8
CYAN
 10
210.996252208
 20
301.7809310109
 11
208.956252412
 21
302.6875975869
  0
LINE
  8
CYAN
 10
208.956252412
 20
302.6875975869
 11
208.446252463
 21
302.9709308919
  0
LINE
  8
CYAN
 10
208.446252463
 20
302.9709308919
 11
207.879585853
 21
303.1975975359
  0
LINE
  8
CYAN
 10
207.879585853
 20
303.1975975359
 11
207.256252582
 21
303.4809308409
  0
LINE
  8
CYAN
 10
207.256252582
 20
303.4809308409
 11
206.57625265
 21
303.7642641459
  0
LINE
  8
CYAN
 10
206.57625265
 20
303.7642641459
 11
205.952919379
 21
304.0475974509
  0
LINE
  8
CYAN
 10
205.952919379
 20
304.0475974509
 11
203.006253007
 21
305.1809306709
  0
LINE
  8
CYAN
 10
203.006253007
 20
305.1809306709
 11
202.212919753
 21
305.4642639759
  0
LINE
  8
CYAN
 10
202.212919753
 20
305.4642639759
 11
200.739586567
 21
306.0309305859
  0
LINE
  8
CYAN
 10
200.739586567
 20
306.0309305859
 11
200.002919974
 21
306.2575972299
  0
LINE
  8
CYAN
 10
200.002919974
 20
306.2575972299
 11
199.266253381
 21
306.5409305349
  0
LINE
  8
CYAN
 10
199.266253381
 20
306.5409305349
 11
198.586253449
 21
306.7675971789
  0
LINE
  8
CYAN
 10
198.586253449
 20
306.7675971789
 11
197.849586856
 21
306.9942638229
  0
LINE
  8
CYAN
 10
197.849586856
 20
306.9942638229
 11
197.112920263
 21
307.2775971279
  0
LINE
  8
CYAN
 10
197.112920263
 20
307.2775971279
 11
196.37625367
 21
307.5042637719
  0
LINE
  8
CYAN
 10
196.37625367
 20
307.5042637719
 11
195.582920416
 21
307.7309304159
  0
LINE
  8
CYAN
 10
195.582920416
 20
307.7309304159
 11
194.732920501
 21
307.9575970599
  0
LINE
  8
CYAN
 10
194.732920501
 20
307.9575970599
 11
193.826253925
 21
308.1842637039
  0
LINE
  8
CYAN
 10
193.826253925
 20
308.1842637039
 11
191.899587451
 21
308.6375969919
  0
LINE
  8
CYAN
 10
191.899587451
 20
308.6375969919
 11
190.879587553
 21
308.9209302969
  0
LINE
  8
CYAN
 10
190.879587553
 20
308.9209302969
 11
189.802920994
 21
309.1475969409
  0
LINE
  8
CYAN
 10
189.802920994
 20
309.1475969409
 11
188.726254435
 21
309.3175969239
  0
LINE
  8
CYAN
 10
188.726254435
 20
309.3175969239
 11
187.649587876
 21
309.5442635679
  0
LINE
  8
CYAN
 10
187.649587876
 20
309.5442635679
 11
186.572921317
 21
309.7142635509
  0
LINE
  8
CYAN
 10
186.572921317
 20
309.7142635509
 11
185.496254758
 21
309.9409301949
  0
LINE
  8
CYAN
 10
185.496254758
 20
309.9409301949
 11
184.419588199
 21
310.0542635169
  0
LINE
  8
CYAN
 10
184.419588199
 20
310.0542635169
 11
183.34292164
 21
310.2242634999
  0
LINE
  8
CYAN
 10
183.34292164
 20
310.2242634999
 11
182.322921742
 21
310.3375968219
  0
LINE
  8
CYAN
 10
182.322921742
 20
310.3375968219
 11
181.359588505
 21
310.5075968049
  0
LINE
  8
CYAN
 10
181.359588505
 20
310.5075968049
 11
180.396255268
 21
310.5642634659
  0
LINE
  8
CYAN
 10
180.396255268
 20
310.5642634659
 11
179.432922031
 21
310.6775967879
  0
LINE
  8
CYAN
 10
179.432922031
 20
310.6775967879
 11
178.582922116
 21
310.7342634489
  0
LINE
  8
CYAN
 10
178.582922116
 20
310.7342634489
 11
177.789588862
 21
310.7909301099
  0
LINE
  8
CYAN
 10
177.789588862
 20
310.7909301099
 11
177.052922269
 21
310.7909301099
  0
LINE
  8
CYAN
 10
177.052922269
 20
310.7909301099
 11
176.372922337
 21
310.8475967709
  0
LINE
  8
CYAN
 10
176.372922337
 20
310.8475967709
 11
174.616255846
 21
310.8475967709
  0
LINE
  8
CYAN
 10
174.616255846
 20
310.8475967709
 11
174.106255897
 21
310.7909301099
  0
LINE
  8
CYAN
 10
174.106255897
 20
310.7909301099
 11
173.596255948
 21
310.7909301099
  0
LINE
  8
CYAN
 10
173.596255948
 20
310.7909301099
 11
168.722923102
 21
310.3942634829
  0
ARC
  8
CYAN
 10
168.8517732009
 20
308.5326685907
 40
1.8660487374
 50
93.9594067634
 51
142.9264504853
  0
LINE
  8
CYAN
 10
167.362923238
 20
309.6575968899
 11
165.8329233915
 21
307.7309304166
  0
ARC
  8
CYAN
 10
164.3016722302
 20
308.8632804611
 40
1.9044544474
 50
292.797132224
 51
323.5173209507
  0
LINE
  8
CYAN
 10
165.0395901375
 20
307.1075971456
 11
161.1862571878
 21
305.6342639589
  0
ARC
  8
CYAN
 10
161.8685544169
 20
303.9480479113
 40
1.819025582
 50
112.0298389167
 51
229.0455166673
  0
LINE
  8
CYAN
 10
160.6762572388
 20
302.5742642649
 11
161.6395904748
 21
301.7242643508
  0
ARC
  8
CYAN
 10
161.0690914952
 20
301.0323414912
 40
0.8967866687
 50
273.8682263298
 51
50.4939958411
  0
LINE
  8
CYAN
 10
161.1295905258
 20
300.1375978428
 11
155.519591086
 21
299.9109311987
  0
ARC
  8
CYAN
 10
155.5891092046
 20
296.9103037357
 40
3.001432648
 50
91.3271832083
 51
112.450132871
  0
LINE
  8
CYAN
 10
154.442924527
 20
299.6842645547
 11
150.986258207
 21
298.1542647081
  0
ARC
  8
CYAN
 10
147.729591866
 20
305.5842639651
 40
8.1123834115
 50
271.3891445096
 51
293.6684709087
  0
LINE
  8
CYAN
 10
147.926258513
 20
297.4742647761
 11
145.3195920998
 21
297.360931454
  0
ARC
  8
CYAN
 10
145.3195920998
 20
296.227598234
 40
1.13333322
 50
90.0
 51
180.0
  0
LINE
  8
CYAN
 10
144.1862588798
 20
296.227598234
 11
144.1862588798
 21
295.6609316246
  0
ARC
  8
CYAN
 10
145.8978707305
 20
295.6469971998
 40
1.7116685706
 50
179.5335589111
 51
260.0775832734
  0
LINE
  8
CYAN
 10
145.6029254048
 20
293.9609317946
 11
151.1562581813
 21
292.9409318969
  0
ARC
  8
CYAN
 10
150.814067665
 20
290.9403177536
 40
2.0296677807
 50
265.2574701518
 51
80.2938984601
  0
LINE
  8
CYAN
 10
150.6462582323
 20
288.9175989659
 11
144.9795921306
 21
289.370932254
  0
ARC
  8
CYAN
 10
144.8708392546
 20
287.6974990111
 40
1.676963329
 50
86.2816976268
 51
254.1534883096
  0
LINE
  8
CYAN
 10
144.4129255206
 20
286.084265916
 11
149.2295917042
 21
284.8942660354
  0
ARC
  8
CYAN
 10
148.9295791556
 20
283.8986434935
 40
1.0398421877
 50
355.5299042654
 51
73.2307851823
  0
LINE
  8
CYAN
 10
149.9662582972
 20
283.8175994764
 11
149.8529249751
 21
282.1175996452
  0
ARC
  8
CYAN
 10
149.0039345612
 20
282.1752085072
 40
0.8509427148
 50
269.9320281328
 51
356.1181038455
  0
LINE
  8
CYAN
 10
149.0029250601
 20
281.3242663912
 11
121.4062611524
 21
281.3809330522
  0
ARC
  8
CYAN
 10
121.4011944862
 20
275.3721336531
 40
6.0088015352
 50
89.9516877667
 51
135.7156205891
  0
LINE
  8
CYAN
 10
117.0995949164
 20
279.5675999002
 11
115.7395950543
 21
278.3209333601
  0
ARC
  8
CYAN
 10
111.5478339163
 20
280.5890888511
 40
4.766066593
 50
295.321436486
 51
331.5822481161
  0
LINE
  8
CYAN
 10
113.5862619363
 20
276.2809335641
 11
110.0162622891
 21
274.5809337321
  0
ARC
  8
CYAN
 10
110.582629151
 20
273.3928179819
 40
1.3162030459
 50
115.4868266308
 51
262.5921389759
  0
LINE
  8
CYAN
 10
110.4129289161
 20
272.0876006481
 11
114.776261812
 21
271.5776006993
  0
ARC
  8
CYAN
 10
114.5974444025
 20
269.199952251
 40
2.3843631874
 50
64.4381510791
 51
85.6990145646
  0
LINE
  8
CYAN
 10
115.626261727
 20
271.3509340553
 11
120.0462612854
 21
268.9142676321
  0
ARC
  8
CYAN
 10
122.5748761433
 20
273.6205614794
 40
5.3425738064
 50
241.7515875163
 51
282.4821338502
  0
LINE
  8
CYAN
 10
123.7295942504
 20
268.4042676831
 11
147.0762585776
 21
273.447600511
  0
ARC
  8
CYAN
 10
148.260038947
 20
267.4402433882
 40
6.1228813123
 50
91.5327831298
 51
101.1476003621
  0
LINE
  8
CYAN
 10
148.0962584756
 20
273.560933833
 11
151.1562581714
 21
273.730933816
  0
ARC
  8
CYAN
 10
151.3149248222
 20
270.2232675001
 40
3.5112530655
 50
34.2799316134
 51
92.5899660325
  0
LINE
  8
CYAN
 10
154.2162578654
 20
272.200933969
 11
154.7829244757
 21
271.4076007147
  0
ARC
  8
CYAN
 10
151.0440581829
 20
268.8496676372
 40
4.5301371706
 50
341.8823505098
 51
34.3778541985
  0
ARC
  8
CYAN
 10
157.0221650586
 20
268.0161716297
 40
1.7687287848
 50
198.9792881484
 51
306.3126623751
  0
LINE
  8
CYAN
 10
158.0695908121
 20
266.5909345249
 11
166.9095899266
 21
272.8809338949
  0
ARC
  8
CYAN
 10
168.6899484337
 20
270.3292173371
 40
3.1114199017
 50
46.8068804547
 51
124.9038720631
  0
LINE
  8
CYAN
 10
170.8195895356
 20
272.5976005899
 11
172.916255993
 21
270.6142674545
  0
ARC
  8
CYAN
 10
176.0562998599
 20
274.1284135674
 40
4.7126530096
 50
228.2178130738
 51
315.7663740722
  0
LINE
  8
CYAN
 10
179.432922008
 20
270.8409340985
 11
181.9829217496
 21
273.504267162
  0
LINE
  8
CYAN
 10
181.9829217496
 20
273.504267162
 11
182.4929216986
 21
274.070933772
  0
LINE
  8
CYAN
 10
182.4929216986
 20
274.070933772
 11
184.1362548676
 21
275.714266941
  0
LINE
  8
CYAN
 10
184.1362548676
 20
275.714266941
 11
184.7029214776
 21
276.22426689
  0
LINE
  8
CYAN
 10
184.7029214776
 20
276.22426689
 11
187.1962545616
 21
278.264266686
  0
LINE
  8
CYAN
 10
187.1962545616
 20
278.264266686
 11
187.8195878326
 21
278.717599974
  0
LINE
  8
CYAN
 10
187.8195878326
 20
278.717599974
 11
188.4995877646
 21
279.170933262
  0
LINE
  8
CYAN
 10
188.4995877646
 20
279.170933262
 11
189.8595876286
 21
279.964266516
  0
LINE
  8
CYAN
 10
189.8595876286
 20
279.964266516
 11
190.4829208996
 21
280.360933143
  0
LINE
  8
CYAN
 10
190.4829208996
 20
280.360933143
 11
191.1629208316
 21
280.700933109
  0
LINE
  8
CYAN
 10
191.1629208316
 20
280.700933109
 11
191.9379021592
 21
278.500697133
  0
ARC
  8
CYAN
 10
212.5243170979
 20
296.4028502492
 40
1.5013887649
 50
330.3859605711
 51
70.0637582537
  0
LINE
  8
CYAN
 10
213.0362520058
 20
297.8142647431
 11
211.6195854808
 21
298.3242646921
  0
LINE
  8
CYAN
 10
211.6195854808
 20
298.3242646921
 11
206.0095860418
 21
300.5909311321
  0
LINE
  8
CYAN
 10
206.0095860418
 20
300.5909311321
 11
203.6862529408
 21
301.4975977081
  0
LINE
  8
CYAN
 10
203.6862529408
 20
301.4975977081
 11
201.5895864838
 21
302.2909309621
  0
LINE
  8
CYAN
 10
201.5895864838
 20
302.2909309621
 11
199.7195866708
 21
302.9142642331
  0
LINE
  8
CYAN
 10
199.7195866708
 20
302.9142642331
 11
197.9629201798
 21
303.4809308431
  0
LINE
  8
CYAN
 10
197.9629201798
 20
303.4809308431
 11
196.3762536718
 21
303.9342641311
  0
LINE
  8
CYAN
 10
196.3762536718
 20
303.9342641311
 11
194.9029204858
 21
304.3309307581
  0
LINE
  8
CYAN
 10
194.9029204858
 20
304.3309307581
 11
192.0695874358
 21
305.0109306901
  0
LINE
  8
CYAN
 10
192.0695874358
 20
305.0109306901
 11
190.7662542328
 21
305.2942639951
  0
LINE
  8
CYAN
 10
190.7662542328
 20
305.2942639951
 11
189.5195876908
 21
305.5209306391
  0
LINE
  8
CYAN
 10
189.5195876908
 20
305.5209306391
 11
188.3295878098
 21
305.7475972831
  0
LINE
  8
CYAN
 10
188.3295878098
 20
305.7475972831
 11
186.0629213698
 21
306.0875972491
  0
LINE
  8
CYAN
 10
186.0629213698
 20
306.0875972491
 11
185.0429214718
 21
306.2009305711
  0
LINE
  8
CYAN
 10
185.0429214718
 20
306.2009305711
 11
184.0795882348
 21
306.3709305541
  0
LINE
  8
CYAN
 10
184.0795882348
 20
306.3709305541
 11
182.1529217608
 21
306.5975971981
  0
LINE
  8
CYAN
 10
182.1529217608
 20
306.5975971981
 11
181.1895885238
 21
306.6542638591
  0
LINE
  8
CYAN
 10
181.1895885238
 20
306.6542638591
 11
180.1695886258
 21
306.7109305201
  0
LINE
  8
CYAN
 10
180.1695886258
 20
306.7109305201
 11
179.0929220668
 21
306.8242638421
  0
LINE
  8
CYAN
 10
179.0929220668
 20
306.8242638421
 11
177.9029221858
 21
306.8809305031
  0
ARC
  8
CYAN
 10
177.8443257949
 20
305.7455756617
 40
1.1368659345
 50
87.045549461
 51
185.6188902304
  0
LINE
  8
CYAN
 10
176.7129223044
 20
305.6342639611
 11
176.9962556094
 21
302.5742642671
  0
ARC
  8
CYAN
 10
178.1272311655
 20
302.6898311648
 40
1.1368647309
 50
185.8344256701
 51
267.261889693
  0
LINE
  8
CYAN
 10
178.0729221685
 20
301.5542643684
 11
180.2262552865
 21
301.4409310464
  0
LINE
  8
CYAN
 10
180.2262552865
 20
301.4409310464
 11
183.0029216755
 21
301.2709310634
  0
LINE
  8
CYAN
 10
183.0029216755
 20
301.2709310634
 11
185.3829214375
 21
301.1009310804
  0
LINE
  8
CYAN
 10
185.3829214375
 20
301.1009310804
 11
187.5362545555
 21
300.9309310974
  0
LINE
  8
CYAN
 10
187.5362545555
 20
300.9309310974
 11
189.4062543685
 21
300.7042644534
  0
LINE
  8
CYAN
 10
189.4062543685
 20
300.7042644534
 11
191.1062541985
 21
300.5342644704
  0
LINE
  8
CYAN
 10
191.1062541985
 20
300.5342644704
 11
192.5795873845
 21
300.3642644874
  0
LINE
  8
CYAN
 10
192.5795873845
 20
300.3642644874
 11
193.9395872485
 21
300.1375978434
  0
LINE
  8
CYAN
 10
193.9395872485
 20
300.1375978434
 11
195.2429204515
 21
299.9675978604
  0
LINE
  8
CYAN
 10
195.2429204515
 20
299.9675978604
 11
196.4329203325
 21
299.7409312164
  0
LINE
  8
CYAN
 10
196.4329203325
 20
299.7409312164
 11
197.5662535525
 21
299.5142645724
  0
LINE
  8
CYAN
 10
197.5662535525
 20
299.5142645724
 11
198.6995867725
 21
299.2309312674
  0
LINE
  8
CYAN
 10
198.6995867725
 20
299.2309312674
 11
199.7762533315
 21
299.0042646234
  0
LINE
  8
CYAN
 10
199.7762533315
 20
299.0042646234
 11
200.8529198905
 21
298.7209313184
  0
LINE
  8
CYAN
 10
200.8529198905
 20
298.7209313184
 11
204.2529195505
 21
297.7009314204
  0
LINE
  8
CYAN
 10
204.2529195505
 20
297.7009314204
 11
205.4429194315
 21
297.3042647934
  0
LINE
  8
CYAN
 10
205.4429194315
 20
297.3042647934
 11
207.7095858715
 21
296.5109315394
  0
LINE
  8
CYAN
 10
207.7095858715
 20
296.5109315394
 11
208.7295857695
 21
296.1142649124
  0
LINE
  8
CYAN
 10
208.7295857695
 20
296.1142649124
 11
209.6362523455
 21
295.7742649464
  0
LINE
  8
CYAN
 10
209.6362523455
 20
295.7742649464
 11
210.4295855995
 21
295.4909316414
  0
LINE
  8
CYAN
 10
210.4295855995
 20
295.4909316414
 11
211.0529188705
 21
295.2075983364
  0
LINE
  8
CYAN
 10
211.0529188705
 20
295.2075983364
 11
212.1862520905
 21
294.9242650314
  0
ARC
  8
CYAN
 10
212.5148626199
 20
296.3924926071
 40
1.5045521241
 50
257.3842874725
 51
330.9067963325
  0
ARC
  8
CYAN
 10
184.3951779486
 20
281.9048817176
 40
2.6389596776
 50
180.3028489897
 51
300.2073883351
  0
LINE
  8
CYAN
 10
185.7229214029
 20
279.6242665594
 11
191.2762541836
 21
282.740932916
  0
LINE
  8
CYAN
 10
191.2762541836
 20
282.740932916
 11
193.8262539286
 21
283.647599492
  0
LINE
  8
CYAN
 10
193.8262539286
 20
283.647599492
 11
196.1495870296
 21
284.384266085
  0
LINE
  8
CYAN
 10
196.1495870296
 20
284.384266085
 11
200.1162532996
 21
285.347599322
  0
LINE
  8
CYAN
 10
200.1162532996
 20
285.347599322
 11
201.7595864686
 21
285.630932627
  0
LINE
  8
CYAN
 10
201.7595864686
 20
285.630932627
 11
203.2895863156
 21
285.857599271
  0
LINE
  8
CYAN
 10
203.2895863156
 20
285.857599271
 11
204.5929195186
 21
285.970932593
  0
LINE
  8
CYAN
 10
204.5929195186
 20
285.970932593
 11
205.7829193996
 21
286.084265915
  0
LINE
  8
CYAN
 10
205.7829193996
 20
286.084265915
 11
206.8595859586
 21
286.140932576
  0
LINE
  8
CYAN
 10
206.8595859586
 20
286.140932576
 11
207.7662525346
 21
286.197599237
  0
LINE
  8
CYAN
 10
207.7662525346
 20
286.197599237
 11
208.6162524496
 21
286.254265898
  0
LINE
  8
CYAN
 10
208.6162524496
 20
286.254265898
 11
210.5995855846
 21
286.254265898
  0
LINE
  8
CYAN
 10
210.5995855846
 20
286.254265898
 11
211.1662521946
 21
286.197599237
  0
LINE
  8
CYAN
 10
211.1662521946
 20
286.197599237
 11
211.6762521436
 21
286.197599237
  0
LINE
  8
CYAN
 10
211.6762521436
 20
286.197599237
 11
212.6962520416
 21
286.084265915
  0
LINE
  8
CYAN
 10
212.6962520416
 20
286.084265915
 11
214.0562519056
 21
285.914265932
  0
LINE
  8
CYAN
 10
214.0562519056
 20
285.914265932
 11
215.1329184646
 21
285.744265949
  0
ARC
  8
CYAN
 10
215.642082349
 20
286.7607357923
 40
1.1368635817
 50
243.3930735576
 51
89.957863873
  0
LINE
  8
CYAN
 10
215.6429184144
 20
287.8975990666
 11
214.6229185164
 21
288.1242657106
  0
LINE
  8
CYAN
 10
214.6229185164
 20
288.1242657106
 11
214.0562519064
 21
288.2375990326
  0
LINE
  8
CYAN
 10
214.0562519064
 20
288.2375990326
 11
213.5462519574
 21
288.3509323546
  0
LINE
  8
CYAN
 10
213.5462519574
 20
288.3509323546
 11
212.9795853474
 21
288.4642656766
  0
LINE
  8
CYAN
 10
212.9795853474
 20
288.4642656766
 11
211.7329188054
 21
288.6909323206
  0
LINE
  8
CYAN
 10
211.7329188054
 20
288.6909323206
 11
211.1095855344
 21
288.7475989816
  0
LINE
  8
CYAN
 10
211.1095855344
 20
288.7475989816
 11
210.4862522634
 21
288.8609323036
  0
LINE
  8
CYAN
 10
210.4862522634
 20
288.8609323036
 11
209.2395857214
 21
288.9742656256
  0
LINE
  8
CYAN
 10
209.2395857214
 20
288.9742656256
 11
208.5595857894
 21
289.0309322866
  0
LINE
  8
CYAN
 10
208.5595857894
 20
289.0309322866
 11
207.9362525184
 21
289.0309322866
  0
LINE
  8
CYAN
 10
207.9362525184
 20
289.0309322866
 11
207.3129192474
 21
289.0875989476
  0
LINE
  8
CYAN
 10
207.3129192474
 20
289.0875989476
 11
206.6329193154
 21
289.0875989476
  0
LINE
  8
CYAN
 10
206.6329193154
 20
289.0875989476
 11
206.0095860444
 21
289.1442656086
  0
LINE
  8
CYAN
 10
206.0095860444
 20
289.1442656086
 11
202.8929196894
 21
289.1442656086
  0
LINE
  8
CYAN
 10
202.8929196894
 20
289.1442656086
 11
202.2695864184
 21
289.0875989476
  0
LINE
  8
CYAN
 10
202.2695864184
 20
289.0875989476
 11
201.6462531474
 21
289.0875989476
  0
LINE
  8
CYAN
 10
201.6462531474
 20
289.0875989476
 11
201.0795865374
 21
289.0309322866
  0
LINE
  8
CYAN
 10
201.0795865374
 20
289.0309322866
 11
199.2095867244
 21
288.8609323036
  0
LINE
  8
CYAN
 10
199.2095867244
 20
288.8609323036
 11
198.6429201144
 21
288.8042656426
  0
LINE
  8
CYAN
 10
198.6429201144
 20
288.8042656426
 11
198.0195868434
 21
288.6909323206
  0
LINE
  8
CYAN
 10
198.0195868434
 20
288.6909323206
 11
197.4529202334
 21
288.5775989986
  0
LINE
  8
CYAN
 10
197.4529202334
 20
288.5775989986
 11
196.8295869624
 21
288.4642656766
  0
LINE
  8
CYAN
 10
196.8295869624
 20
288.4642656766
 11
196.2629203524
 21
288.3509323546
  0
LINE
  8
CYAN
 10
196.2629203524
 20
288.3509323546
 11
195.6395870814
 21
288.2375990326
  0
LINE
  8
CYAN
 10
195.6395870814
 20
288.2375990326
 11
193.9395872514
 21
287.8975990666
  0
LINE
  8
CYAN
 10
193.9395872514
 20
287.8975990666
 11
193.3729206414
 21
287.7275990836
  0
LINE
  8
CYAN
 10
193.3729206414
 20
287.7275990836
 11
192.8062540314
 21
287.6142657616
  0
LINE
  8
CYAN
 10
192.8062540314
 20
287.6142657616
 11
192.2962540824
 21
287.4442657786
  0
LINE
  8
CYAN
 10
192.2962540824
 20
287.4442657786
 11
191.7295874724
 21
287.3309324566
  0
LINE
  8
CYAN
 10
191.7295874724
 20
287.3309324566
 11
191.2195875234
 21
287.1609324736
  0
LINE
  8
CYAN
 10
191.2195875234
 20
287.1609324736
 11
190.6529209134
 21
286.9909324906
  0
LINE
  8
CYAN
 10
190.6529209134
 20
286.9909324906
 11
190.1429209644
 21
286.8775991686
  0
LINE
  8
CYAN
 10
190.1429209644
 20
286.8775991686
 11
189.1229210664
 21
286.5375992026
  0
LINE
  8
CYAN
 10
189.1229210664
 20
286.5375992026
 11
188.6695877784
 21
286.4242658806
  0
LINE
  8
CYAN
 10
188.6695877784
 20
286.4242658806
 11
188.1595878294
 21
286.2542658976
  0
LINE
  8
CYAN
 10
188.1595878294
 20
286.2542658976
 11
187.7062545414
 21
286.1409325756
  0
LINE
  8
CYAN
 10
187.7062545414
 20
286.1409325756
 11
187.2529212534
 21
285.9709325926
  0
LINE
  8
CYAN
 10
187.2529212534
 20
285.9709325926
 11
186.7995879654
 21
285.8575992706
  0
LINE
  8
CYAN
 10
186.7995879654
 20
285.8575992706
 11
186.4029213384
 21
285.6875992876
  0
LINE
  8
CYAN
 10
186.4029213384
 20
285.6875992876
 11
185.9495880504
 21
285.5175993046
  0
LINE
  8
CYAN
 10
185.9495880504
 20
285.5175993046
 11
185.5529214234
 21
285.4042659826
  0
LINE
  8
CYAN
 10
185.5529214234
 20
285.4042659826
 11
184.7595881694
 21
285.0642660166
  0
LINE
  8
CYAN
 10
184.7595881694
 20
285.0642660166
 11
183.1729216614
 21
284.2142661016
  0
ARC
  8
CYAN
 10
184.406072737
 20
281.8687676366
 40
2.649910305
 50
117.7332499153
 51
179.5207397488
  0
ARC
  8
CYAN
 10
203.8421352769
 20
293.7040690745
 40
1.2437263556
 50
337.3078716983
 51
78.8371021214
  0
LINE
  8
CYAN
 10
204.0829195662
 20
294.9242650316
 11
201.8729197872
 21
295.6042649636
  0
LINE
  8
CYAN
 10
201.8729197872
 20
295.6042649636
 11
200.0029199742
 21
296.1142649126
  0
LINE
  8
CYAN
 10
200.0029199742
 20
296.1142649126
 11
198.2462534832
 21
296.5675982006
  0
LINE
  8
CYAN
 10
198.2462534832
 20
296.5675982006
 11
196.7162536362
 21
296.9075981666
  0
LINE
  8
CYAN
 10
196.7162536362
 20
296.9075981666
 11
195.2429204502
 21
297.1909314716
  0
LINE
  8
CYAN
 10
195.2429204502
 20
297.1909314716
 11
193.9395872472
 21
297.4175981156
  0
LINE
  8
CYAN
 10
193.9395872472
 20
297.4175981156
 11
192.6929207052
 21
297.5875980986
  0
LINE
  8
CYAN
 10
192.6929207052
 20
297.5875980986
 11
191.5029208242
 21
297.7575980816
  0
LINE
  8
CYAN
 10
191.5029208242
 20
297.7575980816
 11
190.4262542652
 21
297.8709314036
  0
LINE
  8
CYAN
 10
190.4262542652
 20
297.8709314036
 11
189.4062543672
 21
297.9842647256
  0
LINE
  8
CYAN
 10
189.4062543672
 20
297.9842647256
 11
188.4429211302
 21
298.0975980476
  0
LINE
  8
CYAN
 10
188.4429211302
 20
298.0975980476
 11
187.4795878932
 21
298.1542647086
  0
LINE
  8
CYAN
 10
187.4795878932
 20
298.1542647086
 11
186.5729213172
 21
298.2675980306
  0
LINE
  8
CYAN
 10
186.5729213172
 20
298.2675980306
 11
185.6662547412
 21
298.3242646916
  0
LINE
  8
CYAN
 10
185.6662547412
 20
298.3242646916
 11
184.8162548262
 21
298.3809313526
  0
LINE
  8
CYAN
 10
184.8162548262
 20
298.3809313526
 11
183.9662549112
 21
298.3809313526
  0
LINE
  8
CYAN
 10
183.9662549112
 20
298.3809313526
 11
183.0595883352
 21
298.4375980136
  0
LINE
  8
CYAN
 10
183.0595883352
 20
298.4375980136
 11
181.3595885052
 21
298.4375980136
  0
LINE
  8
CYAN
 10
181.3595885052
 20
298.4375980136
 11
180.4529219292
 21
298.3809313526
  0
LINE
  8
CYAN
 10
180.4529219292
 20
298.3809313526
 11
179.5462553532
 21
298.3809313526
  0
LINE
  8
CYAN
 10
179.5462553532
 20
298.3809313526
 11
178.5829221162
 21
298.3242646916
  0
LINE
  8
CYAN
 10
178.5829221162
 20
298.3242646916
 11
177.5629222182
 21
298.3242646916
  0
LINE
  8
CYAN
 10
177.5629222182
 20
298.3242646916
 11
176.5429223202
 21
298.2675980306
  0
LINE
  8
CYAN
 10
176.5429223202
 20
298.2675980306
 11
175.4662557612
 21
298.2109313696
  0
LINE
  8
CYAN
 10
175.4662557612
 20
298.2109313696
 11
174.3329225412
 21
298.1542647086
  0
LINE
  8
CYAN
 10
174.3329225412
 20
298.1542647086
 11
173.0862559992
 21
298.0409313866
  0
LINE
  8
CYAN
 10
173.0862559992
 20
298.0409313866
 11
171.8395894572
 21
297.8709314036
  0
LINE
  8
CYAN
 10
171.8395894572
 20
297.8709314036
 11
170.5362562542
 21
297.7009314206
  0
LINE
  8
CYAN
 10
170.5362562542
 20
297.7009314206
 11
169.1762563902
 21
297.4742647766
  0
LINE
  8
CYAN
 10
169.1762563902
 20
297.4742647766
 11
167.7595898652
 21
297.1342648106
  0
LINE
  8
CYAN
 10
167.7595898652
 20
297.1342648106
 11
167.1929232552
 21
296.9642648276
  0
ARC
  8
CYAN
 10
167.5259232215
 20
295.8765982695
 40
1.1375005578
 50
107.022491456
 51
188.0351239422
  0
LINE
  8
CYAN
 10
166.3995900008
 20
295.7175982854
 11
166.5695899838
 21
294.2442650994
  0
LINE
  8
CYAN
 10
166.5695899838
 20
294.2442650994
 11
166.7962566278
 21
292.8275985744
  0
ARC
  8
CYAN
 10
167.8824830881
 20
292.9338658818
 40
1.0914122336
 50
185.5875586622
 51
281.4739725228
  0
LINE
  8
CYAN
 10
168.0995898309
 20
291.8642653368
 11
172.8595893549
 21
292.6575985908
  0
LINE
  8
CYAN
 10
172.8595893549
 20
292.6575985908
 11
175.1829224559
 21
293.0542652178
  0
LINE
  8
CYAN
 10
175.1829224559
 20
293.0542652178
 11
177.1662555909
 21
293.3375985228
  0
LINE
  8
CYAN
 10
177.1662555909
 20
293.3375985228
 11
178.8662554209
 21
293.5075985058
  0
LINE
  8
CYAN
 10
178.8662554209
 20
293.5075985058
 11
180.3962552679
 21
293.6775984888
  0
LINE
  8
CYAN
 10
180.3962552679
 20
293.6775984888
 11
181.8129217929
 21
293.7909318108
  0
LINE
  8
CYAN
 10
181.8129217929
 20
293.7909318108
 11
183.1729216569
 21
293.9042651328
  0
LINE
  8
CYAN
 10
183.1729216569
 20
293.9042651328
 11
184.5329215209
 21
293.9042651328
  0
LINE
  8
CYAN
 10
184.5329215209
 20
293.9042651328
 11
185.9495880459
 21
293.9609317938
  0
LINE
  8
CYAN
 10
185.9495880459
 20
293.9609317938
 11
187.3095879099
 21
293.9609317938
  0
LINE
  8
CYAN
 10
187.3095879099
 20
293.9609317938
 11
188.6695877739
 21
293.9042651328
  0
LINE
  8
CYAN
 10
188.6695877739
 20
293.9042651328
 11
189.9729209769
 21
293.8475984718
  0
LINE
  8
CYAN
 10
189.9729209769
 20
293.8475984718
 11
192.4662540609
 21
293.7342651498
  0
LINE
  8
CYAN
 10
192.4662540609
 20
293.7342651498
 11
193.5429206199
 21
293.6775984888
  0
LINE
  8
CYAN
 10
193.5429206199
 20
293.6775984888
 11
194.5629205179
 21
293.5642651668
  0
LINE
  8
CYAN
 10
194.5629205179
 20
293.5642651668
 11
195.5262537549
 21
293.5075985058
  0
LINE
  8
CYAN
 10
195.5262537549
 20
293.5075985058
 11
196.3762536699
 21
293.3942651838
  0
LINE
  8
CYAN
 10
196.3762536699
 20
293.3942651838
 11
197.1695869239
 21
293.3375985228
  0
LINE
  8
CYAN
 10
197.1695869239
 20
293.3375985228
 11
197.9062535169
 21
293.2242652008
  0
LINE
  8
CYAN
 10
197.9062535169
 20
293.2242652008
 11
198.5862534489
 21
293.1109318788
  0
LINE
  8
CYAN
 10
198.5862534489
 20
293.1109318788
 11
199.2095867199
 21
293.0542652178
  0
LINE
  8
CYAN
 10
199.2095867199
 20
293.0542652178
 11
201.0795865329
 21
292.7142652518
  0
LINE
  8
CYAN
 10
201.0795865329
 20
292.7142652518
 11
202.7795863629
 21
292.5442652688
  0
LINE
  8
CYAN
 10
202.7795863629
 20
292.5442652688
 11
203.6862529389
 21
292.4309319468
  0
ARC
  8
CYAN
 10
203.8301862589
 20
293.6617318236
 40
1.239187289
 50
263.329960376
 51
339.3274252424
  0
ARC
  8
CYAN
 10
188.947853659
 20
289.9421233494
 40
1.4217411479
 50
359.8176641909
 51
96.6617363902
  0
LINE
  8
CYAN
 10
188.7829210996
 20
291.3542653899
 11
182.0962551008
 21
290.6742654578
  0
LINE
  8
CYAN
 10
182.0962551008
 20
290.6742654578
 11
175.2962557808
 21
289.7109322208
  0
LINE
  8
CYAN
 10
175.2962557808
 20
289.7109322208
 11
170.7062562398
 21
288.9175989668
  0
LINE
  8
CYAN
 10
170.7062562398
 20
288.9175989668
 11
167.3629232408
 21
288.1809323738
  0
LINE
  8
CYAN
 10
167.3629232408
 20
288.1809323738
 11
165.7762567328
 21
287.6709324248
  0
ARC
  8
CYAN
 10
166.113492471
 20
286.675810573
 40
1.0507118745
 50
108.7209486543
 51
263.9594348171
  0
LINE
  8
CYAN
 10
166.0029233764
 20
285.6309326287
 11
166.9662566134
 21
285.5175993067
  0
LINE
  8
CYAN
 10
166.9662566134
 20
285.5175993067
 11
167.4762565624
 21
285.5175993067
  0
LINE
  8
CYAN
 10
167.4762565624
 20
285.5175993067
 11
167.6462565454
 21
285.4609326457
  0
LINE
  8
CYAN
 10
167.6462565454
 20
285.4609326457
 11
168.1562564944
 21
285.4609326457
  0
LINE
  8
CYAN
 10
168.1562564944
 20
285.4609326457
 11
168.3262564774
 21
285.5175993067
  0
LINE
  8
CYAN
 10
168.3262564774
 20
285.5175993067
 11
168.8362564264
 21
285.5175993067
  0
LINE
  8
CYAN
 10
168.8362564264
 20
285.5175993067
 11
169.0062564094
 21
285.5742659677
  0
LINE
  8
CYAN
 10
169.0062564094
 20
285.5742659677
 11
170.0829229684
 21
285.5742659677
  0
LINE
  8
CYAN
 10
170.0829229684
 20
285.5742659677
 11
171.2162561884
 21
285.2909326627
  0
LINE
  8
CYAN
 10
171.2162561884
 20
285.2909326627
 11
171.4995894934
 21
285.2342660017
  0
LINE
  8
CYAN
 10
171.4995894934
 20
285.2342660017
 11
171.7829227984
 21
285.1209326797
  0
LINE
  8
CYAN
 10
171.7829227984
 20
285.1209326797
 11
172.1229227644
 21
285.0075993577
  0
LINE
  8
CYAN
 10
172.1229227644
 20
285.0075993577
 11
172.4062560694
 21
284.8942660357
  0
LINE
  8
CYAN
 10
172.4062560694
 20
284.8942660357
 11
173.4262559674
 21
284.3842660867
  0
LINE
  8
CYAN
 10
173.4262559674
 20
284.3842660867
 11
174.1062558994
 21
283.8175994767
  0
LINE
  8
CYAN
 10
174.1062558994
 20
283.8175994767
 11
174.5029225264
 21
283.4775995107
  0
LINE
  8
CYAN
 10
174.5029225264
 20
283.4775995107
 11
175.1829224584
 21
283.0242662227
  0
LINE
  8
CYAN
 10
175.1829224584
 20
283.0242662227
 11
175.8062557294
 21
282.8542662397
  0
LINE
  8
CYAN
 10
175.8062557294
 20
282.8542662397
 11
176.3162556784
 21
283.1942662057
  0
LINE
  8
CYAN
 10
176.3162556784
 20
283.1942662057
 11
176.7695889664
 21
283.4775995107
  0
LINE
  8
CYAN
 10
176.7695889664
 20
283.4775995107
 11
177.2795889154
 21
283.8175994767
  0
LINE
  8
CYAN
 10
177.2795889154
 20
283.8175994767
 11
177.6762555424
 21
284.0442661207
  0
LINE
  8
CYAN
 10
177.6762555424
 20
284.0442661207
 11
178.1295888304
 21
284.3275994257
  0
LINE
  8
CYAN
 10
178.1295888304
 20
284.3275994257
 11
178.5262554574
 21
284.5542660697
  0
LINE
  8
CYAN
 10
178.5262554574
 20
284.5542660697
 11
178.9795887454
 21
284.7242660527
  0
LINE
  8
CYAN
 10
178.9795887454
 20
284.7242660527
 11
179.3762553724
 21
284.9509326967
  0
LINE
  8
CYAN
 10
179.3762553724
 20
284.9509326967
 11
179.7729219994
 21
285.1209326797
  0
LINE
  8
CYAN
 10
179.7729219994
 20
285.1209326797
 11
180.1129219654
 21
285.3475993237
  0
LINE
  8
CYAN
 10
180.1129219654
 20
285.3475993237
 11
180.9062552194
 21
285.6875992897
  0
LINE
  8
CYAN
 10
180.9062552194
 20
285.6875992897
 11
181.3029218464
 21
285.9142659337
  0
LINE
  8
CYAN
 10
181.3029218464
 20
285.9142659337
 11
181.7562551344
 21
286.0842659167
  0
LINE
  8
CYAN
 10
181.7562551344
 20
286.0842659167
 11
182.6629217104
 21
286.5375992047
  0
LINE
  8
CYAN
 10
182.6629217104
 20
286.5375992047
 11
183.1729216594
 21
286.7642658487
  0
LINE
  8
CYAN
 10
183.1729216594
 20
286.7642658487
 11
183.7395882694
 21
287.0475991537
  0
LINE
  8
CYAN
 10
183.7395882694
 20
287.0475991537
 11
184.3629215404
 21
287.2742657977
  0
LINE
  8
CYAN
 10
184.3629215404
 20
287.2742657977
 11
185.0429214724
 21
287.5575991027
  0
LINE
  8
CYAN
 10
185.0429214724
 20
287.5575991027
 11
185.7795880654
 21
287.8409324077
  0
LINE
  8
CYAN
 10
185.7795880654
 20
287.8409324077
 11
186.6295879804
 21
288.0675990517
  0
LINE
  8
CYAN
 10
186.6295879804
 20
288.0675990517
 11
187.5929212174
 21
288.3509323567
  0
LINE
  8
CYAN
 10
187.5929212174
 20
288.3509323567
 11
188.4995877934
 21
288.5209323397
  0
LINE
  8
CYAN
 10
188.4995877934
 20
288.5209323397
 11
188.8395877594
 21
288.5209323397
  0
ARC
  8
CYAN
 10
188.9506611124
 20
289.9355062995
 40
1.4189280382
 50
265.5103066086
 51
0.084497018
  0
ARC
  8
CYAN
 10
143.9857493118
 20
276.1391832057
 40
1.4474550978
 50
1.1249265728
 51
93.2802697521
  0
LINE
  8
CYAN
 10
143.9029255884
 20
277.5842667642
 11
130.7562602355
 21
276.8476001711
  0
ARC
  8
CYAN
 10
130.8134425475
 20
275.0276666801
 40
1.8208316036
 50
91.7996413883
 51
277.1346767173
  0
LINE
  8
CYAN
 10
131.03959354
 20
273.2209338671
 11
144.129592231
 21
274.6942670531
  0
ARC
  8
CYAN
 10
143.9547250299
 20
276.1620981651
 40
1.4782106451
 50
276.793801105
 51
0.2132621328
  0
ARC
  8
CYAN
 10
122.5682054491
 20
274.0428728379
 40
2.9181955256
 50
359.4383470741
 51
89.4491484861
  0
ARC
  8
CYAN
 10
122.653200097
 20
274.0145448501
 40
2.9469387696
 50
91.1071047685
 51
180.0053996686
  0
ARC
  8
CYAN
 10
122.5676499977
 20
274.0423171757
 40
2.8615261405
 50
180.5616496934
 51
270.5728830925
  0
ARC
  8
CYAN
 10
122.6103438928
 20
274.0201349725
 40
2.8392358257
 50
269.7158070938
 51
315.5239227517
  0
ARC
  8
CYAN
 10
122.5991920903
 20
274.0777728659
 40
2.887767048
 50
314.8629289595
 51
358.7398898866
  0
ARC
  8
CYAN
 10
158.9762574331
 20
294.1875984466
 40
2.5499997467
 50
0.0
 51
90.0
  0
ARC
  8
CYAN
 10
158.9762574307
 20
294.1875984483
 40
2.549999745
 50
89.9999999452
 51
180.0
  0
ARC
  8
CYAN
 10
158.9762574307
 20
294.1875984468
 40
2.549999745
 50
179.9999999662
 51
270.0
  0
ARC
  8
CYAN
 10
158.9366910652
 20
294.1947695375
 40
2.5574769169
 50
270.8864503053
 51
314.6155023294
  0
ARC
  8
CYAN
 10
158.989262898
 20
294.2173252216
 40
2.5371684349
 50
313.412566722
 51
359.3286777131
  0
ARC
  8
CYAN
 10
170.4799043548
 20
303.6506089485
 40
2.4936549939
 50
358.7052770625
 51
90.0072315592
  0
ARC
  8
CYAN
 10
170.4795896171
 20
303.5942641775
 40
2.549999745
 50
89.9999999501
 51
180.0
  0
ARC
  8
CYAN
 10
170.4795896171
 20
303.594264176
 40
2.549999745
 50
179.9999999662
 51
270.0
  0
ARC
  8
CYAN
 10
170.4400232517
 20
303.6014352668
 40
2.5574769169
 50
270.8864503053
 51
314.6155023294
  0
ARC
  8
CYAN
 10
170.4842208027
 20
303.5489973481
 40
2.4891135462
 50
314.7390691179
 51
1.0420341351
  0
ARC
  8
CYAN
 10
168.2132379048
 20
278.9439447486
 40
2.4936549939
 50
358.7052769951
 51
90.0072315593
  0
ARC
  8
CYAN
 10
168.2129231671
 20
278.8875999776
 40
2.549999745
 50
89.9999999501
 51
180.0
  0
ARC
  8
CYAN
 10
168.1842751013
 20
278.9156114182
 40
2.5215072736
 50
180.636512278
 51
270.6509791164
  0
ARC
  8
CYAN
 10
168.2020411645
 20
278.8830365548
 40
2.488793453
 50
270.2505209132
 51
315.2514317216
  0
ARC
  8
CYAN
 10
168.2174865925
 20
278.8984819827
 40
2.488793453
 50
314.7485682194
 51
359.7494789683
  0
ARC
  8
CYAN
 10
176.9965703564
 20
275.9972783733
 40
2.4936549939
 50
358.7052769951
 51
90.0072315593
  0
ARC
  8
CYAN
 10
176.9962556187
 20
275.9409336024
 40
2.549999745
 50
89.9999999501
 51
180.0
  0
ARC
  8
CYAN
 10
176.9676075529
 20
275.968945043
 40
2.5215072737
 50
180.636512278
 51
270.6509791164
  0
ARC
  8
CYAN
 10
176.9853736161
 20
275.9363701795
 40
2.488793453
 50
270.2505209133
 51
315.2514317216
  0
ARC
  8
CYAN
 10
177.0008190441
 20
275.9518156075
 40
2.488793453
 50
314.7485682194
 51
359.7494789683
  0
ARC
  8
CYAN
 10
159.3729240467
 20
275.3176003265
 40
2.5499997466
 50
-0.0
 51
90.0
  0
ARC
  8
CYAN
 10
159.4009354865
 20
275.3462483939
 40
2.5215072736
 50
90.6365122577
 51
180.6509791162
  0
ARC
  8
CYAN
 10
159.3729240444
 20
275.3176003266
 40
2.493333084
 50
179.9999999662
 51
270.0
  0
ARC
  8
CYAN
 10
159.4181908763
 20
275.3129691451
 40
2.4891135462
 50
268.957965814
 51
315.2609308231
  0
ARC
  8
CYAN
 10
159.3859623952
 20
275.3486917707
 40
2.5371519099
 50
315.2001940235
 51
359.297853188
  0
ARC
  8
CYAN
 10
155.4062577867
 20
284.9509327033
 40
2.5499997466
 50
0.0
 51
90.0
  0
ARC
  8
CYAN
 10
155.4342692265
 20
284.9795807707
 40
2.5215072736
 50
90.6365122577
 51
180.6509791162
  0
ARC
  8
CYAN
 10
155.4062577844
 20
284.9509327035
 40
2.493333084
 50
179.9999999662
 51
270.0
  0
ARC
  8
CYAN
 10
155.4515246163
 20
284.946301522
 40
2.4891135462
 50
268.957965814
 51
315.2609308231
  0
ARC
  8
CYAN
 10
155.4192961352
 20
284.9820241476
 40
2.5371519099
 50
315.2001940235
 51
359.2978531881
  0
LINE
  8
CYAN
 10
187.0175492234
 20
235.8218931169
 11
188.9529211374
 21
239.3342707421
  0
LINE
  8
CYAN
 10
188.9529211374
 20
239.3342707421
 11
189.5195877474
 21
238.9942707761
  0
LINE
  8
CYAN
 10
189.5195877474
 20
238.9942707761
 11
190.0862543574
 21
238.5976041491
  0
LINE
  8
CYAN
 10
190.0862543574
 20
238.5976041491
 11
191.1062542554
 21
237.9176042171
  0
LINE
  8
CYAN
 10
191.1062542554
 20
237.9176042171
 11
191.6162542044
 21
237.5209375901
  0
LINE
  8
CYAN
 10
191.6162542044
 20
237.5209375901
 11
192.1829208144
 21
237.1809376241
  0
LINE
  8
CYAN
 10
192.1829208144
 20
237.1809376241
 11
192.6929207634
 21
236.7842709971
  0
LINE
  8
CYAN
 10
192.6929207634
 20
236.7842709971
 11
193.2029207124
 21
236.3309377091
  0
LINE
  8
CYAN
 10
193.2029207124
 20
236.3309377091
 11
193.7129206614
 21
235.9342710821
  0
LINE
  8
CYAN
 10
193.7129206614
 20
235.9342710821
 11
194.2229206104
 21
235.4809377941
  0
LINE
  8
CYAN
 10
194.2229206104
 20
235.4809377941
 11
195.7529204574
 21
233.9509379471
  0
LINE
  8
CYAN
 10
195.7529204574
 20
233.9509379471
 11
196.2062537454
 21
233.3842713371
  0
LINE
  8
CYAN
 10
196.2062537454
 20
233.3842713371
 11
196.7162536944
 21
232.8176047271
  0
LINE
  8
CYAN
 10
196.7162536944
 20
232.8176047271
 11
198.0762535584
 21
230.9476049141
  0
LINE
  8
CYAN
 10
198.0762535584
 20
230.9476049141
 11
198.8695868124
 21
229.5876050501
  0
LINE
  8
CYAN
 10
198.8695868124
 20
229.5876050501
 11
199.2662534394
 21
228.8509384571
  0
LINE
  8
CYAN
 10
199.2662534394
 20
228.8509384571
 11
199.6629200664
 21
228.1709385251
  0
LINE
  8
CYAN
 10
199.6629200664
 20
228.1709385251
 11
200.0029200324
 21
227.4342719321
  0
LINE
  8
CYAN
 10
200.0029200324
 20
227.4342719321
 11
200.3429199984
 21
226.7542720001
  0
LINE
  8
CYAN
 10
200.3429199984
 20
226.7542720001
 11
200.6829199644
 21
226.0176054071
  0
LINE
  8
CYAN
 10
200.6829199644
 20
226.0176054071
 11
200.9662532694
 21
225.2809388141
  0
LINE
  8
CYAN
 10
200.9662532694
 20
225.2809388141
 11
201.2495865744
 21
224.6009388821
  0
LINE
  8
CYAN
 10
201.2495865744
 20
224.6009388821
 11
201.5329198794
 21
223.8642722891
  0
LINE
  8
CYAN
 10
201.5329198794
 20
223.8642722891
 11
201.8162531844
 21
223.1842723571
  0
LINE
  8
CYAN
 10
201.8162531844
 20
223.1842723571
 11
203.1195863874
 21
219.7276060361
  0
ARC
  8
CYAN
 10
207.5378156442
 20
221.3717903115
 40
4.7142434915
 50
200.4120697903
 51
288.2342987919
  0
LINE
  8
CYAN
 10
209.0129191272
 20
216.8942729847
 11
211.6195855332
 21
217.8576062217
  0
ARC
  8
CYAN
 10
212.7081190306
 20
214.9634710625
 40
3.0920743029
 50
30.9625215998
 51
110.6121347601
  0
LINE
  8
CYAN
 10
215.3595851593
 20
216.5542730185
 11
220.9695845983
 21
207.2609406145
  0
ARC
  8
CYAN
 10
222.4911686046
 20
208.1684487745
 40
1.7716627638
 50
210.812835208
 51
317.7659784573
  0
ARC
  8
CYAN
 10
228.2717778026
 20
206.5682821998
 40
4.4875670618
 50
121.9119000928
 51
174.7665976911
  0
LINE
  8
CYAN
 10
225.8995841056
 20
210.3776069691
 11
226.7495840206
 21
210.9442735791
  0
ARC
  8
CYAN
 10
228.551596419
 20
207.9405631876
 40
3.5027881466
 50
62.8575476301
 51
120.9607572241
  0
LINE
  8
CYAN
 10
230.1495836813
 20
211.0576069007
 11
232.9262500703
 21
209.6976070367
  0
ARC
  8
CYAN
 10
230.2062503423
 20
204.2009409197
 40
6.1328408525
 50
54.4007800308
 51
63.6717068948
  0
LINE
  8
CYAN
 10
233.7762499862
 20
209.1876070871
 11
253.2129147092
 21
195.3042751421
  0
ARC
  8
CYAN
 10
256.2888444156
 20
199.6066428033
 40
5.2888288922
 50
234.4375512006
 51
275.360252425
  0
LINE
  8
CYAN
 10
256.7829143474
 20
194.3409419046
 11
261.7695805154
 21
194.7942751926
  0
ARC
  8
CYAN
 10
261.9326061401
 20
192.4151472254
 40
2.3847069503
 50
71.8300008567
 51
93.9199664322
  0
LINE
  8
CYAN
 10
262.6762470919
 20
194.6809418705
 11
266.9262466669
 21
193.4342753285
  0
ARC
  8
CYAN
 10
267.2794585038
 20
194.6449546595
 40
1.2611514755
 50
253.7355633333
 51
41.1163223898
  0
LINE
  8
CYAN
 10
268.22957987
 20
195.4742751243
 11
265.622913464
 21
198.5342748183
  0
ARC
  8
CYAN
 10
269.1845304649
 20
201.6143928535
 40
4.7087411026
 50
184.3861884927
 51
220.8535413688
  0
LINE
  8
CYAN
 10
264.4895802438
 20
201.2542745492
 11
263.7529136508
 21
202.8976077182
  0
ARC
  8
CYAN
 10
258.1601920704
 20
200.7263905009
 40
5.9993932093
 50
21.2173046188
 51
66.8071745694
  0
LINE
  8
CYAN
 10
260.522913975
 20
206.2409407167
 11
235.136249847
 21
217.2342729507
  0
ARC
  8
CYAN
 10
235.4821164791
 20
218.0136728727
 40
0.8526945325
 50
159.5970493213
 51
246.0702590045
  0
LINE
  8
CYAN
 10
234.6829165592
 20
218.3109395101
 11
235.2495831692
 21
219.8976060181
  0
ARC
  8
CYAN
 10
236.2212497387
 20
219.5626060516
 40
1.0277941914
 50
80.9500902882
 51
160.9774227609
  0
LINE
  8
CYAN
 10
236.3829163895
 20
220.57760595
 11
241.2562492355
 21
219.784272696
  0
ARC
  8
CYAN
 10
241.5462492065
 20
221.397605868
 40
1.6391900155
 50
259.8097866221
 51
72.1177264285
  0
LINE
  8
CYAN
 10
242.0495824898
 20
222.9576057119
 11
236.6662496948
 21
224.8276055249
  0
ARC
  8
CYAN
 10
237.3450418507
 20
226.7501051712
 40
2.0388142831
 50
77.1180026373
 51
250.5529990437
  0
LINE
  8
CYAN
 10
237.7995829153
 20
228.7376051338
 11
243.3529156933
 21
227.4909385918
  0
ARC
  8
CYAN
 10
243.7382489881
 20
229.1286050947
 40
1.682389171
 50
256.7594800848
 51
336.3706222062
  0
LINE
  8
CYAN
 10
245.2795821666
 20
228.4542718271
 11
245.5062488106
 21
229.0209384371
  0
ARC
  8
CYAN
 10
244.4368846563
 20
229.4552854727
 40
1.1542084048
 50
337.8943298705
 51
64.1806921683
  0
LINE
  8
CYAN
 10
244.9395822008
 20
230.494271623
 11
242.5595824388
 21
231.570938182
  0
ARC
  8
CYAN
 10
245.9866052175
 20
238.9177871583
 40
8.1068289119
 50
222.4995679694
 51
244.992756514
  0
LINE
  8
CYAN
 10
240.0095826898
 20
233.4409379994
 11
237.4595829448
 21
236.2176043884
  0
ARC
  8
CYAN
 10
235.3544991589
 20
234.126724845
 40
2.9670111241
 50
44.8060421457
 51
66.1769118666
  0
LINE
  8
CYAN
 10
236.5529163694
 20
236.8409376591
 11
231.5662502014
 21
239.3342707431
  0
ARC
  8
CYAN
 10
231.9632521341
 20
240.1324659295
 40
0.8914741108
 50
108.5542083557
 51
243.5554191658
  0
LINE
  8
CYAN
 10
231.6795835237
 20
240.9776039122
 11
232.8695834047
 21
241.3176038782
  0
ARC
  8
CYAN
 10
232.3635413689
 20
243.0337398158
 40
1.7891900677
 50
286.4293613975
 51
46.0074441225
  0
LINE
  8
CYAN
 10
233.6062499979
 20
244.320936911
 11
230.7162502869
 21
247.267603283
  0
ARC
  8
CYAN
 10
232.0195834899
 20
248.627603147
 40
1.883687094
 50
195.7086377923
 51
226.2188752351
  0
LINE
  8
CYAN
 10
230.2062503376
 20
248.1176031992
 11
229.5829170666
 21
250.5542696222
  0
ARC
  8
CYAN
 10
227.7221546956
 20
250.0328587154
 40
1.9324352344
 50
15.6535940168
 51
62.3283940565
  0
LINE
  8
CYAN
 10
228.6195838299
 20
251.744269503
 11
224.3129175939
 21
254.067602604
  0
LINE
  8
CYAN
 10
224.3129175939
 20
254.067602604
 11
223.8595843059
 21
254.237602587
  0
LINE
  8
CYAN
 10
223.8595843059
 20
254.237602587
 11
223.4062510179
 21
254.464269231
  0
LINE
  8
CYAN
 10
223.4062510179
 20
254.464269231
 11
222.3862511199
 21
254.917602519
  0
LINE
  8
CYAN
 10
222.3862511199
 20
254.917602519
 11
221.7629178489
 21
255.144269163
  0
LINE
  8
CYAN
 10
221.7629178489
 20
255.144269163
 11
221.1395845779
 21
255.427602468
  0
LINE
  8
CYAN
 10
221.1395845779
 20
255.427602468
 11
220.4595846459
 21
255.710935773
  0
LINE
  8
CYAN
 10
220.4595846459
 20
255.710935773
 11
219.6662513919
 21
255.994269078
  0
LINE
  8
CYAN
 10
219.6662513919
 20
255.994269078
 11
218.8729181379
 21
256.220935722
  0
LINE
  8
CYAN
 10
218.8729181379
 20
256.220935722
 11
218.0229182229
 21
256.560935688
  0
LINE
  8
CYAN
 10
218.0229182229
 20
256.560935688
 11
215.1329185119
 21
257.410935603
  0
LINE
  8
CYAN
 10
215.1329185119
 20
257.410935603
 11
214.0562519529
 21
257.694268908
  0
LINE
  8
CYAN
 10
214.0562519529
 20
257.694268908
 11
213.0362520549
 21
257.977602213
  0
LINE
  8
CYAN
 10
213.0362520549
 20
257.977602213
 11
211.9595854959
 21
258.204268857
  0
LINE
  8
CYAN
 10
211.9595854959
 20
258.204268857
 11
210.8829189369
 21
258.487602162
  0
LINE
  8
CYAN
 10
210.8829189369
 20
258.487602162
 11
209.8062523779
 21
258.714268806
  0
LINE
  8
CYAN
 10
209.8062523779
 20
258.714268806
 11
208.7862524799
 21
258.94093545
  0
LINE
  8
CYAN
 10
208.7862524799
 20
258.94093545
 11
207.7095859209
 21
259.167602094
  0
LINE
  8
CYAN
 10
207.7095859209
 20
259.167602094
 11
205.6695861249
 21
259.50760206
  0
LINE
  8
CYAN
 10
205.6695861249
 20
259.50760206
 11
204.7062528879
 21
259.677602043
  0
LINE
  8
CYAN
 10
204.7062528879
 20
259.677602043
 11
203.7995863119
 21
259.847602026
  0
LINE
  8
CYAN
 10
203.7995863119
 20
259.847602026
 11
202.0995864819
 21
260.07426867
  0
LINE
  8
CYAN
 10
202.0995864819
 20
260.07426867
 11
200.5129199739
 21
260.187601992
  0
LINE
  8
CYAN
 10
200.5129199739
 20
260.187601992
 11
199.7762533809
 21
260.300935314
  0
LINE
  8
CYAN
 10
199.7762533809
 20
260.300935314
 11
199.0395867879
 21
260.300935314
  0
LINE
  8
CYAN
 10
199.0395867879
 20
260.300935314
 11
198.2462535339
 21
260.357601975
  0
LINE
  8
CYAN
 10
198.2462535339
 20
260.357601975
 11
197.5095869409
 21
260.414268636
  0
LINE
  8
CYAN
 10
197.5095869409
 20
260.414268636
 11
195.9229204329
 21
260.527601958
  0
LINE
  8
CYAN
 10
195.9229204329
 20
260.527601958
 11
195.1295871789
 21
260.527601958
  0
LINE
  8
CYAN
 10
195.1295871789
 20
260.527601958
 11
194.2795872639
 21
260.584268619
  0
LINE
  8
CYAN
 10
194.2795872639
 20
260.584268619
 11
193.4862540099
 21
260.64093528
  0
LINE
  8
CYAN
 10
193.4862540099
 20
260.64093528
 11
192.6929207559
 21
260.64093528
  0
LINE
  8
CYAN
 10
192.6929207559
 20
260.64093528
 11
191.9562541629
 21
260.697601941
  0
LINE
  8
CYAN
 10
191.9562541629
 20
260.697601941
 11
188.6129211639
 21
260.697601941
  0
LINE
  8
CYAN
 10
188.6129211639
 20
260.697601941
 11
188.0462545539
 21
260.64093528
  0
LINE
  8
CYAN
 10
188.0462545539
 20
260.64093528
 11
186.9695879949
 21
260.64093528
  0
LINE
  8
CYAN
 10
186.9695879949
 20
260.64093528
 11
186.4029213849
 21
260.584268619
  0
LINE
  8
CYAN
 10
186.4029213849
 20
260.584268619
 11
185.3829214869
 21
260.584268619
  0
LINE
  8
CYAN
 10
185.3829214869
 20
260.584268619
 11
184.8729215379
 21
260.527601958
  0
LINE
  8
CYAN
 10
184.8729215379
 20
260.527601958
 11
184.3629215889
 21
260.527601958
  0
LINE
  8
CYAN
 10
184.3629215889
 20
260.527601958
 11
183.9095883009
 21
260.470935297
  0
LINE
  8
CYAN
 10
183.9095883009
 20
260.470935297
 11
182.9462550639
 21
260.470935297
  0
LINE
  8
CYAN
 10
182.9462550639
 20
260.470935297
 11
182.4362551149
 21
260.414268636
  0
LINE
  8
CYAN
 10
182.4362551149
 20
260.414268636
 11
181.9829218269
 21
260.357601975
  0
LINE
  8
CYAN
 10
181.9829218269
 20
260.357601975
 11
181.5295885389
 21
260.357601975
  0
LINE
  8
CYAN
 10
181.5295885389
 20
260.357601975
 11
181.0762552509
 21
260.300935314
  0
LINE
  8
CYAN
 10
181.0762552509
 20
260.300935314
 11
180.6229219629
 21
260.300935314
  0
LINE
  8
CYAN
 10
180.6229219629
 20
260.300935314
 11
179.2629220989
 21
260.130935331
  0
LINE
  8
CYAN
 10
179.2629220989
 20
260.130935331
 11
178.7529221499
 21
260.07426867
  0
LINE
  8
CYAN
 10
178.7529221499
 20
260.07426867
 11
178.2995888619
 21
260.017602009
  0
LINE
  8
CYAN
 10
178.2995888619
 20
260.017602009
 11
177.2795889639
 21
259.790935365
  0
LINE
  8
CYAN
 10
177.2795889639
 20
259.790935365
 11
176.7695890149
 21
259.734268704
  0
LINE
  8
CYAN
 10
176.7695890149
 20
259.734268704
 11
176.2595890659
 21
259.620935382
  0
LINE
  8
CYAN
 10
176.2595890659
 20
259.620935382
 11
175.6929224559
 21
259.450935399
  0
LINE
  8
CYAN
 10
175.6929224559
 20
259.450935399
 11
175.1262558459
 21
259.337602077
  0
LINE
  8
CYAN
 10
175.1262558459
 20
259.337602077
 11
173.4262560159
 21
258.827602128
  0
LINE
  8
CYAN
 10
173.4262560159
 20
258.827602128
 11
172.8595894059
 21
258.600935484
  0
LINE
  8
CYAN
 10
172.8595894059
 20
258.600935484
 11
172.2929227959
 21
258.430935501
  0
LINE
  8
CYAN
 10
172.2929227959
 20
258.430935501
 11
171.1595895759
 21
257.977602213
  0
LINE
  8
CYAN
 10
171.1595895759
 20
257.977602213
 11
170.7062562879
 21
257.750935569
  0
LINE
  8
CYAN
 10
170.7062562879
 20
257.750935569
 11
164.2462569339
 21
253.727602638
  0
ARC
  8
CYAN
 10
166.5202583986
 20
250.0619600265
 40
4.3137012432
 50
121.8136224417
 51
193.1452463163
  0
LINE
  8
CYAN
 10
162.3195904593
 20
249.0809364386
 11
163.0562570523
 21
245.7942701006
  0
LINE
  8
CYAN
 10
163.0562570523
 20
245.7942701006
 11
169.6862563893
 21
251.8009361666
  0
ARC
  8
CYAN
 10
170.2669524202
 20
251.1614690616
 40
0.8637858871
 50
309.7757837755
 51
132.2423900277
  0
LINE
  8
CYAN
 10
170.8195896093
 20
250.4976029636
 11
164.1329236205
 21
244.4342702333
  0
LINE
  8
CYAN
 10
164.1329236205
 20
244.4342702333
 11
166.5695900435
 21
242.7342704033
  0
ARC
  8
CYAN
 10
167.617923272
 20
244.2642702503
 40
1.8546973041
 50
235.5816355209
 51
304.4183644791
  0
LINE
  8
CYAN
 10
168.6662565005
 20
242.7342704033
 11
172.916256074
 21
245.6242701133
  0
ARC
  8
CYAN
 10
173.9640603255
 20
244.0981053495
 40
1.8512354349
 50
71.2346771235
 51
124.4719494805
  0
LINE
  8
CYAN
 10
174.559589243
 20
245.8509367573
 11
178.8662554794
 21
244.4909368931
  0
LINE
  8
CYAN
 10
178.8662554794
 20
244.4909368931
 11
179.5462554114
 21
244.2642702491
  0
LINE
  8
CYAN
 10
179.5462554114
 20
244.2642702491
 11
179.8862553774
 21
244.0942702661
  0
LINE
  8
CYAN
 10
179.8862553774
 20
244.0942702661
 11
180.2829220044
 21
243.9242702831
  0
LINE
  8
CYAN
 10
180.2829220044
 20
243.9242702831
 11
180.7362552924
 21
243.7542703001
  0
LINE
  8
CYAN
 10
180.7362552924
 20
243.7542703001
 11
181.7562551904
 21
243.3009370121
  0
LINE
  8
CYAN
 10
181.7562551904
 20
243.3009370121
 11
182.3229218004
 21
243.0176037071
  0
LINE
  8
CYAN
 10
182.3229218004
 20
243.0176037071
 11
182.8895884104
 21
242.6776037411
  0
LINE
  8
CYAN
 10
182.8895884104
 20
242.6776037411
 11
184.2495882744
 21
241.9976038091
  0
LINE
  8
CYAN
 10
184.2495882744
 20
241.9976038091
 11
184.9295882064
 21
241.6009371821
  0
LINE
  8
CYAN
 10
184.9295882064
 20
241.6009371821
 11
185.6662547994
 21
241.2042705551
  0
LINE
  8
CYAN
 10
185.6662547994
 20
241.2042705551
 11
186.3462547314
 21
240.8076039281
  0
LINE
  8
CYAN
 10
186.3462547314
 20
240.8076039281
 11
187.0262546634
 21
240.4676039621
  0
LINE
  8
CYAN
 10
187.0262546634
 20
240.4676039621
 11
187.7062545954
 21
240.0709373351
  0
LINE
  8
CYAN
 10
187.7062545954
 20
240.0709373351
 11
188.426823374
 21
239.6123935669
  0
LINE
  8
CYAN
 10
188.426823374
 20
239.6123935669
 11
185.8917168565
 21
236.8975187272
  0
ARC
  8
CYAN
 10
222.4545275449
 20
235.3700922784
 40
1.108924855
 50
235.0699919955
 51
329.1195221586
  0
LINE
  8
CYAN
 10
223.4062510269
 20
234.8009378637
 11
224.1995842803
 21
236.0476044047
  0
LINE
  8
CYAN
 10
224.1995842803
 20
236.0476044047
 11
224.9362508733
 21
237.3509376077
  0
ARC
  8
CYAN
 10
223.9706946218
 20
237.9291638932
 40
1.1254530253
 50
329.084588965
 51
52.6864651444
  0
LINE
  8
CYAN
 10
224.6529175683
 20
238.8242707937
 11
224.2562509415
 21
239.1642707596
  0
LINE
  8
CYAN
 10
224.2562509415
 20
239.1642707596
 11
223.0662510605
 21
240.0142706746
  0
LINE
  8
CYAN
 10
223.0662510605
 20
240.0142706746
 11
221.8762511795
 21
240.8076039286
  0
LINE
  8
CYAN
 10
221.8762511795
 20
240.8076039286
 11
220.7429179595
 21
241.4876038606
  0
LINE
  8
CYAN
 10
220.7429179595
 20
241.4876038606
 11
219.6662514005
 21
242.1109371316
  0
LINE
  8
CYAN
 10
219.6662514005
 20
242.1109371316
 11
218.5895848415
 21
242.6776037416
  0
LINE
  8
CYAN
 10
218.5895848415
 20
242.6776037416
 11
217.5695849435
 21
243.1876036906
  0
LINE
  8
CYAN
 10
217.5695849435
 20
243.1876036906
 11
216.6062517065
 21
243.6976036396
  0
LINE
  8
CYAN
 10
216.6062517065
 20
243.6976036396
 11
214.7929185545
 21
244.6042702156
  0
LINE
  8
CYAN
 10
214.7929185545
 20
244.6042702156
 11
213.0929187245
 21
245.3976034696
  0
LINE
  8
CYAN
 10
213.0929187245
 20
245.3976034696
 11
212.2995854705
 21
245.7376034356
  0
LINE
  8
CYAN
 10
212.2995854705
 20
245.7376034356
 11
211.4495855555
 21
246.1342700626
  0
LINE
  8
CYAN
 10
211.4495855555
 20
246.1342700626
 11
210.6562523015
 21
246.4176033676
  0
LINE
  8
CYAN
 10
210.6562523015
 20
246.4176033676
 11
209.0695857935
 21
247.0976032996
  0
LINE
  8
CYAN
 10
209.0695857935
 20
247.0976032996
 11
208.2762525395
 21
247.3809366046
  0
LINE
  8
CYAN
 10
208.2762525395
 20
247.3809366046
 11
206.5762527095
 21
247.9476032146
  0
LINE
  8
CYAN
 10
206.5762527095
 20
247.9476032146
 11
205.6695861335
 21
248.2876031806
  0
LINE
  8
CYAN
 10
205.6695861335
 20
248.2876031806
 11
204.7062528965
 21
248.5709364856
  0
LINE
  8
CYAN
 10
204.7062528965
 20
248.5709364856
 11
203.6862529985
 21
248.8542697906
  0
LINE
  8
CYAN
 10
203.6862529985
 20
248.8542697906
 11
202.6662531005
 21
249.1942697566
  0
LINE
  8
CYAN
 10
202.6662531005
 20
249.1942697566
 11
201.5329198805
 21
249.4776030616
  0
LINE
  8
CYAN
 10
201.5329198805
 20
249.4776030616
 11
200.3429199995
 21
249.8176030276
  0
LINE
  8
CYAN
 10
200.3429199995
 20
249.8176030276
 11
199.0395867965
 21
250.1576029936
  0
LINE
  8
CYAN
 10
199.0395867965
 20
250.1576029936
 11
197.6229202715
 21
250.4976029596
  0
LINE
  8
CYAN
 10
197.6229202715
 20
250.4976029596
 11
196.0362537635
 21
250.7809362646
  0
LINE
  8
CYAN
 10
196.0362537635
 20
250.7809362646
 11
194.2795872725
 21
251.0642695696
  0
LINE
  8
CYAN
 10
194.2795872725
 20
251.0642695696
 11
192.3529207985
 21
251.3476028746
  0
LINE
  8
CYAN
 10
192.3529207985
 20
251.3476028746
 11
190.0295876975
 21
251.5742695186
  0
ARC
  8
CYAN
 10
189.7604837983
 20
250.3381432772
 40
1.2650790462
 50
77.7183732225
 51
175.3393374887
  0
ARC
  8
CYAN
 10
189.7399019529
 20
250.3367346114
 40
1.2446835184
 50
175.1977246267
 51
254.4512536535
  0
LINE
  8
CYAN
 10
189.4062544279
 20
249.1376030965
 11
190.3129210029
 21
248.8542697917
  0
LINE
  8
CYAN
 10
190.3129210029
 20
248.8542697917
 11
191.3329209009
 21
248.5142698257
  0
LINE
  8
CYAN
 10
191.3329209009
 20
248.5142698257
 11
191.8995875109
 21
248.4009365037
  0
LINE
  8
CYAN
 10
191.8995875109
 20
248.4009365037
 11
193.1462540529
 21
248.0609365377
  0
LINE
  8
CYAN
 10
193.1462540529
 20
248.0609365377
 11
193.7129206629
 21
247.9476032157
  0
LINE
  8
CYAN
 10
193.7129206629
 20
247.9476032157
 11
194.3929205949
 21
247.7776032327
  0
LINE
  8
CYAN
 10
194.3929205949
 20
247.7776032327
 11
195.0162538659
 21
247.5509365887
  0
LINE
  8
CYAN
 10
195.0162538659
 20
247.5509365887
 11
195.7529204589
 21
247.3809366057
  0
LINE
  8
CYAN
 10
195.7529204589
 20
247.3809366057
 11
196.4895870519
 21
247.1542699617
  0
LINE
  8
CYAN
 10
196.4895870519
 20
247.1542699617
 11
198.1895868819
 21
246.5876033517
  0
LINE
  8
CYAN
 10
198.1895868819
 20
246.5876033517
 11
199.1529201189
 21
246.2476033857
  0
LINE
  8
CYAN
 10
199.1529201189
 20
246.2476033857
 11
200.2295866779
 21
245.8509367587
  0
LINE
  8
CYAN
 10
200.2295866779
 20
245.8509367587
 11
201.3629198979
 21
245.4542701317
  0
LINE
  8
CYAN
 10
201.3629198979
 20
245.4542701317
 11
202.5529197789
 21
245.0009368437
  0
LINE
  8
CYAN
 10
202.5529197789
 20
245.0009368437
 11
203.7995863209
 21
244.5476035557
  0
LINE
  8
CYAN
 10
203.7995863209
 20
244.5476035557
 11
205.0462528629
 21
244.0376036067
  0
LINE
  8
CYAN
 10
205.0462528629
 20
244.0376036067
 11
208.7862524889
 21
242.3376037767
  0
LINE
  8
CYAN
 10
208.7862524889
 20
242.3376037767
 11
210.0329190309
 21
241.7142705057
  0
LINE
  8
CYAN
 10
210.0329190309
 20
241.7142705057
 11
211.2795855729
 21
241.0342705737
  0
LINE
  8
CYAN
 10
211.2795855729
 20
241.0342705737
 11
212.5829187759
 21
240.2976039807
  0
LINE
  8
CYAN
 10
212.5829187759
 20
240.2976039807
 11
214.0562519619
 21
239.3909374047
  0
LINE
  8
CYAN
 10
214.0562519619
 20
239.3909374047
 11
215.7562517919
 21
238.3709375067
  0
LINE
  8
CYAN
 10
215.7562517919
 20
238.3709375067
 11
217.7395849269
 21
237.1242709647
  0
LINE
  8
CYAN
 10
217.7395849269
 20
237.1242709647
 11
220.0629180279
 21
235.5942711177
  0
LINE
  8
CYAN
 10
220.0629180279
 20
235.5942711177
 11
221.8195845189
 21
234.4609378977
  0
ARC
  8
CYAN
 10
202.8901179687
 20
231.8195521206
 40
2.6526701753
 50
336.8716725483
 51
37.6783373675
  0
LINE
  8
CYAN
 10
204.9895862072
 20
233.4409380015
 11
203.8562529874
 21
234.8576045262
  0
LINE
  8
CYAN
 10
203.8562529874
 20
234.8576045262
 11
203.5729196824
 21
235.1976044922
  0
LINE
  8
CYAN
 10
203.5729196824
 20
235.1976044922
 11
203.2329197164
 21
235.4809377972
  0
LINE
  8
CYAN
 10
203.2329197164
 20
235.4809377972
 11
202.6095864454
 21
236.1042710682
  0
LINE
  8
CYAN
 10
202.6095864454
 20
236.1042710682
 11
201.9295865134
 21
236.6709376782
  0
LINE
  8
CYAN
 10
201.9295865134
 20
236.6709376782
 11
201.5329198864
 21
237.0109376442
  0
LINE
  8
CYAN
 10
201.5329198864
 20
237.0109376442
 11
201.1929199204
 21
237.2942709492
  0
LINE
  8
CYAN
 10
201.1929199204
 20
237.2942709492
 11
199.2095867854
 21
238.9942707792
  0
LINE
  8
CYAN
 10
199.2095867854
 20
238.9942707792
 11
198.7562534974
 21
239.3342707452
  0
LINE
  8
CYAN
 10
198.7562534974
 20
239.3342707452
 11
198.3595868704
 21
239.6742707112
  0
LINE
  8
CYAN
 10
198.3595868704
 20
239.6742707112
 11
197.9062535824
 21
240.0709373382
  0
LINE
  8
CYAN
 10
197.9062535824
 20
240.0709373382
 11
196.5462537184
 21
241.0909372362
  0
LINE
  8
CYAN
 10
196.5462537184
 20
241.0909372362
 11
196.0362537694
 21
241.4309372022
  0
LINE
  8
CYAN
 10
196.0362537694
 20
241.4309372022
 11
195.1295871934
 21
242.1109371342
  0
LINE
  8
CYAN
 10
195.1295871934
 20
242.1109371342
 11
192.5795874484
 21
243.8109369642
  0
LINE
  8
CYAN
 10
192.5795874484
 20
243.8109369642
 11
191.5595875504
 21
244.3776035742
  0
LINE
  8
CYAN
 10
191.5595875504
 20
244.3776035742
 11
190.9929209404
 21
244.7176035402
  0
LINE
  8
CYAN
 10
190.9929209404
 20
244.7176035402
 11
190.4829209914
 21
245.0009368452
  0
LINE
  8
CYAN
 10
190.4829209914
 20
245.0009368452
 11
189.9162543814
 21
245.2842701502
  0
LINE
  8
CYAN
 10
189.9162543814
 20
245.2842701502
 11
189.3495877714
 21
245.5109367942
  0
LINE
  8
CYAN
 10
189.3495877714
 20
245.5109367942
 11
188.8395878224
 21
245.7942700992
  0
LINE
  8
CYAN
 10
188.8395878224
 20
245.7942700992
 11
188.2729212124
 21
246.0776034042
  0
LINE
  8
CYAN
 10
188.2729212124
 20
246.0776034042
 11
187.1395879924
 21
246.5309366922
  0
LINE
  8
CYAN
 10
187.1395879924
 20
246.5309366922
 11
186.5162547214
 21
246.7576033362
  0
LINE
  8
CYAN
 10
186.5162547214
 20
246.7576033362
 11
185.9495881114
 21
247.0409366412
  0
LINE
  8
CYAN
 10
185.9495881114
 20
247.0409366412
 11
185.3829215014
 21
247.2676032852
  0
LINE
  8
CYAN
 10
185.3829215014
 20
247.2676032852
 11
184.1362549594
 21
247.7209365732
  0
LINE
  8
CYAN
 10
184.1362549594
 20
247.7209365732
 11
183.5695883494
 21
247.9476032172
  0
LINE
  8
CYAN
 10
183.5695883494
 20
247.9476032172
 11
182.9462550784
 21
248.1742698612
  0
LINE
  8
CYAN
 10
182.9462550784
 20
248.1742698612
 11
182.3229218074
 21
248.3442698442
  0
LINE
  8
CYAN
 10
182.3229218074
 20
248.3442698442
 11
181.7562551974
 21
248.5709364882
  0
LINE
  8
CYAN
 10
181.7562551974
 20
248.5709364882
 11
180.5095886554
 21
248.9109364542
  0
LINE
  8
CYAN
 10
180.5095886554
 20
248.9109364542
 11
179.8862553844
 21
249.0242697762
  0
LINE
  8
CYAN
 10
179.8862553844
 20
249.0242697762
 11
179.3195887744
 21
249.1942697592
  0
LINE
  8
CYAN
 10
179.3195887744
 20
249.1942697592
 11
178.1862555544
 21
249.4209364032
  0
LINE
  8
CYAN
 10
178.1862555544
 20
249.4209364032
 11
177.6762556054
 21
249.5342697252
  0
LINE
  8
CYAN
 10
177.6762556054
 20
249.5342697252
 11
176.5995890464
 21
249.7609363692
  0
ARC
  8
CYAN
 10
176.1993356816
 20
248.7214656092
 40
1.1138681327
 50
68.9405523322
 51
270.1844969656
  0
LINE
  8
CYAN
 10
176.2029224194
 20
247.6076032512
 11
177.2795889774
 21
247.3242699462
  0
LINE
  8
CYAN
 10
177.2795889774
 20
247.3242699462
 11
177.7329222654
 21
247.1542699632
  0
LINE
  8
CYAN
 10
177.7329222654
 20
247.1542699632
 11
178.1295888924
 21
247.0409366412
  0
LINE
  8
CYAN
 10
178.1295888924
 20
247.0409366412
 11
178.6395888414
 21
246.9276033192
  0
LINE
  8
CYAN
 10
178.6395888414
 20
246.9276033192
 11
179.5462554174
 21
246.5876033532
  0
LINE
  8
CYAN
 10
179.5462554174
 20
246.5876033532
 11
180.0562553664
 21
246.4176033702
  0
LINE
  8
CYAN
 10
180.0562553664
 20
246.4176033702
 11
180.5662553154
 21
246.1909367262
  0
LINE
  8
CYAN
 10
180.5662553154
 20
246.1909367262
 11
181.1329219254
 21
245.9642700822
  0
LINE
  8
CYAN
 10
181.1329219254
 20
245.9642700822
 11
181.7562551964
 21
245.7376034382
  0
LINE
  8
CYAN
 10
181.7562551964
 20
245.7376034382
 11
182.4362551284
 21
245.3976034722
  0
LINE
  8
CYAN
 10
182.4362551284
 20
245.3976034722
 11
183.1729217214
 21
245.0576035062
  0
LINE
  8
CYAN
 10
183.1729217214
 20
245.0576035062
 11
183.9662549754
 21
244.6609368792
  0
LINE
  8
CYAN
 10
183.9662549754
 20
244.6609368792
 11
184.9295882124
 21
244.1509369302
  0
LINE
  8
CYAN
 10
184.9295882124
 20
244.1509369302
 11
185.9495881104
 21
243.5842703202
  0
LINE
  8
CYAN
 10
185.9495881104
 20
243.5842703202
 11
187.1395879914
 21
242.9042703882
  0
LINE
  8
CYAN
 10
187.1395879914
 20
242.9042703882
 11
188.4429211944
 21
242.1676037952
  0
LINE
  8
CYAN
 10
188.4429211944
 20
242.1676037952
 11
189.8595877194
 21
241.2042705582
  0
LINE
  8
CYAN
 10
189.8595877194
 20
241.2042705582
 11
191.4462542274
 21
240.0709373382
  0
LINE
  8
CYAN
 10
191.4462542274
 20
240.0709373382
 11
193.1462540574
 21
238.7109374742
  0
LINE
  8
CYAN
 10
193.1462540574
 20
238.7109374742
 11
194.9595872094
 21
237.1809376272
  0
LINE
  8
CYAN
 10
194.9595872094
 20
237.1809376272
 11
196.9429203444
 21
235.3109378142
  0
LINE
  8
CYAN
 10
196.9429203444
 20
235.3109378142
 11
200.7962532924
 21
230.2109383242
  0
ARC
  8
CYAN
 10
202.899894108
 20
231.7984766271
 40
2.6354473139
 50
217.0404766999
 51
337.209556002
  0
ARC
  8
CYAN
 10
182.8994028466
 20
256.2668532427
 40
1.4916727818
 50
186.1285716592
 51
258.6663039358
  0
LINE
  8
CYAN
 10
182.6062551096
 20
254.8042691965
 11
183.7395883284
 21
254.5776025527
  0
LINE
  8
CYAN
 10
183.7395883284
 20
254.5776025527
 11
184.4195882604
 21
254.6342692137
  0
LINE
  8
CYAN
 10
184.4195882604
 20
254.6342692137
 11
185.2695881754
 21
254.5776025527
  0
LINE
  8
CYAN
 10
185.2695881754
 20
254.5776025527
 11
186.2329214124
 21
254.5209358917
  0
LINE
  8
CYAN
 10
186.2329214124
 20
254.5209358917
 11
187.3095879714
 21
254.4642692307
  0
LINE
  8
CYAN
 10
187.3095879714
 20
254.4642692307
 11
188.4995878524
 21
254.4076025697
  0
LINE
  8
CYAN
 10
188.4995878524
 20
254.4076025697
 11
190.9929209364
 21
254.1809359257
  0
LINE
  8
CYAN
 10
190.9929209364
 20
254.1809359257
 11
192.1829208174
 21
254.0676026037
  0
LINE
  8
CYAN
 10
192.1829208174
 20
254.0676026037
 11
193.3729206984
 21
253.8976026207
  0
LINE
  8
CYAN
 10
193.3729206984
 20
253.8976026207
 11
194.4495872574
 21
253.7842692987
  0
LINE
  8
CYAN
 10
194.4495872574
 20
253.7842692987
 11
195.5829204774
 21
253.6142693157
  0
LINE
  8
CYAN
 10
195.5829204774
 20
253.6142693157
 11
196.6595870364
 21
253.4442693327
  0
LINE
  8
CYAN
 10
196.6595870364
 20
253.4442693327
 11
198.9262534764
 21
252.9909360447
  0
LINE
  8
CYAN
 10
198.9262534764
 20
252.9909360447
 11
200.1729200184
 21
252.7076027397
  0
LINE
  8
CYAN
 10
200.1729200184
 20
252.7076027397
 11
201.4195865604
 21
252.3676027737
  0
LINE
  8
CYAN
 10
201.4195865604
 20
252.3676027737
 11
202.7229197634
 21
252.0276028077
  0
LINE
  8
CYAN
 10
202.7229197634
 20
252.0276028077
 11
204.1962529494
 21
251.5742695197
  0
LINE
  8
CYAN
 10
204.1962529494
 20
251.5742695197
 11
205.7829194574
 21
251.0642695707
  0
LINE
  8
CYAN
 10
205.7829194574
 20
251.0642695707
 11
207.5962526094
 21
250.4976029607
  0
LINE
  8
CYAN
 10
207.5962526094
 20
250.4976029607
 11
209.6362524054
 21
249.8176030287
  0
LINE
  8
CYAN
 10
209.6362524054
 20
249.8176030287
 11
211.9029188454
 21
249.0242697747
  0
LINE
  8
CYAN
 10
211.9029188454
 20
249.0242697747
 11
214.5095852514
 21
248.0609365377
  0
LINE
  8
CYAN
 10
214.5095852514
 20
248.0609365377
 11
216.5495850474
 21
247.3242699447
  0
ARC
  8
CYAN
 10
216.9245165167
 20
248.3927858196
 40
1.1323867633
 50
250.6645412641
 51
330.4475491751
  0
LINE
  8
CYAN
 10
217.9095849114
 20
247.8342698937
 11
219.3829180968
 21
250.5542696207
  0
ARC
  8
CYAN
 10
218.3611962837
 20
251.0686526263
 40
1.1438991826
 50
333.2771579073
 51
69.6183147469
  0
LINE
  8
CYAN
 10
218.7595848258
 20
252.1409361287
 11
217.682918267
 21
252.5942694166
  0
LINE
  8
CYAN
 10
217.682918267
 20
252.5942694166
 11
216.662918369
 21
252.9342693826
  0
LINE
  8
CYAN
 10
216.662918369
 20
252.9342693826
 11
215.699585132
 21
253.2742693486
  0
LINE
  8
CYAN
 10
215.699585132
 20
253.2742693486
 11
214.736251895
 21
253.5576026536
  0
LINE
  8
CYAN
 10
214.736251895
 20
253.5576026536
 11
212.922918743
 21
254.1242692636
  0
LINE
  8
CYAN
 10
212.922918743
 20
254.1242692636
 11
210.996252269
 21
254.6909358736
  0
LINE
  8
CYAN
 10
210.996252269
 20
254.6909358736
 11
209.91958571
 21
254.9742691786
  0
LINE
  8
CYAN
 10
209.91958571
 20
254.9742691786
 11
208.78625249
 21
255.2576024836
  0
LINE
  8
CYAN
 10
208.78625249
 20
255.2576024836
 11
207.596252609
 21
255.5409357886
  0
LINE
  8
CYAN
 10
207.596252609
 20
255.5409357886
 11
206.349586067
 21
255.8242690936
  0
LINE
  8
CYAN
 10
206.349586067
 20
255.8242690936
 11
205.046252864
 21
256.0509357376
  0
LINE
  8
CYAN
 10
205.046252864
 20
256.0509357376
 11
203.629586339
 21
256.3342690426
  0
LINE
  8
CYAN
 10
203.629586339
 20
256.3342690426
 11
202.212919814
 21
256.5609356866
  0
LINE
  8
CYAN
 10
202.212919814
 20
256.5609356866
 11
200.682919967
 21
256.7876023306
  0
LINE
  8
CYAN
 10
200.682919967
 20
256.7876023306
 11
199.039586798
 21
257.0142689746
  0
LINE
  8
CYAN
 10
199.039586798
 20
257.0142689746
 11
197.226253646
 21
257.1842689576
  0
LINE
  8
CYAN
 10
197.226253646
 20
257.1842689576
 11
195.242920511
 21
257.3542689406
  0
LINE
  8
CYAN
 10
195.242920511
 20
257.3542689406
 11
192.976254071
 21
257.4676022626
  0
LINE
  8
CYAN
 10
192.976254071
 20
257.4676022626
 11
190.482920987
 21
257.5809355846
  0
LINE
  8
CYAN
 10
190.482920987
 20
257.5809355846
 11
187.649587937
 21
257.6376022456
  0
LINE
  8
CYAN
 10
187.649587937
 20
257.6376022456
 11
184.476254921
 21
257.6942689066
  0
LINE
  8
CYAN
 10
184.476254921
 20
257.6942689066
 11
182.946255074
 21
257.7509355676
  0
ARC
  8
CYAN
 10
182.885690325
 20
256.2734155463
 40
1.4787607995
 50
87.6527134189
 51
186.4381035869
  0
ARC
  8
CYAN
 10
201.9323647211
 20
240.9710552741
 40
1.374659197
 50
155.3554795124
 51
250.6219540918
  0
LINE
  8
CYAN
 10
201.4762532233
 20
239.6742707086
 11
201.8162531882
 21
239.5042707259
  0
LINE
  8
CYAN
 10
201.8162531882
 20
239.5042707259
 11
202.4962531202
 21
238.9942707769
  0
LINE
  8
CYAN
 10
202.4962531202
 20
238.9942707769
 11
203.2895863742
 21
238.3709375059
  0
LINE
  8
CYAN
 10
203.2895863742
 20
238.3709375059
 11
203.9695863062
 21
237.8042708959
  0
LINE
  8
CYAN
 10
203.9695863062
 20
237.8042708959
 11
204.5929195772
 21
237.2376042859
  0
LINE
  8
CYAN
 10
204.5929195772
 20
237.2376042859
 11
205.5562528142
 21
236.2742710489
  0
LINE
  8
CYAN
 10
205.5562528142
 20
236.2742710489
 11
206.3495860682
 21
235.3676044729
  0
LINE
  8
CYAN
 10
206.3495860682
 20
235.3676044729
 11
206.6895860342
 21
234.9709378459
  0
LINE
  8
CYAN
 10
206.6895860342
 20
234.9709378459
 11
206.9729193392
 21
234.6309378799
  0
LINE
  8
CYAN
 10
206.9729193392
 20
234.6309378799
 11
207.3129193052
 21
234.2909379139
  0
LINE
  8
CYAN
 10
207.3129193052
 20
234.2909379139
 11
209.2962524402
 21
231.9109381519
  0
LINE
  8
CYAN
 10
209.2962524402
 20
231.9109381519
 11
209.6362524062
 21
231.5142715249
  0
LINE
  8
CYAN
 10
209.6362524062
 20
231.5142715249
 11
210.2029190162
 21
230.7209382709
  0
LINE
  8
CYAN
 10
210.2029190162
 20
230.7209382709
 11
210.5429189822
 21
230.2676049829
  0
LINE
  8
CYAN
 10
210.5429189822
 20
230.2676049829
 11
210.8262522872
 21
229.7576050339
  0
LINE
  8
CYAN
 10
210.8262522872
 20
229.7576050339
 11
211.1662522532
 21
229.2476050849
  0
LINE
  8
CYAN
 10
211.1662522532
 20
229.2476050849
 11
211.8462521852
 21
229.1909384239
  0
LINE
  8
CYAN
 10
211.8462521852
 20
229.1909384239
 11
212.6395854392
 21
229.3609384069
  0
LINE
  8
CYAN
 10
212.6395854392
 20
229.3609384069
 11
213.0929187272
 21
229.4742717289
  0
LINE
  8
CYAN
 10
213.0929187272
 20
229.4742717289
 11
213.5462520152
 21
229.6442717119
  0
LINE
  8
CYAN
 10
213.5462520152
 20
229.6442717119
 11
214.7362518962
 21
229.8142716949
  0
LINE
  8
CYAN
 10
214.7362518962
 20
229.8142716949
 11
215.0762518622
 21
229.8142716949
  0
LINE
  8
CYAN
 10
215.0762518622
 20
229.8142716949
 11
215.4162518282
 21
229.7576050339
  0
LINE
  8
CYAN
 10
215.4162518282
 20
229.7576050339
 11
216.0395850992
 21
229.7576050339
  0
LINE
  8
CYAN
 10
216.0395850992
 20
229.7576050339
 11
216.6062517092
 21
229.6442717119
  0
LINE
  8
CYAN
 10
216.6062517092
 20
229.6442717119
 11
216.8329183532
 21
229.6442717119
  0
LINE
  8
CYAN
 10
216.8329183532
 20
229.6442717119
 11
217.2862516412
 21
229.5309383899
  0
LINE
  8
CYAN
 10
217.2862516412
 20
229.5309383899
 11
217.4562516242
 21
229.4742717289
  0
LINE
  8
CYAN
 10
217.4562516242
 20
229.4742717289
 11
217.6829182682
 21
229.4176050679
  0
LINE
  8
CYAN
 10
217.6829182682
 20
229.4176050679
 11
218.0229182342
 21
229.3042717459
  0
LINE
  8
CYAN
 10
218.0229182342
 20
229.3042717459
 11
218.1929182172
 21
229.1909384239
  0
LINE
  8
CYAN
 10
218.1929182172
 20
229.1909384239
 11
218.3062515392
 21
229.1342717629
  0
LINE
  8
CYAN
 10
218.3062515392
 20
229.1342717629
 11
218.4762515222
 21
229.0209384409
  0
LINE
  8
CYAN
 10
218.4762515222
 20
229.0209384409
 11
218.6462515052
 21
228.9642717799
  0
LINE
  8
CYAN
 10
218.6462515052
 20
228.9642717799
 11
218.7595848272
 21
228.9076051189
  0
LINE
  8
CYAN
 10
218.7595848272
 20
228.9076051189
 11
218.9295848102
 21
228.7942717969
  0
LINE
  8
CYAN
 10
218.9295848102
 20
228.7942717969
 11
219.0995847932
 21
228.7376051359
  0
LINE
  8
CYAN
 10
219.0995847932
 20
228.7376051359
 11
219.2129181152
 21
228.6242718139
  0
LINE
  8
CYAN
 10
219.2129181152
 20
228.6242718139
 11
220.2329180132
 21
228.2842718479
  0
LINE
  8
CYAN
 10
220.2329180132
 20
228.2842718479
 11
220.3462513352
 21
228.2276051869
  0
LINE
  8
CYAN
 10
220.3462513352
 20
228.2276051869
 11
221.2529179112
 21
227.9442718819
  0
ARC
  8
CYAN
 10
221.5853511124
 20
228.9508197536
 40
1.0600237975
 50
251.7231279204
 51
49.5613649941
  0
LINE
  8
CYAN
 10
222.2729178092
 20
229.7576050339
 11
221.0829179283
 21
230.7776049318
  0
LINE
  8
CYAN
 10
221.0829179283
 20
230.7776049318
 11
218.2495848783
 21
232.8176047278
  0
LINE
  8
CYAN
 10
218.2495848783
 20
232.8176047278
 11
214.3962519303
 21
235.3676044728
  0
LINE
  8
CYAN
 10
214.3962519303
 20
235.3676044728
 11
208.5029191863
 21
238.9942707768
  0
LINE
  8
CYAN
 10
208.5029191863
 20
238.9942707768
 11
202.6095864423
 21
242.2242704538
  0
ARC
  8
CYAN
 10
201.9684685584
 20
240.9713269896
 40
1.4074443029
 50
62.9016554187
 51
155.978414269
  0
ARC
  8
CYAN
 10
249.3083394944
 20
204.2109147957
 40
1.8387959163
 50
240.2625576933
 51
62.6574719308
  0
LINE
  8
CYAN
 10
250.1529150235
 20
205.844274094
 11
238.3662495359
 21
211.7376068378
  0
ARC
  8
CYAN
 10
237.7029101822
 20
210.4399858331
 40
1.4573398266
 50
62.9240395001
 51
154.9252493283
  0
ARC
  8
CYAN
 10
237.6859774066
 20
210.491732144
 40
1.4206274067
 50
156.5263448566
 51
241.4144707261
  0
LINE
  8
CYAN
 10
237.0062496725
 20
209.2442737535
 11
248.3962485325
 21
202.614274417
  0
ARC
  8
CYAN
 10
231.1129169446
 20
232.9876047076
 40
2.5151317309
 50
157.4794343971
 51
202.5205656029
  0
ARC
  8
CYAN
 10
231.1335579676
 20
232.9660662498
 40
2.5261021555
 50
201.8899663612
 51
245.6722832054
  0
ARC
  8
CYAN
 10
231.1129169421
 20
232.98760471
 40
2.5373759064
 50
246.2973540952
 51
336.2973540493
  0
ARC
  8
CYAN
 10
231.112916941
 20
232.9876047075
 40
2.5373759063
 50
336.2973541122
 51
66.297354049
  0
ARC
  8
CYAN
 10
231.1273385177
 20
232.9934711111
 40
2.5262303247
 50
66.5433638677
 51
157.7276199264
  0
ARC
  8
CYAN
 10
256.4995810595
 20
200.0926080011
 40
2.8834645449
 50
157.466749921
 51
202.533250079
  0
ARC
  8
CYAN
 10
256.519300158
 20
200.0438252362
 40
2.8834638088
 50
201.4877013379
 51
246.4290453464
  0
ARC
  8
CYAN
 10
256.5146501097
 20
200.0701223655
 40
2.9057449486
 50
246.7204385084
 51
335.6980138062
  0
ARC
  8
CYAN
 10
256.4995810554
 20
200.0076080093
 40
2.8944407428
 50
336.9486991475
 51
66.9486990842
  0
ARC
  8
CYAN
 10
256.45798345
 20
200.0701223631
 40
2.8538956574
 50
65.688725942
 51
156.7297263634
  0
ARC
  8
CYAN
 10
224.3129176273
 20
246.2192700504
 40
2.5261194111
 50
156.8857920167
 51
203.1142079833
  0
ARC
  8
CYAN
 10
224.3129176266
 20
246.1909367214
 40
2.5151317309
 50
202.5205656407
 51
247.4794343966
  0
ARC
  8
CYAN
 10
224.3276920046
 20
246.196795528
 40
2.526228305
 50
247.2207933468
 51
336.0409803723
  0
ARC
  8
CYAN
 10
224.3129176236
 20
246.1909367197
 40
2.5373759064
 50
336.297354112
 51
66.2973540492
  0
ARC
  8
CYAN
 10
224.3129176259
 20
246.1909367201
 40
2.537375905
 50
66.2973540923
 51
156.2973540421
  0
LINE
  8
CYAN
 10
163.6616021104
 20
234.7802488298
 11
162.1495901026
 21
230.4092717946
  0
LINE
  8
CYAN
 10
162.1495901026
 20
230.4092717946
 11
160.1662569671
 21
231.1742717183
  0
ARC
  8
CYAN
 10
-366.4903221344
 20
-1150.9268654219
 40
1479.0438484356
 50
69.1404065432
 51
69.3821751487
  0
ARC
  8
CYAN
 10
-149.236267402
 20
-569.4113596347
 40
858.2732989454
 50
69.2865945111
 51
69.7187243798
  0
ARC
  8
CYAN
 10
130.5653402157
 20
184.0895742157
 40
54.5151054592
 50
71.0527508864
 51
80.5248653599
  0
LINE
  8
CYAN
 10
139.5395928755
 20
237.8609375277
 11
137.5562597406
 21
238.2009374937
  0
ARC
  8
CYAN
 10
156.6529244975
 20
356.9742589497
 40
120.2987302283
 50
260.2093387614
 51
260.8660167738
  0
LINE
  8
CYAN
 10
136.1962597755
 20
238.4276041551
 11
126.5062607445
 21
240.6942705951
  0
ARC
  8
CYAN
 10
129.2162270891
 20
252.2623103776
 40
11.8812230851
 50
205.7658814902
 51
256.8154600179
  0
ARC
  8
CYAN
 10
116.9783979428
 20
246.3653928275
 40
1.703278196
 50
25.4601399947
 51
95.4622954682
  0
LINE
  8
CYAN
 10
116.8162617106
 20
248.0609365324
 11
113.3029287286
 21
247.6642699054
  0
LINE
  8
CYAN
 10
113.3029287286
 20
247.6642699054
 11
117.7795949476
 21
240.3542706364
  0
ARC
  8
CYAN
 10
117.0794947527
 20
239.8880731802
 40
0.8411185119
 50
211.5787984583
 51
33.6596876841
  0
LINE
  8
CYAN
 10
116.3629284226
 20
239.4476040604
 11
111.8862615477
 21
246.7576036682
  0
LINE
  8
CYAN
 10
111.8862615477
 20
246.7576036682
 11
110.2995950397
 21
245.9642704142
  0
ARC
  8
CYAN
 10
111.5480050737
 20
243.4185945294
 40
2.8353118565
 50
116.1235240696
 51
199.9553478903
  0
LINE
  8
CYAN
 10
108.8829285147
 20
242.4509374322
 11
113.6995946991
 21
229.0776054379
  0
LINE
  8
CYAN
 10
113.6995946991
 20
229.0776054379
 11
115.2862612071
 21
220.1242729999
  0
LINE
  8
CYAN
 10
115.2862612071
 20
220.1242729999
 11
115.1729278851
 21
215.0809401709
  0
LINE
  8
CYAN
 10
115.1729278851
 20
215.0809401709
 11
115.1729278851
 21
211.0009405789
  0
LINE
  8
CYAN
 10
115.1729278851
 20
211.0009405789
 11
115.0029279021
 21
206.8642743259
  0
LINE
  8
CYAN
 10
115.0029279021
 20
206.8642743259
 11
114.6629279361
 21
204.3709412419
  0
LINE
  8
CYAN
 10
114.6629279361
 20
204.3709412419
 11
113.1895947501
 21
199.4976083959
  0
LINE
  8
CYAN
 10
113.1895947501
 20
199.4976083959
 11
111.9995948691
 21
194.6809422109
  0
LINE
  8
CYAN
 10
111.9995948691
 20
194.6809422109
 11
111.2629282761
 21
191.4509425339
  0
LINE
  8
CYAN
 10
111.2629282761
 20
191.4509425339
 11
110.6395950051
 21
187.9376095519
  0
ARC
  8
CYAN
 10
117.3852922154
 20
186.849777056
 40
6.8328478977
 50
170.8391694094
 51
213.0739990769
  0
LINE
  8
CYAN
 10
111.6595949031
 20
183.1209433669
 11
113.1329280865
 21
180.7976102699
  0
ARC
  8
CYAN
 10
120.7459225802
 20
185.6080249728
 40
9.0054302937
 50
212.2875199571
 51
292.4364889183
  0
LINE
  8
CYAN
 10
124.1829269815
 20
177.2842772879
 11
127.5829266335
 21
178.7009438096
  0
ARC
  8
CYAN
 10
128.9229412973
 20
175.5857309238
 40
3.3911930974
 50
58.4056671014
 51
113.2750483112
  0
LINE
  8
CYAN
 10
130.6995929885
 20
178.4742771656
 11
134.666259259
 21
175.9809440813
  0
ARC
  8
CYAN
 10
137.0947391742
 20
179.7784062788
 40
4.5075751618
 50
237.4010545501
 51
291.4930033838
  0
LINE
  8
CYAN
 10
138.746258851
 20
175.5842774543
 11
143.109591744
 21
177.3409439437
  0
ARC
  8
CYAN
 10
144.7676733392
 20
173.2033971877
 40
4.4574126727
 50
61.3288594812
 51
111.8379641353
  0
LINE
  8
CYAN
 10
146.906258031
 20
177.1142772997
 11
151.2695909288
 21
174.6776108763
  0
ARC
  8
CYAN
 10
152.7995907758
 20
177.4542772653
 40
3.1702958486
 50
241.1443387803
 51
298.8556612197
  0
LINE
  8
CYAN
 10
154.3295906228
 20
174.6776108763
 11
157.1629236701
 21
176.1509440608
  0
LINE
  8
CYAN
 10
157.1629236701
 20
176.1509440608
 11
157.5029236361
 21
176.3209440438
  0
ARC
  8
CYAN
 10
163.9581281188
 20
153.8796385956
 40
23.3512709532
 50
104.4624435097
 51
106.0477938962
  0
ARC
  8
CYAN
 10
160.1395900434
 20
170.3642779739
 40
6.448995832
 50
99.8810296306
 51
108.1914573126
  0
LINE
  8
CYAN
 10
159.0329234908
 20
176.7176106728
 11
159.4862567809
 21
176.7176106732
  0
LINE
  8
CYAN
 10
159.4862567809
 20
176.7176106732
 11
159.9962567299
 21
176.6609440122
  0
ARC
  8
CYAN
 10
157.7676438141
 20
170.7762973987
 40
6.2925178819
 50
60.7087179432
 51
69.2574951007
  0
LINE
  8
CYAN
 10
160.8462566449
 20
176.2642773852
 11
164.416256289
 21
174.2242775885
  0
ARC
  8
CYAN
 10
167.2903805152
 20
179.2099515387
 40
5.7547836454
 50
240.0375585898
 51
307.1151101602
  0
LINE
  8
CYAN
 10
170.762922321
 20
174.6209442155
 11
172.5762554684
 21
175.9809440761
  0
ARC
  8
CYAN
 10
174.1062553154
 20
173.9409442801
 40
2.549999745
 50
53.1301023542
 51
126.8698976458
  0
LINE
  8
CYAN
 10
175.6362551624
 20
175.9809440761
 11
177.5629216368
 21
174.5076108898
  0
ARC
  8
CYAN
 10
181.0145893702
 20
179.2110277627
 40
5.8340500874
 50
233.7263998981
 51
304.3478728507
  0
LINE
  8
CYAN
 10
184.3062542958
 20
174.3942775678
 11
186.6862540529
 21
175.9809440725
  0
ARC
  8
CYAN
 10
188.3840528169
 20
173.5440618587
 40
2.9700026207
 50
66.3333891141
 51
124.865289559
  0
LINE
  8
CYAN
 10
189.5762537639
 20
176.2642773775
 11
192.4662534755
 21
175.0742774962
  0
ARC
  8
CYAN
 10
194.9169126339
 20
180.9115327471
 40
6.3308197869
 50
247.2258387398
 51
297.5962207535
  0
LINE
  8
CYAN
 10
197.8495862705
 20
175.3009441402
 11
202.3829191451
 21
177.6809438994
  0
ARC
  8
CYAN
 10
203.6329567915
 20
175.1876910798
 40
2.7890686152
 50
66.1001251305
 51
116.6277299328
  0
LINE
  8
CYAN
 10
204.7629189071
 20
177.7376105604
 11
208.6729185166
 21
176.0376107301
  0
ARC
  8
CYAN
 10
210.8667733103
 20
181.1340064288
 40
5.5485356602
 50
246.7094836783
 51
318.4564413098
  0
LINE
  8
CYAN
 10
215.0195845486
 20
177.4542772551
 11
216.2662510868
 21
178.8142771148
  0
ARC
  8
CYAN
 10
219.3790446327
 20
176.0370277223
 40
4.1716421044
 50
58.861275472
 51
138.2605036704
  0
LINE
  8
CYAN
 10
221.5362505598
 20
179.6076103688
 11
225.0495835425
 21
177.3976105894
  0
ARC
  8
CYAN
 10
227.8082763257
 20
181.8576752336
 40
5.2442885603
 50
238.2618821004
 51
27.1932184341
  0
LINE
  8
CYAN
 10
232.4729161335
 20
184.2542765704
 11
229.2429164567
 21
190.430942619
  0
ARC
  8
CYAN
 10
212.3015304541
 20
181.0211152338
 40
19.3792520781
 50
29.0492962571
 51
34.1657082354
  0
ARC
  8
CYAN
 10
174.6115831242
 20
153.7740063909
 40
65.8806288957
 50
35.3646509923
 51
36.951719892
  0
ARC
  8
CYAN
 10
204.6469855911
 20
175.7574774089
 40
28.6670300709
 50
37.9263449598
 51
40.2613728421
  0
LINE
  8
CYAN
 10
226.5229167347
 20
194.2842755588
 11
225.5595835001
 21
195.4742754369
  0
LINE
  8
CYAN
 10
225.5595835001
 20
195.4742754369
 11
225.5029168391
 21
195.5309420979
  0
ARC
  8
CYAN
 10
184.1431365377
 20
163.675519416
 40
52.205357779
 50
37.6035685951
 51
38.7108845796
  0
LINE
  8
CYAN
 10
224.8795835681
 20
196.3242753519
 11
223.9162503353
 21
197.2876085838
  0
ARC
  8
CYAN
 10
163.8495896753
 20
139.6009476858
 40
83.2811777559
 50
43.8421101378
 51
46.1578898622
  0
ARC
  8
CYAN
 10
79.9059148446
 20
46.2892719189
 40
208.7679718819
 50
47.2804596775
 51
48.7451153397
  0
ARC
  8
CYAN
 10
131.024599457
 20
106.1241805924
 40
130.0809447329
 50
48.2933972751
 51
48.8592714661
  0
LINE
  8
CYAN
 10
216.6062511003
 20
204.0876078731
 11
215.13291793
 21
205.3909410624
  0
ARC
  8
CYAN
 10
184.0349161736
 20
167.8680980994
 40
48.7344791423
 50
50.3489030287
 51
52.8149862817
  0
ARC
  8
CYAN
 10
109.5479513327
 20
72.9723258485
 40
169.3677143028
 50
52.1421935516
 51
53.4419626047
  0
ARC
  8
CYAN
 10
178.8965722021
 20
167.2155291037
 40
52.3616715491
 50
52.9712598787
 51
58.5973358835
  0
ARC
  8
CYAN
 10
163.2208182346
 20
140.5106052317
 40
83.3245915455
 50
58.9651539371
 51
63.413258585
  0
ARC
  8
CYAN
 10
120.2515340295
 20
55.0646172618
 40
178.9664258453
 50
63.3543250639
 51
65.1070196926
  0
ARC
  8
CYAN
 10
125.7332070739
 20
67.6252217164
 40
165.2656849996
 50
64.9979280739
 51
66.8271673205
  0
ARC
  8
CYAN
 10
-4.7679959912
 20
-241.6049198567
 40
500.9037016555
 50
67.022914518
 51
68.144790529
  0
ARC
  8
CYAN
 10
112.4628044679
 20
54.6537537292
 40
182.3032667513
 50
67.6793837608
 51
69.5348355528
  0
ARC
  8
CYAN
 10
93.4104062466
 20
-0.1948217255
 40
240.3551746546
 50
69.8512221546
 51
71.5686854206
  0
ARC
  8
CYAN
 10
213.5852118871
 20
364.8003508796
 40
143.9190555334
 50
249.9029209126
 51
252.1218309004
  0
LINE
  8
CYAN
 10
164.1329233482
 20
229.6442718306
 11
162.7050681161
 21
230.1950159894
  0
LINE
  8
CYAN
 10
162.7050681161
 20
230.1950159894
 11
164.7249970383
 21
234.0952009172
  0
ARC
  8
CYAN
 10
126.6184872137
 20
228.8493458791
 40
1.2460209271
 50
59.9240958076
 51
230.5202414597
  0
LINE
  8
CYAN
 10
125.8262601543
 20
227.8876055623
 11
126.3929267636
 21
227.4342722749
  0
LINE
  8
CYAN
 10
126.3929267636
 20
227.4342722749
 11
126.8462600516
 21
227.0942723089
  0
LINE
  8
CYAN
 10
126.8462600516
 20
227.0942723089
 11
127.6962599666
 21
226.5842723599
  0
LINE
  8
CYAN
 10
127.6962599666
 20
226.5842723599
 11
130.6429263386
 21
224.6576058859
  0
LINE
  8
CYAN
 10
130.6429263386
 20
224.6576058859
 11
135.1762592186
 21
221.8809394969
  0
LINE
  8
CYAN
 10
135.1762592186
 20
221.8809394969
 11
139.0862588276
 21
218.8776064639
  0
LINE
  8
CYAN
 10
139.0862588276
 20
218.8776064639
 11
143.1662584196
 21
215.2509401599
  0
LINE
  8
CYAN
 10
143.1662584196
 20
215.2509401599
 11
147.4729246556
 21
211.2276072289
  0
ARC
  8
CYAN
 10
116.8714841755
 20
175.6425013255
 40
46.9334413996
 50
36.3553955368
 51
49.3060892838
  0
LINE
  8
CYAN
 10
154.6695906026
 20
203.4642746719
 11
158.4095902319
 21
197.9109418894
  0
LINE
  8
CYAN
 10
158.4095902319
 20
197.9109418894
 11
160.6195900109
 21
194.3976089074
  0
LINE
  8
CYAN
 10
160.6195900109
 20
194.3976089074
 11
162.8862564509
 21
190.2609426544
  0
LINE
  8
CYAN
 10
162.8862564509
 20
190.2609426544
 11
165.4362561959
 21
186.4642763674
  0
LINE
  8
CYAN
 10
165.4362561959
 20
186.4642763674
 11
166.6262560769
 21
183.8009433004
  0
LINE
  8
CYAN
 10
166.6262560769
 20
183.8009433004
 11
167.4762559919
 21
182.3842767754
  0
LINE
  8
CYAN
 10
167.4762559919
 20
182.3842767754
 11
168.4395892289
 21
181.2509435554
  0
LINE
  8
CYAN
 10
168.4395892289
 20
181.2509435554
 11
169.5729224489
 21
180.4576103014
  0
LINE
  8
CYAN
 10
169.5729224489
 20
180.4576103014
 11
170.5929223469
 21
179.9476103524
  0
ARC
  8
CYAN
 10
171.0049168412
 20
181.0228834689
 40
1.1514997779
 50
249.0354983269
 51
280.5756438577
  0
LINE
  8
CYAN
 10
171.2162556179
 20
179.8909436914
 11
172.1795888539
 21
180.0609436742
  0
ARC
  8
CYAN
 10
171.474256448
 20
183.4445114592
 40
3.4563021799
 50
281.7751447764
 51
324.1636630305
  0
LINE
  8
CYAN
 10
174.2762553109
 20
181.4209435382
 11
174.7295885973
 21
182.6109434233
  0
LINE
  8
CYAN
 10
174.7295885973
 20
182.6109434233
 11
174.7295885973
 21
183.9142766263
  0
LINE
  8
CYAN
 10
174.7295885973
 20
183.9142766263
 11
174.3895886313
 21
185.2742764903
  0
LINE
  8
CYAN
 10
174.3895886313
 20
185.2742764903
 11
173.8795886823
 21
186.9742763203
  0
LINE
  8
CYAN
 10
173.8795886823
 20
186.9742763203
 11
171.8395888863
 21
191.3376092173
  0
LINE
  8
CYAN
 10
171.8395888863
 20
191.3376092173
 11
166.0029228033
 21
199.3842750793
  0
LINE
  8
CYAN
 10
166.0029228033
 20
199.3842750793
 11
159.9395900763
 21
206.0142744163
  0
LINE
  8
CYAN
 10
159.9395900763
 20
206.0142744163
 11
153.8762573493
 21
212.0776071433
  0
LINE
  8
CYAN
 10
153.8762573493
 20
212.0776071433
 11
147.9829246053
 21
217.5176065993
  0
LINE
  8
CYAN
 10
147.9829246053
 20
217.5176065993
 11
141.7495918953
 21
221.8809394963
  0
LINE
  8
CYAN
 10
141.7495918953
 20
221.8809394963
 11
136.4795924223
 21
224.6576058853
  0
LINE
  8
CYAN
 10
136.4795924223
 20
224.6576058853
 11
131.2662596103
 21
228.2276055283
  0
LINE
  8
CYAN
 10
131.2662596103
 20
228.2276055283
 11
127.8662599503
 21
229.6442720533
  0
LINE
  8
CYAN
 10
127.8662599503
 20
229.6442720533
 11
127.2429266793
 21
229.9276053583
  0
ARC
  8
CYAN
 10
170.2563632417
 20
215.0117614
 40
2.8640204784
 50
351.1460139704
 51
39.6064885273
  0
LINE
  8
CYAN
 10
172.462922192
 20
216.8376066561
 11
171.3295889723
 21
218.1976065198
  0
LINE
  8
CYAN
 10
171.3295889723
 20
218.1976065198
 11
168.2695892783
 21
221.2576062138
  0
LINE
  8
CYAN
 10
168.2695892783
 20
221.2576062138
 11
165.7762561943
 21
223.6376059758
  0
LINE
  8
CYAN
 10
165.7762561943
 20
223.6376059758
 11
161.1295899923
 21
226.2442723818
  0
LINE
  8
CYAN
 10
161.1295899923
 20
226.2442723818
 11
156.9362570783
 21
227.6609389068
  0
LINE
  8
CYAN
 10
156.9362570783
 20
227.6609389068
 11
149.9095911143
 21
230.5509386178
  0
LINE
  8
CYAN
 10
149.9095911143
 20
230.5509386178
 11
142.7695918283
 21
232.5342717528
  0
LINE
  8
CYAN
 10
142.7695918283
 20
232.5342717528
 11
135.2329259153
 21
234.9709381758
  0
LINE
  8
CYAN
 10
135.2329259153
 20
234.9709381758
 11
129.9629264423
 21
236.5576046838
  0
LINE
  8
CYAN
 10
129.9629264423
 20
236.5576046838
 11
125.3729269013
 21
237.4642712598
  0
LINE
  8
CYAN
 10
125.3729269013
 20
237.4642712598
 11
124.0695936983
 21
237.5776045818
  0
LINE
  8
CYAN
 10
124.0695936983
 20
237.5776045818
 11
123.7862603933
 21
237.6342712428
  0
ARC
  8
CYAN
 10
123.6414552795
 20
236.5098303296
 40
1.1337265491
 50
82.6618571219
 51
136.2182125344
  0
LINE
  8
CYAN
 10
122.8229271563
 20
237.2942712768
 11
122.4829271906
 21
236.8976046502
  0
LINE
  8
CYAN
 10
122.4829271906
 20
236.8976046502
 11
122.1995938856
 21
236.2176047182
  0
LINE
  8
CYAN
 10
122.1995938856
 20
236.2176047182
 11
122.1995938856
 21
235.7076047692
  0
LINE
  8
CYAN
 10
122.1995938856
 20
235.7076047692
 11
122.5962605126
 21
234.8576048542
  0
LINE
  8
CYAN
 10
122.5962605126
 20
234.8576048542
 11
123.7295937326
 21
234.3476049052
  0
LINE
  8
CYAN
 10
123.7295937326
 20
234.3476049052
 11
125.3162602406
 21
233.6676049732
  0
ARC
  8
CYAN
 10
111.4544576849
 20
189.6850084193
 40
46.1152726298
 50
60.9128254649
 51
72.5069400548
  0
LINE
  8
CYAN
 10
133.8729260516
 20
229.9842720082
 11
136.8195924316
 21
228.2842721737
  0
LINE
  8
CYAN
 10
136.8195924316
 20
228.2842721737
 11
140.4462587356
 21
226.3009390387
  0
LINE
  8
CYAN
 10
140.4462587356
 20
226.3009390387
 11
144.2995916836
 21
224.0342725987
  0
LINE
  8
CYAN
 10
144.2995916836
 20
224.0342725987
 11
146.9629247506
 21
222.5609394127
  0
LINE
  8
CYAN
 10
146.9629247506
 20
222.5609394127
 11
150.4195910716
 21
219.7276063627
  0
LINE
  8
CYAN
 10
150.4195910716
 20
219.7276063627
 11
152.8562574946
 21
217.5742732447
  0
ARC
  8
CYAN
 10
173.5964055337
 20
246.0208558412
 40
35.2045707558
 50
233.9045456977
 51
249.2601781843
  0
LINE
  8
CYAN
 10
161.1295900007
 20
213.0976070257
 11
164.4729229728
 21
212.6442737479
  0
LINE
  8
CYAN
 10
164.4729229728
 20
212.6442737479
 11
169.9695890898
 21
212.1909404599
  0
ARC
  8
CYAN
 10
170.2656129453
 20
215.0339644758
 40
2.8583938983
 50
264.055618677
 51
350.6777196902
  0
ARC
  8
CYAN
 10
144.9799638045
 20
131.0439300694
 40
87.9959991576
 50
41.5021150427
 51
51.7208383024
  0
LINE
  8
CYAN
 10
199.4929194691
 20
200.1209416756
 11
192.2962535339
 21
205.7876077664
  0
LINE
  8
CYAN
 10
192.2962535339
 20
205.7876077664
 11
184.8729209429
 21
210.6042739514
  0
LINE
  8
CYAN
 10
184.8729209429
 20
210.6042739514
 11
181.3595879609
 21
212.7009404084
  0
LINE
  8
CYAN
 10
181.3595879609
 20
212.7009404084
 11
180.2829214019
 21
213.4376070014
  0
LINE
  8
CYAN
 10
180.2829214019
 20
213.4376070014
 11
179.4329214869
 21
213.6642736454
  0
LINE
  8
CYAN
 10
179.4329214869
 20
213.6642736454
 11
178.8662548769
 21
213.4376070014
  0
LINE
  8
CYAN
 10
178.8662548769
 20
213.4376070014
 11
178.4129215889
 21
213.2109403574
  0
LINE
  8
CYAN
 10
178.4129215889
 20
213.2109403574
 11
178.2995882669
 21
212.7576070694
  0
LINE
  8
CYAN
 10
178.2995882669
 20
212.7576070694
 11
178.2995882669
 21
212.2476071204
  0
LINE
  8
CYAN
 10
178.2995882669
 20
212.2476071204
 11
178.6962548939
 21
211.5109405274
  0
LINE
  8
CYAN
 10
178.6962548939
 20
211.5109405274
 11
179.4329214869
 21
210.7176072734
  0
LINE
  8
CYAN
 10
179.4329214869
 20
210.7176072734
 11
180.9062546729
 21
210.0376073414
  0
LINE
  8
CYAN
 10
180.9062546729
 20
210.0376073414
 11
183.3429210959
 21
208.2242741894
  0
LINE
  8
CYAN
 10
183.3429210959
 20
208.2242741894
 11
185.6095875359
 21
206.1842743934
  0
LINE
  8
CYAN
 10
185.6095875359
 20
206.1842743934
 11
189.0095871959
 21
203.4642746654
  0
LINE
  8
CYAN
 10
189.0095871959
 20
203.4642746654
 11
192.8062534829
 21
200.0642750054
  0
LINE
  8
CYAN
 10
192.8062534829
 20
200.0642750054
 11
197.1695863799
 21
195.7009421084
  0
LINE
  8
CYAN
 10
197.1695863799
 20
195.7009421084
 11
201.1929193109
 21
190.9409425844
  0
LINE
  8
CYAN
 10
201.1929193109
 20
190.9409425844
 11
204.0262523609
 21
187.3142762804
  0
LINE
  8
CYAN
 10
204.0262523609
 20
187.3142762804
 11
206.2929188009
 21
184.2542765864
  0
LINE
  8
CYAN
 10
206.2929188009
 20
184.2542765864
 11
207.4829186819
 21
182.2142767904
  0
LINE
  8
CYAN
 10
207.4829186819
 20
182.2142767904
 11
208.4462519189
 21
181.1376102314
  0
LINE
  8
CYAN
 10
208.4462519189
 20
181.1376102314
 11
209.4662518169
 21
180.2876103164
  0
LINE
  8
CYAN
 10
209.4662518169
 20
180.2876103164
 11
210.7129183589
 21
180.1176103334
  0
LINE
  8
CYAN
 10
210.7129183589
 20
180.1176103334
 11
212.1295848839
 21
180.7409436044
  0
LINE
  8
CYAN
 10
212.1295848839
 20
180.7409436044
 11
212.4129181889
 21
181.0809435704
  0
LINE
  8
CYAN
 10
212.4129181889
 20
181.0809435704
 11
213.2062514429
 21
181.8742768244
  0
LINE
  8
CYAN
 10
213.2062514429
 20
181.8742768244
 11
213.2062514312
 21
182.0442768166
  0
LINE
  8
CYAN
 10
213.2062514312
 20
182.0442768166
 11
213.5462513972
 21
183.1209433756
  0
LINE
  8
CYAN
 10
213.5462513972
 20
183.1209433756
 11
213.5462513972
 21
184.5942765616
  0
LINE
  8
CYAN
 10
213.5462513972
 20
184.5942765616
 11
213.0929181092
 21
186.0109430866
  0
LINE
  8
CYAN
 10
213.0929181092
 20
186.0109430866
 11
210.8829183302
 21
189.3542760856
  0
ARC
  8
CYAN
 10
228.27507773
 20
209.4211786329
 40
44.0560778309
 50
207.9271050305
 51
218.3251967648
  0
LINE
  8
CYAN
 10
193.7129200519
 20
182.1009434495
 11
194.5062532863
 21
181.3076102203
  0
LINE
  8
CYAN
 10
194.5062532863
 20
181.3076102203
 11
195.3562532013
 21
180.6842769493
  0
LINE
  8
CYAN
 10
195.3562532013
 20
180.6842769493
 11
196.2062531163
 21
180.5709436273
  0
LINE
  8
CYAN
 10
196.2062531163
 20
180.5709436273
 11
197.2829196753
 21
180.3442769833
  0
LINE
  8
CYAN
 10
197.2829196753
 20
180.3442769833
 11
198.6995862003
 21
180.7409436103
  0
LINE
  8
CYAN
 10
198.6995862003
 20
180.7409436103
 11
199.6062527763
 21
181.5342768643
  0
LINE
  8
CYAN
 10
199.6062527763
 20
181.5342768643
 11
199.9462527619
 21
181.9876101275
  0
LINE
  8
CYAN
 10
199.9462527619
 20
181.9876101275
 11
200.1729194059
 21
183.0076100255
  0
LINE
  8
CYAN
 10
200.1729194059
 20
183.0076100255
 11
200.2295860669
 21
184.1976099065
  0
LINE
  8
CYAN
 10
200.2295860669
 20
184.1976099065
 11
199.9462527619
 21
185.6709430925
  0
LINE
  8
CYAN
 10
199.9462527619
 20
185.6709430925
 11
198.5862528979
 21
188.3342761595
  0
LINE
  8
CYAN
 10
198.5862528979
 20
188.3342761595
 11
195.2429198989
 21
191.9042758025
  0
LINE
  8
CYAN
 10
195.2429198989
 20
191.9042758025
 11
192.0129202219
 21
195.7009420895
  0
LINE
  8
CYAN
 10
192.0129202219
 20
195.7009420895
 11
186.6295874269
 21
201.0276082235
  0
LINE
  8
CYAN
 10
186.6295874269
 20
201.0276082235
 11
182.2662545299
 21
204.8809411715
  0
LINE
  8
CYAN
 10
182.2662545299
 20
204.8809411715
 11
178.3562549209
 21
208.1109408485
  0
LINE
  8
CYAN
 10
178.3562549209
 20
208.1109408485
 11
176.5995884299
 21
209.3576073905
  0
LINE
  8
CYAN
 10
176.5995884299
 20
209.3576073905
 11
175.5229218709
 21
209.7542740175
  0
LINE
  8
CYAN
 10
175.5229218709
 20
209.7542740175
 11
174.6162552949
 21
209.6976073565
  0
LINE
  8
CYAN
 10
174.6162552949
 20
209.6976073565
 11
173.9362553629
 21
209.0742740855
  0
LINE
  8
CYAN
 10
173.9362553629
 20
209.0742740855
 11
173.8229220409
 21
208.3942741535
  0
LINE
  8
CYAN
 10
173.8229220409
 20
208.3942741535
 11
174.1062553459
 21
207.2609409335
  0
LINE
  8
CYAN
 10
174.1062553459
 20
207.2609409335
 11
174.9562552609
 21
206.1842743745
  0
LINE
  8
CYAN
 10
174.9562552609
 20
206.1842743745
 11
176.2595884639
 21
204.8809411715
  0
LINE
  8
CYAN
 10
176.2595884639
 20
204.8809411715
 11
177.8462549719
 21
203.1809413415
  0
LINE
  8
CYAN
 10
177.8462549719
 20
203.1809413415
 11
179.4329214799
 21
201.8209414775
  0
LINE
  8
CYAN
 10
179.4329214799
 20
201.8209414775
 11
181.9829212249
 21
199.2142750715
  0
LINE
  8
CYAN
 10
181.9829212249
 20
199.2142750715
 11
184.9295875969
 21
195.4176087845
  0
LINE
  8
CYAN
 10
184.9295875969
 20
195.4176087845
 11
187.3662540199
 21
191.6776091585
  0
LINE
  8
CYAN
 10
187.3662540199
 20
191.6776091585
 11
189.3495871549
 21
188.7876094475
  0
ARC
  8
CYAN
 10
183.5609571323
 20
185.688989132
 40
3.3852700202
 50
13.2392525992
 51
37.8806777445
  0
LINE
  8
CYAN
 10
186.2329209677
 20
187.767609437
 11
179.489588309
 21
196.0976086036
  0
LINE
  8
CYAN
 10
179.489588309
 20
196.0976086036
 11
174.786255446
 21
201.5376080596
  0
LINE
  8
CYAN
 10
174.786255446
 20
201.5376080596
 11
170.649589193
 21
205.4476076686
  0
LINE
  8
CYAN
 10
170.649589193
 20
205.4476076686
 11
168.042922787
 21
208.1109407356
  0
LINE
  8
CYAN
 10
168.042922787
 20
208.1109407356
 11
167.136256211
 21
208.6776073456
  0
LINE
  8
CYAN
 10
167.136256211
 20
208.6776073456
 11
165.94625633
 21
209.1309406336
  0
ARC
  8
CYAN
 10
165.5501305051
 20
208.1682187382
 40
1.0410327166
 50
67.6345764419
 51
209.3724868477
  0
LINE
  8
CYAN
 10
164.642923127
 20
207.6576074476
 11
164.9262564316
 21
207.2042741602
  0
LINE
  8
CYAN
 10
164.9262564316
 20
207.2042741602
 11
165.2662563976
 21
206.5809408892
  0
LINE
  8
CYAN
 10
165.2662563976
 20
206.5809408892
 11
180.9062548336
 21
182.0442766762
  0
LINE
  8
CYAN
 10
180.9062548336
 20
182.0442766762
 11
181.6995880876
 21
181.0809434392
  0
LINE
  8
CYAN
 10
181.6995880876
 20
181.0809434392
 11
182.3795880196
 21
180.5709434902
  0
LINE
  8
CYAN
 10
182.3795880196
 20
180.5709434902
 11
183.4562545786
 21
180.1742768632
  0
LINE
  8
CYAN
 10
183.4562545786
 20
180.1742768632
 11
183.5695879006
 21
180.1742768632
  0
ARC
  8
CYAN
 10
184.3762085096
 20
182.8950582004
 40
2.8378315474
 50
253.4866724057
 51
293.2462489211
  0
LINE
  8
CYAN
 10
185.4962543746
 20
180.2876101852
 11
185.9495876627
 21
180.514276829
  0
LINE
  8
CYAN
 10
185.9495876627
 20
180.514276829
 11
186.0062543237
 21
180.514276829
  0
LINE
  8
CYAN
 10
186.0062543237
 20
180.514276829
 11
186.2895876287
 21
180.740943473
  0
LINE
  8
CYAN
 10
186.2895876287
 20
180.740943473
 11
187.1962542047
 21
181.70427671
  0
LINE
  8
CYAN
 10
187.1962542047
 20
181.70427671
 11
187.4229208487
 21
182.497609964
  0
LINE
  8
CYAN
 10
187.4229208487
 20
182.497609964
 11
187.4795875097
 21
183.97094315
  0
LINE
  8
CYAN
 10
187.4795875097
 20
183.97094315
 11
186.8562542387
 21
186.464276234
  0
ARC
  8
CYAN
 10
135.9206658337
 20
202.2532665242
 40
11.6310090576
 50
17.3975648616
 51
23.0521540008
  0
ARC
  8
CYAN
 10
142.9445919611
 20
204.9859410466
 40
4.1047048842
 50
26.3465646243
 51
35.5809484608
  0
ARC
  8
CYAN
 10
143.7895918766
 20
205.8442742941
 40
2.9253391939
 50
31.5347919119
 51
45.7848246003
  0
ARC
  8
CYAN
 10
109.1003927517
 20
177.8026953801
 40
47.5115553041
 50
39.3706846746
 51
55.7264654842
  0
ARC
  8
CYAN
 10
121.5750612505
 20
200.7452261436
 40
21.6855692729
 50
48.8100345418
 51
54.3538547343
  0
ARC
  8
CYAN
 10
78.9083387764
 20
143.5661557533
 40
93.0260952727
 50
53.5225640815
 51
56.2534135507
  0
ARC
  8
CYAN
 10
98.8718996855
 20
172.6826037724
 40
57.7270828376
 50
56.6752078304
 51
60.1097876983
  0
ARC
  8
CYAN
 10
148.8778965926
 20
260.1381118693
 40
43.0158352301
 50
236.5166012173
 51
240.4138149596
  0
ARC
  8
CYAN
 10
130.5846297311
 20
232.1955912915
 40
9.6194888626
 50
226.4445485084
 51
235.5734636461
  0
LINE
  8
CYAN
 10
123.9562605336
 20
225.2242723518
 11
122.1429273764
 21
226.3009389157
  0
LINE
  8
CYAN
 10
122.1429273764
 20
226.3009389157
 11
121.8595940714
 21
226.4709388987
  0
LINE
  8
CYAN
 10
121.8595940714
 20
226.4709388987
 11
121.4062607834
 21
226.4709388987
  0
LINE
  8
CYAN
 10
121.4062607834
 20
226.4709388987
 11
121.0095941564
 21
226.4142722377
  0
LINE
  8
CYAN
 10
121.0095941564
 20
226.4142722377
 11
120.7829275124
 21
226.3009389157
  0
LINE
  8
CYAN
 10
120.7829275124
 20
226.3009389157
 11
120.6695941904
 21
226.0176056107
  0
ARC
  8
CYAN
 10
121.9184402194
 20
225.943503054
 40
1.2510426024
 50
176.6042320351
 51
197.6458006628
  0
LINE
  8
CYAN
 10
120.7262608514
 20
225.5642723227
 11
120.7829275122
 21
225.1676056964
  0
LINE
  8
CYAN
 10
120.7829275122
 20
225.1676056964
 11
120.8962608342
 21
224.9409390524
  0
ARC
  8
CYAN
 10
141.4095921162
 20
231.4009384064
 40
21.5064723267
 50
197.480107569
 51
199.3897900768
  0
LINE
  8
CYAN
 10
121.1229274782
 20
224.2609391204
 11
121.2929274565
 21
223.9209391677
  0
ARC
  8
CYAN
 10
126.7442602447
 20
226.2216056043
 40
5.9169329234
 50
202.8815647879
 51
210.2485375662
  0
ARC
  8
CYAN
 10
138.0655469595
 20
234.5185712688
 40
19.9302776981
 50
214.4616319355
 51
218.3070717335
  0
LINE
  8
CYAN
 10
122.4262606745
 20
222.1642726802
 11
123.0495939366
 21
221.3142727764
  0
LINE
  8
CYAN
 10
123.0495939366
 20
221.3142727764
 11
124.4095938006
 21
219.4442729634
  0
LINE
  8
CYAN
 10
124.4095938006
 20
219.4442729634
 11
125.2029270546
 21
218.3676064044
  0
ARC
  8
CYAN
 10
134.6579667595
 20
225.234638238
 40
11.6856280116
 50
215.9902553669
 51
221.3293611413
  0
ARC
  8
CYAN
 10
106.6118026774
 20
199.786105308
 40
26.187446731
 50
39.0127838879
 51
42.6173838567
  0
ARC
  8
CYAN
 10
115.0006449665
 20
206.8109180659
 40
15.2482282611
 50
30.8391259407
 51
38.3454514491
  0
ARC
  8
CYAN
 10
143.7887430726
 20
223.9788588177
 40
18.2703192168
 50
210.7856362726
 51
217.4433096133
  0
ARC
  8
CYAN
 10
156.0717413079
 20
233.5722030712
 40
33.8553226516
 50
217.6953319882
 51
220.2866561232
  0
ARC
  8
CYAN
 10
180.9598133511
 20
253.5612515573
 40
65.7710040017
 50
219.5506052446
 51
221.301552239
  0
ARC
  8
CYAN
 10
151.8906907451
 20
228.3999631393
 40
27.3274052738
 50
221.8968779794
 51
225.0068067609
  0
ARC
  8
CYAN
 10
136.2469081778
 20
212.8195391951
 40
5.2487768414
 50
225.5244985151
 51
232.1036514079
  0
ARC
  8
CYAN
 10
136.3979258592
 20
213.3392736582
 40
5.7551502576
 50
234.0958379559
 51
243.9766490357
  0
ARC
  8
CYAN
 10
148.2740688161
 20
233.0401365526
 40
28.7408352737
 50
239.9292477259
 51
244.2762102044
  0
LINE
  8
CYAN
 10
135.7995925822
 20
207.1476076123
 11
136.9329257815
 21
206.6376076733
  0
LINE
  8
CYAN
 10
136.9329257815
 20
206.6376076733
 11
137.7829256965
 21
206.2976077073
  0
LINE
  8
CYAN
 10
137.7829256965
 20
206.2976077073
 11
141.0695920345
 21
204.8809411823
  0
ARC
  8
CYAN
 10
156.4028994443
 20
237.1350517781
 40
35.713274373
 50
244.5740154993
 51
245.8757033631
  0
ARC
  8
CYAN
 10
145.1043166892
 20
212.0165590378
 40
8.1708046599
 50
246.1941118121
 51
251.7308663621
  0
ARC
  8
CYAN
 10
147.7460434028
 20
223.4700380511
 40
19.9045198514
 50
254.8466217917
 51
258.3683827545
  0
LINE
  8
CYAN
 10
143.7329250689
 20
203.9742746202
 11
144.1295916794
 21
203.8609413016
  0
LINE
  8
CYAN
 10
144.1295916794
 20
203.8609413016
 11
144.4129249844
 21
203.8042746406
  0
LINE
  8
CYAN
 10
144.4129249844
 20
203.8042746406
 11
144.6395916284
 21
203.7476079796
  0
LINE
  8
CYAN
 10
144.6395916284
 20
203.7476079796
 11
145.2062582384
 21
203.5776079966
  0
ARC
  8
CYAN
 10
146.4032324777
 20
209.4700689458
 40
6.0128066132
 50
258.5173726262
 51
267.2325946761
  0
ARC
  8
CYAN
 10
146.3962581168
 20
205.6176077928
 40
2.1718934777
 50
262.5041424299
 51
277.495857571
  0
LINE
  8
CYAN
 10
146.6795914191
 20
203.4642746748
 11
147.0762580442
 21
203.6342746576
  0
LINE
  8
CYAN
 10
147.0762580442
 20
203.6342746576
 11
147.2462580272
 21
204.0309412846
  0
LINE
  8
CYAN
 10
147.2462580272
 20
204.0309412846
 11
147.3029248581
 21
204.2576077872
  0
LINE
  8
CYAN
 10
147.3029248581
 20
204.2576077872
 11
147.3029248581
 21
204.4842744312
  0
LINE
  8
CYAN
 10
147.3029248581
 20
204.4842744312
 11
147.2462581971
 21
204.8809410582
  0
LINE
  8
CYAN
 10
147.2462581971
 20
204.8809410582
 11
147.1329248751
 21
205.2776076852
  0
LINE
  8
CYAN
 10
147.1329248751
 20
205.2776076852
 11
147.0195915531
 21
205.7309409732
  0
ARC
  8
CYAN
 10
179.670486117
 20
161.8597826236
 40
51.7662718767
 50
31.2709791993
 51
57.3532019848
  0
LINE
  8
CYAN
 10
207.5962520038
 20
205.4476078004
 11
205.499585555
 21
206.6376076761
  0
LINE
  8
CYAN
 10
205.499585555
 20
206.6376076761
 11
203.912919047
 21
207.1476076251
  0
LINE
  8
CYAN
 10
203.912919047
 20
207.1476076251
 11
203.289585776
 21
206.9776076421
  0
LINE
  8
CYAN
 10
203.289585776
 20
206.9776076421
 11
202.836252488
 21
206.7509409981
  0
LINE
  8
CYAN
 10
202.836252488
 20
206.7509409981
 11
202.609585844
 21
206.1842743881
  0
LINE
  8
CYAN
 10
202.609585844
 20
206.1842743881
 11
202.722919166
 21
205.5042744561
  0
LINE
  8
CYAN
 10
202.722919166
 20
205.5042744561
 11
203.119585793
 21
204.8242745241
  0
LINE
  8
CYAN
 10
203.119585793
 20
204.8242745241
 11
203.402919098
 21
203.8042746261
  0
LINE
  8
CYAN
 10
203.402919098
 20
203.8042746261
 11
204.08291903
 21
203.0109413721
  0
LINE
  8
CYAN
 10
204.08291903
 20
203.0109413721
 11
204.876252284
 21
201.6509415081
  0
LINE
  8
CYAN
 10
204.876252284
 20
201.6509415081
 11
205.952918843
 21
200.4042749661
  0
LINE
  8
CYAN
 10
205.952918843
 20
200.4042749661
 11
214.056251366
 21
191.6209425111
  0
LINE
  8
CYAN
 10
214.056251366
 20
191.6209425111
 11
216.606251111
 21
188.0509428681
  0
LINE
  8
CYAN
 10
216.606251111
 20
188.0509428681
 11
217.852917653
 21
186.1242763941
  0
LINE
  8
CYAN
 10
217.852917653
 20
186.1242763941
 11
218.929584212
 21
184.3109432421
  0
LINE
  8
CYAN
 10
218.929584212
 20
184.3109432421
 11
220.062917432
 21
183.0076100391
  0
LINE
  8
CYAN
 10
220.062917432
 20
183.0076100391
 11
221.819583923
 21
182.5542767511
  0
LINE
  8
CYAN
 10
221.819583923
 20
182.5542767511
 11
223.406250431
 21
182.8942767171
  0
LINE
  8
CYAN
 10
223.406250431
 20
182.8942767171
 11
224.029583702
 21
183.2909433441
  0
LINE
  8
CYAN
 10
224.029583702
 20
183.2909433441
 11
224.539583651
 21
183.9142766151
  0
LINE
  8
CYAN
 10
224.539583651
 20
183.9142766151
 11
224.8795836089
 21
185.2176098234
  0
LINE
  8
CYAN
 10
224.8795836089
 20
185.2176098234
 11
224.6529169649
 21
187.0309429754
  0
LINE
  8
CYAN
 10
224.6529169649
 20
187.0309429754
 11
223.9162503718
 21
188.7309428054
  0
ARC
  8
CYAN
 10
134.0357325777
 20
185.9986114703
 40
4.7235788634
 50
281.1552256893
 51
18.3318999837
  0
ARC
  8
CYAN
 10
31.3638952563
 20
150.648941483
 40
113.310128774
 50
18.9706774806
 51
32.1492528632
  0
ARC
  8
CYAN
 10
126.1993624483
 20
210.2552970761
 40
1.298151429
 50
32.0552563542
 51
189.6536602516
  0
LINE
  8
CYAN
 10
124.9195935994
 20
210.0376073289
 11
129.4529264793
 21
185.1042764897
  0
ARC
  8
CYAN
 10
134.0491155037
 20
185.9500650036
 40
4.6733619332
 50
190.4268905007
 51
281.1093986967
  0
ARC
  8
CYAN
 10
118.9008943574
 20
189.4097976288
 40
8.2175362173
 50
271.2693117558
 51
279.6113523062
  0
ARC
  8
CYAN
 10
119.959124502
 20
184.1047236466
 40
2.8146599758
 50
276.4011529167
 51
339.5420547444
  0
ARC
  8
CYAN
 10
88.2564881682
 20
195.6474531354
 40
36.5531588598
 50
339.9589733977
 51
11.9844992744
  0
ARC
  8
CYAN
 10
104.6891428114
 20
200.6901025638
 40
19.4909836944
 50
7.5101478112
 51
13.0995451239
  0
LINE
  8
CYAN
 10
123.6729275799
 20
205.1076087876
 11
123.276260953
 21
206.6942752947
  0
LINE
  8
CYAN
 10
123.276260953
 20
206.6942752947
 11
122.256261055
 21
211.0009415307
  0
LINE
  8
CYAN
 10
122.256261055
 20
211.0009415307
 11
121.632927784
 21
213.4942746147
  0
LINE
  8
CYAN
 10
121.632927784
 20
213.4942746147
 11
121.632927784
 21
213.6076079367
  0
LINE
  8
CYAN
 10
121.632927784
 20
213.6076079367
 11
121.519594462
 21
213.8342745807
  0
ARC
  8
CYAN
 10
214.1072518699
 20
245.357938095
 40
97.8070328026
 50
198.0675386368
 51
198.8023590091
  0
LINE
  8
CYAN
 10
121.1229278351
 20
215.0242744617
 11
120.8962611714
 21
215.7609411151
  0
ARC
  8
CYAN
 10
119.7992660993
 20
215.4204199051
 40
1.1486308731
 50
17.2450068601
 51
165.6925945687
  0
LINE
  8
CYAN
 10
118.6862613924
 20
215.7042744541
 11
118.5162614095
 21
215.1376078447
  0
LINE
  8
CYAN
 10
118.5162614095
 20
215.1376078447
 11
118.5162614095
 21
214.7409412177
  0
LINE
  8
CYAN
 10
118.5162614095
 20
214.7409412177
 11
118.4595947485
 21
214.5142745737
  0
ARC
  8
CYAN
 10
123.1069800706
 20
214.4475402318
 40
4.6478644348
 50
179.1773151779
 51
188.9939183821
  0
ARC
  8
CYAN
 10
112.000367119
 20
212.8585938088
 40
6.5727103721
 50
359.6136579405
 51
7.5390107751
  0
LINE
  8
CYAN
 10
118.5729280701
 20
212.8142747465
 11
118.516261409
 21
212.1342748068
  0
LINE
  8
CYAN
 10
118.516261409
 20
212.1342748068
 11
118.516261409
 21
211.4542748748
  0
ARC
  8
CYAN
 10
-80.9499481201
 20
220.0199030983
 40
199.6500406481
 50
356.8735230482
 51
357.5410722204
  0
ARC
  8
CYAN
 10
105.1429294003
 20
208.8192750218
 40
13.2636609327
 50
358.6535517366
 51
1.3464482621
  0
ARC
  8
CYAN
 10
94.6013989112
 20
212.1250853017
 40
24.074860967
 50
349.7173223159
 51
351.3580336339
  0
ARC
  8
CYAN
 10
-53.1859254453
 20
229.0605251209
 40
172.785100002
 50
352.3539481749
 51
352.9412930141
  0
LINE
  8
CYAN
 10
118.062928103
 20
206.0709418041
 11
117.8929280935
 21
204.5976084204
  0
LINE
  8
CYAN
 10
117.8929280935
 20
204.5976084204
 11
117.7229281105
 21
203.5776085224
  0
ARC
  8
CYAN
 10
180.7906775793
 20
196.6985002994
 40
63.4418091877
 50
173.7750776214
 51
174.8037361035
  0
ARC
  8
CYAN
 10
8.354127281
 20
214.8363982411
 40
109.9559997963
 50
352.7854782438
 51
353.5289748472
  0
ARC
  8
CYAN
 10
45.3620765312
 20
209.7728334593
 40
72.606112657
 50
351.728643003
 51
353.0820703162
  0
ARC
  8
CYAN
 10
46.2685658568
 20
210.2780581
 40
71.7845030604
 50
349.8498640574
 51
351.2254916422
  0
ARC
  8
CYAN
 10
49.7268859519
 20
208.6436598112
 40
68.0996142242
 50
349.5776731176
 51
350.6907129609
  0
ARC
  8
CYAN
 10
7.567009753
 20
218.0472816998
 40
111.2768515047
 50
347.8785954537
 51
348.7426663132
  0
ARC
  8
CYAN
 10
-42.8181665347
 20
226.4493542014
 40
162.3202171825
 50
348.0191946391
 51
348.7135373001
  0
ARC
  8
CYAN
 10
39.4055110427
 20
208.7154533799
 40
78.2068264657
 50
347.2466461792
 51
348.2238064438
  0
LINE
  8
CYAN
 10
115.6829281961
 20
191.4509424332
 11
115.5129281935
 21
190.8842757364
  0
LINE
  8
CYAN
 10
115.5129281935
 20
190.8842757364
 11
115.1162615527
 21
189.3542758446
  0
ARC
  8
CYAN
 10
100.8947674794
 20
193.3269150869
 40
14.7659322844
 50
341.4017429653
 51
344.3927990968
  0
ARC
  8
CYAN
 10
134.2695929606
 20
183.2909430825
 40
20.0986988874
 50
164.6315365741
 51
167.2959763289
  0
ARC
  8
CYAN
 10
118.6916514352
 20
186.4327639319
 40
4.2266241006
 50
162.3975131828
 51
173.4129726799
  0
ARC
  8
CYAN
 10
117.9489279335
 20
186.8129427638
 40
3.4575842319
 50
178.2652993112
 51
190.5321114698
  0
LINE
  8
CYAN
 10
114.5495949401
 20
186.180942826
 11
114.6629282617
 21
185.7276095401
  0
ARC
  8
CYAN
 10
124.96984547
 20
188.2433954521
 40
10.6095108791
 50
193.7169488061
 51
198.1738429957
  0
ARC
  8
CYAN
 10
128.0945269151
 20
189.8604758031
 40
14.0938877197
 50
200.4584097243
 51
205.2088986865
  0
LINE
  8
CYAN
 10
115.3429281916
 20
183.8576097337
 11
115.7395948146
 21
182.8942765053
  0
ARC
  8
CYAN
 10
116.8119023996
 20
183.2408149321
 40
1.1269127909
 50
197.9093142164
 51
229.4708208355
  0
LINE
  8
CYAN
 10
116.0795947806
 20
182.3842765563
 11
116.7595947119
 21
181.8176099468
  0
LINE
  8
CYAN
 10
116.7595947119
 20
181.8176099468
 11
117.2695946609
 21
181.5342766418
  0
LINE
  8
CYAN
 10
117.2695946609
 20
181.5342766418
 11
118.7429278469
 21
181.2509433368
  0
ARC
  8
CYAN
 10
120.2591158607
 20
189.2999111709
 40
8.1905255807
 50
259.3321708169
 51
261.7435829837
  0
ARC
  8
CYAN
 10
179.2629214932
 20
218.8776064547
 40
1.749339383
 50
65.0952311919
 51
245.0952311919
  0
LINE
  8
CYAN
 10
178.5262549002
 20
217.2909399467
 11
179.942921424
 21
216.6676066763
  0
LINE
  8
CYAN
 10
179.942921424
 20
216.6676066763
 11
180.679588017
 21
216.2709400493
  0
LINE
  8
CYAN
 10
180.679588017
 20
216.2709400493
 11
181.869587898
 21
215.6476067783
  0
LINE
  8
CYAN
 10
181.869587898
 20
215.6476067783
 11
183.909587694
 21
214.5709402193
  0
LINE
  8
CYAN
 10
183.909587694
 20
214.5709402193
 11
186.346254117
 21
213.3242736773
  0
LINE
  8
CYAN
 10
186.346254117
 20
213.3242736773
 11
189.236253828
 21
211.3976072033
  0
LINE
  8
CYAN
 10
189.236253828
 20
211.3976072033
 11
191.276253624
 21
210.2076073223
  0
LINE
  8
CYAN
 10
191.276253624
 20
210.2076073223
 11
193.769586708
 21
208.5642741533
  0
LINE
  8
CYAN
 10
193.769586708
 20
208.5642741533
 11
195.809586504
 21
207.0342743063
  0
LINE
  8
CYAN
 10
195.809586504
 20
207.0342743063
 11
196.7162530812
 21
206.2976077127
  0
LINE
  8
CYAN
 10
196.7162530812
 20
206.2976077127
 11
197.4529196742
 21
205.7876077637
  0
LINE
  8
CYAN
 10
197.4529196742
 20
205.7876077637
 11
197.8495863012
 21
205.5609411197
  0
LINE
  8
CYAN
 10
197.8495863012
 20
205.5609411197
 11
198.1329196062
 21
205.5042744587
  0
LINE
  8
CYAN
 10
198.1329196062
 20
205.5042744587
 11
198.5295862332
 21
205.6742744417
  0
LINE
  8
CYAN
 10
198.5295862332
 20
205.6742744417
 11
198.6995862162
 21
205.9009410857
  0
LINE
  8
CYAN
 10
198.6995862162
 20
205.9009410857
 11
198.8695861992
 21
206.4109410347
  0
LINE
  8
CYAN
 10
198.8695861992
 20
206.4109410347
 11
198.7562528772
 21
207.0909409667
  0
LINE
  8
CYAN
 10
198.7562528772
 20
207.0909409667
 11
198.6429195552
 21
207.7142742377
  0
LINE
  8
CYAN
 10
198.6429195552
 20
207.7142742377
 11
198.3595862502
 21
208.6776074747
  0
LINE
  8
CYAN
 10
198.3595862502
 20
208.6776074747
 11
197.1129197082
 21
210.8309405927
  0
LINE
  8
CYAN
 10
197.1129197082
 20
210.8309405927
 11
195.4695865392
 21
212.5309404227
  0
LINE
  8
CYAN
 10
195.4695865392
 20
212.5309404227
 11
193.1462534382
 21
214.2876069137
  0
LINE
  8
CYAN
 10
193.1462534382
 20
214.2876069137
 11
188.4429205752
 21
216.5542733537
  0
LINE
  8
CYAN
 10
188.4429205752
 20
216.5542733537
 11
179.9995880862
 21
220.4642729627
  0
ARC
  8
CYAN
 10
157.9588723424
 20
183.4251997337
 40
3.4361036915
 50
320.7453686787
 51
25.0045986236
  0
ARC
  8
CYAN
 10
124.9171647384
 20
168.5040038003
 40
39.6904755957
 50
24.3640140345
 51
52.5356627726
  0
ARC
  8
CYAN
 10
148.1432307972
 20
198.8096110505
 40
1.5082817505
 50
52.5872558926
 51
206.4580069093
  0
LINE
  8
CYAN
 10
146.7929247466
 20
198.1376085145
 11
154.8395906081
 21
181.8742768084
  0
ARC
  8
CYAN
 10
157.9278724809
 20
183.4012266165
 40
3.4451503077
 50
206.309330836
 51
321.3803325351
  0
ARC
  8
CYAN
 10
143.2682587208
 20
192.5219422107
 40
12.191032394
 50
295.671738233
 51
297.4583641212
  0
LINE
  8
CYAN
 10
148.889591492
 20
181.7042766258
 11
149.3429247694
 21
182.0442765863
  0
LINE
  8
CYAN
 10
149.3429247694
 20
182.0442765863
 11
149.5695914134
 21
182.4409432133
  0
LINE
  8
CYAN
 10
149.5695914134
 20
182.4409432133
 11
149.5695914134
 21
182.8942765013
  0
ARC
  8
CYAN
 10
142.5419332316
 20
182.9101519861
 40
7.0276761131
 50
359.8705690138
 51
7.2820997362
  0
ARC
  8
CYAN
 10
120.2774610093
 20
179.1293435442
 40
29.6063537517
 50
9.0786685549
 51
11.5310243836
  0
LINE
  8
CYAN
 10
149.2862581084
 20
185.0476096192
 11
149.1729247867
 21
185.3876095841
  0
ARC
  8
CYAN
 10
129.3354021156
 20
177.5210028757
 40
21.3403562958
 50
21.6308940508
 51
23.6088358454
  0
ARC
  8
CYAN
 10
108.8262621537
 20
171.560944303
 40
42.6088452372
 50
19.9049848352
 51
21.2071055935
  0
ARC
  8
CYAN
 10
113.4105950349
 20
170.0422777739
 40
39.0056616496
 50
25.7274532709
 51
27.4026491111
  0
ARC
  8
CYAN
 10
163.0053949521
 20
195.3483646768
 40
16.6750679577
 50
203.3811095781
 51
206.169171537
  0
ARC
  8
CYAN
 10
155.5139241504
 20
191.8079422815
 40
8.3983165179
 50
195.3771831685
 51
201.4927145999
  0
ARC
  8
CYAN
 10
138.754105313
 20
187.0653786557
 40
9.0200308057
 50
16.1937523386
 51
22.6863172751
  0
ARC
  8
CYAN
 10
102.2063966348
 20
170.1225624552
 40
49.2985888429
 50
24.4718042457
 51
25.5619827138
  0
ARC
  8
CYAN
 10
98.8484350108
 20
169.4738293125
 40
52.6148792475
 50
24.6214194497
 51
25.7808278385
  0
ARC
  8
CYAN
 10
111.8239285232
 20
175.6522772236
 40
38.2438022173
 50
25.9006169932
 51
27.2294853688
  0
ARC
  8
CYAN
 10
173.3187272548
 20
206.2850302518
 40
30.4656665634
 50
204.0121848287
 51
205.5380962883
  0
ARC
  8
CYAN
 10
155.5762574729
 20
198.25094165
 40
10.9899726143
 50
200.210269236
 51
203.3925498845
  0
ARC
  8
CYAN
 10
108.6043810248
 20
180.7853044373
 40
39.124028743
 50
20.449113007
 51
22.0518979935
  0
ARC
  8
CYAN
 10
121.5758320454
 20
184.3684367302
 40
25.8027831053
 50
25.4937367246
 51
29.3214141686
  0
ARC
  8
CYAN
 10
139.2449551345
 20
194.6436535816
 40
5.3741817811
 50
26.0561825188
 51
34.4566918142
  0
ARC
  8
CYAN
 10
137.2637721264
 20
193.1060447263
 40
7.8790974348
 50
35.5251494585
 51
40.2248178502
  0
ARC
  8
CYAN
 10
108.1522622174
 20
169.117277894
 40
45.6004502196
 50
39.6165962588
 51
41.5859930317
  0
ARC
  8
CYAN
 10
88.6640312981
 20
150.3556587561
 40
72.6380708701
 50
42.4519247168
 51
43.3058825047
  0
LINE
  8
CYAN
 10
141.5229255513
 20
200.1776081164
 11
140.8429256264
 21
200.8576080409
  0
LINE
  8
CYAN
 10
140.8429256264
 20
200.8576080409
 11
139.0295924808
 21
202.2176078986
  0
ARC
  8
CYAN
 10
138.3140722272
 20
201.211290926
 40
1.2347643834
 50
54.5860806607
 51
191.2244051852
  0
LINE
  8
CYAN
 10
137.1029260068
 20
200.9709413566
 11
137.2729259897
 21
200.1209414423
  0
LINE
  8
CYAN
 10
137.2729259897
 20
200.1209414423
 11
137.4429259727
 21
199.7242748153
  0
LINE
  8
CYAN
 10
137.4429259727
 20
199.7242748153
 11
137.4995926337
 21
199.3276081883
  0
LINE
  8
CYAN
 10
137.4995926337
 20
199.3276081883
 11
137.5562592947
 21
199.1009415443
  0
LINE
  8
CYAN
 10
137.5562592947
 20
199.1009415443
 11
137.6129259557
 21
198.9309415613
  0
LINE
  8
CYAN
 10
137.6129259557
 20
198.9309415613
 11
138.1795925657
 21
197.7409416803
  0
ARC
  8
CYAN
 10
296.6118141654
 20
268.2513455882
 40
173.414203283
 50
203.9914985968
 51
204.8964109641
  0
ARC
  8
CYAN
 10
-30.5641834608
 20
116.1200517504
 40
187.4017142353
 50
24.0996859328
 51
24.9757709913
  0
ARC
  8
CYAN
 10
96.9841035454
 20
173.0314274787
 40
47.7328078572
 50
20.5040155671
 51
24.2562545531
  0
ARC
  8
CYAN
 10
123.2771630164
 20
183.2878752736
 40
19.5169553702
 50
13.440404366
 51
19.3386763151
  0
ARC
  8
CYAN
 10
115.0579281694
 20
180.1809435251
 40
28.2551066928
 50
12.3777779094
 51
15.6947090259
  0
ARC
  8
CYAN
 10
176.0903742116
 20
192.8641303744
 40
34.0844664757
 50
191.2105331129
 51
194.2381782574
  0
LINE
  8
CYAN
 10
143.0529253703
 20
184.4809430935
 11
143.2795920089
 21
183.6309431995
  0
LINE
  8
CYAN
 10
143.2795920089
 20
183.6309431995
 11
143.4495919919
 21
182.8942766065
  0
ARC
  8
CYAN
 10
152.7982833648
 20
185.1090712568
 40
9.6074630224
 50
193.3281924829
 51
197.1820449232
  0
ARC
  8
CYAN
 10
151.6719244963
 20
185.9429429841
 40
8.8500644322
 50
204.5137870299
 51
208.6163155074
  0
LINE
  8
CYAN
 10
143.9029252781
 20
181.7042767314
 11
144.1295919192
 21
181.2509434487
  0
LINE
  8
CYAN
 10
144.1295919192
 20
181.2509434487
 11
144.3562585632
 21
181.0809434657
  0
LINE
  8
CYAN
 10
144.3562585632
 20
181.0809434657
 11
144.5829252072
 21
180.9676101437
  0
LINE
  8
CYAN
 10
144.5829252072
 20
180.9676101437
 11
144.9795918342
 21
180.7409434997
  0
LINE
  8
CYAN
 10
144.9795918342
 20
180.7409434997
 11
145.4329251222
 21
180.5709435167
  0
LINE
  8
CYAN
 10
145.4329251222
 20
180.5709435167
 11
145.8295917492
 21
180.5709435167
  0
ARC
  8
CYAN
 10
144.1395468732
 20
187.3740058995
 40
7.0098437548
 50
283.9512327031
 51
290.2542252351
  0
ARC
  8
CYAN
 10
138.6973906435
 20
208.0566135554
 40
28.3720345575
 50
286.1018638997
 51
287.2966244881
  0
ARC
  8
CYAN
 10
134.5643008188
 20
216.5017428133
 40
37.6914432888
 50
289.4789756788
 51
290.4872375815
  0
ARC
  8
CYAN
 10
144.1862585185
 20
190.9409424584
 40
10.3799031576
 50
290.1167253446
 51
293.4860937824
  0
LINE
  8
CYAN
 10
148.3229247679
 20
181.4209434089
 11
148.549591526
 21
181.5342766428
  0
ARC
  8
CYAN
 10
216.6067601518
 20
222.5787340807
 40
2.553712678
 50
155.503348964
 51
201.2234969528
  0
ARC
  8
CYAN
 10
216.6062517227
 20
222.6742724089
 40
2.5893625971
 50
203.1985905525
 51
246.801409488
  0
ARC
  8
CYAN
 10
216.6062517209
 20
222.6176057486
 40
2.5373759063
 50
246.2973540961
 51
336.2973540489
  0
ARC
  8
CYAN
 10
216.6062517197
 20
222.6176057461
 40
2.5373759063
 50
336.2973541122
 51
66.2973540491
  0
ARC
  8
CYAN
 10
216.606251722
 20
222.6176057466
 40
2.537375905
 50
66.2973540923
 51
156.2973540433
  0
ARC
  8
CYAN
 10
207.3692186485
 20
223.3984498061
 40
2.5420864863
 50
156.0362781097
 51
200.5943532545
  0
ARC
  8
CYAN
 10
207.3610930554
 20
223.4197857961
 40
2.5420876112
 50
201.1089376299
 51
246.5527837528
  0
ARC
  8
CYAN
 10
207.3695859753
 20
223.4109390034
 40
2.5373759063
 50
246.2973540953
 51
336.2973540489
  0
ARC
  8
CYAN
 10
207.3754523773
 20
223.3965174264
 40
2.5262303261
 50
336.5433638885
 51
67.7276199314
  0
ARC
  8
CYAN
 10
207.3548115965
 20
223.4050801955
 40
2.5262283037
 50
67.220793344
 51
156.0409803666
  0
ARC
  8
CYAN
 10
230.716250315
 20
223.1276056944
 40
2.5151317309
 50
157.4794343971
 51
202.5205656029
  0
ARC
  8
CYAN
 10
230.7368913379
 20
223.1060672366
 40
2.5261021555
 50
201.8899663612
 51
245.6722832054
  0
ARC
  8
CYAN
 10
230.7162503125
 20
223.1276056968
 40
2.5373759064
 50
246.2973540952
 51
336.2973540493
  0
ARC
  8
CYAN
 10
230.7162503114
 20
223.1276056943
 40
2.5373759063
 50
336.2973541122
 51
66.2973540491
  0
ARC
  8
CYAN
 10
230.7306718881
 20
223.1334720979
 40
2.5262303247
 50
66.5433638677
 51
157.7276199264
  0
ARC
  8
CYAN
 10
223.2362510552
 20
215.8742730888
 40
2.5151317309
 50
157.4794343971
 51
202.5205656029
  0
ARC
  8
CYAN
 10
223.2362510546
 20
215.8742730904
 40
2.5151317309
 50
202.5205656409
 51
247.4794343971
  0
ARC
  8
CYAN
 10
223.2510254326
 20
215.880131897
 40
2.526228305
 50
247.2207933468
 51
336.0409803723
  0
ARC
  8
CYAN
 10
223.2303922457
 20
215.8323808075
 40
2.526228305
 50
337.2207933644
 51
66.0409803731
  0
ARC
  8
CYAN
 10
223.2170748296
 20
215.8667976119
 40
2.5003216725
 50
65.4418239088
 51
157.1528842251
  0
LINE
  8
CYAN
 10
274.4481476731
 20
170.4215681047
 11
106.3329285147
 21
170.4215681047
  0
LINE
  8
CYAN
 10
106.3329285147
 20
170.4215681047
 11
106.3329285147
 21
452.9640012712
  0
LINE
  8
CYAN
 10
106.3329285147
 20
452.9640012712
 11
274.4481476731
 21
452.9640012712
  0
LINE
  8
CYAN
 10
274.4481476731
 20
452.9640012712
 11
274.4481476731
 21
170.4215681047
  0
LINE
  8
CYAN
 10
188.3295878664
 20
239.6742707081
 11
188.4322921794
 21
239.6182501738
  0
ENDSEC
  0
EOF
