  0
SECTION
  2
HEADER
  9
$ACADVER
  1
AC1018
  9
$ACADMAINTVER
 70
     0
  9
$DWGCODEPAGE
  3
ANSI_1252
  9
$INSBASE
 10
0.0
 20
0.0
 30
0.0
  9
$EXTMIN
 10
1.000000000000000E+20
 20
1.000000000000000E+20
 30
1.000000000000000E+20
  9
$EXTMAX
 10
-1.000000000000000E+20
 20
-1.000000000000000E+20
 30
-1.000000000000000E+20
  9
$LIMMIN
 10
0.0
 20
0.0
  9
$LIMMAX
 10
12.0
 20
9.0
  9
$ORTHOMODE
 70
     0
  9
$REGENMODE
 70
     1
  9
$FILLMODE
 70
     1
  9
$QTEXTMODE
 70
     0
  9
$MIRRTEXT
 70
     1
  9
$LTSCALE
 40
1.0
  9
$ATTMODE
 70
     1
  9
$TEXTSIZE
 40
0.2
  9
$TRACEWID
 40
0.05
  9
$TEXTSTYLE
  7
Standard
  9
$CLAYER
  8
0
  9
$CELTYPE
  6
ByLayer
  9
$CECOLOR
 62
   256
  9
$CELTSCALE
 40
1.0
  9
$DISPSILH
 70
     0
  9
$DIMSCALE
 40
1.0
  9
$DIMASZ
 40
0.18
  9
$DIMEXO
 40
0.0625
  9
$DIMDLI
 40
0.38
  9
$DIMRND
 40
0.0
  9
$DIMDLE
 40
0.0
  9
$DIMEXE
 40
0.18
  9
$DIMTP
 40
0.0
  9
$DIMTM
 40
0.0
  9
$DIMTXT
 40
0.18
  9
$DIMCEN
 40
0.09
  9
$DIMTSZ
 40
0.0
  9
$DIMTOL
 70
     0
  9
$DIMLIM
 70
     0
  9
$DIMTIH
 70
     1
  9
$DIMTOH
 70
     1
  9
$DIMSE1
 70
     0
  9
$DIMSE2
 70
     0
  9
$DIMTAD
 70
     0
  9
$DIMZIN
 70
     0
  9
$DIMBLK
  1

  9
$DIMASO
 70
     1
  9
$DIMSHO
 70
     1
  9
$DIMPOST
  1

  9
$DIMAPOST
  1

  9
$DIMALT
 70
     0
  9
$DIMALTD
 70
     2
  9
$DIMALTF
 40
25.4
  9
$DIMLFAC
 40
1.0
  9
$DIMTOFL
 70
     0
  9
$DIMTVP
 40
0.0
  9
$DIMTIX
 70
     0
  9
$DIMSOXD
 70
     0
  9
$DIMSAH
 70
     0
  9
$DIMBLK1
  1

  9
$DIMBLK2
  1

  9
$DIMSTYLE
  2
Standard
  9
$DIMCLRD
 70
     0
  9
$DIMCLRE
 70
     0
  9
$DIMCLRT
 70
     0
  9
$DIMTFAC
 40
1.0
  9
$DIMGAP
 40
0.09
  9
$DIMJUST
 70
     0
  9
$DIMSD1
 70
     0
  9
$DIMSD2
 70
     0
  9
$DIMTOLJ
 70
     1
  9
$DIMTZIN
 70
     0
  9
$DIMALTZ
 70
     0
  9
$DIMALTTZ
 70
     0
  9
$DIMUPT
 70
     0
  9
$DIMDEC
 70
     4
  9
$DIMTDEC
 70
     4
  9
$DIMALTU
 70
     2
  9
$DIMALTTD
 70
     2
  9
$DIMTXSTY
  7
Standard
  9
$DIMAUNIT
 70
     0
  9
$DIMADEC
 70
     0
  9
$DIMALTRND
 40
0.0
  9
$DIMAZIN
 70
     0
  9
$DIMDSEP
 70
    46
  9
$DIMATFIT
 70
     3
  9
$DIMFRAC
 70
     0
  9
$DIMLDRBLK
  1

  9
$DIMLUNIT
 70
     2
  9
$DIMLWD
 70
    -2
  9
$DIMLWE
 70
    -2
  9
$DIMTMOVE
 70
     0
  9
$LUNITS
 70
     2
  9
$LUPREC
 70
     4
  9
$SKETCHINC
 40
0.1
  9
$FILLETRAD
 40
0.5
  9
$AUNITS
 70
     0
  9
$AUPREC
 70
     0
  9
$MENU
  1
.
  9
$ELEVATION
 40
0.0
  9
$PELEVATION
 40
0.0
  9
$THICKNESS
 40
0.0
  9
$LIMCHECK
 70
     0
  9
$CHAMFERA
 40
0.5
  9
$CHAMFERB
 40
0.5
  9
$CHAMFERC
 40
1.0
  9
$CHAMFERD
 40
0.0
  9
$SKPOLY
 70
     0
  9
$TDCREATE
 40
2459707.611669734
  9
$TDUCREATE
 40
2459707.903336401
  9
$TDUPDATE
 40
2459707.611669745
  9
$TDUUPDATE
 40
2459707.903336412
  9
$TDINDWG
 40
0.0000000116
  9
$TDUSRTIMER
 40
0.0000000116
  9
$USRTIMER
 70
     1
  9
$ANGBASE
 50
0.0
  9
$ANGDIR
 70
     0
  9
$PDMODE
 70
     0
  9
$PDSIZE
 40
0.0
  9
$PLINEWID
 40
0.0
  9
$SPLFRAME
 70
     0
  9
$SPLINETYPE
 70
     6
  9
$SPLINESEGS
 70
     8
  9
$HANDSEED
  5
AB
  9
$SURFTAB1
 70
     6
  9
$SURFTAB2
 70
     6
  9
$SURFTYPE
 70
     6
  9
$SURFU
 70
     6
  9
$SURFV
 70
     6
  9
$UCSBASE
  2

  9
$UCSNAME
  2

  9
$UCSORG
 10
0.0
 20
0.0
 30
0.0
  9
$UCSXDIR
 10
1.0
 20
0.0
 30
0.0
  9
$UCSYDIR
 10
0.0
 20
1.0
 30
0.0
  9
$UCSORTHOREF
  2

  9
$UCSORTHOVIEW
 70
     0
  9
$UCSORGTOP
 10
0.0
 20
0.0
 30
0.0
  9
$UCSORGBOTTOM
 10
0.0
 20
0.0
 30
0.0
  9
$UCSORGLEFT
 10
0.0
 20
0.0
 30
0.0
  9
$UCSORGRIGHT
 10
0.0
 20
0.0
 30
0.0
  9
$UCSORGFRONT
 10
0.0
 20
0.0
 30
0.0
  9
$UCSORGBACK
 10
0.0
 20
0.0
 30
0.0
  9
$PUCSBASE
  2

  9
$PUCSNAME
  2

  9
$PUCSORG
 10
0.0
 20
0.0
 30
0.0
  9
$PUCSXDIR
 10
1.0
 20
0.0
 30
0.0
  9
$PUCSYDIR
 10
0.0
 20
1.0
 30
0.0
  9
$PUCSORTHOREF
  2

  9
$PUCSORTHOVIEW
 70
     0
  9
$PUCSORGTOP
 10
0.0
 20
0.0
 30
0.0
  9
$PUCSORGBOTTOM
 10
0.0
 20
0.0
 30
0.0
  9
$PUCSORGLEFT
 10
0.0
 20
0.0
 30
0.0
  9
$PUCSORGRIGHT
 10
0.0
 20
0.0
 30
0.0
  9
$PUCSORGFRONT
 10
0.0
 20
0.0
 30
0.0
  9
$PUCSORGBACK
 10
0.0
 20
0.0
 30
0.0
  9
$USERI1
 70
     0
  9
$USERI2
 70
     0
  9
$USERI3
 70
     0
  9
$USERI4
 70
     0
  9
$USERI5
 70
     0
  9
$USERR1
 40
0.0
  9
$USERR2
 40
0.0
  9
$USERR3
 40
0.0
  9
$USERR4
 40
0.0
  9
$USERR5
 40
0.0
  9
$WORLDVIEW
 70
     1
  9
$SHADEDGE
 70
     3
  9
$SHADEDIF
 70
    70
  9
$TILEMODE
 70
     1
  9
$MAXACTVP
 70
    64
  9
$PINSBASE
 10
0.0
 20
0.0
 30
0.0
  9
$PLIMCHECK
 70
     0
  9
$PEXTMIN
 10
1.000000000000000E+20
 20
1.000000000000000E+20
 30
1.000000000000000E+20
  9
$PEXTMAX
 10
-1.000000000000000E+20
 20
-1.000000000000000E+20
 30
-1.000000000000000E+20
  9
$PLIMMIN
 10
0.0
 20
0.0
  9
$PLIMMAX
 10
12.0
 20
9.0
  9
$UNITMODE
 70
     0
  9
$VISRETAIN
 70
     1
  9
$PLINEGEN
 70
     0
  9
$PSLTSCALE
 70
     1
  9
$TREEDEPTH
 70
  3020
  9
$CMLSTYLE
  2
Standard
  9
$CMLJUST
 70
     0
  9
$CMLSCALE
 40
1.0
  9
$PROXYGRAPHICS
 70
     1
  9
$MEASUREMENT
 70
     0
  9
$CELWEIGHT
370
    -1
  9
$ENDCAPS
280
     0
  9
$JOINSTYLE
280
     0
  9
$LWDISPLAY
290
     1
  9
$INSUNITS
 70
     1
  9
$HYPERLINKBASE
  1

  9
$STYLESHEET
  1

  9
$XEDIT
290
     1
  9
$CEPSNTYPE
380
     0
  9
$PSTYLEMODE
290
     1
  9
$FINGERPRINTGUID
  2
{2F96C315-C6DA-4CF2-9A63-F9F22F5E3294}
  9
$VERSIONGUID
  2
{FAEB1C32-E019-11D5-929B-00C0DF256EC4}
  9
$EXTNAMES
290
     1
  9
$PSVPSCALE
 40
0.0
  9
$OLESTARTUP
290
     0
  9
$SORTENTS
280
   127
  9
$INDEXCTL
280
     0
  9
$HIDETEXT
280
     1
  9
$XCLIPFRAME
290
     0
  9
$HALOGAP
280
     0
  9
$OBSCOLOR
 70
   257
  9
$OBSLTYPE
280
     0
  9
$INTERSECTIONDISPLAY
280
     0
  9
$INTERSECTIONCOLOR
 70
   257
  9
$DIMASSOC
280
     2
  9
$PROJECTNAME
  1

  0
ENDSEC
  0
SECTION
  2
CLASSES
  0
CLASS
  1
ACDBDICTIONARYWDFLT
  2
AcDbDictionaryWithDefault
  3
ObjectDBX Classes
 90
        0
 91
        3
280
     0
281
     0
  0
CLASS
  1
VISUALSTYLE
  2
AcDbVisualStyle
  3
ObjectDBX Classes
 90
     4095
 91
        3
280
     0
281
     0
  0
ENDSEC
  0
SECTION
  2
TABLES
  0
TABLE
  2
VPORT
  5
8
330
0
100
AcDbSymbolTable
 70
     1
  0
VPORT
  5
29
330
8
100
AcDbSymbolTableRecord
100
AcDbViewportTableRecord
  2
*Active
 70
     0
 10
0.0
 20
0.0
 11
1.0
 21
1.0
 12
0.0
 22
0.0
 13
0.0
 23
0.0
 14
0.5
 24
0.5
 15
0.5
 25
0.5
 16
0.0
 26
0.0
 36
1.0
 17
149.9992851730037
 27
-100.00009763125
 37
0.0
 40
200.0001952625
 41
1.499991387269696
 42
50.0
 43
0.0
 44
0.0
 50
0.0
 51
0.0
 71
     0
 72
   100
 73
     1
 74
     3
 75
     0
 76
     0
 77
     0
 78
     0
281
     0
 65
     1
110
0.0
120
0.0
130
0.0
111
1.0
121
0.0
131
0.0
112
0.0
122
1.0
132
0.0
 79
     0
146
0.0
  0
ENDTAB
  0
TABLE
  2
LTYPE
  5
5
330
0
100
AcDbSymbolTable
 70
     1
  0
LTYPE
  5
14
330
5
100
AcDbSymbolTableRecord
100
AcDbLinetypeTableRecord
  2
ByBlock
 70
     0
  3

 72
    65
 73
     0
 40
0.0
  0
LTYPE
  5
15
330
5
100
AcDbSymbolTableRecord
100
AcDbLinetypeTableRecord
  2
ByLayer
 70
     0
  3

 72
    65
 73
     0
 40
0.0
  0
LTYPE
  5
16
330
5
100
AcDbSymbolTableRecord
100
AcDbLinetypeTableRecord
  2
Continuous
 70
     0
  3
Solid line
 72
    65
 73
     0
 40
0.0
  0
ENDTAB
  0
TABLE
  2
LAYER
  5
2
330
0
100
AcDbSymbolTable
 70
     2
  0
LAYER
  5
10
330
2
100
AcDbSymbolTableRecord
100
AcDbLayerTableRecord
  2
0
 70
     0
 62
     7
  6
Continuous
370
    -3
390
F
  0
LAYER
  5
3B
330
2
100
AcDbSymbolTableRecord
100
AcDbLayerTableRecord
  2
Layer 1
 70
     0
 62
     7
  6
Continuous
370
    -3
390
F
  0
ENDTAB
  0
TABLE
  2
STYLE
  5
3
330
0
100
AcDbSymbolTable
 70
     1
  0
STYLE
  5
11
330
3
100
AcDbSymbolTableRecord
100
AcDbTextStyleTableRecord
  2
Standard
 70
     0
 40
0.0
 41
1.0
 50
0.0
 71
     0
 42
0.2
  3
txt
  4

  0
ENDTAB
  0
TABLE
  2
VIEW
  5
6
330
0
100
AcDbSymbolTable
 70
     0
  0
ENDTAB
  0
TABLE
  2
UCS
  5
7
330
0
100
AcDbSymbolTable
 70
     0
  0
ENDTAB
  0
TABLE
  2
APPID
  5
9
330
0
100
AcDbSymbolTable
 70
     1
  0
APPID
  5
12
330
9
100
AcDbSymbolTableRecord
100
AcDbRegAppTableRecord
  2
ACAD
 70
     0
  0
ENDTAB
  0
TABLE
  2
DIMSTYLE
  5
A
330
0
100
AcDbSymbolTable
 70
     1
100
AcDbDimStyleTable
  0
DIMSTYLE
105
27
330
A
100
AcDbSymbolTableRecord
100
AcDbDimStyleTableRecord
  2
Standard
 70
     0
340
11
  0
ENDTAB
  0
TABLE
  2
BLOCK_RECORD
  5
1
330
0
100
AcDbSymbolTable
 70
     7
  0
BLOCK_RECORD
  5
1F
330
1
100
AcDbSymbolTableRecord
100
AcDbBlockTableRecord
  2
*Model_Space
340
22
  0
BLOCK_RECORD
  5
1B
330
1
100
AcDbSymbolTableRecord
100
AcDbBlockTableRecord
  2
*Paper_Space
340
1E
  0
BLOCK_RECORD
  5
23
330
1
100
AcDbSymbolTableRecord
100
AcDbBlockTableRecord
  2
*Paper_Space0
340
26
  0
BLOCK_RECORD
  5
3C
330
1
100
AcDbSymbolTableRecord
100
AcDbBlockTableRecord
  2
block 2
340
0
102
{BLKREFS
331
3D
102
}
  0
BLOCK_RECORD
  5
4F
330
1
100
AcDbSymbolTableRecord
100
AcDbBlockTableRecord
  2
block 3
340
0
102
{BLKREFS
331
50
102
}
  0
BLOCK_RECORD
  5
68
330
1
100
AcDbSymbolTableRecord
100
AcDbBlockTableRecord
  2
block 4
340
0
102
{BLKREFS
331
69
102
}
  0
BLOCK_RECORD
  5
6F
330
1
100
AcDbSymbolTableRecord
100
AcDbBlockTableRecord
  2
block 5
340
0
102
{BLKREFS
331
70
102
}
  0
BLOCK_RECORD
  5
8A
330
1
100
AcDbSymbolTableRecord
100
AcDbBlockTableRecord
  2
block 6
340
0
102
{BLKREFS
331
8B
102
}
  0
BLOCK_RECORD
  5
99
330
1
100
AcDbSymbolTableRecord
100
AcDbBlockTableRecord
  2
block 7
340
0
102
{BLKREFS
331
9A
102
}
  0
ENDTAB
  0
ENDSEC
  0
SECTION
  2
BLOCKS
  0
BLOCK
  5
20
330
1F
100
AcDbEntity
  8
0
100
AcDbBlockBegin
  2
*Model_Space
 70
     0
 71
     0
 10
0.0
 20
0.0
 30
0.0
  3
*Model_Space
  1

  0
ENDBLK
  5
21
330
1F
100
AcDbEntity
  8
0
100
AcDbBlockEnd
  0
BLOCK
  5
1C
330
1B
100
AcDbEntity
 67
     1
  8
0
100
AcDbBlockBegin
  2
*Paper_Space
 70
     0
 71
     0
 10
0.0
 20
0.0
 30
0.0
  3
*Paper_Space
  1

  0
ENDBLK
  5
1D
330
1B
100
AcDbEntity
 67
     1
  8
0
100
AcDbBlockEnd
  0
BLOCK
  5
24
330
23
100
AcDbEntity
  8
0
100
AcDbBlockBegin
  2
*Paper_Space0
 70
     0
 71
     0
 10
0.0
 20
0.0
 30
0.0
  3
*Paper_Space0
  1

  0
ENDBLK
  5
25
330
23
100
AcDbEntity
  8
0
100
AcDbBlockEnd
  0
BLOCK
  5
3E
330
3C
100
AcDbEntity
  8
0
100
AcDbBlockBegin
  2
block 2
 70
     0
 71
     0
 10
0.0
 20
0.0
 30
0.0
  3
block 2
  1

  0
POLYLINE
  5
40
330
3C
100
AcDbEntity
  8
Layer 1
 62
   240
420
 15539236
370
    18
100
AcDb2dPolyline
 66
     1
 10
0.0
 20
0.0
 30
0.0
  0
VERTEX
  5
41
330
40
100
AcDbEntity
  8
Layer 1
 62
   240
420
 15539236
370
    18
100
AcDbVertex
100
AcDb2dVertex
 10
106.4451822650554
 20
-124.932253658003
 30
0.0
  0
VERTEX
  5
42
330
40
100
AcDbEntity
  8
Layer 1
 62
   240
420
 15539236
370
    18
100
AcDbVertex
100
AcDb2dVertex
 10
108.1629068740009
 20
-124.932253658003
 30
0.0
  0
VERTEX
  5
43
330
40
100
AcDbEntity
  8
Layer 1
 62
   240
420
 15539236
370
    18
100
AcDbVertex
100
AcDb2dVertex
 10
108.1629068740009
 20
-126.6499782669486
 30
0.0
  0
VERTEX
  5
44
330
40
100
AcDbEntity
  8
Layer 1
 62
   240
420
 15539236
370
    18
100
AcDbVertex
100
AcDb2dVertex
 10
106.4451822650554
 20
-126.6499782669486
 30
0.0
  0
VERTEX
  5
45
330
40
100
AcDbEntity
  8
Layer 1
 62
   240
420
 15539236
370
    18
100
AcDbVertex
100
AcDb2dVertex
 10
106.4451822650554
 20
-124.932253658003
 30
0.0
  0
SEQEND
  5
46
330
40
100
AcDbEntity
  8
Layer 1
370
    18
  0
POLYLINE
  5
47
330
3C
100
AcDbEntity
  8
Layer 1
 62
   240
420
 15539236
370
    18
100
AcDb2dPolyline
 66
     1
 10
0.0
 20
0.0
 30
0.0
  0
VERTEX
  5
48
330
47
100
AcDbEntity
  8
Layer 1
 62
   240
420
 15539236
370
    18
100
AcDbVertex
100
AcDb2dVertex
 10
84.33042532613962
 20
-100.6271050095655
 30
0.0
  0
VERTEX
  5
49
330
47
100
AcDbEntity
  8
Layer 1
 62
   240
420
 15539236
370
    18
100
AcDbVertex
100
AcDb2dVertex
 10
86.04814993508519
 20
-100.6271050095655
 30
0.0
  0
VERTEX
  5
4A
330
47
100
AcDbEntity
  8
Layer 1
 62
   240
420
 15539236
370
    18
100
AcDbVertex
100
AcDb2dVertex
 10
86.04814993508519
 20
-102.344829618511
 30
0.0
  0
VERTEX
  5
4B
330
47
100
AcDbEntity
  8
Layer 1
 62
   240
420
 15539236
370
    18
100
AcDbVertex
100
AcDb2dVertex
 10
84.33042532613962
 20
-102.344829618511
 30
0.0
  0
VERTEX
  5
4C
330
47
100
AcDbEntity
  8
Layer 1
 62
   240
420
 15539236
370
    18
100
AcDbVertex
100
AcDb2dVertex
 10
84.33042532613962
 20
-100.6271050095655
 30
0.0
  0
SEQEND
  5
4D
330
47
100
AcDbEntity
  8
Layer 1
370
    18
  0
SPLINE
  5
4E
330
3C
100
AcDbEntity
  8
Layer 1
 62
   250
420
  2301728
370
    18
100
AcDbSpline
210
0.0
220
0.0
230
1.0
 70
    11
 71
     3
 72
   113
 73
   109
 74
     0
 42
0.0000000001
 43
0.0000000001
 40
0.0
 40
0.0
 40
0.0
 40
0.0
 40
1.0
 40
1.0
 40
1.0
 40
2.0
 40
2.0
 40
2.0
 40
3.0
 40
3.0
 40
3.0
 40
4.0
 40
4.0
 40
4.0
 40
5.0
 40
5.0
 40
5.0
 40
6.0
 40
6.0
 40
6.0
 40
7.0
 40
7.0
 40
7.0
 40
8.0
 40
8.0
 40
8.0
 40
9.0
 40
9.0
 40
9.0
 40
10.0
 40
10.0
 40
10.0
 40
11.0
 40
11.0
 40
11.0
 40
12.0
 40
12.0
 40
12.0
 40
13.0
 40
13.0
 40
13.0
 40
14.0
 40
14.0
 40
14.0
 40
15.0
 40
15.0
 40
15.0
 40
16.0
 40
16.0
 40
16.0
 40
17.0
 40
17.0
 40
17.0
 40
18.0
 40
18.0
 40
18.0
 40
19.0
 40
19.0
 40
19.0
 40
20.0
 40
20.0
 40
20.0
 40
21.0
 40
21.0
 40
21.0
 40
22.0
 40
22.0
 40
22.0
 40
23.0
 40
23.0
 40
23.0
 40
24.0
 40
24.0
 40
24.0
 40
25.0
 40
25.0
 40
25.0
 40
26.0
 40
26.0
 40
26.0
 40
27.0
 40
27.0
 40
27.0
 40
28.0
 40
28.0
 40
28.0
 40
29.0
 40
29.0
 40
29.0
 40
30.0
 40
30.0
 40
30.0
 40
31.0
 40
31.0
 40
31.0
 40
32.0
 40
32.0
 40
32.0
 40
33.0
 40
33.0
 40
33.0
 40
34.0
 40
34.0
 40
34.0
 40
35.0
 40
35.0
 40
35.0
 40
36.0
 40
36.0
 40
36.0
 40
36.0
 10
108.8767306585447
 20
-127.3414089308383
 30
0.0
 10
108.8767306585447
 20
-127.3414089308383
 30
0.0
 10
108.8767306585447
 20
-113.6781602363374
 30
0.0
 10
108.8767306585447
 20
-113.6781602363374
 30
0.0
 10
108.8767306585447
 20
-113.6781602363374
 30
0.0
 10
108.0623100858317
 20
-113.6781602363374
 30
0.0
 10
108.0623100858317
 20
-113.6781602363374
 30
0.0
 10
107.7860134279146
 20
-113.6781602363374
 30
0.0
 10
107.5620822213734
 20
-113.9020914428786
 30
0.0
 10
107.5620822213734
 20
-114.1780435912472
 30
0.0
 10
107.5620822213734
 20
-114.2073269028718
 30
0.0
 10
107.5648382977616
 20
-114.2362657049479
 30
0.0
 10
107.5696614314409
 20
-114.2648599974755
 30
0.0
 10
107.5696614314409
 20
-114.2648599974755
 30
0.0
 10
107.8921223688603
 20
-116.0911051142064
 30
0.0
 10
107.8921223688603
 20
-116.0911051142064
 30
0.0
 10
107.8969455025397
 20
-116.1200439162825
 30
0.0
 10
107.8997015789279
 20
-116.1489827183586
 30
0.0
 10
107.8997015789279
 20
-116.1779215204347
 30
0.0
 10
107.8997015789279
 20
-116.4542181783517
 30
0.0
 10
107.6757703723866
 20
-116.678149384893
 30
0.0
 10
107.3994737144696
 20
-116.678149384893
 30
0.0
 10
107.3994737144696
 20
-116.678149384893
 30
0.0
 10
106.0331488450195
 20
-116.678149384893
 30
0.0
 10
106.0331488450195
 20
-116.678149384893
 30
0.0
 10
106.0042100429434
 20
-116.678149384893
 30
0.0
 10
105.9752712408673
 20
-116.6753933085048
 30
0.0
 10
105.9463324387912
 20
-116.6705701748254
 30
0.0
 10
105.674514405005
 20
-116.6223388380319
 30
0.0
 10
105.4929578729323
 20
-116.3632676575411
 30
0.0
 10
105.5411892097258
 20
-116.0911051142064
 30
0.0
 10
105.5411892097258
 20
-116.0911051142064
 30
0.0
 10
105.8629611280482
 20
-114.2648599974755
 30
0.0
 10
105.8629611280482
 20
-114.2648599974755
 30
0.0
 10
105.9108479552931
 20
-113.9930419636893
 30
0.0
 10
105.7292914232205
 20
-113.7336262736499
 30
0.0
 10
105.4571288798857
 20
-113.685739446405
 30
0.0
 10
105.4288790969067
 20
-113.6805718031771
 30
0.0
 10
105.399595785282
 20
-113.6781602363374
 30
0.0
 10
105.3703124736574
 20
-113.6781602363374
 30
0.0
 10
105.3703124736574
 20
-113.6781602363374
 30
0.0
 10
97.92615014912958
 20
-113.6781602363374
 30
0.0
 10
97.92615014912958
 20
-113.6781602363374
 30
0.0
 10
97.92615014912958
 20
-115.1767767724211
 30
0.0
 10
97.23230791840027
 20
-116.3915174405202
 30
0.0
 10
96.37654619986421
 20
-116.3915174405202
 30
0.0
 10
95.52078448132814
 20
-116.3915174405202
 30
0.0
 10
94.82694225059882
 20
-115.1767767724211
 30
0.0
 10
94.82694225059882
 20
-113.6781602363374
 30
0.0
 10
94.82694225059882
 20
-113.6781602363374
 30
0.0
 10
94.82763126969587
 20
-113.6781602363374
 30
0.0
 10
94.82763126969587
 20
-113.6781602363374
 30
0.0
 10
94.82763126969587
 20
-112.1795437002537
 30
0.0
 10
95.52147350042519
 20
-110.9648030321546
 30
0.0
 10
96.37723521896125
 20
-110.9648030321546
 30
0.0
 10
96.37723521896125
 20
-110.9648030321546
 30
0.0
 10
96.37723521896125
 20
-104.6843939625442
 30
0.0
 10
96.37723521896125
 20
-104.6843939625442
 30
0.0
 10
96.37723521896125
 20
-104.6551106509196
 30
0.0
 10
96.37999129534946
 20
-104.6261718488435
 30
0.0
 10
96.38481442902881
 20
-104.5972330467674
 30
0.0
 10
96.4330457658223
 20
-104.3254150129812
 30
0.0
 10
96.69211694631309
 20
-104.1438584809085
 30
0.0
 10
96.96427948964782
 20
-104.1917453081535
 30
0.0
 10
96.96427948964782
 20
-104.1917453081535
 30
0.0
 10
98.79018009683024
 20
-104.5138617360243
 30
0.0
 10
98.79018009683024
 20
-104.5138617360243
 30
0.0
 10
99.06234264016497
 20
-104.5617485632693
 30
0.0
 10
99.32141382065576
 20
-104.3801920311966
 30
0.0
 10
99.36964515744926
 20
-104.1083739974104
 30
0.0
 10
99.37446829112861
 20
-104.0794351953343
 30
0.0
 10
99.3772243675168
 20
-104.0504963932582
 30
0.0
 10
99.3772243675168
 20
-104.0215575911821
 30
0.0
 10
99.3772243675168
 20
-104.0215575911821
 30
0.0
 10
99.3772243675168
 20
-102.655232721732
 30
0.0
 10
99.3772243675168
 20
-102.655232721732
 30
0.0
 10
99.3772243675168
 20
-102.378936063815
 30
0.0
 10
99.15329316097557
 20
-102.1556938763708
 30
0.0
 10
98.87699650305854
 20
-102.1556938763708
 30
0.0
 10
98.84805770098244
 20
-102.1556938763708
 30
0.0
 10
98.81911889890634
 20
-102.1577609336619
 30
0.0
 10
98.79018009683024
 20
-102.1632730864384
 30
0.0
 10
98.79018009683024
 20
-102.1632730864384
 30
0.0
 10
96.96427948964782
 20
-102.4850450047607
 30
0.0
 10
96.96427948964782
 20
-102.4850450047607
 30
0.0
 10
96.93534068757172
 20
-102.48986813844
 30
0.0
 10
96.90640188549563
 20
-102.4926242148282
 30
0.0
 10
96.87746308341953
 20
-102.4926242148282
 30
0.0
 10
96.60116642550248
 20
-102.4926242148282
 30
0.0
 10
96.37723521896125
 20
-102.268693008287
 30
0.0
 10
96.37723521896125
 20
-101.99239635037
 30
0.0
 10
96.37723521896125
 20
-101.99239635037
 30
0.0
 10
96.37723521896125
 20
-100.0149115418366
 30
0.0
 10
96.37723521896125
 20
-100.0149115418366
 30
0.0
 10
96.37723521896125
 20
-100.0149115418366
 30
0.0
 10
83.87705076028074
 20
-100.0149115418366
 30
0.0
 10
83.87705076028074
 20
-100.0149115418366
 30
0.0
 10
83.87705076028074
 20
-100.0149115418366
 30
0.0
 10
83.87705076028074
 20
-113.6781602363374
 30
0.0
 10
83.87705076028074
 20
-113.6781602363374
 30
0.0
 10
83.87705076028074
 20
-113.6781602363374
 30
0.0
 10
83.87705076028074
 20
-127.3414089308383
 30
0.0
 10
83.87705076028074
 20
-127.3414089308383
 30
0.0
 10
83.87705076028074
 20
-127.3414089308383
 30
0.0
 10
96.37654619986421
 20
-127.3414089308383
 30
0.0
 10
96.37654619986421
 20
-127.3414089308383
 30
0.0
 10
96.37654619986421
 20
-127.3414089308383
 30
0.0
 10
108.8767306585447
 20
-127.3414089308383
 30
0.0
 10
108.8767306585447
 20
-127.3414089308383
 30
0.0
  0
ENDBLK
  5
3F
330
3C
100
AcDbEntity
  8
0
100
AcDbBlockEnd
  0
BLOCK
  5
51
330
4F
100
AcDbEntity
  8
0
100
AcDbBlockBegin
  2
block 3
 70
     0
 71
     0
 10
0.0
 20
0.0
 30
0.0
  3
block 3
  1

  0
POLYLINE
  5
53
330
4F
100
AcDbEntity
  8
Layer 1
 62
   240
420
 15539236
370
    18
100
AcDb2dPolyline
 66
     1
 10
0.0
 20
0.0
 30
0.0
  0
VERTEX
  5
54
330
53
100
AcDbEntity
  8
Layer 1
 62
   240
420
 15539236
370
    18
100
AcDbVertex
100
AcDb2dVertex
 10
114.3230821111762
 20
-94.74563799714693
 30
0.0
  0
VERTEX
  5
55
330
53
100
AcDbEntity
  8
Layer 1
 62
   240
420
 15539236
370
    18
100
AcDbVertex
100
AcDb2dVertex
 10
112.4072645118287
 20
-94.71945527145903
 30
0.0
  0
VERTEX
  5
56
330
53
100
AcDbEntity
  8
Layer 1
 62
   240
420
 15539236
370
    18
100
AcDbVertex
100
AcDb2dVertex
 10
113.2010145116303
 20
-96.70658634735113
 30
0.0
  0
VERTEX
  5
57
330
53
100
AcDbEntity
  8
Layer 1
 62
   240
420
 15539236
370
    18
100
AcDbVertex
100
AcDb2dVertex
 10
114.3230821111762
 20
-94.74563799714693
 30
0.0
  0
SEQEND
  5
58
330
53
100
AcDbEntity
  8
Layer 1
370
    18
  0
POLYLINE
  5
59
330
4F
100
AcDbEntity
  8
Layer 1
 62
   240
420
 15539236
370
    18
100
AcDb2dPolyline
 66
     1
 10
0.0
 20
0.0
 30
0.0
  0
VERTEX
  5
5A
330
59
100
AcDbEntity
  8
Layer 1
 62
   240
420
 15539236
370
    18
100
AcDbVertex
100
AcDb2dVertex
 10
114.4236788993455
 20
-93.95671113102472
 30
0.0
  0
VERTEX
  5
5B
330
59
100
AcDbEntity
  8
Layer 1
 62
   240
420
 15539236
370
    18
100
AcDbVertex
100
AcDb2dVertex
 10
112.3066677236594
 20
-93.95671113102472
 30
0.0
  0
SEQEND
  5
5C
330
59
100
AcDbEntity
  8
Layer 1
370
    18
  0
POLYLINE
  5
5D
330
4F
100
AcDbEntity
  8
Layer 1
 62
   240
420
 15539236
370
    18
100
AcDb2dPolyline
 66
     1
 10
0.0
 20
0.0
 30
0.0
  0
VERTEX
  5
5E
330
5D
100
AcDbEntity
  8
Layer 1
 62
   240
420
 15539236
370
    18
100
AcDbVertex
100
AcDb2dVertex
 10
134.376638421267
 20
-72.54819876658517
 30
0.0
  0
VERTEX
  5
5F
330
5D
100
AcDbEntity
  8
Layer 1
 62
   240
420
 15539236
370
    18
100
AcDbVertex
100
AcDb2dVertex
 10
136.2921115110659
 20
-72.57438149227308
 30
0.0
  0
VERTEX
  5
60
330
5D
100
AcDbEntity
  8
Layer 1
 62
   240
420
 15539236
370
    18
100
AcDbVertex
100
AcDb2dVertex
 10
135.4983615112643
 20
-70.58725041638097
 30
0.0
  0
VERTEX
  5
61
330
5D
100
AcDbEntity
  8
Layer 1
 62
   240
420
 15539236
370
    18
100
AcDbVertex
100
AcDb2dVertex
 10
134.376638421267
 20
-72.54819876658517
 30
0.0
  0
SEQEND
  5
62
330
5D
100
AcDbEntity
  8
Layer 1
370
    18
  0
POLYLINE
  5
63
330
4F
100
AcDbEntity
  8
Layer 1
 62
   240
420
 15539236
370
    18
100
AcDb2dPolyline
 66
     1
 10
0.0
 20
0.0
 30
0.0
  0
VERTEX
  5
64
330
63
100
AcDbEntity
  8
Layer 1
 62
   240
420
 15539236
370
    18
100
AcDbVertex
100
AcDb2dVertex
 10
134.2760416330977
 20
-73.33712563270738
 30
0.0
  0
VERTEX
  5
65
330
63
100
AcDbEntity
  8
Layer 1
 62
   240
420
 15539236
370
    18
100
AcDbVertex
100
AcDb2dVertex
 10
136.3927082992352
 20
-73.33712563270738
 30
0.0
  0
SEQEND
  5
66
330
63
100
AcDbEntity
  8
Layer 1
370
    18
  0
SPLINE
  5
67
330
4F
100
AcDbEntity
  8
Layer 1
 62
   250
420
  2301728
370
    18
100
AcDbSpline
210
0.0
220
0.0
230
1.0
 70
     8
 71
     3
 72
   116
 73
   112
 74
     0
 42
0.0000000001
 43
0.0000000001
 40
0.0
 40
0.0
 40
0.0
 40
0.0
 40
1.0
 40
1.0
 40
1.0
 40
2.0
 40
2.0
 40
2.0
 40
3.0
 40
3.0
 40
3.0
 40
4.0
 40
4.0
 40
4.0
 40
5.0
 40
5.0
 40
5.0
 40
6.0
 40
6.0
 40
6.0
 40
7.0
 40
7.0
 40
7.0
 40
8.0
 40
8.0
 40
8.0
 40
9.0
 40
9.0
 40
9.0
 40
10.0
 40
10.0
 40
10.0
 40
11.0
 40
11.0
 40
11.0
 40
12.0
 40
12.0
 40
12.0
 40
13.0
 40
13.0
 40
13.0
 40
14.0
 40
14.0
 40
14.0
 40
15.0
 40
15.0
 40
15.0
 40
16.0
 40
16.0
 40
16.0
 40
17.0
 40
17.0
 40
17.0
 40
18.0
 40
18.0
 40
18.0
 40
19.0
 40
19.0
 40
19.0
 40
20.0
 40
20.0
 40
20.0
 40
21.0
 40
21.0
 40
21.0
 40
22.0
 40
22.0
 40
22.0
 40
23.0
 40
23.0
 40
23.0
 40
24.0
 40
24.0
 40
24.0
 40
25.0
 40
25.0
 40
25.0
 40
26.0
 40
26.0
 40
26.0
 40
27.0
 40
27.0
 40
27.0
 40
28.0
 40
28.0
 40
28.0
 40
29.0
 40
29.0
 40
29.0
 40
30.0
 40
30.0
 40
30.0
 40
31.0
 40
31.0
 40
31.0
 40
32.0
 40
32.0
 40
32.0
 40
33.0
 40
33.0
 40
33.0
 40
34.0
 40
34.0
 40
34.0
 40
35.0
 40
35.0
 40
35.0
 40
36.0
 40
36.0
 40
36.0
 40
37.0
 40
37.0
 40
37.0
 40
37.0
 10
116.4821234517823
 20
-97.19234481077136
 30
0.0
 10
116.4821234517823
 20
-97.19234481077136
 30
0.0
 10
111.8701741256783
 20
-97.19234481077136
 30
0.0
 10
111.8701741256783
 20
-97.19234481077136
 30
0.0
 10
111.8701741256783
 20
-97.19234481077136
 30
0.0
 10
111.8701741256783
 20
-76.31231009376914
 30
0.0
 10
111.8701741256783
 20
-76.31231009376914
 30
0.0
 10
111.8701741256783
 20
-76.31231009376914
 30
0.0
 10
114.2493570677918
 20
-77.68690319238384
 30
0.0
 10
114.2493570677918
 20
-77.68690319238384
 30
0.0
 10
114.4891357135652
 20
-77.82539603089087
 30
0.0
 10
114.7947156831069
 20
-77.74340275834193
 30
0.0
 10
114.933897540711
 20
-77.50293509347149
 30
0.0
 10
114.9473334131035
 20
-77.47881942507475
 30
0.0
 10
114.9597357568503
 20
-77.45194768028979
 30
0.0
 10
114.9697265337576
 20
-77.42507593550485
 30
0.0
 10
114.9697265337576
 20
-77.42507593550485
 30
0.0
 10
115.6036241030435
 20
-75.68185761996843
 30
0.0
 10
115.6036241030435
 20
-75.68185761996843
 30
0.0
 10
115.6136148799508
 20
-75.65498587518348
 30
0.0
 10
115.6263617332462
 20
-75.62811413039853
 30
0.0
 10
115.6411756438328
 20
-75.60330944290473
 30
0.0
 10
115.7793239727913
 20
-75.36353079713135
 30
0.0
 10
116.0852484518815
 20
-75.28153752458239
 30
0.0
 10
116.3233045499122
 20
-75.41934134399239
 30
0.0
 10
116.3233045499122
 20
-75.41934134399239
 30
0.0
 10
117.5077283777411
 20
-76.10284828826596
 30
0.0
 10
117.5077283777411
 20
-76.10284828826596
 30
0.0
 10
117.5325330652349
 20
-76.11662867020696
 30
0.0
 10
117.5566487336317
 20
-76.1338541476332
 30
0.0
 10
117.5780083256402
 20
-76.15245766325356
 30
0.0
 10
117.7902262075316
 20
-76.3309136093895
 30
0.0
 10
117.8177869714136
 20
-76.64579533674133
 30
0.0
 10
117.6403645539232
 20
-76.85801321863272
 30
0.0
 10
117.6403645539232
 20
-76.85801321863272
 30
0.0
 10
116.4480170064783
 20
-78.27739255855566
 30
0.0
 10
116.4480170064783
 20
-78.27739255855566
 30
0.0
 10
116.2702500794394
 20
-78.48961044044705
 30
0.0
 10
116.2978108433214
 20
-78.80449216779888
 30
0.0
 10
116.5100287252128
 20
-78.98294811393482
 30
0.0
 10
116.5313883172213
 20
-79.00086261045813
 30
0.0
 10
116.5558484951666
 20
-79.01808808788437
 30
0.0
 10
116.5809976922089
 20
-79.03255748892242
 30
0.0
 10
116.5809976922089
 20
-79.03255748892242
 30
0.0
 10
122.897924773963
 20
-82.68022458870495
 30
0.0
 10
122.897924773963
 20
-82.68022458870495
 30
0.0
 10
122.7160237323418
 20
-83.64829642006015
 30
0.0
 10
122.8593397045282
 20
-84.71283092500235
 30
0.0
 10
123.2679280290789
 20
-85.43767901509892
 30
0.0
 10
123.869097191255
 20
-86.50359155823521
 30
0.0
 10
124.8512939140997
 20
-86.51254880649687
 30
0.0
 10
125.4596977767948
 20
-85.45834958801042
 30
0.0
 10
125.6340196083484
 20
-85.15655922350253
 30
0.0
 10
125.7642442176909
 20
-84.78724498748375
 30
0.0
 10
125.8407253374634
 20
-84.37934568203016
 30
0.0
 10
125.8407253374634
 20
-84.37934568203016
 30
0.0
 10
125.8414143565605
 20
-84.37934568203016
 30
0.0
 10
125.8414143565605
 20
-84.37934568203016
 30
0.0
 10
126.0233153981817
 20
-83.4105848315779
 30
0.0
 10
125.8799994259953
 20
-82.34605032663572
 30
0.0
 10
125.4714111014447
 20
-81.62120223653915
 30
0.0
 10
125.4714111014447
 20
-81.62120223653915
 30
0.0
 10
128.8662081926098
 20
-75.74111326231473
 30
0.0
 10
128.8662081926098
 20
-75.74111326231473
 30
0.0
 10
128.881366612745
 20
-75.71561955572388
 30
0.0
 10
128.8972140519771
 20
-75.69150388732713
 30
0.0
 10
128.9165065866945
 20
-75.66876625712447
 30
0.0
 10
129.0928954755393
 20
-75.45723739433014
 30
0.0
 10
129.4091552410852
 20
-75.4303656495452
 30
0.0
 10
129.6206841038796
 20
-75.60744355748703
 30
0.0
 10
129.6206841038796
 20
-75.60744355748703
 30
0.0
 10
131.0414414819966
 20
-76.79944659538347
 30
0.0
 10
131.0414414819966
 20
-76.79944659538347
 30
0.0
 10
131.2533148543395
 20
-76.97721352242236
 30
0.0
 10
131.5678520721428
 20
-76.94896373944331
 30
0.0
 10
131.7459635087302
 20
-76.73812389574603
 30
0.0
 10
131.7645670243505
 20
-76.71538626554337
 30
0.0
 10
131.7821370113253
 20
-76.69195961624368
 30
0.0
 10
131.7959173932663
 20
-76.66715492874988
 30
0.0
 10
131.7959173932663
 20
-76.66715492874988
 30
0.0
 10
132.4790798279913
 20
-75.48342012001804
 30
0.0
 10
132.4790798279913
 20
-75.48342012001804
 30
0.0
 10
132.6179171760469
 20
-75.24433049334169
 30
0.0
 10
132.5352348844009
 20
-74.93840601425151
 30
0.0
 10
132.2964897672731
 20
-74.80060219484152
 30
0.0
 10
132.2706515511337
 20
-74.78613279380347
 30
0.0
 10
132.2448133349943
 20
-74.77373045005658
 30
0.0
 10
132.2165635520153
 20
-74.76339516360082
 30
0.0
 10
132.2165635520153
 20
-74.76339516360082
 30
0.0
 10
130.4736897460274
 20
-74.12949759431486
 30
0.0
 10
130.4736897460274
 20
-74.12949759431486
 30
0.0
 10
130.4468180012425
 20
-74.1191623078591
 30
0.0
 10
130.4199462564575
 20
-74.10744898320925
 30
0.0
 10
130.3951415689637
 20
-74.09229056307416
 30
0.0
 10
130.1560519422874
 20
-73.95448674366416
 30
0.0
 10
130.0740586697384
 20
-73.64856226457397
 30
0.0
 10
130.2125515082455
 20
-73.40878361880058
 30
0.0
 10
130.2125515082455
 20
-73.40878361880058
 30
0.0
 10
132.2572156787413
 20
-69.8665364408667
 30
0.0
 10
132.2572156787413
 20
-69.8665364408667
 30
0.0
 10
132.2572156787413
 20
-69.8665364408667
 30
0.0
 10
136.8691650048452
 20
-69.8665364408667
 30
0.0
 10
136.8691650048452
 20
-69.8665364408667
 30
0.0
 10
136.8691650048452
 20
-69.8665364408667
 30
0.0
 10
136.8691650048452
 20
-90.74657115786891
 30
0.0
 10
136.8691650048452
 20
-90.74657115786891
 30
0.0
 10
136.8691650048452
 20
-90.74657115786891
 30
0.0
 10
136.8691650048452
 20
-97.19303382986841
 30
0.0
 10
136.8691650048452
 20
-97.19303382986841
 30
0.0
 10
136.8691650048452
 20
-97.19303382986841
 30
0.0
 10
116.4810899231367
 20
-97.19303382986841
 30
0.0
 10
116.4810899231367
 20
-97.19303382986841
 30
0.0
  0
ENDBLK
  5
52
330
4F
100
AcDbEntity
  8
0
100
AcDbBlockEnd
  0
BLOCK
  5
6A
330
68
100
AcDbEntity
  8
0
100
AcDbBlockBegin
  2
block 4
 70
     0
 71
     0
 10
0.0
 20
0.0
 30
0.0
  3
block 4
  1

  0
SPLINE
  5
6C
330
68
100
AcDbEntity
  8
Layer 1
 62
   240
420
 15539236
370
    18
100
AcDbSpline
210
0.0
220
0.0
230
1.0
 70
    11
 71
     3
 72
    17
 73
    13
 74
     0
 42
0.0000000001
 43
0.0000000001
 40
0.0
 40
0.0
 40
0.0
 40
0.0
 40
1.0
 40
1.0
 40
1.0
 40
2.0
 40
2.0
 40
2.0
 40
3.0
 40
3.0
 40
3.0
 40
4.0
 40
4.0
 40
4.0
 40
4.0
 10
164.8950167773527
 20
-102.1722303347
 30
0.0
 10
164.8950167773527
 20
-101.5149061161143
 30
0.0
 10
164.361715996236
 20
-100.9816053349977
 30
0.0
 10
163.7043917776503
 20
-100.9816053349977
 30
0.0
 10
163.0470675590646
 20
-100.9816053349977
 30
0.0
 10
162.513766777948
 20
-101.5149061161143
 30
0.0
 10
162.513766777948
 20
-102.1722303347
 30
0.0
 10
162.513766777948
 20
-102.8295545532857
 30
0.0
 10
163.0470675590646
 20
-103.3628553344023
 30
0.0
 10
163.7043917776503
 20
-103.3628553344023
 30
0.0
 10
164.361715996236
 20
-103.3628553344023
 30
0.0
 10
164.8950167773527
 20
-102.8295545532857
 30
0.0
 10
164.8950167773527
 20
-102.1722303347
 30
0.0
  0
SPLINE
  5
6D
330
68
100
AcDbEntity
  8
Layer 1
 62
   240
420
 15539236
370
    18
100
AcDbSpline
210
0.0
220
0.0
230
1.0
 70
    11
 71
     3
 72
    17
 73
    13
 74
     0
 42
0.0000000001
 43
0.0000000001
 40
0.0
 40
0.0
 40
0.0
 40
0.0
 40
1.0
 40
1.0
 40
1.0
 40
2.0
 40
2.0
 40
2.0
 40
3.0
 40
3.0
 40
3.0
 40
4.0
 40
4.0
 40
4.0
 40
4.0
 10
143.1351046734176
 20
-125.4228352551026
 30
0.0
 10
143.1351046734176
 20
-124.765511036517
 30
0.0
 10
142.6018038923009
 20
-124.2322102554003
 30
0.0
 10
141.9444796737153
 20
-124.2322102554003
 30
0.0
 10
141.2871554551296
 20
-124.2322102554003
 30
0.0
 10
140.7538546740129
 20
-124.765511036517
 30
0.0
 10
140.7538546740129
 20
-125.4228352551026
 30
0.0
 10
140.7538546740129
 20
-126.0801594736883
 30
0.0
 10
141.2871554551296
 20
-126.613460254805
 30
0.0
 10
141.9444796737153
 20
-126.613460254805
 30
0.0
 10
142.6018038923009
 20
-126.613460254805
 30
0.0
 10
143.1351046734176
 20
-126.0801594736883
 30
0.0
 10
143.1351046734176
 20
-125.4228352551026
 30
0.0
  0
SPLINE
  5
6E
330
68
100
AcDbEntity
  8
Layer 1
 62
   250
420
  2301728
370
    18
100
AcDbSpline
210
0.0
220
0.0
230
1.0
 70
     8
 71
     3
 72
   116
 73
   112
 74
     0
 42
0.0000000001
 43
0.0000000001
 40
0.0
 40
0.0
 40
0.0
 40
0.0
 40
1.0
 40
1.0
 40
1.0
 40
2.0
 40
2.0
 40
2.0
 40
3.0
 40
3.0
 40
3.0
 40
4.0
 40
4.0
 40
4.0
 40
5.0
 40
5.0
 40
5.0
 40
6.0
 40
6.0
 40
6.0
 40
7.0
 40
7.0
 40
7.0
 40
8.0
 40
8.0
 40
8.0
 40
9.0
 40
9.0
 40
9.0
 40
10.0
 40
10.0
 40
10.0
 40
11.0
 40
11.0
 40
11.0
 40
12.0
 40
12.0
 40
12.0
 40
13.0
 40
13.0
 40
13.0
 40
14.0
 40
14.0
 40
14.0
 40
15.0
 40
15.0
 40
15.0
 40
16.0
 40
16.0
 40
16.0
 40
17.0
 40
17.0
 40
17.0
 40
18.0
 40
18.0
 40
18.0
 40
19.0
 40
19.0
 40
19.0
 40
20.0
 40
20.0
 40
20.0
 40
21.0
 40
21.0
 40
21.0
 40
22.0
 40
22.0
 40
22.0
 40
23.0
 40
23.0
 40
23.0
 40
24.0
 40
24.0
 40
24.0
 40
25.0
 40
25.0
 40
25.0
 40
26.0
 40
26.0
 40
26.0
 40
27.0
 40
27.0
 40
27.0
 40
28.0
 40
28.0
 40
28.0
 40
29.0
 40
29.0
 40
29.0
 40
30.0
 40
30.0
 40
30.0
 40
31.0
 40
31.0
 40
31.0
 40
32.0
 40
32.0
 40
32.0
 40
33.0
 40
33.0
 40
33.0
 40
34.0
 40
34.0
 40
34.0
 40
35.0
 40
35.0
 40
35.0
 40
36.0
 40
36.0
 40
36.0
 40
37.0
 40
37.0
 40
37.0
 40
37.0
 10
144.7036566478519
 20
-100.3914604783744
 30
0.0
 10
144.7036566478519
 20
-100.3914604783744
 30
0.0
 10
140.0927408503935
 20
-100.3914604783744
 30
0.0
 10
140.0927408503935
 20
-100.3914604783744
 30
0.0
 10
140.0927408503935
 20
-100.3914604783744
 30
0.0
 10
140.0927408503935
 20
-121.2721842144736
 30
0.0
 10
140.0927408503935
 20
-121.2721842144736
 30
0.0
 10
140.0927408503935
 20
-121.2721842144736
 30
0.0
 10
140.0927408503935
 20
-127.7186468864731
 30
0.0
 10
140.0927408503935
 20
-127.7186468864731
 30
0.0
 10
140.0927408503935
 20
-127.7186468864731
 30
0.0
 10
160.480815932102
 20
-127.7193359055702
 30
0.0
 10
160.480815932102
 20
-127.7193359055702
 30
0.0
 10
160.480815932102
 20
-127.7193359055702
 30
0.0
 10
158.4358072520577
 20
-124.1757106894422
 30
0.0
 10
158.4358072520577
 20
-124.1757106894422
 30
0.0
 10
158.2980034326477
 20
-123.9366210627659
 30
0.0
 10
157.9913899344605
 20
-123.8546277902169
 30
0.0
 10
157.7529893268812
 20
-123.9924316096269
 30
0.0
 10
157.7274956202904
 20
-124.007590029762
 30
0.0
 10
157.7033799518936
 20
-124.0241264880912
 30
0.0
 10
157.6820203598851
 20
-124.0420409846145
 30
0.0
 10
157.6820203598851
 20
-124.0420409846145
 30
0.0
 10
156.261262981768
 20
-125.234733041608
 30
0.0
 10
156.261262981768
 20
-125.234733041608
 30
0.0
 10
156.2385253515654
 20
-125.2533365572283
 30
0.0
 10
156.2144096831686
 20
-125.2705620346546
 30
0.0
 10
156.1889159765778
 20
-125.2843424165956
 30
0.0
 10
155.9505153689985
 20
-125.4228352551026
 30
0.0
 10
155.6439018708112
 20
-125.3408419825537
 30
0.0
 10
155.5060980514013
 20
-125.1010633367803
 30
0.0
 10
155.5060980514013
 20
-125.1010633367803
 30
0.0
 10
154.8232801262247
 20
-123.9187065662425
 30
0.0
 10
154.8232801262247
 20
-123.9187065662425
 30
0.0
 10
154.8081217060897
 20
-123.8932128596517
 30
0.0
 10
154.7964083814398
 20
-123.8670301339638
 30
0.0
 10
154.786073094984
 20
-123.8394693700818
 30
0.0
 10
154.6923664977853
 20
-123.579709170494
 30
0.0
 10
154.826036202613
 20
-123.2937662452182
 30
0.0
 10
155.0857964022008
 20
-123.1986816098253
 30
0.0
 10
155.0857964022008
 20
-123.1986816098253
 30
0.0
 10
156.8283256986402
 20
-122.5640950214423
 30
0.0
 10
156.8283256986402
 20
-122.5640950214423
 30
0.0
 10
157.0873968791309
 20
-122.4696994051465
 30
0.0
 10
157.2210665839586
 20
-122.1823784416766
 30
0.0
 10
157.1266709676628
 20
-121.9239962802829
 30
0.0
 10
157.1170247003041
 20
-121.8964355164009
 30
0.0
 10
157.1039333374601
 20
-121.870252790713
 30
0.0
 10
157.0901529555191
 20
-121.8447590841221
 30
0.0
 10
157.0901529555191
 20
-121.8447590841221
 30
0.0
 10
153.695355864354
 20
-115.9639810908007
 30
0.0
 10
153.695355864354
 20
-115.9639810908007
 30
0.0
 10
153.5231010900914
 20
-116.2685275316968
 30
0.0
 10
153.3115722272971
 20
-116.4979708910144
 30
0.0
 10
153.0786837724942
 20
-116.6323296149391
 30
0.0
 10
152.2649522188782
 20
-117.1015516200302
 30
0.0
 10
151.3892089465277
 20
-116.3277831740431
 30
0.0
 10
151.1211805177753
 20
-114.9056477577319
 30
0.0
 10
150.938590457057
 20
-113.9368869072797
 30
0.0
 10
151.0812174101464
 20
-112.8716633832404
 30
0.0
 10
151.4904947537941
 20
-112.1468152931439
 30
0.0
 10
151.6627495280565
 20
-111.8422688522478
 30
0.0
 10
151.8742783908509
 20
-111.6121364738331
 30
0.0
 10
152.1071668456538
 20
-111.4784667690054
 30
0.0
 10
152.9208983992698
 20
-111.0092447639144
 30
0.0
 10
153.7966416716203
 20
-111.7830132099015
 30
0.0
 10
154.0646701003727
 20
-113.2051486262126
 30
0.0
 10
154.0646701003727
 20
-113.2051486262126
 30
0.0
 10
160.3822862012239
 20
-109.5581705455271
 30
0.0
 10
160.3822862012239
 20
-109.5581705455271
 30
0.0
 10
160.4077799078147
 20
-109.5437011444891
 30
0.0
 10
160.4332736144056
 20
-109.5312988007422
 30
0.0
 10
160.4608343782876
 20
-109.5216525333835
 30
0.0
 10
160.7199055587784
 20
-109.4272569170876
 30
0.0
 10
161.0072265222482
 20
-109.5602376028183
 30
0.0
 10
161.1016221385441
 20
-109.8199978024061
 30
0.0
 10
161.1016221385441
 20
-109.8199978024061
 30
0.0
 10
161.7362087269271
 20
-111.5632161179425
 30
0.0
 10
161.7362087269271
 20
-111.5632161179425
 30
0.0
 10
161.8306043432229
 20
-111.8222872984333
 30
0.0
 10
162.1179253066927
 20
-111.9566460223581
 30
0.0
 10
162.3769964871835
 20
-111.8608723678681
 30
0.0
 10
162.4045572510655
 20
-111.8519151196065
 30
0.0
 10
162.4307399767534
 20
-111.8388237567625
 30
0.0
 10
162.4562336833443
 20
-111.8243543557245
 30
0.0
 10
162.4562336833443
 20
-111.8243543557245
 30
0.0
 10
163.6392794729791
 20
-111.141536430548
 30
0.0
 10
163.6392794729791
 20
-111.141536430548
 30
0.0
 10
163.8783690996554
 20
-111.0030435920409
 30
0.0
 10
163.9603623722044
 20
-110.6978081320478
 30
0.0
 10
163.8218695336973
 20
-110.4594075244685
 30
0.0
 10
163.8074001326593
 20
-110.4332247987806
 30
0.0
 10
163.7915526934271
 20
-110.4104871685779
 30
0.0
 10
163.7729491778068
 20
-110.3877495383753
 30
0.0
 10
163.7729491778068
 20
-110.3877495383753
 30
0.0
 10
162.5795681017162
 20
-108.9669921602583
 30
0.0
 10
162.5795681017162
 20
-108.9669921602583
 30
0.0
 10
162.5616536051929
 20
-108.9442545300556
 30
0.0
 10
162.5444281277667
 20
-108.9208278807559
 30
0.0
 10
162.5299587267286
 20
-108.8953341741651
 30
0.0
 10
162.3914658882216
 20
-108.6555555283917
 30
0.0
 10
162.4734591607705
 20
-108.3503200683985
 30
0.0
 10
162.7132378065439
 20
-108.2125162489885
 30
0.0
 10
162.7132378065439
 20
-108.2125162489885
 30
0.0
 10
165.0931097677545
 20
-106.8386121694709
 30
0.0
 10
165.0931097677545
 20
-106.8386121694709
 30
0.0
 10
165.0931097677545
 20
-106.8386121694709
 30
0.0
 10
165.0931097677545
 20
-100.3921494974714
 30
0.0
 10
165.0931097677545
 20
-100.3921494974714
 30
0.0
 10
165.0931097677545
 20
-100.3921494974714
 30
0.0
 10
144.705034686046
 20
-100.3914604783744
 30
0.0
 10
144.705034686046
 20
-100.3914604783744
 30
0.0
  0
ENDBLK
  5
6B
330
68
100
AcDbEntity
  8
0
100
AcDbBlockEnd
  0
BLOCK
  5
71
330
6F
100
AcDbEntity
  8
0
100
AcDbBlockBegin
  2
block 5
 70
     0
 71
     0
 10
0.0
 20
0.0
 30
0.0
  3
block 5
  1

  0
SPLINE
  5
73
330
6F
100
AcDbEntity
  8
Layer 1
 62
   250
420
  2301728
370
    18
100
AcDbSpline
210
0.0
220
0.0
230
1.0
 70
    11
 71
     3
 72
   110
 73
   106
 74
     0
 42
0.0000000001
 43
0.0000000001
 40
0.0
 40
0.0
 40
0.0
 40
0.0
 40
1.0
 40
1.0
 40
1.0
 40
2.0
 40
2.0
 40
2.0
 40
3.0
 40
3.0
 40
3.0
 40
4.0
 40
4.0
 40
4.0
 40
5.0
 40
5.0
 40
5.0
 40
6.0
 40
6.0
 40
6.0
 40
7.0
 40
7.0
 40
7.0
 40
8.0
 40
8.0
 40
8.0
 40
9.0
 40
9.0
 40
9.0
 40
10.0
 40
10.0
 40
10.0
 40
11.0
 40
11.0
 40
11.0
 40
12.0
 40
12.0
 40
12.0
 40
13.0
 40
13.0
 40
13.0
 40
14.0
 40
14.0
 40
14.0
 40
15.0
 40
15.0
 40
15.0
 40
16.0
 40
16.0
 40
16.0
 40
17.0
 40
17.0
 40
17.0
 40
18.0
 40
18.0
 40
18.0
 40
19.0
 40
19.0
 40
19.0
 40
20.0
 40
20.0
 40
20.0
 40
21.0
 40
21.0
 40
21.0
 40
22.0
 40
22.0
 40
22.0
 40
23.0
 40
23.0
 40
23.0
 40
24.0
 40
24.0
 40
24.0
 40
25.0
 40
25.0
 40
25.0
 40
26.0
 40
26.0
 40
26.0
 40
27.0
 40
27.0
 40
27.0
 40
28.0
 40
28.0
 40
28.0
 40
29.0
 40
29.0
 40
29.0
 40
30.0
 40
30.0
 40
30.0
 40
31.0
 40
31.0
 40
31.0
 40
32.0
 40
32.0
 40
32.0
 40
33.0
 40
33.0
 40
33.0
 40
34.0
 40
34.0
 40
34.0
 40
35.0
 40
35.0
 40
35.0
 40
35.0
 10
97.64847545301843
 20
-83.52978513536756
 30
0.0
 10
97.64847545301843
 20
-82.03116859928387
 30
0.0
 10
96.95463322228912
 20
-80.81642793118479
 30
0.0
 10
96.09887150375306
 20
-80.81642793118479
 30
0.0
 10
96.09887150375306
 20
-80.81642793118479
 30
0.0
 10
96.09887150375306
 20
-74.53601886157433
 30
0.0
 10
96.09887150375306
 20
-74.53601886157433
 30
0.0
 10
96.09887150375306
 20
-74.50708005949824
 30
0.0
 10
96.10162758014127
 20
-74.47745223832509
 30
0.0
 10
96.10645071382062
 20
-74.44920245534604
 30
0.0
 10
96.15468205061411
 20
-74.1770399120113
 30
0.0
 10
96.4137532311049
 20
-73.99582788948716
 30
0.0
 10
96.68591577443964
 20
-74.0433702071836
 30
0.0
 10
96.68591577443964
 20
-74.0433702071836
 30
0.0
 10
98.51181638162205
 20
-74.36583114460299
 30
0.0
 10
98.51181638162205
 20
-74.36583114460299
 30
0.0
 10
98.78397892495678
 20
-74.41337346229943
 30
0.0
 10
99.04305010544758
 20
-74.2321614397753
 30
0.0
 10
99.09128144224107
 20
-73.95999889644055
 30
0.0
 10
99.09610457592042
 20
-73.93106009436445
 30
0.0
 10
99.09886065230862
 20
-73.90212129228836
 30
0.0
 10
99.09886065230862
 20
-73.87318249021226
 30
0.0
 10
99.09886065230862
 20
-73.87318249021226
 30
0.0
 10
99.09886065230862
 20
-72.50685762076218
 30
0.0
 10
99.09886065230862
 20
-72.50685762076218
 30
0.0
 10
99.09886065230862
 20
-72.23056096284515
 30
0.0
 10
98.87492944576738
 20
-72.0066297563039
 30
0.0
 10
98.59863278785035
 20
-72.0066297563039
 30
0.0
 10
98.56969398577425
 20
-72.0066297563039
 30
0.0
 10
98.54075518369815
 20
-72.0093858326921
 30
0.0
 10
98.51181638162205
 20
-72.01420896637146
 30
0.0
 10
98.51181638162205
 20
-72.01420896637146
 30
0.0
 10
96.68591577443964
 20
-72.33666990379083
 30
0.0
 10
96.68591577443964
 20
-72.33666990379083
 30
0.0
 10
96.65697697236354
 20
-72.34149303747019
 30
0.0
 10
96.62803817028744
 20
-72.34424911385838
 30
0.0
 10
96.59909936821134
 20
-72.34424911385838
 30
0.0
 10
96.3228027102943
 20
-72.34424911385838
 30
0.0
 10
96.09887150375306
 20
-72.12031790731714
 30
0.0
 10
96.09887150375306
 20
-71.84402124940011
 30
0.0
 10
96.09887150375306
 20
-71.84402124940011
 30
0.0
 10
96.09887150375306
 20
-69.8665364408667
 30
0.0
 10
96.09887150375306
 20
-69.8665364408667
 30
0.0
 10
96.09887150375306
 20
-69.8665364408667
 30
0.0
 10
108.5987114528851
 20
-69.8665364408667
 30
0.0
 10
108.5987114528851
 20
-69.8665364408667
 30
0.0
 10
108.5987114528851
 20
-69.8665364408667
 30
0.0
 10
108.5987114528851
 20
-83.52978513536756
 30
0.0
 10
108.5987114528851
 20
-83.52978513536756
 30
0.0
 10
108.5987114528851
 20
-83.52978513536756
 30
0.0
 10
108.5987114528851
 20
-97.19303382986841
 30
0.0
 10
108.5987114528851
 20
-97.19303382986841
 30
0.0
 10
108.5987114528851
 20
-97.19303382986841
 30
0.0
 10
96.09852699420453
 20
-97.19303382986841
 30
0.0
 10
96.09852699420453
 20
-97.19303382986841
 30
0.0
 10
96.09852699420453
 20
-97.19303382986841
 30
0.0
 10
83.59868704507255
 20
-97.19303382986841
 30
0.0
 10
83.59868704507255
 20
-97.19303382986841
 30
0.0
 10
83.59868704507255
 20
-97.19303382986841
 30
0.0
 10
83.59868704507255
 20
-83.52978513536756
 30
0.0
 10
83.59868704507255
 20
-83.52978513536756
 30
0.0
 10
83.59868704507255
 20
-83.52978513536756
 30
0.0
 10
84.41276310823709
 20
-83.52978513536756
 30
0.0
 10
84.41276310823709
 20
-83.52978513536756
 30
0.0
 10
84.68905976615413
 20
-83.52978513536756
 30
0.0
 10
84.91299097269537
 20
-83.30585392882632
 30
0.0
 10
84.91299097269537
 20
-83.02955727090928
 30
0.0
 10
84.91299097269537
 20
-83.00061846883318
 30
0.0
 10
84.91023489630717
 20
-82.97167966675708
 30
0.0
 10
84.90541176262782
 20
-82.94274086468099
 30
0.0
 10
84.90541176262782
 20
-82.94274086468099
 30
0.0
 10
84.58295082520843
 20
-81.11684025749857
 30
0.0
 10
84.58295082520843
 20
-81.11684025749857
 30
0.0
 10
84.57812769152908
 20
-81.08790145542247
 30
0.0
 10
84.57537161514088
 20
-81.05896265334637
 30
0.0
 10
84.57537161514088
 20
-81.03002385127027
 30
0.0
 10
84.57537161514088
 20
-80.75372719335324
 30
0.0
 10
84.79930282168212
 20
-80.529795986812
 30
0.0
 10
85.07559947959916
 20
-80.529795986812
 30
0.0
 10
85.07559947959916
 20
-80.529795986812
 30
0.0
 10
86.44192434904924
 20
-80.529795986812
 30
0.0
 10
86.44192434904924
 20
-80.529795986812
 30
0.0
 10
86.47086315112534
 20
-80.529795986812
 30
0.0
 10
86.49980195320144
 20
-80.5325520632002
 30
0.0
 10
86.52874075527754
 20
-80.53737519687955
 30
0.0
 10
86.80055878906376
 20
-80.58560653367304
 30
0.0
 10
86.98211532113642
 20
-80.84467771416384
 30
0.0
 10
86.93388398434293
 20
-81.11684025749857
 30
0.0
 10
86.93388398434293
 20
-81.11684025749857
 30
0.0
 10
86.61211206602059
 20
-82.94274086468099
 30
0.0
 10
86.61211206602059
 20
-82.94274086468099
 30
0.0
 10
86.56422523877562
 20
-83.21490340801573
 30
0.0
 10
86.74578177084828
 20
-83.47397458850651
 30
0.0
 10
87.01794431418301
 20
-83.52220592530001
 30
0.0
 10
87.04619409716207
 20
-83.52702905897935
 30
0.0
 10
87.0754774087867
 20
-83.52978513536756
 30
0.0
 10
87.10476072041132
 20
-83.52978513536756
 30
0.0
 10
87.10476072041132
 20
-83.52978513536756
 30
0.0
 10
94.54892304493916
 20
-83.52978513536756
 30
0.0
 10
94.54892304493916
 20
-83.52978513536756
 30
0.0
 10
94.54892304493916
 20
-85.02840167145123
 30
0.0
 10
95.24276527566848
 20
-86.24314233955033
 30
0.0
 10
96.09852699420453
 20
-86.24314233955033
 30
0.0
 10
96.95428871274059
 20
-86.24314233955033
 30
0.0
 10
97.64813094346992
 20
-85.02840167145123
 30
0.0
 10
97.64847545301843
 20
-83.52978513536756
 30
0.0
  0
POLYLINE
  5
74
330
6F
100
AcDbEntity
  8
Layer 1
 62
   240
420
 15539236
370
    18
100
AcDb2dPolyline
 66
     1
 10
0.0
 20
0.0
 30
0.0
  0
VERTEX
  5
75
330
74
100
AcDbEntity
  8
Layer 1
 62
   240
420
 15539236
370
    18
100
AcDbVertex
100
AcDb2dVertex
 10
84.01795516562746
 20
-94.73874780617643
 30
0.0
  0
VERTEX
  5
76
330
74
100
AcDbEntity
  8
Layer 1
 62
   240
420
 15539236
370
    18
100
AcDbVertex
100
AcDb2dVertex
 10
85.7353352650245
 20
-94.73874780617643
 30
0.0
  0
VERTEX
  5
77
330
74
100
AcDbEntity
  8
Layer 1
 62
   240
420
 15539236
370
    18
100
AcDbVertex
100
AcDb2dVertex
 10
85.7353352650245
 20
-96.456472415122
 30
0.0
  0
VERTEX
  5
78
330
74
100
AcDbEntity
  8
Layer 1
 62
   240
420
 15539236
370
    18
100
AcDbVertex
100
AcDb2dVertex
 10
84.01795516562746
 20
-96.456472415122
 30
0.0
  0
VERTEX
  5
79
330
74
100
AcDbEntity
  8
Layer 1
 62
   240
420
 15539236
370
    18
100
AcDbVertex
100
AcDb2dVertex
 10
84.01795516562746
 20
-94.73874780617643
 30
0.0
  0
SEQEND
  5
7A
330
74
100
AcDbEntity
  8
Layer 1
370
    18
  0
POLYLINE
  5
7B
330
6F
100
AcDbEntity
  8
Layer 1
 62
   240
420
 15539236
370
    18
100
AcDb2dPolyline
 66
     1
 10
0.0
 20
0.0
 30
0.0
  0
VERTEX
  5
7C
330
7B
100
AcDbEntity
  8
Layer 1
 62
   240
420
 15539236
370
    18
100
AcDbVertex
100
AcDb2dVertex
 10
85.7353352650245
 20
-94.20131291047745
 30
0.0
  0
VERTEX
  5
7D
330
7B
100
AcDbEntity
  8
Layer 1
 62
   240
420
 15539236
370
    18
100
AcDbVertex
100
AcDb2dVertex
 10
84.01795516562746
 20
-94.20131291047745
 30
0.0
  0
SEQEND
  5
7E
330
7B
100
AcDbEntity
  8
Layer 1
370
    18
  0
POLYLINE
  5
7F
330
6F
100
AcDbEntity
  8
Layer 1
 62
   240
420
 15539236
370
    18
100
AcDb2dPolyline
 66
     1
 10
0.0
 20
0.0
 30
0.0
  0
VERTEX
  5
80
330
7F
100
AcDbEntity
  8
Layer 1
 62
   240
420
 15539236
370
    18
100
AcDbVertex
100
AcDb2dVertex
 10
107.8986680502823
 20
-72.28292641422094
 30
0.0
  0
VERTEX
  5
81
330
7F
100
AcDbEntity
  8
Layer 1
 62
   240
420
 15539236
370
    18
100
AcDbVertex
100
AcDb2dVertex
 10
106.1809434413367
 20
-72.28292641422094
 30
0.0
  0
VERTEX
  5
82
330
7F
100
AcDbEntity
  8
Layer 1
 62
   240
420
 15539236
370
    18
100
AcDbVertex
100
AcDb2dVertex
 10
106.1809434413367
 20
-70.56520180527536
 30
0.0
  0
VERTEX
  5
83
330
7F
100
AcDbEntity
  8
Layer 1
 62
   240
420
 15539236
370
    18
100
AcDbVertex
100
AcDb2dVertex
 10
107.8986680502823
 20
-70.56520180527536
 30
0.0
  0
VERTEX
  5
84
330
7F
100
AcDbEntity
  8
Layer 1
 62
   240
420
 15539236
370
    18
100
AcDbVertex
100
AcDb2dVertex
 10
107.8986680502823
 20
-72.28292641422094
 30
0.0
  0
SEQEND
  5
85
330
7F
100
AcDbEntity
  8
Layer 1
370
    18
  0
POLYLINE
  5
86
330
6F
100
AcDbEntity
  8
Layer 1
 62
   240
420
 15539236
370
    18
100
AcDb2dPolyline
 66
     1
 10
0.0
 20
0.0
 30
0.0
  0
VERTEX
  5
87
330
86
100
AcDbEntity
  8
Layer 1
 62
   240
420
 15539236
370
    18
100
AcDbVertex
100
AcDb2dVertex
 10
106.1809434413367
 20
-72.82036130991992
 30
0.0
  0
VERTEX
  5
88
330
86
100
AcDbEntity
  8
Layer 1
 62
   240
420
 15539236
370
    18
100
AcDbVertex
100
AcDb2dVertex
 10
107.8986680502823
 20
-72.82036130991992
 30
0.0
  0
SEQEND
  5
89
330
86
100
AcDbEntity
  8
Layer 1
370
    18
  0
ENDBLK
  5
72
330
6F
100
AcDbEntity
  8
0
100
AcDbBlockEnd
  0
BLOCK
  5
8C
330
8A
100
AcDbEntity
  8
0
100
AcDbBlockBegin
  2
block 6
 70
     0
 71
     0
 10
0.0
 20
0.0
 30
0.0
  3
block 6
  1

  0
POLYLINE
  5
8E
330
8A
100
AcDbEntity
  8
Layer 1
 62
   240
420
 15539236
370
    18
100
AcDb2dPolyline
 66
     1
 10
0.0
 20
0.0
 30
0.0
  0
VERTEX
  5
8F
330
8E
100
AcDbEntity
  8
Layer 1
 62
   240
420
 15539236
370
    18
100
AcDbVertex
100
AcDb2dVertex
 10
162.2691649984952
 20
-93.95671113102472
 30
0.0
  0
VERTEX
  5
90
330
8E
100
AcDbEntity
  8
Layer 1
 62
   240
420
 15539236
370
    18
100
AcDbVertex
100
AcDb2dVertex
 10
164.238381577864
 20
-93.95671113102472
 30
0.0
  0
SEQEND
  5
91
330
8E
100
AcDbEntity
  8
Layer 1
370
    18
  0
POLYLINE
  5
92
330
8A
100
AcDbEntity
  8
Layer 1
 62
   240
420
 15539236
370
    18
100
AcDb2dPolyline
 66
     1
 10
0.0
 20
0.0
 30
0.0
  0
VERTEX
  5
93
330
92
100
AcDbEntity
  8
Layer 1
 62
   240
420
 15539236
370
    18
100
AcDbVertex
100
AcDb2dVertex
 10
141.1586533935298
 20
-73.42669811532389
 30
0.0
  0
VERTEX
  5
94
330
92
100
AcDbEntity
  8
Layer 1
 62
   240
420
 15539236
370
    18
100
AcDbVertex
100
AcDb2dVertex
 10
143.1278699728986
 20
-73.42669811532389
 30
0.0
  0
SEQEND
  5
95
330
92
100
AcDbEntity
  8
Layer 1
370
    18
  0
SPLINE
  5
96
330
8A
100
AcDbEntity
  8
Layer 1
 62
   250
420
  2301728
370
    18
100
AcDbSpline
210
0.0
220
0.0
230
1.0
 70
    11
 71
     3
 72
   119
 73
   115
 74
     0
 42
0.0000000001
 43
0.0000000001
 40
0.0
 40
0.0
 40
0.0
 40
0.0
 40
1.0
 40
1.0
 40
1.0
 40
2.0
 40
2.0
 40
2.0
 40
3.0
 40
3.0
 40
3.0
 40
4.0
 40
4.0
 40
4.0
 40
5.0
 40
5.0
 40
5.0
 40
6.0
 40
6.0
 40
6.0
 40
7.0
 40
7.0
 40
7.0
 40
8.0
 40
8.0
 40
8.0
 40
9.0
 40
9.0
 40
9.0
 40
10.0
 40
10.0
 40
10.0
 40
11.0
 40
11.0
 40
11.0
 40
12.0
 40
12.0
 40
12.0
 40
13.0
 40
13.0
 40
13.0
 40
14.0
 40
14.0
 40
14.0
 40
15.0
 40
15.0
 40
15.0
 40
16.0
 40
16.0
 40
16.0
 40
17.0
 40
17.0
 40
17.0
 40
18.0
 40
18.0
 40
18.0
 40
19.0
 40
19.0
 40
19.0
 40
20.0
 40
20.0
 40
20.0
 40
21.0
 40
21.0
 40
21.0
 40
22.0
 40
22.0
 40
22.0
 40
23.0
 40
23.0
 40
23.0
 40
24.0
 40
24.0
 40
24.0
 40
25.0
 40
25.0
 40
25.0
 40
26.0
 40
26.0
 40
26.0
 40
27.0
 40
27.0
 40
27.0
 40
28.0
 40
28.0
 40
28.0
 40
29.0
 40
29.0
 40
29.0
 40
30.0
 40
30.0
 40
30.0
 40
31.0
 40
31.0
 40
31.0
 40
32.0
 40
32.0
 40
32.0
 40
33.0
 40
33.0
 40
33.0
 40
34.0
 40
34.0
 40
34.0
 40
35.0
 40
35.0
 40
35.0
 40
36.0
 40
36.0
 40
36.0
 40
37.0
 40
37.0
 40
37.0
 40
38.0
 40
38.0
 40
38.0
 40
38.0
 10
160.4815049511991
 20
-97.19337833941694
 30
0.0
 10
160.4815049511991
 20
-97.19337833941694
 30
0.0
 10
140.093085359942
 20
-97.19303382986841
 30
0.0
 10
140.093085359942
 20
-97.19303382986841
 30
0.0
 10
140.093085359942
 20
-97.19303382986841
 30
0.0
 10
140.093085359942
 20
-90.74657115786891
 30
0.0
 10
140.093085359942
 20
-90.74657115786891
 30
0.0
 10
140.093085359942
 20
-90.74657115786891
 30
0.0
 10
140.092396340845
 20
-69.86619193131818
 30
0.0
 10
140.092396340845
 20
-69.86619193131818
 30
0.0
 10
140.092396340845
 20
-69.86619193131818
 30
0.0
 10
144.7040011574004
 20
-69.86619193131818
 30
0.0
 10
144.7040011574004
 20
-69.86619193131818
 30
0.0
 10
144.7040011574004
 20
-69.86619193131818
 30
0.0
 10
146.7496988565418
 20
-73.40947263789764
 30
0.0
 10
146.7496988565418
 20
-73.40947263789764
 30
0.0
 10
146.8875026759517
 20
-73.64856226457397
 30
0.0
 10
147.1934271550419
 20
-73.73055553712292
 30
0.0
 10
147.4325167817183
 20
-73.5924072081644
 30
0.0
 10
147.4580104883091
 20
-73.57793780712635
 30
0.0
 10
147.4814371376088
 20
-73.56105683924862
 30
0.0
 10
147.5041747678115
 20
-73.54245332362828
 30
0.0
 10
147.5041747678115
 20
-73.54245332362828
 30
0.0
 10
148.9249321459285
 20
-72.35079479528036
 30
0.0
 10
148.9249321459285
 20
-72.35079479528036
 30
0.0
 10
148.9469807570341
 20
-72.33150226056296
 30
0.0
 10
148.9710964254309
 20
-72.31565482133081
 30
0.0
 10
148.9965901320217
 20
-72.30049640119572
 30
0.0
 10
149.234990739601
 20
-72.16269258178572
 30
0.0
 10
149.5409152186912
 20
-72.24468585433466
 30
0.0
 10
149.6787190381011
 20
-72.48308646191396
 30
0.0
 10
149.6787190381011
 20
-72.48308646191396
 30
0.0
 10
150.3622259823747
 20
-73.66647676109727
 30
0.0
 10
150.3622259823747
 20
-73.66647676109727
 30
0.0
 10
150.3766953834128
 20
-73.6916259581396
 30
0.0
 10
150.3890977271597
 20
-73.71815319337603
 30
0.0
 10
150.3987439945184
 20
-73.74536944770949
 30
0.0
 10
150.4938286299113
 20
-74.00512964729734
 30
0.0
 10
150.3594699059865
 20
-74.29176159167012
 30
0.0
 10
150.1003987254958
 20
-74.38650171751449
 30
0.0
 10
150.1003987254958
 20
-74.38650171751449
 30
0.0
 10
148.3578694290564
 20
-75.02074379634898
 30
0.0
 10
148.3578694290564
 20
-75.02074379634898
 30
0.0
 10
148.0981092294685
 20
-75.11513941264484
 30
0.0
 10
147.9644395246409
 20
-75.40177135701762
 30
0.0
 10
148.0588351409367
 20
-75.66153155660545
 30
0.0
 10
148.0691704273924
 20
-75.68909232048745
 30
0.0
 10
148.0808837520423
 20
-75.71527504617535
 30
0.0
 10
148.0953531530803
 20
-75.7407687527662
 30
0.0
 10
148.0953531530803
 20
-75.7407687527662
 30
0.0
 10
151.4908392633426
 20
-81.62120223653915
 30
0.0
 10
151.4908392633426
 20
-81.62120223653915
 30
0.0
 10
151.0815619196949
 20
-82.34605032663572
 30
0.0
 10
150.9382459475085
 20
-83.41127385067496
 30
0.0
 10
151.1208360082267
 20
-84.38003470112722
 30
0.0
 10
151.1208360082267
 20
-84.38003470112722
 30
0.0
 10
151.1215250273238
 20
-84.38003470112722
 30
0.0
 10
151.1215250273238
 20
-84.38003470112722
 30
0.0
 10
151.3895534560762
 20
-85.80217011743835
 30
0.0
 10
152.2656412379753
 20
-86.57559405387694
 30
0.0
 10
153.0790282820427
 20
-86.10637204878591
 30
0.0
 10
153.3119167368456
 20
-85.97270234395822
 30
0.0
 10
153.52344559964
 20
-85.74291447509205
 30
0.0
 10
153.6957003739025
 20
-85.43802352464745
 30
0.0
 10
154.1049777175502
 20
-84.71317543455088
 30
0.0
 10
154.247949180188
 20
-83.64795191051162
 30
0.0
 10
154.0653591194698
 20
-82.67953556960789
 30
0.0
 10
154.0653591194698
 20
-82.67953556960789
 30
0.0
 10
160.3822862012239
 20
-79.03255748892242
 30
0.0
 10
160.3822862012239
 20
-79.03255748892242
 30
0.0
 10
160.4077799078147
 20
-79.01774357833584
 30
0.0
 10
160.4346516525997
 20
-79.00568574413747
 30
0.0
 10
160.4615233973846
 20
-78.9963839863273
 30
0.0
 10
160.7212835969725
 20
-78.9012993509344
 30
0.0
 10
161.0079155413453
 20
-79.03496905576209
 30
0.0
 10
161.1023111576411
 20
-79.29472925534994
 30
0.0
 10
161.1023111576411
 20
-79.29472925534994
 30
0.0
 10
161.7368977460241
 20
-81.03725855178931
 30
0.0
 10
161.7368977460241
 20
-81.03725855178931
 30
0.0
 10
161.83129336232
 20
-81.29701875137714
 30
0.0
 10
162.1182698162413
 20
-81.43068845620483
 30
0.0
 10
162.3773409967321
 20
-81.33594833036047
 30
0.0
 10
162.4052462701626
 20
-81.32630206300176
 30
0.0
 10
162.4314289958505
 20
-81.31424422880339
 30
0.0
 10
162.4569227024413
 20
-81.29977482776533
 30
0.0
 10
162.4569227024413
 20
-81.29977482776533
 30
0.0
 10
163.6399684920761
 20
-80.6166123930403
 30
0.0
 10
163.6399684920761
 20
-80.6166123930403
 30
0.0
 10
163.8790581187525
 20
-80.47846406408178
 30
0.0
 10
163.9610513913014
 20
-80.1725395849916
 30
0.0
 10
163.8232475718914
 20
-79.93344995831525
 30
0.0
 10
163.8087781708534
 20
-79.9079562517244
 30
0.0
 10
163.7915526934271
 20
-79.88384058332765
 30
0.0
 10
163.7729491778068
 20
-79.86179197222205
 30
0.0
 10
163.7729491778068
 20
-79.86179197222205
 30
0.0
 10
162.5806016303618
 20
-78.44103459410502
 30
0.0
 10
162.5806016303618
 20
-78.44103459410502
 30
0.0
 10
162.56234262429
 20
-78.41898598299943
 30
0.0
 10
162.5451171468637
 20
-78.39487031460267
 30
0.0
 10
162.5306477458257
 20
-78.37006562710887
 30
0.0
 10
162.3924994168672
 20
-78.13028698133549
 30
0.0
 10
162.4744926894161
 20
-77.82470701179383
 30
0.0
 10
162.713926825641
 20
-77.68655868283531
 30
0.0
 10
162.713926825641
 20
-77.68655868283531
 30
0.0
 10
165.093454277303
 20
-76.31265460331767
 30
0.0
 10
165.093454277303
 20
-76.31265460331767
 30
0.0
 10
165.093454277303
 20
-76.31265460331767
 30
0.0
 10
165.0937987868516
 20
-97.19337833941694
 30
0.0
 10
165.0937987868516
 20
-97.19337833941694
 30
0.0
 10
165.0937987868516
 20
-97.19337833941694
 30
0.0
 10
160.4825384798447
 20
-97.19337833941694
 30
0.0
 10
160.4825384798447
 20
-97.19337833941694
 30
0.0
 10
160.4825384798447
 20
-97.19337833941694
 30
0.0
 10
160.4815049511991
 20
-97.19337833941694
 30
0.0
 10
160.4815049511991
 20
-97.19337833941694
 30
0.0
  0
SPLINE
  5
97
330
8A
100
AcDbEntity
  8
Layer 1
 62
   240
420
 15539236
370
    18
100
AcDbSpline
210
0.0
220
0.0
230
1.0
 70
    11
 71
     3
 72
    17
 73
    13
 74
     0
 42
0.0000000001
 43
0.0000000001
 40
0.0
 40
0.0
 40
0.0
 40
0.0
 40
1.0
 40
1.0
 40
1.0
 40
2.0
 40
2.0
 40
2.0
 40
3.0
 40
3.0
 40
3.0
 40
4.0
 40
4.0
 40
4.0
 40
4.0
 10
140.9526366835119
 20
-71.79578991260661
 30
0.0
 10
140.9526366835119
 20
-72.45380315028933
 30
0.0
 10
141.4859374646285
 20
-72.98641491230896
 30
0.0
 10
142.1432616832142
 20
-72.98641491230896
 30
0.0
 10
142.8005859017998
 20
-72.98641491230896
 30
0.0
 10
143.3338866829165
 20
-72.45380315028933
 30
0.0
 10
143.3338866829165
 20
-71.79578991260661
 30
0.0
 10
143.3338866829165
 20
-71.13846569402094
 30
0.0
 10
142.8005859017998
 20
-70.60585393200132
 30
0.0
 10
142.1432616832142
 20
-70.60585393200132
 30
0.0
 10
141.4859374646285
 20
-70.60585393200132
 30
0.0
 10
140.9526366835119
 20
-71.13846569402094
 30
0.0
 10
140.9526366835119
 20
-71.79578991260661
 30
0.0
  0
SPLINE
  5
98
330
8A
100
AcDbEntity
  8
Layer 1
 62
   240
420
 15539236
370
    18
100
AcDbSpline
210
0.0
220
0.0
230
1.0
 70
    11
 71
     3
 72
    17
 73
    13
 74
     0
 42
0.0000000001
 43
0.0000000001
 40
0.0
 40
0.0
 40
0.0
 40
0.0
 40
1.0
 40
1.0
 40
1.0
 40
2.0
 40
2.0
 40
2.0
 40
3.0
 40
3.0
 40
3.0
 40
4.0
 40
4.0
 40
4.0
 40
4.0
 10
162.0617702502832
 20
-95.54283309243374
 30
0.0
 10
162.0617702502832
 20
-96.20050182056794
 30
0.0
 10
162.5950710313998
 20
-96.73345809213609
 30
0.0
 10
163.2523952499855
 20
-96.73345809213609
 30
0.0
 10
163.9097194685712
 20
-96.73345809213609
 30
0.0
 10
164.4430202496879
 20
-96.20050182056794
 30
0.0
 10
164.4430202496879
 20
-95.54283309243374
 30
0.0
 10
164.4430202496879
 20
-94.88550887384807
 30
0.0
 10
163.9097194685712
 20
-94.35255260227993
 30
0.0
 10
163.2523952499855
 20
-94.35255260227993
 30
0.0
 10
162.5950710313998
 20
-94.35255260227993
 30
0.0
 10
162.0617702502832
 20
-94.88550887384807
 30
0.0
 10
162.0617702502832
 20
-95.54283309243374
 30
0.0
  0
ENDBLK
  5
8D
330
8A
100
AcDbEntity
  8
0
100
AcDbBlockEnd
  0
BLOCK
  5
9B
330
99
100
AcDbEntity
  8
0
100
AcDbBlockBegin
  2
block 7
 70
     0
 71
     0
 10
0.0
 20
0.0
 30
0.0
  3
block 7
  1

  0
POLYLINE
  5
9D
330
99
100
AcDbEntity
  8
Layer 1
 62
   240
420
 15539236
370
    18
100
AcDb2dPolyline
 66
     1
 10
0.0
 20
0.0
 30
0.0
  0
VERTEX
  5
9E
330
9D
100
AcDbEntity
  8
Layer 1
 62
   240
420
 15539236
370
    18
100
AcDbVertex
100
AcDb2dVertex
 10
114.590077011283
 20
-100.5978216979408
 30
0.0
  0
VERTEX
  5
9F
330
9D
100
AcDbEntity
  8
Layer 1
 62
   240
420
 15539236
370
    18
100
AcDbVertex
100
AcDb2dVertex
 10
112.6746039214841
 20
-100.5719834818015
 30
0.0
  0
VERTEX
  5
A0
330
9D
100
AcDbEntity
  8
Layer 1
 62
   240
420
 15539236
370
    18
100
AcDbVertex
100
AcDb2dVertex
 10
113.4683539212857
 20
-102.5591145576936
 30
0.0
  0
VERTEX
  5
A1
330
9D
100
AcDbEntity
  8
Layer 1
 62
   240
420
 15539236
370
    18
100
AcDbVertex
100
AcDb2dVertex
 10
114.590077011283
 20
-100.5978216979408
 30
0.0
  0
SEQEND
  5
A2
330
9D
100
AcDbEntity
  8
Layer 1
370
    18
  0
POLYLINE
  5
A3
330
99
100
AcDbEntity
  8
Layer 1
 62
   240
420
 15539236
370
    18
100
AcDb2dPolyline
 66
     1
 10
0.0
 20
0.0
 30
0.0
  0
VERTEX
  5
A4
330
A3
100
AcDbEntity
  8
Layer 1
 62
   240
420
 15539236
370
    18
100
AcDbVertex
100
AcDb2dVertex
 10
135.976540764617
 20
-125.0035671345477
 30
0.0
  0
VERTEX
  5
A5
330
A3
100
AcDbEntity
  8
Layer 1
 62
   240
420
 15539236
370
    18
100
AcDbVertex
100
AcDb2dVertex
 10
134.0610676748181
 20
-124.9777289184083
 30
0.0
  0
VERTEX
  5
A6
330
A3
100
AcDbEntity
  8
Layer 1
 62
   240
420
 15539236
370
    18
100
AcDbVertex
100
AcDb2dVertex
 10
134.8548176746196
 20
-126.9648599943005
 30
0.0
  0
VERTEX
  5
A7
330
A3
100
AcDbEntity
  8
Layer 1
 62
   240
420
 15539236
370
    18
100
AcDbVertex
100
AcDb2dVertex
 10
135.976540764617
 20
-125.0035671345477
 30
0.0
  0
SEQEND
  5
A8
330
A3
100
AcDbEntity
  8
Layer 1
370
    18
  0
SPLINE
  5
A9
330
99
100
AcDbEntity
  8
Layer 1
 62
   250
420
  2301728
370
    18
100
AcDbSpline
210
0.0
220
0.0
230
1.0
 70
     8
 71
     3
 72
   119
 73
   115
 74
     0
 42
0.0000000001
 43
0.0000000001
 40
0.0
 40
0.0
 40
0.0
 40
0.0
 40
1.0
 40
1.0
 40
1.0
 40
2.0
 40
2.0
 40
2.0
 40
3.0
 40
3.0
 40
3.0
 40
4.0
 40
4.0
 40
4.0
 40
5.0
 40
5.0
 40
5.0
 40
6.0
 40
6.0
 40
6.0
 40
7.0
 40
7.0
 40
7.0
 40
8.0
 40
8.0
 40
8.0
 40
9.0
 40
9.0
 40
9.0
 40
10.0
 40
10.0
 40
10.0
 40
11.0
 40
11.0
 40
11.0
 40
12.0
 40
12.0
 40
12.0
 40
13.0
 40
13.0
 40
13.0
 40
14.0
 40
14.0
 40
14.0
 40
15.0
 40
15.0
 40
15.0
 40
16.0
 40
16.0
 40
16.0
 40
17.0
 40
17.0
 40
17.0
 40
18.0
 40
18.0
 40
18.0
 40
19.0
 40
19.0
 40
19.0
 40
20.0
 40
20.0
 40
20.0
 40
21.0
 40
21.0
 40
21.0
 40
22.0
 40
22.0
 40
22.0
 40
23.0
 40
23.0
 40
23.0
 40
24.0
 40
24.0
 40
24.0
 40
25.0
 40
25.0
 40
25.0
 40
26.0
 40
26.0
 40
26.0
 40
27.0
 40
27.0
 40
27.0
 40
28.0
 40
28.0
 40
28.0
 40
29.0
 40
29.0
 40
29.0
 40
30.0
 40
30.0
 40
30.0
 40
31.0
 40
31.0
 40
31.0
 40
32.0
 40
32.0
 40
32.0
 40
33.0
 40
33.0
 40
33.0
 40
34.0
 40
34.0
 40
34.0
 40
35.0
 40
35.0
 40
35.0
 40
36.0
 40
36.0
 40
36.0
 40
37.0
 40
37.0
 40
37.0
 40
38.0
 40
38.0
 40
38.0
 40
38.0
 10
116.4817789422337
 20
-127.3410644212897
 30
0.0
 10
116.4817789422337
 20
-127.3410644212897
 30
0.0
 10
111.8701741256783
 20
-127.3410644212897
 30
0.0
 10
111.8701741256783
 20
-127.3410644212897
 30
0.0
 10
111.8701741256783
 20
-127.3410644212897
 30
0.0
 10
111.8701741256783
 20
-106.4610297042875
 30
0.0
 10
111.8701741256783
 20
-106.4610297042875
 30
0.0
 10
111.8701741256783
 20
-106.4610297042875
 30
0.0
 10
111.8701741256783
 20
-100.014567032288
 30
0.0
 10
111.8701741256783
 20
-100.014567032288
 30
0.0
 10
111.8701741256783
 20
-100.014567032288
 30
0.0
 10
132.2582492073868
 20
-100.014567032288
 30
0.0
 10
132.2582492073868
 20
-100.014567032288
 30
0.0
 10
132.2582492073868
 20
-100.014567032288
 30
0.0
 10
130.2125515082455
 20
-103.557503229319
 30
0.0
 10
130.2125515082455
 20
-103.557503229319
 30
0.0
 10
130.0747476888355
 20
-103.7972818750924
 30
0.0
 10
130.1574299804815
 20
-104.1025173350855
 30
0.0
 10
130.3958305880608
 20
-104.2410101735925
 30
0.0
 10
130.4213242946516
 20
-104.2547905555335
 30
0.0
 10
130.4481960394366
 20
-104.2678819183775
 30
0.0
 10
130.4750677842215
 20
-104.2775281857362
 30
0.0
 10
130.4750677842215
 20
-104.2775281857362
 30
0.0
 10
132.2182860997579
 20
-104.9121147741192
 30
0.0
 10
132.2182860997579
 20
-104.9121147741192
 30
0.0
 10
132.2451578445429
 20
-104.9217610414779
 30
0.0
 10
132.2720295893278
 20
-104.9341633852248
 30
0.0
 10
132.2975232959187
 20
-104.9486327862628
 30
0.0
 10
132.535923903498
 20
-105.0871256247699
 30
0.0
 10
132.6179171760469
 20
-105.392361084763
 30
0.0
 10
132.4794243375399
 20
-105.6314507114394
 30
0.0
 10
132.4794243375399
 20
-105.6314507114394
 30
0.0
 10
131.7966064123634
 20
-106.8144965010742
 30
0.0
 10
131.7966064123634
 20
-106.8144965010742
 30
0.0
 10
131.7821370113253
 20
-106.839990207665
 30
0.0
 10
131.7656005529961
 20
-106.8641058760618
 30
0.0
 10
131.7463080182787
 20
-106.8861544871674
 30
0.0
 10
131.5692301103369
 20
-107.0976833499617
 30
0.0
 10
131.253659363888
 20
-107.1252441138437
 30
0.0
 10
131.0428195201907
 20
-106.9481662059019
 30
0.0
 10
131.0428195201907
 20
-106.9481662059019
 30
0.0
 10
129.6213731229766
 20
-105.7554741489084
 30
0.0
 10
129.6213731229766
 20
-105.7554741489084
 30
0.0
 10
129.4098442601823
 20
-105.5783962409665
 30
0.0
 10
129.0949625328304
 20
-105.6059570048485
 30
0.0
 10
128.9171956057915
 20
-105.8174858676429
 30
0.0
 10
128.8985920901712
 20
-105.8395344787484
 30
0.0
 10
128.881366612745
 20
-105.8636501471452
 30
0.0
 10
128.8668972117069
 20
-105.888454834639
 30
0.0
 10
128.8668972117069
 20
-105.888454834639
 30
0.0
 10
125.4714111014447
 20
-111.7699218470575
 30
0.0
 10
125.4714111014447
 20
-111.7699218470575
 30
0.0
 10
124.8705864488171
 20
-110.7043538134698
 30
0.0
 10
123.8880452164238
 20
-110.694707546111
 30
0.0
 10
123.2796413537287
 20
-111.749251274146
 30
0.0
 10
123.1053195221751
 20
-112.0506971291054
 30
0.0
 10
122.9750949128326
 20
-112.4203558746727
 30
0.0
 10
122.8986137930601
 20
-112.8282551801263
 30
0.0
 10
122.8986137930601
 20
-112.8282551801263
 30
0.0
 10
122.897924773963
 20
-112.8289441992233
 30
0.0
 10
122.897924773963
 20
-112.8289441992233
 30
0.0
 10
122.7160237323418
 20
-113.7970160305785
 30
0.0
 10
122.8593397045282
 20
-114.8615505355207
 30
0.0
 10
123.2679280290789
 20
-115.5863986256173
 30
0.0
 10
123.8687526817064
 20
-116.6523111687536
 30
0.0
 10
124.8512939140997
 20
-116.6616129265638
 30
0.0
 10
125.4596977767948
 20
-115.6070691985288
 30
0.0
 10
125.6340196083484
 20
-115.3056233435694
 30
0.0
 10
125.7642442176909
 20
-114.9359645980021
 30
0.0
 10
125.8407253374634
 20
-114.5280652925485
 30
0.0
 10
125.8407253374634
 20
-114.5280652925485
 30
0.0
 10
132.1583414383146
 20
-118.175043373234
 30
0.0
 10
132.1583414383146
 20
-118.175043373234
 30
0.0
 10
132.1831461258084
 20
-118.1898572838206
 30
0.0
 10
132.2072617942051
 20
-118.2067382516983
 30
0.0
 10
132.2293104053107
 20
-118.2253417673187
 30
0.0
 10
132.4415282872021
 20
-118.4031086943576
 30
0.0
 10
132.4684000319871
 20
-118.7179904217094
 30
0.0
 10
132.2913221240452
 20
-118.9295192845037
 30
0.0
 10
132.2913221240452
 20
-118.9295192845037
 30
0.0
 10
131.0993190861488
 20
-120.3502766626208
 30
0.0
 10
131.0993190861488
 20
-120.3502766626208
 30
0.0
 10
130.9222411782069
 20
-120.5621500349636
 30
0.0
 10
130.9491129229919
 20
-120.8770317623155
 30
0.0
 10
131.1606417857862
 20
-121.0551431989029
 30
0.0
 10
131.1826903968918
 20
-121.0737467145232
 30
0.0
 10
131.2068060652886
 20
-121.0902831728524
 30
0.0
 10
131.2322997718794
 20
-121.1047525738905
 30
0.0
 10
131.2322997718794
 20
-121.1047525738905
 30
0.0
 10
132.4153455615142
 20
-121.7882595181641
 30
0.0
 10
132.4153455615142
 20
-121.7882595181641
 30
0.0
 10
132.6544351881906
 20
-121.926063337574
 30
0.0
 10
132.9603596672808
 20
-121.8440700650251
 30
0.0
 10
133.0988525057878
 20
-121.6049804383488
 30
0.0
 10
133.1133219068258
 20
-121.5794867317579
 30
0.0
 10
133.1250352314757
 20
-121.55330400607
 30
0.0
 10
133.1353705179314
 20
-121.525743242188
 30
0.0
 10
133.1353705179314
 20
-121.525743242188
 30
0.0
 10
133.7692680872174
 20
-119.7832139457486
 30
0.0
 10
133.7692680872174
 20
-119.7832139457486
 30
0.0
 10
133.7796033736732
 20
-119.7556531818666
 30
0.0
 10
133.791316698323
 20
-119.7294704561787
 30
0.0
 10
133.8064751184581
 20
-119.7039767495879
 30
0.0
 10
133.9442789378681
 20
-119.4648871229116
 30
0.0
 10
134.2502034169583
 20
-119.3828938503626
 30
0.0
 10
134.4892930436346
 20
-119.5213866888697
 30
0.0
 10
134.4892930436346
 20
-119.5213866888697
 30
0.0
 10
136.8691650048452
 20
-120.8952907683873
 30
0.0
 10
136.8691650048452
 20
-120.8952907683873
 30
0.0
 10
136.8691650048452
 20
-120.8952907683873
 30
0.0
 10
136.8691650048452
 20
-127.3417534403868
 30
0.0
 10
136.8691650048452
 20
-127.3417534403868
 30
0.0
 10
136.8691650048452
 20
-127.3417534403868
 30
0.0
 10
116.4810899231367
 20
-127.3417534403868
 30
0.0
 10
116.4810899231367
 20
-127.3417534403868
 30
0.0
  0
ENDBLK
  5
9C
330
99
100
AcDbEntity
  8
0
100
AcDbBlockEnd
  0
ENDSEC
  0
SECTION
  2
ENTITIES
  0
INSERT
  5
3D
330
1F
100
AcDbEntity
  8
Layer 1
100
AcDbBlockReference
  2
block 2
 10
0.0
 20
0.0
 30
0.0
  0
INSERT
  5
50
330
1F
100
AcDbEntity
  8
Layer 1
100
AcDbBlockReference
  2
block 3
 10
0.0
 20
0.0
 30
0.0
  0
INSERT
  5
69
330
1F
100
AcDbEntity
  8
Layer 1
100
AcDbBlockReference
  2
block 4
 10
0.0
 20
0.0
 30
0.0
  0
INSERT
  5
70
330
1F
100
AcDbEntity
  8
Layer 1
100
AcDbBlockReference
  2
block 5
 10
0.0
 20
0.0
 30
0.0
  0
INSERT
  5
8B
330
1F
100
AcDbEntity
  8
Layer 1
100
AcDbBlockReference
  2
block 6
 10
0.0
 20
0.0
 30
0.0
  0
INSERT
  5
9A
330
1F
100
AcDbEntity
  8
Layer 1
100
AcDbBlockReference
  2
block 7
 10
0.0
 20
0.0
 30
0.0
  0
ENDSEC
  0
SECTION
  2
OBJECTS
  0
DICTIONARY
  5
C
330
0
100
AcDbDictionary
281
     1
  3
ACAD_GROUP
350
D
  3
ACAD_LAYOUT
350
1A
  3
ACAD_MLINESTYLE
350
17
  3
ACAD_PLOTSETTINGS
350
19
  3
ACAD_PLOTSTYLENAME
350
E
  3
ACAD_TABLESTYLE
350
AA
  3
ACAD_VISUALSTYLE
350
2A
  0
DICTIONARY
  5
D
102
{ACAD_REACTORS
330
C
102
}
330
C
100
AcDbDictionary
281
     1
  0
DICTIONARY
  5
1A
102
{ACAD_REACTORS
330
C
102
}
330
C
100
AcDbDictionary
281
     1
  3
Layout1
350
1E
  3
Layout2
350
26
  3
Model
350
22
  0
DICTIONARY
  5
17
102
{ACAD_REACTORS
330
C
102
}
330
C
100
AcDbDictionary
281
     1
  3
Standard
350
18
  0
DICTIONARY
  5
19
102
{ACAD_REACTORS
330
C
102
}
330
C
100
AcDbDictionary
281
     1
  0
ACDBDICTIONARYWDFLT
  5
E
102
{ACAD_REACTORS
330
C
102
}
330
C
100
AcDbDictionary
281
     1
  3
Normal
350
F
100
AcDbDictionaryWithDefault
340
F
  0
DICTIONARY
  5
AA
102
{ACAD_REACTORS
330
C
102
}
330
C
100
AcDbDictionary
281
     1
  0
DICTIONARY
  5
2A
102
{ACAD_REACTORS
330
C
102
}
330
C
100
AcDbDictionary
281
     1
  3
2dWireframe
350
2F
  3
3D Hidden
350
31
  3
3dWireframe
350
30
  3
Basic
350
32
  3
Brighten
350
36
  3
ColorChange
350
3A
  3
Conceptual
350
34
  3
Dim
350
35
  3
Facepattern
350
39
  3
Flat
350
2B
  3
FlatWithEdges
350
2C
  3
Gouraud
350
2D
  3
GouraudWithEdges
350
2E
  3
Linepattern
350
38
  3
Realistic
350
33
  3
Thicken
350
37
  0
LAYOUT
  5
1E
102
{ACAD_REACTORS
330
1A
102
}
330
1A
100
AcDbPlotSettings
  1

  2
none_device
  4

  6

 40
0.0
 41
0.0
 42
0.0
 43
0.0
 44
0.0
 45
0.0
 46
0.0
 47
0.0
 48
0.0
 49
0.0
140
0.0
141
0.0
142
1.0
143
1.0
 70
   688
 72
     0
 73
     0
 74
     5
  7

 75
    16
 76
     0
 77
     2
 78
   300
147
1.0
148
0.0
149
0.0
100
AcDbLayout
  1
Layout1
 70
     1
 71
     1
 10
0.0
 20
0.0
 11
12.0
 21
9.0
 12
0.0
 22
0.0
 32
0.0
 14
1.000000000000000E+20
 24
1.000000000000000E+20
 34
1.000000000000000E+20
 15
-1.000000000000000E+20
 25
-1.000000000000000E+20
 35
-1.000000000000000E+20
146
0.0
 13
0.0
 23
0.0
 33
0.0
 16
1.0
 26
0.0
 36
0.0
 17
0.0
 27
1.0
 37
0.0
 76
     0
330
1B
  0
LAYOUT
  5
26
102
{ACAD_REACTORS
330
1A
102
}
330
1A
100
AcDbPlotSettings
  1

  2
none_device
  4

  6

 40
0.0
 41
0.0
 42
0.0
 43
0.0
 44
0.0
 45
0.0
 46
0.0
 47
0.0
 48
0.0
 49
0.0
140
0.0
141
0.0
142
1.0
143
1.0
 70
   688
 72
     0
 73
     0
 74
     5
  7

 75
    16
 76
     0
 77
     2
 78
   300
147
1.0
148
0.0
149
0.0
100
AcDbLayout
  1
Layout2
 70
     1
 71
     2
 10
0.0
 20
0.0
 11
0.0
 21
0.0
 12
0.0
 22
0.0
 32
0.0
 14
0.0
 24
0.0
 34
0.0
 15
0.0
 25
0.0
 35
0.0
146
0.0
 13
0.0
 23
0.0
 33
0.0
 16
1.0
 26
0.0
 36
0.0
 17
0.0
 27
1.0
 37
0.0
 76
     0
330
23
  0
LAYOUT
  5
22
102
{ACAD_REACTORS
330
1A
102
}
330
1A
100
AcDbPlotSettings
  1

  2
none_device
  4

  6

 40
0.0
 41
0.0
 42
0.0
 43
0.0
 44
0.0
 45
0.0
 46
0.0
 47
0.0
 48
0.0
 49
0.0
140
0.0
141
0.0
142
1.0
143
1.0
 70
  1712
 72
     0
 73
     0
 74
     0
  7

 75
     0
 76
     0
 77
     2
 78
   300
147
1.0
148
0.0
149
0.0
100
AcDbLayout
  1
Model
 70
     1
 71
     0
 10
0.0
 20
0.0
 11
12.0
 21
9.0
 12
0.0
 22
0.0
 32
0.0
 14
1.000000000000000E+20
 24
1.000000000000000E+20
 34
1.000000000000000E+20
 15
-1.000000000000000E+20
 25
-1.000000000000000E+20
 35
-1.000000000000000E+20
146
0.0
 13
0.0
 23
0.0
 33
0.0
 16
1.0
 26
0.0
 36
0.0
 17
0.0
 27
1.0
 37
0.0
 76
     0
330
1F
331
29
  0
MLINESTYLE
  5
18
102
{ACAD_REACTORS
330
17
102
}
330
17
100
AcDbMlineStyle
  2
Standard
 70
     0
  3

 62
   256
 51
90.0
 52
90.0
 71
     2
 49
0.5
 62
   256
  6
BYLAYER
 49
-0.5
 62
   256
  6
BYLAYER
  0
ACDBPLACEHOLDER
  5
F
102
{ACAD_REACTORS
330
E
102
}
330
E
  0
VISUALSTYLE
  5
2F
102
{ACAD_REACTORS
330
2A
102
}
330
2A
100
AcDbVisualStyle
  2
2dWireframe
 70
     4
 71
     0
 72
     2
 73
     0
 90
        0
 40
-0.6
 41
-30.0
 62
     5
 63
     7
421
 16777215
 74
     1
 91
        4
 64
     7
 65
   257
 75
     1
175
     1
 42
1.0
 92
        0
 66
   257
 43
1.0
 76
     1
 77
     6
 78
     2
 67
     7
 79
     5
170
     0
171
     0
290
     0
174
     0
 93
        1
 44
0.0
173
     0
291
     0
 45
0.0
1001
ACAD
1000
AcDbSavedByObjectVersion
1070
     0
  0
VISUALSTYLE
  5
31
102
{ACAD_REACTORS
330
2A
102
}
330
2A
100
AcDbVisualStyle
  2
3D Hidden
 70
     6
 71
     1
 72
     2
 73
     2
 90
        0
 40
-0.6
 41
-30.0
 62
     5
 63
     7
421
 16777215
 74
     2
 91
        2
 64
     7
 65
   257
 75
     2
175
     1
 42
40.0
 92
        0
 66
   257
 43
1.0
 76
     1
 77
     6
 78
     2
 67
     7
 79
     3
170
     0
171
     0
290
     0
174
     0
 93
        1
 44
0.0
173
     0
291
     0
 45
0.0
1001
ACAD
1000
AcDbSavedByObjectVersion
1070
     0
  0
VISUALSTYLE
  5
30
102
{ACAD_REACTORS
330
2A
102
}
330
2A
100
AcDbVisualStyle
  2
3dWireframe
 70
     5
 71
     0
 72
     2
 73
     0
 90
        0
 40
-0.6
 41
-30.0
 62
     5
 63
     7
421
 16777215
 74
     1
 91
        4
 64
     7
 65
   257
 75
     1
175
     1
 42
1.0
 92
        0
 66
   257
 43
1.0
 76
     1
 77
     6
 78
     2
 67
     7
 79
     5
170
     0
171
     0
290
     0
174
     0
 93
        1
 44
0.0
173
     0
291
     0
 45
0.0
1001
ACAD
1000
AcDbSavedByObjectVersion
1070
     0
  0
VISUALSTYLE
  5
32
102
{ACAD_REACTORS
330
2A
102
}
330
2A
100
AcDbVisualStyle
  2
Basic
 70
     7
 71
     1
 72
     0
 73
     1
 90
        0
 40
-0.6
 41
-30.0
 62
     5
 63
     7
421
 16777215
 74
     0
 91
        4
 64
     7
 65
   257
 75
     1
175
     1
 42
1.0
 92
        8
 66
     7
 43
1.0
 76
     1
 77
     6
 78
     2
 67
     7
 79
     5
170
     0
171
     0
290
     0
174
     0
 93
        1
 44
0.0
173
     0
291
     1
 45
0.0
1001
ACAD
1000
AcDbSavedByObjectVersion
1070
     0
  0
VISUALSTYLE
  5
36
102
{ACAD_REACTORS
330
2A
102
}
330
2A
100
AcDbVisualStyle
  2
Brighten
 70
    12
 71
     2
 72
     2
 73
     0
 90
        0
 40
-0.6
 41
-30.0
 62
     5
 63
     7
421
 16777215
 74
     1
 91
        4
 64
     7
 65
   257
 75
     1
175
     1
 42
1.0
 92
        8
 66
     7
 43
1.0
 76
     1
 77
     6
 78
     2
 67
     7
 79
     5
170
     0
171
     0
290
     0
174
     0
 93
        1
 44
50.0
173
     0
291
     1
 45
0.0
1001
ACAD
1000
AcDbSavedByObjectVersion
1070
     0
  0
VISUALSTYLE
  5
3A
102
{ACAD_REACTORS
330
2A
102
}
330
2A
100
AcDbVisualStyle
  2
ColorChange
 70
    16
 71
     2
 72
     2
 73
     3
 90
        0
 40
-0.6
 41
-30.0
 62
     5
 63
     8
421
  8421504
 74
     1
 91
        4
 64
     7
 65
   257
 75
     1
175
     1
 42
1.0
 92
        8
 66
     8
424
  8421504
 43
1.0
 76
     1
 77
     6
 78
     2
 67
     7
 79
     5
170
     0
171
     0
290
     0
174
     0
 93
        1
 44
0.0
173
     0
291
     1
 45
0.0
1001
ACAD
1000
AcDbSavedByObjectVersion
1070
     0
  0
VISUALSTYLE
  5
34
102
{ACAD_REACTORS
330
2A
102
}
330
2A
100
AcDbVisualStyle
  2
Conceptual
 70
     9
 71
     3
 72
     2
 73
     0
 90
        0
 40
-0.6
 41
-30.0
 62
     5
 63
     7
421
 16777215
 74
     2
 91
        2
 64
     7
 65
   257
 75
     1
175
     1
 42
40.0
 92
        8
 66
     7
 43
1.0
 76
     1
 77
     6
 78
     2
 67
     7
 79
     3
170
     0
171
     0
290
     0
174
     0
 93
        1
 44
0.0
173
     0
291
     0
 45
0.0
1001
ACAD
1000
AcDbSavedByObjectVersion
1070
     0
  0
VISUALSTYLE
  5
35
102
{ACAD_REACTORS
330
2A
102
}
330
2A
100
AcDbVisualStyle
  2
Dim
 70
    11
 71
     2
 72
     2
 73
     0
 90
        0
 40
-0.6
 41
-30.0
 62
     5
 63
     7
421
 16777215
 74
     1
 91
        4
 64
     7
 65
   257
 75
     1
175
     1
 42
1.0
 92
        8
 66
     7
 43
1.0
 76
     1
 77
     6
 78
     2
 67
     7
 79
     5
170
     0
171
     0
290
     0
174
     0
 93
        1
 44
-50.0
173
     0
291
     1
 45
0.0
1001
ACAD
1000
AcDbSavedByObjectVersion
1070
     0
  0
VISUALSTYLE
  5
39
102
{ACAD_REACTORS
330
2A
102
}
330
2A
100
AcDbVisualStyle
  2
Facepattern
 70
    15
 71
     2
 72
     2
 73
     0
 90
        0
 40
-0.6
 41
-30.0
 62
     5
 63
     7
421
 16777215
 74
     1
 91
        4
 64
     7
 65
   257
 75
     1
175
     1
 42
1.0
 92
        8
 66
     7
 43
1.0
 76
     1
 77
     6
 78
     2
 67
     7
 79
     5
170
     0
171
     0
290
     0
174
     0
 93
        1
 44
0.0
173
     0
291
     1
 45
0.0
1001
ACAD
1000
AcDbSavedByObjectVersion
1070
     0
  0
VISUALSTYLE
  5
2B
102
{ACAD_REACTORS
330
2A
102
}
330
2A
100
AcDbVisualStyle
  2
Flat
 70
     0
 71
     2
 72
     1
 73
     1
 90
        2
 40
-0.6
 41
30.0
 62
     5
 63
     7
421
 16777215
 74
     0
 91
        4
 64
     7
 65
   257
 75
     1
175
     1
 42
1.0
 92
        8
 66
     7
 43
1.0
 76
     1
 77
     6
 78
     2
 67
     7
 79
     5
170
     0
171
     0
290
     0
174
     0
 93
       13
 44
0.0
173
     0
291
     1
 45
0.0
1001
ACAD
1000
AcDbSavedByObjectVersion
1070
     0
  0
VISUALSTYLE
  5
2C
102
{ACAD_REACTORS
330
2A
102
}
330
2A
100
AcDbVisualStyle
  2
FlatWithEdges
 70
     1
 71
     2
 72
     1
 73
     1
 90
        2
 40
-0.6
 41
30.0
 62
     5
 63
     7
421
 16777215
 74
     1
 91
        4
 64
     7
 65
   257
 75
     1
175
     1
 42
1.0
 92
        0
 66
   257
 43
1.0
 76
     1
 77
     6
 78
     2
 67
     7
 79
     5
170
     0
171
     0
290
     0
174
     0
 93
       13
 44
0.0
173
     0
291
     1
 45
0.0
1001
ACAD
1000
AcDbSavedByObjectVersion
1070
     0
  0
VISUALSTYLE
  5
2D
102
{ACAD_REACTORS
330
2A
102
}
330
2A
100
AcDbVisualStyle
  2
Gouraud
 70
     2
 71
     2
 72
     2
 73
     1
 90
        2
 40
-0.6
 41
30.0
 62
     5
 63
     7
421
 16777215
 74
     0
 91
        4
 64
     7
 65
   257
 75
     1
175
     1
 42
1.0
 92
        0
 66
     7
 43
1.0
 76
     1
 77
     6
 78
     2
 67
     7
 79
     5
170
     0
171
     0
290
     0
174
     0
 93
       13
 44
0.0
173
     0
291
     1
 45
0.0
1001
ACAD
1000
AcDbSavedByObjectVersion
1070
     0
  0
VISUALSTYLE
  5
2E
102
{ACAD_REACTORS
330
2A
102
}
330
2A
100
AcDbVisualStyle
  2
GouraudWithEdges
 70
     3
 71
     2
 72
     2
 73
     1
 90
        2
 40
-0.6
 41
30.0
 62
     5
 63
     7
421
 16777215
 74
     1
 91
        4
 64
     7
 65
   257
 75
     1
175
     1
 42
1.0
 92
        0
 66
   257
 43
1.0
 76
     1
 77
     6
 78
     2
 67
     7
 79
     5
170
     0
171
     0
290
     0
174
     0
 93
       13
 44
0.0
173
     0
291
     1
 45
0.0
1001
ACAD
1000
AcDbSavedByObjectVersion
1070
     0
  0
VISUALSTYLE
  5
38
102
{ACAD_REACTORS
330
2A
102
}
330
2A
100
AcDbVisualStyle
  2
Linepattern
 70
    14
 71
     2
 72
     2
 73
     0
 90
        0
 40
-0.6
 41
-30.0
 62
     5
 63
     7
421
 16777215
 74
     1
 91
        4
 64
     7
 65
   257
 75
     7
175
     7
 42
1.0
 92
        8
 66
     7
 43
1.0
 76
     1
 77
     6
 78
     2
 67
     7
 79
     5
170
     0
171
     0
290
     0
174
     0
 93
        1
 44
0.0
173
     0
291
     1
 45
0.0
1001
ACAD
1000
AcDbSavedByObjectVersion
1070
     0
  0
VISUALSTYLE
  5
33
102
{ACAD_REACTORS
330
2A
102
}
330
2A
100
AcDbVisualStyle
  2
Realistic
 70
     8
 71
     2
 72
     2
 73
     0
 90
        0
 40
-0.6
 41
-30.0
 62
     5
 63
     7
421
 16777215
 74
     1
 91
        0
 64
     7
 65
   257
 75
     1
175
     1
 42
1.0
 92
        8
 66
     8
424
  7895160
 43
1.0
 76
     1
 77
     6
 78
     2
 67
     7
 79
     5
170
     0
171
     0
290
     0
174
     0
 93
       13
 44
0.0
173
     0
291
     0
 45
0.0
1001
ACAD
1000
AcDbSavedByObjectVersion
1070
     0
  0
VISUALSTYLE
  5
37
102
{ACAD_REACTORS
330
2A
102
}
330
2A
100
AcDbVisualStyle
  2
Thicken
 70
    13
 71
     2
 72
     2
 73
     0
 90
        0
 40
-0.6
 41
-30.0
 62
     5
 63
     7
421
 16777215
 74
     1
 91
        4
 64
     7
 65
   257
 75
     1
175
     1
 42
1.0
 92
       12
 66
     7
 43
1.0
 76
     1
 77
     6
 78
     2
 67
     7
 79
     5
170
     0
171
     0
290
     0
174
     0
 93
        1
 44
0.0
173
     0
291
     1
 45
0.0
1001
ACAD
1000
AcDbSavedByObjectVersion
1070
     0
  0
ENDSEC
  0
EOF
