  0
SECTION
  2
HEADER
  9
$ACADVER
  1
AC1014
  9
$HANDSEED
  5
FFFF
  9
$MEASUREMENT
 70
     1
  0
ENDSEC
  0
SECTION
  2
TABLES
  0
TABLE
  2
VPORT
  5
8
330
0
100
AcDbSymbolTable
 70
     4
  0
VPORT
  5
2E
330
8
100
AcDbSymbolTableRecord
100
AcDbViewportTableRecord
  2
*ACTIVE
 70
     0
 10
0.0
 20
0.0
 11
1.0
 21
1.0
 12
210.0
 22
148.5
 13
0.0
 23
0.0
 14
10.0
 24
10.0
 15
10.0
 25
10.0
 16
0.0
 26
0.0
 36
1.0
 17
0.0
 27
0.0
 37
0.0
 40
341.0
 41
1.24
 42
50.0
 43
0.0
 44
0.0
 50
0.0
 51
0.0
 71
     0
 72
   100
 73
     1
 74
     3
 75
     0
 76
     0
 77
     0
 78
     0
  0
ENDTAB
  0
TABLE
  2
LTYPE
  5
5
330
0
100
AcDbSymbolTable
 70
     1
  0
LTYPE
  5
14
330
5
100
AcDbSymbolTableRecord
100
AcDbLinetypeTableRecord
  2
BYBLOCK
 70
     0
  3

 72
    65
 73
     0
 40
0.0
  0
LTYPE
  5
15
330
5
100
AcDbSymbolTableRecord
100
AcDbLinetypeTableRecord
  2
BYLAYER
 70
     0
  3

 72
    65
 73
     0
 40
0.0
  0
LTYPE
  5
16
330
5
100
AcDbSymbolTableRecord
100
AcDbLinetypeTableRecord
  2
CONTINUOUS
 70
     0
  3
Solid line
 72
    65
 73
     0
 40
0.0
  0
ENDTAB
  0
TABLE
  2
LAYER
  5
2
100
AcDbSymbolTable
 70
2
  0
LAYER
  5
50
100
AcDbSymbolTableRecord
100
AcDbLayerTableRecord
  2
0
 70
0
  6
CONTINUOUS
  0
LAYER
  5
51
100
AcDbSymbolTableRecord
100
AcDbLayerTableRecord
  2
Layer_1
 70
0
  6
CONTINUOUS
  0
ENDTAB
  0
TABLE
  2
STYLE
  5
3
330
0
100
AcDbSymbolTable
 70
     1
  0
STYLE
  5
11
330
3
100
AcDbSymbolTableRecord
100
AcDbTextStyleTableRecord
  2
STANDARD
 70
     0
 40
0.0
 41
1.0
 50
0.0
 71
     0
 42
2.5
  3
txt
  4

  0
ENDTAB
  0
TABLE
  2
VIEW
  5
6
330
0
100
AcDbSymbolTable
 70
     0
  0
ENDTAB
  0
TABLE
  2
UCS
  5
7
330
0
100
AcDbSymbolTable
 70
     0
  0
ENDTAB
  0
TABLE
  2
APPID
  5
9
330
0
100
AcDbSymbolTable
 70
     2
  0
APPID
  5
12
330
9
100
AcDbSymbolTableRecord
100
AcDbRegAppTableRecord
  2
ACAD
 70
     0
  0
ENDTAB
  0
TABLE
  2
DIMSTYLE
  5
A
330
0
100
AcDbSymbolTable
 70
     1
  0
DIMSTYLE
105
27
330
A
100
AcDbSymbolTableRecord
100
AcDbDimStyleTableRecord
  2
ISO-25
 70
     0
  3

  4

  5

  6

  7

 40
1.0
 41
2.5
 42
0.625
 43
3.75
 44
1.25
 45
0.0
 46
0.0
 47
0.0
 48
0.0
140
2.5
141
2.5
142
0.0
143
0.03937007874016
144
1.0
145
0.0
146
1.0
147
0.625
 71
     0
 72
     0
 73
     0
 74
     0
 75
     0
 76
     0
 77
     1
 78
     8
170
     0
171
     3
172
     1
173
     0
174
     0
175
     0
176
     0
177
     0
178
     0
270
     2
271
     2
272
     2
273
     2
274
     3
340
11
275
     0
280
     0
281
     0
282
     0
283
     0
284
     8
285
     0
286
     0
287
     3
288
     0
  0
ENDTAB
  0
TABLE
  2
BLOCK_RECORD
  5
1
330
0
100
AcDbSymbolTable
 70
     1
  0
BLOCK_RECORD
  5
1F
330
1
100
AcDbSymbolTableRecord
100
AcDbBlockTableRecord
  2
*MODEL_SPACE
  0
BLOCK_RECORD
  5
1B
330
1
100
AcDbSymbolTableRecord
100
AcDbBlockTableRecord
  2
*PAPER_SPACE
  0
ENDTAB
  0
ENDSEC
  0
SECTION
  2
BLOCKS
  0
BLOCK
  5
20
330
1F
100
AcDbEntity
  8
0
100
AcDbBlockBegin
  2
*MODEL_SPACE
 70
     0
 10
0.0
 20
0.0
 30
0.0
  3
*MODEL_SPACE
  1

  0
ENDBLK
  5
21
330
1F
100
AcDbEntity
  8
0
100
AcDbBlockEnd
  0
BLOCK
  5
1C
330
1B
100
AcDbEntity
 67
     1
  8
0
100
AcDbBlockBegin
  2
*PAPER_SPACE
  1

  0
ENDBLK
  5
1D
330
1B
100
AcDbEntity
 67
     1
  8
0
100
AcDbBlockEnd
  0
ENDSEC
  0
SECTION
  2
ENTITIES
  0
SPLINE
  5
100
100
AcDbEntity
  8
Layer_1
 62
1
100
AcDbSpline
 70
8
 71
3
 72
8
 73
4
 74
0
 40
0
 40
0
 40
0
 40
0
 40
1
 40
1
 40
1
 40
1
 10
315.727647
 20
291.902752
 30
0.0
 10
317.389653
 20
291.902752
 30
0.0
 10
318.727669
 20
290.564764
 30
0.0
 10
318.727669
 20
288.902758
 30
0.0
  0
LINE
  5
101
100
AcDbEntity
  8
Layer_1
 62
1
100
AcDbLine
 10
318.727669
 20
288.902758
 30
0.0
 11
318.727669
 21
218.767570
 31
0.0
  0
SPLINE
  5
102
100
AcDbEntity
  8
Layer_1
 62
1
100
AcDbSpline
 70
8
 71
3
 72
8
 73
4
 74
0
 40
0
 40
0
 40
0
 40
0
 40
1
 40
1
 40
1
 40
1
 10
318.727669
 20
218.767570
 30
0.0
 10
318.727669
 20
217.105592
 30
0.0
 10
317.389653
 20
215.767576
 30
0.0
 10
315.727647
 20
215.767576
 30
0.0
  0
LINE
  5
103
100
AcDbEntity
  8
Layer_1
 62
1
100
AcDbLine
 10
315.727647
 20
215.767576
 30
0.0
 11
312.927071
 21
215.573322
 31
0.0
  0
LINE
  5
104
100
AcDbEntity
  8
Layer_1
 62
1
100
AcDbLine
 10
312.927071
 20
215.573322
 30
0.0
 11
309.875571
 21
215.534009
 31
0.0
  0
LINE
  5
105
100
AcDbEntity
  8
Layer_1
 62
1
100
AcDbLine
 10
309.875571
 20
215.534009
 30
0.0
 11
232.985733
 21
215.546991
 31
0.0
  0
LINE
  5
106
100
AcDbEntity
  8
Layer_1
 62
1
100
AcDbLine
 10
232.985733
 20
215.546991
 30
0.0
 11
229.933246
 21
215.573238
 31
0.0
  0
LINE
  5
107
100
AcDbEntity
  8
Layer_1
 62
1
100
AcDbLine
 10
229.933246
 20
215.573238
 30
0.0
 11
227.152877
 21
215.767576
 31
0.0
  0
SPLINE
  5
108
100
AcDbEntity
  8
Layer_1
 62
1
100
AcDbSpline
 70
8
 71
3
 72
8
 73
4
 74
0
 40
0
 40
0
 40
0
 40
0
 40
1
 40
1
 40
1
 40
1
 10
227.152877
 20
215.767576
 30
0.0
 10
225.490870
 20
215.767576
 30
0.0
 10
224.152855
 20
217.105592
 30
0.0
 10
224.152855
 20
218.767570
 30
0.0
  0
LINE
  5
109
100
AcDbEntity
  8
Layer_1
 62
1
100
AcDbLine
 10
224.152855
 20
218.767570
 30
0.0
 11
224.152855
 21
288.902758
 31
0.0
  0
SPLINE
  5
10a
100
AcDbEntity
  8
Layer_1
 62
1
100
AcDbSpline
 70
8
 71
3
 72
8
 73
4
 74
0
 40
0
 40
0
 40
0
 40
0
 40
1
 40
1
 40
1
 40
1
 10
224.152855
 20
288.902758
 30
0.0
 10
224.152855
 20
290.564764
 30
0.0
 10
225.490870
 20
291.902752
 30
0.0
 10
227.152877
 20
291.902752
 30
0.0
  0
LINE
  5
10b
100
AcDbEntity
  8
Layer_1
 62
1
100
AcDbLine
 10
227.152877
 20
291.902752
 30
0.0
 11
229.933246
 21
292.090204
 31
0.0
  0
LINE
  5
10c
100
AcDbEntity
  8
Layer_1
 62
1
100
AcDbLine
 10
229.933246
 20
292.090204
 30
0.0
 11
233.011980
 21
292.129574
 31
0.0
  0
LINE
  5
10d
100
AcDbEntity
  8
Layer_1
 62
1
100
AcDbLine
 10
233.011980
 20
292.129574
 30
0.0
 11
309.862448
 21
292.136347
 31
0.0
  0
LINE
  5
10e
100
AcDbEntity
  8
Layer_1
 62
1
100
AcDbLine
 10
309.862448
 20
292.136347
 30
0.0
 11
312.927071
 21
292.090260
 31
0.0
  0
LINE
  5
10f
100
AcDbEntity
  8
Layer_1
 62
1
100
AcDbLine
 10
312.927071
 20
292.090260
 30
0.0
 11
315.727647
 21
291.902752
 31
0.0
  0
LINE
  5
110
100
AcDbEntity
  8
Layer_1
 62
1
100
AcDbLine
 10
313.183873
 20
238.160261
 30
0.0
 11
313.183873
 21
269.326934
 31
0.0
  0
LINE
  5
111
100
AcDbEntity
  8
Layer_1
 62
1
100
AcDbLine
 10
313.183873
 20
269.326934
 30
0.0
 11
310.183879
 21
269.326934
 31
0.0
  0
LINE
  5
112
100
AcDbEntity
  8
Layer_1
 62
1
100
AcDbLine
 10
310.183879
 20
269.326934
 30
0.0
 11
310.183879
 21
238.160261
 31
0.0
  0
LINE
  5
113
100
AcDbEntity
  8
Layer_1
 62
1
100
AcDbLine
 10
310.183879
 20
238.160261
 30
0.0
 11
313.183873
 21
238.160261
 31
0.0
  0
SPLINE
  5
114
100
AcDbEntity
  8
Layer_1
 62
1
100
AcDbSpline
 70
8
 71
3
 72
8
 73
4
 74
0
 40
0
 40
0
 40
0
 40
0
 40
1
 40
1
 40
1
 40
1
 10
311.682733
 20
234.710273
 30
0.0
 10
310.826677
 20
234.710280
 30
0.0
 10
310.132723
 20
234.016317
 30
0.0
 10
310.132723
 20
233.160271
 30
0.0
  0
SPLINE
  5
115
100
AcDbEntity
  8
Layer_1
 62
1
100
AcDbSpline
 70
8
 71
3
 72
8
 73
4
 74
0
 40
0
 40
0
 40
0
 40
0
 40
1
 40
1
 40
1
 40
1
 10
310.132723
 20
233.160271
 30
0.0
 10
310.132723
 20
232.304227
 30
0.0
 10
310.826677
 20
231.610266
 30
0.0
 10
311.682733
 20
231.610271
 30
0.0
  0
SPLINE
  5
116
100
AcDbEntity
  8
Layer_1
 62
1
100
AcDbSpline
 70
8
 71
3
 72
8
 73
4
 74
0
 40
0
 40
0
 40
0
 40
0
 40
1
 40
1
 40
1
 40
1
 10
311.682733
 20
231.610271
 30
0.0
 10
312.538789
 20
231.610266
 30
0.0
 10
313.232743
 20
232.304227
 30
0.0
 10
313.232743
 20
233.160271
 30
0.0
  0
SPLINE
  5
117
100
AcDbEntity
  8
Layer_1
 62
1
100
AcDbSpline
 70
8
 71
3
 72
8
 73
4
 74
0
 40
0
 40
0
 40
0
 40
0
 40
1
 40
1
 40
1
 40
1
 10
313.232743
 20
233.160271
 30
0.0
 10
313.232743
 20
234.016317
 30
0.0
 10
312.538789
 20
234.710280
 30
0.0
 10
311.682733
 20
234.710273
 30
0.0
  0
LINE
  5
118
100
AcDbEntity
  8
Layer_1
 62
1
100
AcDbLine
 10
311.682733
 20
234.710273
 30
0.0
 11
311.682733
 21
234.710273
 31
0.0
  0
SPLINE
  5
119
100
AcDbEntity
  8
Layer_1
 62
1
100
AcDbSpline
 70
8
 71
3
 72
8
 73
4
 74
0
 40
0
 40
0
 40
0
 40
0
 40
1
 40
1
 40
1
 40
1
 10
311.682722
 20
276.060054
 30
0.0
 10
310.826685
 20
276.060054
 30
0.0
 10
310.132729
 20
275.366098
 30
0.0
 10
310.132729
 20
274.510062
 30
0.0
  0
SPLINE
  5
11a
100
AcDbEntity
  8
Layer_1
 62
1
100
AcDbSpline
 70
8
 71
3
 72
8
 73
4
 74
0
 40
0
 40
0
 40
0
 40
0
 40
1
 40
1
 40
1
 40
1
 10
310.132729
 20
274.510062
 30
0.0
 10
310.132729
 20
273.654025
 30
0.0
 10
310.826685
 20
272.960041
 30
0.0
 10
311.682722
 20
272.960041
 30
0.0
  0
SPLINE
  5
11b
100
AcDbEntity
  8
Layer_1
 62
1
100
AcDbSpline
 70
8
 71
3
 72
8
 73
4
 74
0
 40
0
 40
0
 40
0
 40
0
 40
1
 40
1
 40
1
 40
1
 10
311.682722
 20
272.960041
 30
0.0
 10
312.538758
 20
272.960041
 30
0.0
 10
313.232715
 20
273.654025
 30
0.0
 10
313.232715
 20
274.510062
 30
0.0
  0
SPLINE
  5
11c
100
AcDbEntity
  8
Layer_1
 62
1
100
AcDbSpline
 70
8
 71
3
 72
8
 73
4
 74
0
 40
0
 40
0
 40
0
 40
0
 40
1
 40
1
 40
1
 40
1
 10
313.232715
 20
274.510062
 30
0.0
 10
313.232715
 20
275.366098
 30
0.0
 10
312.538758
 20
276.060054
 30
0.0
 10
311.682722
 20
276.060054
 30
0.0
  0
LINE
  5
11d
100
AcDbEntity
  8
Layer_1
 62
1
100
AcDbLine
 10
311.682722
 20
276.060054
 30
0.0
 11
311.682722
 21
276.060054
 31
0.0
  0
LINE
  5
11e
100
AcDbEntity
  8
Layer_1
 62
1
100
AcDbLine
 10
229.696641
 20
238.160261
 30
0.0
 11
229.696641
 21
269.326934
 31
0.0
  0
LINE
  5
11f
100
AcDbEntity
  8
Layer_1
 62
1
100
AcDbLine
 10
229.696641
 20
269.326934
 30
0.0
 11
232.696635
 21
269.326934
 31
0.0
  0
LINE
  5
120
100
AcDbEntity
  8
Layer_1
 62
1
100
AcDbLine
 10
232.696635
 20
269.326934
 30
0.0
 11
232.696635
 21
238.160261
 31
0.0
  0
LINE
  5
121
100
AcDbEntity
  8
Layer_1
 62
1
100
AcDbLine
 10
232.696635
 20
238.160261
 30
0.0
 11
229.696641
 21
238.160261
 31
0.0
  0
SPLINE
  5
122
100
AcDbEntity
  8
Layer_1
 62
1
100
AcDbSpline
 70
8
 71
3
 72
8
 73
4
 74
0
 40
0
 40
0
 40
0
 40
0
 40
1
 40
1
 40
1
 40
1
 10
231.197781
 20
234.710273
 30
0.0
 10
232.053837
 20
234.710280
 30
0.0
 10
232.747791
 20
234.016317
 30
0.0
 10
232.747791
 20
233.160271
 30
0.0
  0
SPLINE
  5
123
100
AcDbEntity
  8
Layer_1
 62
1
100
AcDbSpline
 70
8
 71
3
 72
8
 73
4
 74
0
 40
0
 40
0
 40
0
 40
0
 40
1
 40
1
 40
1
 40
1
 10
232.747791
 20
233.160271
 30
0.0
 10
232.747791
 20
232.304227
 30
0.0
 10
232.053837
 20
231.610266
 30
0.0
 10
231.197781
 20
231.610271
 30
0.0
  0
SPLINE
  5
124
100
AcDbEntity
  8
Layer_1
 62
1
100
AcDbSpline
 70
8
 71
3
 72
8
 73
4
 74
0
 40
0
 40
0
 40
0
 40
0
 40
1
 40
1
 40
1
 40
1
 10
231.197781
 20
231.610271
 30
0.0
 10
230.341725
 20
231.610266
 30
0.0
 10
229.647771
 20
232.304227
 30
0.0
 10
229.647771
 20
233.160271
 30
0.0
  0
SPLINE
  5
125
100
AcDbEntity
  8
Layer_1
 62
1
100
AcDbSpline
 70
8
 71
3
 72
8
 73
4
 74
0
 40
0
 40
0
 40
0
 40
0
 40
1
 40
1
 40
1
 40
1
 10
229.647771
 20
233.160271
 30
0.0
 10
229.647771
 20
234.016317
 30
0.0
 10
230.341725
 20
234.710280
 30
0.0
 10
231.197781
 20
234.710273
 30
0.0
  0
LINE
  5
126
100
AcDbEntity
  8
Layer_1
 62
1
100
AcDbLine
 10
231.197781
 20
234.710273
 30
0.0
 11
231.197781
 21
234.710273
 31
0.0
  0
SPLINE
  5
127
100
AcDbEntity
  8
Layer_1
 62
1
100
AcDbSpline
 70
8
 71
3
 72
8
 73
4
 74
0
 40
0
 40
0
 40
0
 40
0
 40
1
 40
1
 40
1
 40
1
 10
231.197792
 20
276.060054
 30
0.0
 10
232.053829
 20
276.060054
 30
0.0
 10
232.747785
 20
275.366098
 30
0.0
 10
232.747785
 20
274.510062
 30
0.0
  0
SPLINE
  5
128
100
AcDbEntity
  8
Layer_1
 62
1
100
AcDbSpline
 70
8
 71
3
 72
8
 73
4
 74
0
 40
0
 40
0
 40
0
 40
0
 40
1
 40
1
 40
1
 40
1
 10
232.747785
 20
274.510062
 30
0.0
 10
232.747785
 20
273.654025
 30
0.0
 10
232.053829
 20
272.960041
 30
0.0
 10
231.197792
 20
272.960041
 30
0.0
  0
SPLINE
  5
129
100
AcDbEntity
  8
Layer_1
 62
1
100
AcDbSpline
 70
8
 71
3
 72
8
 73
4
 74
0
 40
0
 40
0
 40
0
 40
0
 40
1
 40
1
 40
1
 40
1
 10
231.197792
 20
272.960041
 30
0.0
 10
230.341756
 20
272.960041
 30
0.0
 10
229.647800
 20
273.654025
 30
0.0
 10
229.647800
 20
274.510062
 30
0.0
  0
SPLINE
  5
12a
100
AcDbEntity
  8
Layer_1
 62
1
100
AcDbSpline
 70
8
 71
3
 72
8
 73
4
 74
0
 40
0
 40
0
 40
0
 40
0
 40
1
 40
1
 40
1
 40
1
 10
229.647800
 20
274.510062
 30
0.0
 10
229.647800
 20
275.366098
 30
0.0
 10
230.341756
 20
276.060054
 30
0.0
 10
231.197792
 20
276.060054
 30
0.0
  0
LINE
  5
12b
100
AcDbEntity
  8
Layer_1
 62
1
100
AcDbLine
 10
231.197792
 20
276.060054
 30
0.0
 11
231.197792
 21
276.060054
 31
0.0
  0
SPLINE
  5
12c
100
AcDbEntity
  8
Layer_1
 62
3
100
AcDbSpline
 70
8
 71
3
 72
8
 73
4
 74
0
 40
0
 40
0
 40
0
 40
0
 40
1
 40
1
 40
1
 40
1
 10
271.440269
 20
277.641245
 30
0.0
 10
279.945358
 20
277.641245
 30
0.0
 10
287.804384
 20
273.103834
 30
0.0
 10
292.056928
 20
265.738211
 30
0.0
  0
SPLINE
  5
12d
100
AcDbEntity
  8
Layer_1
 62
3
100
AcDbSpline
 70
8
 71
3
 72
8
 73
4
 74
0
 40
0
 40
0
 40
0
 40
0
 40
1
 40
1
 40
1
 40
1
 10
292.056928
 20
265.738211
 30
0.0
 10
296.309472
 20
258.372589
 30
0.0
 10
296.309472
 20
249.297767
 30
0.0
 10
292.056928
 20
241.932144
 30
0.0
  0
SPLINE
  5
12e
100
AcDbEntity
  8
Layer_1
 62
3
100
AcDbSpline
 70
8
 71
3
 72
8
 73
4
 74
0
 40
0
 40
0
 40
0
 40
0
 40
1
 40
1
 40
1
 40
1
 10
292.056928
 20
241.932144
 30
0.0
 10
287.804384
 20
234.566522
 30
0.0
 10
279.945358
 20
230.029111
 30
0.0
 10
271.440269
 20
230.029111
 30
0.0
  0
SPLINE
  5
12f
100
AcDbEntity
  8
Layer_1
 62
3
100
AcDbSpline
 70
8
 71
3
 72
8
 73
4
 74
0
 40
0
 40
0
 40
0
 40
0
 40
1
 40
1
 40
1
 40
1
 10
271.440269
 20
230.029111
 30
0.0
 10
258.292542
 20
230.029112
 30
0.0
 10
247.634204
 20
240.687451
 30
0.0
 10
247.634204
 20
253.835178
 30
0.0
  0
SPLINE
  5
130
100
AcDbEntity
  8
Layer_1
 62
3
100
AcDbSpline
 70
8
 71
3
 72
8
 73
4
 74
0
 40
0
 40
0
 40
0
 40
0
 40
1
 40
1
 40
1
 40
1
 10
247.634204
 20
253.835178
 30
0.0
 10
247.634204
 20
266.982905
 30
0.0
 10
258.292542
 20
277.641244
 30
0.0
 10
271.440269
 20
277.641245
 30
0.0
  0
LINE
  5
131
100
AcDbEntity
  8
Layer_1
 62
1
100
AcDbLine
 10
271.440269
 20
277.641245
 30
0.0
 11
271.440269
 21
277.641245
 31
0.0
  0
SPLINE
  5
132
100
AcDbEntity
  8
Layer_1
 62
1
100
AcDbSpline
 70
8
 71
3
 72
8
 73
4
 74
0
 40
0
 40
0
 40
0
 40
0
 40
1
 40
1
 40
1
 40
1
 10
271.440269
 20
267.375677
 30
0.0
 10
276.277824
 20
267.375677
 30
0.0
 10
280.747909
 20
264.794873
 30
0.0
 10
283.166686
 20
260.605428
 30
0.0
  0
SPLINE
  5
133
100
AcDbEntity
  8
Layer_1
 62
1
100
AcDbSpline
 70
8
 71
3
 72
8
 73
4
 74
0
 40
0
 40
0
 40
0
 40
0
 40
1
 40
1
 40
1
 40
1
 10
283.166686
 20
260.605428
 30
0.0
 10
285.585463
 20
256.415983
 30
0.0
 10
285.585463
 20
251.254373
 30
0.0
 10
283.166686
 20
247.064928
 30
0.0
  0
SPLINE
  5
134
100
AcDbEntity
  8
Layer_1
 62
1
100
AcDbSpline
 70
8
 71
3
 72
8
 73
4
 74
0
 40
0
 40
0
 40
0
 40
0
 40
1
 40
1
 40
1
 40
1
 10
283.166686
 20
247.064928
 30
0.0
 10
280.747909
 20
242.875483
 30
0.0
 10
276.277824
 20
240.294679
 30
0.0
 10
271.440269
 20
240.294679
 30
0.0
  0
SPLINE
  5
135
100
AcDbEntity
  8
Layer_1
 62
1
100
AcDbSpline
 70
8
 71
3
 72
8
 73
4
 74
0
 40
0
 40
0
 40
0
 40
0
 40
1
 40
1
 40
1
 40
1
 10
271.440269
 20
240.294679
 30
0.0
 10
266.602715
 20
240.294679
 30
0.0
 10
262.132630
 20
242.875483
 30
0.0
 10
259.713853
 20
247.064928
 30
0.0
  0
SPLINE
  5
136
100
AcDbEntity
  8
Layer_1
 62
1
100
AcDbSpline
 70
8
 71
3
 72
8
 73
4
 74
0
 40
0
 40
0
 40
0
 40
0
 40
1
 40
1
 40
1
 40
1
 10
259.713853
 20
247.064928
 30
0.0
 10
257.295076
 20
251.254373
 30
0.0
 10
257.295076
 20
256.415983
 30
0.0
 10
259.713853
 20
260.605428
 30
0.0
  0
SPLINE
  5
137
100
AcDbEntity
  8
Layer_1
 62
1
100
AcDbSpline
 70
8
 71
3
 72
8
 73
4
 74
0
 40
0
 40
0
 40
0
 40
0
 40
1
 40
1
 40
1
 40
1
 10
259.713853
 20
260.605428
 30
0.0
 10
262.132630
 20
264.794873
 30
0.0
 10
266.602715
 20
267.375677
 30
0.0
 10
271.440269
 20
267.375677
 30
0.0
  0
LINE
  5
138
100
AcDbEntity
  8
Layer_1
 62
1
100
AcDbLine
 10
271.440269
 20
267.375677
 30
0.0
 11
271.440269
 21
267.375677
 31
0.0
  0
LINE
  5
139
100
AcDbEntity
  8
Layer_1
 62
1
100
AcDbLine
 10
213.755415
 20
210.637375
 30
0.0
 11
210.676681
 21
210.598005
 31
0.0
  0
LINE
  5
13a
100
AcDbEntity
  8
Layer_1
 62
1
100
AcDbLine
 10
210.676681
 20
210.598005
 30
0.0
 11
210.676681
 21
200.597996
 31
0.0
  0
LINE
  5
13b
100
AcDbEntity
  8
Layer_1
 62
1
100
AcDbLine
 10
210.676681
 20
200.597996
 30
0.0
 11
213.676675
 21
200.597996
 31
0.0
  0
LINE
  5
13c
100
AcDbEntity
  8
Layer_1
 62
1
100
AcDbLine
 10
213.676675
 20
200.597996
 30
0.0
 11
213.676675
 21
197.197981
 31
0.0
  0
LINE
  5
13d
100
AcDbEntity
  8
Layer_1
 62
1
100
AcDbLine
 10
213.676675
 20
197.197981
 30
0.0
 11
216.676669
 21
197.197981
 31
0.0
  0
LINE
  5
13e
100
AcDbEntity
  8
Layer_1
 62
1
100
AcDbLine
 10
216.676669
 20
197.197981
 30
0.0
 11
216.676669
 21
198.797983
 31
0.0
  0
LINE
  5
13f
100
AcDbEntity
  8
Layer_1
 62
1
100
AcDbLine
 10
216.676669
 20
198.797983
 30
0.0
 11
219.676663
 21
198.797983
 31
0.0
  0
LINE
  5
140
100
AcDbEntity
  8
Layer_1
 62
1
100
AcDbLine
 10
219.676663
 20
198.797983
 30
0.0
 11
219.676663
 21
197.197981
 31
0.0
  0
LINE
  5
141
100
AcDbEntity
  8
Layer_1
 62
1
100
AcDbLine
 10
219.676663
 20
197.197981
 30
0.0
 11
221.676659
 21
197.197981
 31
0.0
  0
LINE
  5
142
100
AcDbEntity
  8
Layer_1
 62
1
100
AcDbLine
 10
221.676659
 20
197.197981
 30
0.0
 11
221.676659
 21
193.998004
 31
0.0
  0
LINE
  5
143
100
AcDbEntity
  8
Layer_1
 62
1
100
AcDbLine
 10
221.676659
 20
193.998004
 30
0.0
 11
219.676663
 21
193.998004
 31
0.0
  0
LINE
  5
144
100
AcDbEntity
  8
Layer_1
 62
1
100
AcDbLine
 10
219.676663
 20
193.998004
 30
0.0
 11
219.676663
 21
192.398001
 31
0.0
  0
LINE
  5
145
100
AcDbEntity
  8
Layer_1
 62
1
100
AcDbLine
 10
219.676663
 20
192.398001
 30
0.0
 11
216.676669
 21
192.398001
 31
0.0
  0
LINE
  5
146
100
AcDbEntity
  8
Layer_1
 62
1
100
AcDbLine
 10
216.676669
 20
192.398001
 30
0.0
 11
216.676669
 21
193.998004
 31
0.0
  0
LINE
  5
147
100
AcDbEntity
  8
Layer_1
 62
1
100
AcDbLine
 10
216.676669
 20
193.998004
 30
0.0
 11
213.676675
 21
193.998004
 31
0.0
  0
LINE
  5
148
100
AcDbEntity
  8
Layer_1
 62
1
100
AcDbLine
 10
213.676675
 20
193.998004
 30
0.0
 11
213.676675
 21
190.598016
 31
0.0
  0
LINE
  5
149
100
AcDbEntity
  8
Layer_1
 62
1
100
AcDbLine
 10
213.676675
 20
190.598016
 30
0.0
 11
210.676681
 21
190.598016
 31
0.0
  0
LINE
  5
14a
100
AcDbEntity
  8
Layer_1
 62
1
100
AcDbLine
 10
210.676681
 20
190.598016
 30
0.0
 11
210.676681
 21
180.598008
 31
0.0
  0
LINE
  5
14b
100
AcDbEntity
  8
Layer_1
 62
1
100
AcDbLine
 10
210.676681
 20
180.598008
 30
0.0
 11
213.738481
 21
180.557170
 31
0.0
  0
LINE
  5
14c
100
AcDbEntity
  8
Layer_1
 62
1
100
AcDbLine
 10
213.738481
 20
180.557170
 30
0.0
 11
213.729168
 21
164.098280
 31
0.0
  0
LINE
  5
14d
100
AcDbEntity
  8
Layer_1
 62
1
100
AcDbLine
 10
213.729168
 20
164.098280
 30
0.0
 11
210.676681
 21
164.081065
 31
0.0
  0
LINE
  5
14e
100
AcDbEntity
  8
Layer_1
 62
1
100
AcDbLine
 10
210.676681
 20
164.081065
 30
0.0
 11
210.676681
 21
154.081056
 31
0.0
  0
LINE
  5
14f
100
AcDbEntity
  8
Layer_1
 62
1
100
AcDbLine
 10
210.676681
 20
154.081056
 30
0.0
 11
213.676675
 21
154.081056
 31
0.0
  0
LINE
  5
150
100
AcDbEntity
  8
Layer_1
 62
1
100
AcDbLine
 10
213.676675
 20
154.081056
 30
0.0
 11
213.676675
 21
150.681068
 31
0.0
  0
LINE
  5
151
100
AcDbEntity
  8
Layer_1
 62
1
100
AcDbLine
 10
213.676675
 20
150.681068
 30
0.0
 11
216.676669
 21
150.681068
 31
0.0
  0
LINE
  5
152
100
AcDbEntity
  8
Layer_1
 62
1
100
AcDbLine
 10
216.676669
 20
150.681068
 30
0.0
 11
216.676669
 21
152.281071
 31
0.0
  0
LINE
  5
153
100
AcDbEntity
  8
Layer_1
 62
1
100
AcDbLine
 10
216.676669
 20
152.281071
 30
0.0
 11
219.676663
 21
152.281071
 31
0.0
  0
LINE
  5
154
100
AcDbEntity
  8
Layer_1
 62
1
100
AcDbLine
 10
219.676663
 20
152.281071
 30
0.0
 11
219.676663
 21
150.681068
 31
0.0
  0
LINE
  5
155
100
AcDbEntity
  8
Layer_1
 62
1
100
AcDbLine
 10
219.676663
 20
150.681068
 30
0.0
 11
221.676659
 21
150.681068
 31
0.0
  0
LINE
  5
156
100
AcDbEntity
  8
Layer_1
 62
1
100
AcDbLine
 10
221.676659
 20
150.681068
 30
0.0
 11
221.676659
 21
147.481092
 31
0.0
  0
LINE
  5
157
100
AcDbEntity
  8
Layer_1
 62
1
100
AcDbLine
 10
221.676659
 20
147.481092
 30
0.0
 11
219.676663
 21
147.481092
 31
0.0
  0
LINE
  5
158
100
AcDbEntity
  8
Layer_1
 62
1
100
AcDbLine
 10
219.676663
 20
147.481092
 30
0.0
 11
219.676663
 21
145.881089
 31
0.0
  0
LINE
  5
159
100
AcDbEntity
  8
Layer_1
 62
1
100
AcDbLine
 10
219.676663
 20
145.881089
 30
0.0
 11
216.676669
 21
145.881089
 31
0.0
  0
LINE
  5
15a
100
AcDbEntity
  8
Layer_1
 62
1
100
AcDbLine
 10
216.676669
 20
145.881089
 30
0.0
 11
216.676669
 21
147.481092
 31
0.0
  0
LINE
  5
15b
100
AcDbEntity
  8
Layer_1
 62
1
100
AcDbLine
 10
216.676669
 20
147.481092
 30
0.0
 11
213.676675
 21
147.481092
 31
0.0
  0
LINE
  5
15c
100
AcDbEntity
  8
Layer_1
 62
1
100
AcDbLine
 10
213.676675
 20
147.481092
 30
0.0
 11
213.676675
 21
144.081076
 31
0.0
  0
LINE
  5
15d
100
AcDbEntity
  8
Layer_1
 62
1
100
AcDbLine
 10
213.676675
 20
144.081076
 30
0.0
 11
210.676681
 21
144.081076
 31
0.0
  0
LINE
  5
15e
100
AcDbEntity
  8
Layer_1
 62
1
100
AcDbLine
 10
210.676681
 20
144.081076
 30
0.0
 11
210.676681
 21
134.081067
 31
0.0
  0
LINE
  5
15f
100
AcDbEntity
  8
Layer_1
 62
1
100
AcDbLine
 10
210.676681
 20
134.081067
 30
0.0
 11
213.729168
 21
134.054821
 31
0.0
  0
LINE
  5
160
100
AcDbEntity
  8
Layer_1
 62
1
100
AcDbLine
 10
213.729168
 20
134.054821
 30
0.0
 11
290.619006
 21
134.041838
 31
0.0
  0
LINE
  5
161
100
AcDbEntity
  8
Layer_1
 62
1
100
AcDbLine
 10
290.619006
 20
134.041838
 30
0.0
 11
293.650270
 21
134.081208
 31
0.0
  0
LINE
  5
162
100
AcDbEntity
  8
Layer_1
 62
1
100
AcDbLine
 10
293.650270
 20
134.081208
 30
0.0
 11
293.650270
 21
144.081217
 31
0.0
  0
LINE
  5
163
100
AcDbEntity
  8
Layer_1
 62
1
100
AcDbLine
 10
293.650270
 20
144.081217
 30
0.0
 11
290.650276
 21
144.081217
 31
0.0
  0
LINE
  5
164
100
AcDbEntity
  8
Layer_1
 62
1
100
AcDbLine
 10
290.650276
 20
144.081217
 30
0.0
 11
290.650276
 21
147.481233
 31
0.0
  0
LINE
  5
165
100
AcDbEntity
  8
Layer_1
 62
1
100
AcDbLine
 10
290.650276
 20
147.481233
 30
0.0
 11
287.650282
 21
147.481233
 31
0.0
  0
LINE
  5
166
100
AcDbEntity
  8
Layer_1
 62
1
100
AcDbLine
 10
287.650282
 20
147.481233
 30
0.0
 11
287.650282
 21
145.881230
 31
0.0
  0
LINE
  5
167
100
AcDbEntity
  8
Layer_1
 62
1
100
AcDbLine
 10
287.650282
 20
145.881230
 30
0.0
 11
284.650288
 21
145.881230
 31
0.0
  0
LINE
  5
168
100
AcDbEntity
  8
Layer_1
 62
1
100
AcDbLine
 10
284.650288
 20
145.881230
 30
0.0
 11
284.650288
 21
147.481233
 31
0.0
  0
LINE
  5
169
100
AcDbEntity
  8
Layer_1
 62
1
100
AcDbLine
 10
284.650288
 20
147.481233
 30
0.0
 11
282.650292
 21
147.481233
 31
0.0
  0
LINE
  5
16a
100
AcDbEntity
  8
Layer_1
 62
1
100
AcDbLine
 10
282.650292
 20
147.481233
 30
0.0
 11
282.650292
 21
150.681210
 31
0.0
  0
LINE
  5
16b
100
AcDbEntity
  8
Layer_1
 62
1
100
AcDbLine
 10
282.650292
 20
150.681210
 30
0.0
 11
284.650288
 21
150.681210
 31
0.0
  0
LINE
  5
16c
100
AcDbEntity
  8
Layer_1
 62
1
100
AcDbLine
 10
284.650288
 20
150.681210
 30
0.0
 11
284.650288
 21
152.281212
 31
0.0
  0
LINE
  5
16d
100
AcDbEntity
  8
Layer_1
 62
1
100
AcDbLine
 10
284.650288
 20
152.281212
 30
0.0
 11
287.650282
 21
152.281212
 31
0.0
  0
LINE
  5
16e
100
AcDbEntity
  8
Layer_1
 62
1
100
AcDbLine
 10
287.650282
 20
152.281212
 30
0.0
 11
287.650282
 21
150.681210
 31
0.0
  0
LINE
  5
16f
100
AcDbEntity
  8
Layer_1
 62
1
100
AcDbLine
 10
287.650282
 20
150.681210
 30
0.0
 11
290.650276
 21
150.681210
 31
0.0
  0
LINE
  5
170
100
AcDbEntity
  8
Layer_1
 62
1
100
AcDbLine
 10
290.650276
 20
150.681210
 30
0.0
 11
290.650276
 21
154.081197
 31
0.0
  0
LINE
  5
171
100
AcDbEntity
  8
Layer_1
 62
1
100
AcDbLine
 10
290.650276
 20
154.081197
 30
0.0
 11
293.650270
 21
154.081197
 31
0.0
  0
LINE
  5
172
100
AcDbEntity
  8
Layer_1
 62
1
100
AcDbLine
 10
293.650270
 20
154.081197
 30
0.0
 11
293.650270
 21
164.081206
 31
0.0
  0
LINE
  5
173
100
AcDbEntity
  8
Layer_1
 62
1
100
AcDbLine
 10
293.650270
 20
164.081206
 30
0.0
 11
290.597783
 21
164.098421
 31
0.0
  0
LINE
  5
174
100
AcDbEntity
  8
Layer_1
 62
1
100
AcDbLine
 10
290.597783
 20
164.098421
 30
0.0
 11
290.588469
 21
180.557311
 31
0.0
  0
LINE
  5
175
100
AcDbEntity
  8
Layer_1
 62
1
100
AcDbLine
 10
290.588469
 20
180.557311
 30
0.0
 11
293.650270
 21
180.598149
 31
0.0
  0
LINE
  5
176
100
AcDbEntity
  8
Layer_1
 62
1
100
AcDbLine
 10
293.650270
 20
180.598149
 30
0.0
 11
293.650270
 21
190.598157
 31
0.0
  0
LINE
  5
177
100
AcDbEntity
  8
Layer_1
 62
1
100
AcDbLine
 10
293.650270
 20
190.598157
 30
0.0
 11
290.650276
 21
190.598157
 31
0.0
  0
LINE
  5
178
100
AcDbEntity
  8
Layer_1
 62
1
100
AcDbLine
 10
290.650276
 20
190.598157
 30
0.0
 11
290.650276
 21
193.998145
 31
0.0
  0
LINE
  5
179
100
AcDbEntity
  8
Layer_1
 62
1
100
AcDbLine
 10
290.650276
 20
193.998145
 30
0.0
 11
287.650282
 21
193.998145
 31
0.0
  0
LINE
  5
17a
100
AcDbEntity
  8
Layer_1
 62
1
100
AcDbLine
 10
287.650282
 20
193.998145
 30
0.0
 11
287.650282
 21
192.398142
 31
0.0
  0
LINE
  5
17b
100
AcDbEntity
  8
Layer_1
 62
1
100
AcDbLine
 10
287.650282
 20
192.398142
 30
0.0
 11
284.650288
 21
192.398142
 31
0.0
  0
LINE
  5
17c
100
AcDbEntity
  8
Layer_1
 62
1
100
AcDbLine
 10
284.650288
 20
192.398142
 30
0.0
 11
284.650288
 21
193.998145
 31
0.0
  0
LINE
  5
17d
100
AcDbEntity
  8
Layer_1
 62
1
100
AcDbLine
 10
284.650288
 20
193.998145
 30
0.0
 11
282.650292
 21
193.998145
 31
0.0
  0
LINE
  5
17e
100
AcDbEntity
  8
Layer_1
 62
1
100
AcDbLine
 10
282.650292
 20
193.998145
 30
0.0
 11
282.650292
 21
197.198122
 31
0.0
  0
LINE
  5
17f
100
AcDbEntity
  8
Layer_1
 62
1
100
AcDbLine
 10
282.650292
 20
197.198122
 30
0.0
 11
284.650288
 21
197.198122
 31
0.0
  0
LINE
  5
180
100
AcDbEntity
  8
Layer_1
 62
1
100
AcDbLine
 10
284.650288
 20
197.198122
 30
0.0
 11
284.650288
 21
198.798124
 31
0.0
  0
LINE
  5
181
100
AcDbEntity
  8
Layer_1
 62
1
100
AcDbLine
 10
284.650288
 20
198.798124
 30
0.0
 11
287.650282
 21
198.798124
 31
0.0
  0
LINE
  5
182
100
AcDbEntity
  8
Layer_1
 62
1
100
AcDbLine
 10
287.650282
 20
198.798124
 30
0.0
 11
287.650282
 21
197.198122
 31
0.0
  0
LINE
  5
183
100
AcDbEntity
  8
Layer_1
 62
1
100
AcDbLine
 10
287.650282
 20
197.198122
 30
0.0
 11
290.650276
 21
197.198122
 31
0.0
  0
LINE
  5
184
100
AcDbEntity
  8
Layer_1
 62
1
100
AcDbLine
 10
290.650276
 20
197.198122
 30
0.0
 11
290.650276
 21
200.598138
 31
0.0
  0
LINE
  5
185
100
AcDbEntity
  8
Layer_1
 62
1
100
AcDbLine
 10
290.650276
 20
200.598138
 30
0.0
 11
293.650270
 21
200.598138
 31
0.0
  0
LINE
  5
186
100
AcDbEntity
  8
Layer_1
 62
1
100
AcDbLine
 10
293.650270
 20
200.598138
 30
0.0
 11
293.650270
 21
210.598146
 31
0.0
  0
LINE
  5
187
100
AcDbEntity
  8
Layer_1
 62
1
100
AcDbLine
 10
293.650270
 20
210.598146
 30
0.0
 11
290.605883
 21
210.644148
 31
0.0
  0
LINE
  5
188
100
AcDbEntity
  8
Layer_1
 62
1
100
AcDbLine
 10
290.605883
 20
210.644148
 30
0.0
 11
213.755415
 21
210.637375
 31
0.0
  0
SPLINE
  5
189
100
AcDbEntity
  8
Layer_1
 62
3
100
AcDbSpline
 70
8
 71
3
 72
8
 73
4
 74
0
 40
0
 40
0
 40
0
 40
0
 40
1
 40
1
 40
1
 40
1
 10
252.163475
 20
196.149055
 30
0.0
 10
260.668564
 20
196.149055
 30
0.0
 10
268.527590
 20
191.611644
 30
0.0
 10
272.780134
 20
184.246021
 30
0.0
  0
SPLINE
  5
18a
100
AcDbEntity
  8
Layer_1
 62
3
100
AcDbSpline
 70
8
 71
3
 72
8
 73
4
 74
0
 40
0
 40
0
 40
0
 40
0
 40
1
 40
1
 40
1
 40
1
 10
272.780134
 20
184.246021
 30
0.0
 10
277.032678
 20
176.880398
 30
0.0
 10
277.032678
 20
167.805577
 30
0.0
 10
272.780134
 20
160.439954
 30
0.0
  0
SPLINE
  5
18b
100
AcDbEntity
  8
Layer_1
 62
3
100
AcDbSpline
 70
8
 71
3
 72
8
 73
4
 74
0
 40
0
 40
0
 40
0
 40
0
 40
1
 40
1
 40
1
 40
1
 10
272.780134
 20
160.439954
 30
0.0
 10
268.527590
 20
153.074332
 30
0.0
 10
260.668564
 20
148.536921
 30
0.0
 10
252.163475
 20
148.536921
 30
0.0
  0
SPLINE
  5
18c
100
AcDbEntity
  8
Layer_1
 62
3
100
AcDbSpline
 70
8
 71
3
 72
8
 73
4
 74
0
 40
0
 40
0
 40
0
 40
0
 40
1
 40
1
 40
1
 40
1
 10
252.163475
 20
148.536921
 30
0.0
 10
239.015748
 20
148.536921
 30
0.0
 10
228.357410
 20
159.195260
 30
0.0
 10
228.357410
 20
172.342988
 30
0.0
  0
SPLINE
  5
18d
100
AcDbEntity
  8
Layer_1
 62
3
100
AcDbSpline
 70
8
 71
3
 72
8
 73
4
 74
0
 40
0
 40
0
 40
0
 40
0
 40
1
 40
1
 40
1
 40
1
 10
228.357410
 20
172.342988
 30
0.0
 10
228.357410
 20
185.490715
 30
0.0
 10
239.015748
 20
196.149054
 30
0.0
 10
252.163475
 20
196.149055
 30
0.0
  0
LINE
  5
18e
100
AcDbEntity
  8
Layer_1
 62
1
100
AcDbLine
 10
252.163475
 20
196.149055
 30
0.0
 11
252.163475
 21
196.149055
 31
0.0
  0
SPLINE
  5
18f
100
AcDbEntity
  8
Layer_1
 62
1
100
AcDbSpline
 70
8
 71
3
 72
8
 73
4
 74
0
 40
0
 40
0
 40
0
 40
0
 40
1
 40
1
 40
1
 40
1
 10
252.163475
 20
185.883487
 30
0.0
 10
257.001030
 20
185.883487
 30
0.0
 10
261.471115
 20
183.302682
 30
0.0
 10
263.889892
 20
179.113237
 30
0.0
  0
SPLINE
  5
190
100
AcDbEntity
  8
Layer_1
 62
1
100
AcDbSpline
 70
8
 71
3
 72
8
 73
4
 74
0
 40
0
 40
0
 40
0
 40
0
 40
1
 40
1
 40
1
 40
1
 10
263.889892
 20
179.113237
 30
0.0
 10
266.308669
 20
174.923792
 30
0.0
 10
266.308669
 20
169.762183
 30
0.0
 10
263.889892
 20
165.572738
 30
0.0
  0
SPLINE
  5
191
100
AcDbEntity
  8
Layer_1
 62
1
100
AcDbSpline
 70
8
 71
3
 72
8
 73
4
 74
0
 40
0
 40
0
 40
0
 40
0
 40
1
 40
1
 40
1
 40
1
 10
263.889892
 20
165.572738
 30
0.0
 10
261.471115
 20
161.383293
 30
0.0
 10
257.001030
 20
158.802488
 30
0.0
 10
252.163475
 20
158.802488
 30
0.0
  0
SPLINE
  5
192
100
AcDbEntity
  8
Layer_1
 62
1
100
AcDbSpline
 70
8
 71
3
 72
8
 73
4
 74
0
 40
0
 40
0
 40
0
 40
0
 40
1
 40
1
 40
1
 40
1
 10
252.163475
 20
158.802488
 30
0.0
 10
247.325921
 20
158.802488
 30
0.0
 10
242.855836
 20
161.383293
 30
0.0
 10
240.437059
 20
165.572738
 30
0.0
  0
SPLINE
  5
193
100
AcDbEntity
  8
Layer_1
 62
1
100
AcDbSpline
 70
8
 71
3
 72
8
 73
4
 74
0
 40
0
 40
0
 40
0
 40
0
 40
1
 40
1
 40
1
 40
1
 10
240.437059
 20
165.572738
 30
0.0
 10
238.018282
 20
169.762183
 30
0.0
 10
238.018282
 20
174.923792
 30
0.0
 10
240.437059
 20
179.113237
 30
0.0
  0
SPLINE
  5
194
100
AcDbEntity
  8
Layer_1
 62
1
100
AcDbSpline
 70
8
 71
3
 72
8
 73
4
 74
0
 40
0
 40
0
 40
0
 40
0
 40
1
 40
1
 40
1
 40
1
 10
240.437059
 20
179.113237
 30
0.0
 10
242.855836
 20
183.302682
 30
0.0
 10
247.325921
 20
185.883487
 30
0.0
 10
252.163475
 20
185.883487
 30
0.0
  0
LINE
  5
195
100
AcDbEntity
  8
Layer_1
 62
1
100
AcDbLine
 10
252.163475
 20
185.883487
 30
0.0
 11
252.163475
 21
185.883487
 31
0.0
  0
SPLINE
  5
196
100
AcDbEntity
  8
Layer_1
 62
3
100
AcDbSpline
 70
8
 71
3
 72
8
 73
4
 74
0
 40
0
 40
0
 40
0
 40
0
 40
1
 40
1
 40
1
 40
1
 10
78.763733
 20
273.134304
 30
0.0
 10
78.763733
 20
266.805280
 30
0.0
 10
75.387239
 20
260.957020
 30
0.0
 10
69.906143
 20
257.792508
 30
0.0
  0
SPLINE
  5
197
100
AcDbEntity
  8
Layer_1
 62
3
100
AcDbSpline
 70
8
 71
3
 72
8
 73
4
 74
0
 40
0
 40
0
 40
0
 40
0
 40
1
 40
1
 40
1
 40
1
 10
69.906143
 20
257.792508
 30
0.0
 10
64.425047
 20
254.627995
 30
0.0
 10
57.672058
 20
254.627995
 30
0.0
 10
52.190962
 20
257.792508
 30
0.0
  0
SPLINE
  5
198
100
AcDbEntity
  8
Layer_1
 62
3
100
AcDbSpline
 70
8
 71
3
 72
8
 73
4
 74
0
 40
0
 40
0
 40
0
 40
0
 40
1
 40
1
 40
1
 40
1
 10
52.190962
 20
257.792508
 30
0.0
 10
46.709867
 20
260.957020
 30
0.0
 10
43.333372
 20
266.805280
 30
0.0
 10
43.333372
 20
273.134304
 30
0.0
  0
SPLINE
  5
199
100
AcDbEntity
  8
Layer_1
 62
3
100
AcDbSpline
 70
8
 71
3
 72
8
 73
4
 74
0
 40
0
 40
0
 40
0
 40
0
 40
1
 40
1
 40
1
 40
1
 10
43.333372
 20
273.134304
 30
0.0
 10
43.333373
 20
282.918128
 30
0.0
 10
51.264729
 20
290.849484
 30
0.0
 10
61.048553
 20
290.849484
 30
0.0
  0
SPLINE
  5
19a
100
AcDbEntity
  8
Layer_1
 62
3
100
AcDbSpline
 70
8
 71
3
 72
8
 73
4
 74
0
 40
0
 40
0
 40
0
 40
0
 40
1
 40
1
 40
1
 40
1
 10
61.048553
 20
290.849484
 30
0.0
 10
70.832377
 20
290.849484
 30
0.0
 10
78.763733
 20
282.918128
 30
0.0
 10
78.763733
 20
273.134304
 30
0.0
  0
LINE
  5
19b
100
AcDbEntity
  8
Layer_1
 62
1
100
AcDbLine
 10
78.763733
 20
273.134304
 30
0.0
 11
78.763733
 21
273.134304
 31
0.0
  0
SPLINE
  5
19c
100
AcDbEntity
  8
Layer_1
 62
1
100
AcDbSpline
 70
8
 71
3
 72
8
 73
4
 74
0
 40
0
 40
0
 40
0
 40
0
 40
1
 40
1
 40
1
 40
1
 10
71.124656
 20
273.134304
 30
0.0
 10
71.124656
 20
269.534459
 30
0.0
 10
69.204162
 20
266.208065
 30
0.0
 10
66.086604
 20
264.408143
 30
0.0
  0
SPLINE
  5
19d
100
AcDbEntity
  8
Layer_1
 62
1
100
AcDbSpline
 70
8
 71
3
 72
8
 73
4
 74
0
 40
0
 40
0
 40
0
 40
0
 40
1
 40
1
 40
1
 40
1
 10
66.086604
 20
264.408143
 30
0.0
 10
62.969047
 20
262.608220
 30
0.0
 10
59.128058
 20
262.608220
 30
0.0
 10
56.010501
 20
264.408143
 30
0.0
  0
SPLINE
  5
19e
100
AcDbEntity
  8
Layer_1
 62
1
100
AcDbSpline
 70
8
 71
3
 72
8
 73
4
 74
0
 40
0
 40
0
 40
0
 40
0
 40
1
 40
1
 40
1
 40
1
 10
56.010501
 20
264.408143
 30
0.0
 10
52.892944
 20
266.208065
 30
0.0
 10
50.972449
 20
269.534459
 30
0.0
 10
50.972449
 20
273.134304
 30
0.0
  0
SPLINE
  5
19f
100
AcDbEntity
  8
Layer_1
 62
1
100
AcDbSpline
 70
8
 71
3
 72
8
 73
4
 74
0
 40
0
 40
0
 40
0
 40
0
 40
1
 40
1
 40
1
 40
1
 10
50.972449
 20
273.134304
 30
0.0
 10
50.972449
 20
276.734149
 30
0.0
 10
52.892944
 20
280.060543
 30
0.0
 10
56.010501
 20
281.860466
 30
0.0
  0
SPLINE
  5
1a0
100
AcDbEntity
  8
Layer_1
 62
1
100
AcDbSpline
 70
8
 71
3
 72
8
 73
4
 74
0
 40
0
 40
0
 40
0
 40
0
 40
1
 40
1
 40
1
 40
1
 10
56.010501
 20
281.860466
 30
0.0
 10
59.128058
 20
283.660388
 30
0.0
 10
62.969047
 20
283.660388
 30
0.0
 10
66.086604
 20
281.860466
 30
0.0
  0
SPLINE
  5
1a1
100
AcDbEntity
  8
Layer_1
 62
1
100
AcDbSpline
 70
8
 71
3
 72
8
 73
4
 74
0
 40
0
 40
0
 40
0
 40
0
 40
1
 40
1
 40
1
 40
1
 10
66.086604
 20
281.860466
 30
0.0
 10
69.204162
 20
280.060543
 30
0.0
 10
71.124656
 20
276.734149
 30
0.0
 10
71.124656
 20
273.134304
 30
0.0
  0
LINE
  5
1a2
100
AcDbEntity
  8
Layer_1
 62
1
100
AcDbLine
 10
71.124656
 20
273.134304
 30
0.0
 11
71.124656
 21
273.134304
 31
0.0
  0
LINE
  5
1a3
100
AcDbEntity
  8
Layer_1
 62
5
100
AcDbLine
 10
22.900607
 20
239.971971
 30
0.0
 11
32.900612
 21
239.971971
 31
0.0
  0
LINE
  5
1a4
100
AcDbEntity
  8
Layer_1
 62
5
100
AcDbLine
 10
32.900612
 20
239.971971
 30
0.0
 11
32.900612
 21
236.971977
 31
0.0
  0
LINE
  5
1a5
100
AcDbEntity
  8
Layer_1
 62
5
100
AcDbLine
 10
32.900612
 20
236.971977
 30
0.0
 11
22.900607
 21
236.971977
 31
0.0
  0
LINE
  5
1a6
100
AcDbEntity
  8
Layer_1
 62
5
100
AcDbLine
 10
22.900607
 20
236.971977
 30
0.0
 11
22.900607
 21
239.971971
 31
0.0
  0
LINE
  5
1a7
100
AcDbEntity
  8
Layer_1
 62
5
100
AcDbLine
 10
42.900568
 20
239.971971
 30
0.0
 11
52.900573
 21
239.971971
 31
0.0
  0
LINE
  5
1a8
100
AcDbEntity
  8
Layer_1
 62
5
100
AcDbLine
 10
52.900573
 20
239.971971
 30
0.0
 11
52.900573
 21
236.971977
 31
0.0
  0
LINE
  5
1a9
100
AcDbEntity
  8
Layer_1
 62
5
100
AcDbLine
 10
52.900573
 20
236.971977
 30
0.0
 11
42.900568
 21
236.971977
 31
0.0
  0
LINE
  5
1aa
100
AcDbEntity
  8
Layer_1
 62
5
100
AcDbLine
 10
42.900568
 20
236.971977
 30
0.0
 11
42.900568
 21
239.971971
 31
0.0
  0
SPLINE
  5
1ab
100
AcDbEntity
  8
Layer_1
 62
5
100
AcDbSpline
 70
8
 71
3
 72
8
 73
4
 74
0
 40
0
 40
0
 40
0
 40
0
 40
1
 40
1
 40
1
 40
1
 10
39.450577
 20
238.470831
 30
0.0
 10
39.450577
 20
237.614790
 30
0.0
 10
38.756618
 20
236.920831
 30
0.0
 10
37.900577
 20
236.920831
 30
0.0
  0
SPLINE
  5
1ac
100
AcDbEntity
  8
Layer_1
 62
5
100
AcDbSpline
 70
8
 71
3
 72
8
 73
4
 74
0
 40
0
 40
0
 40
0
 40
0
 40
1
 40
1
 40
1
 40
1
 10
37.900577
 20
236.920831
 30
0.0
 10
37.044536
 20
236.920831
 30
0.0
 10
36.350578
 20
237.614790
 30
0.0
 10
36.350578
 20
238.470831
 30
0.0
  0
SPLINE
  5
1ad
100
AcDbEntity
  8
Layer_1
 62
5
100
AcDbSpline
 70
8
 71
3
 72
8
 73
4
 74
0
 40
0
 40
0
 40
0
 40
0
 40
1
 40
1
 40
1
 40
1
 10
36.350578
 20
238.470831
 30
0.0
 10
36.350578
 20
239.326872
 30
0.0
 10
37.044536
 20
240.020830
 30
0.0
 10
37.900577
 20
240.020830
 30
0.0
  0
SPLINE
  5
1ae
100
AcDbEntity
  8
Layer_1
 62
5
100
AcDbSpline
 70
8
 71
3
 72
8
 73
4
 74
0
 40
0
 40
0
 40
0
 40
0
 40
1
 40
1
 40
1
 40
1
 10
37.900577
 20
240.020830
 30
0.0
 10
38.756618
 20
240.020830
 30
0.0
 10
39.450577
 20
239.326872
 30
0.0
 10
39.450577
 20
238.470831
 30
0.0
  0
LINE
  5
1af
100
AcDbEntity
  8
Layer_1
 62
5
100
AcDbLine
 10
39.450577
 20
238.470831
 30
0.0
 11
39.450577
 21
238.470831
 31
0.0
  0
LINE
  5
1b0
100
AcDbEntity
  8
Layer_1
 62
5
100
AcDbLine
 10
69.196567
 20
239.971971
 30
0.0
 11
79.196573
 21
239.971971
 31
0.0
  0
LINE
  5
1b1
100
AcDbEntity
  8
Layer_1
 62
5
100
AcDbLine
 10
79.196573
 20
239.971971
 30
0.0
 11
79.196573
 21
236.971977
 31
0.0
  0
LINE
  5
1b2
100
AcDbEntity
  8
Layer_1
 62
5
100
AcDbLine
 10
79.196573
 20
236.971977
 30
0.0
 11
69.196567
 21
236.971977
 31
0.0
  0
LINE
  5
1b3
100
AcDbEntity
  8
Layer_1
 62
5
100
AcDbLine
 10
69.196567
 20
236.971977
 30
0.0
 11
69.196567
 21
239.971971
 31
0.0
  0
LINE
  5
1b4
100
AcDbEntity
  8
Layer_1
 62
5
100
AcDbLine
 10
89.196528
 20
239.971971
 30
0.0
 11
99.196533
 21
239.971971
 31
0.0
  0
LINE
  5
1b5
100
AcDbEntity
  8
Layer_1
 62
5
100
AcDbLine
 10
99.196533
 20
239.971971
 30
0.0
 11
99.196533
 21
236.971977
 31
0.0
  0
LINE
  5
1b6
100
AcDbEntity
  8
Layer_1
 62
5
100
AcDbLine
 10
99.196533
 20
236.971977
 30
0.0
 11
89.196528
 21
236.971977
 31
0.0
  0
LINE
  5
1b7
100
AcDbEntity
  8
Layer_1
 62
5
100
AcDbLine
 10
89.196528
 20
236.971977
 30
0.0
 11
89.196528
 21
239.971971
 31
0.0
  0
SPLINE
  5
1b8
100
AcDbEntity
  8
Layer_1
 62
5
100
AcDbSpline
 70
8
 71
3
 72
8
 73
4
 74
0
 40
0
 40
0
 40
0
 40
0
 40
1
 40
1
 40
1
 40
1
 10
85.746537
 20
238.470831
 30
0.0
 10
85.746537
 20
237.614790
 30
0.0
 10
85.052579
 20
236.920831
 30
0.0
 10
84.196538
 20
236.920831
 30
0.0
  0
SPLINE
  5
1b9
100
AcDbEntity
  8
Layer_1
 62
5
100
AcDbSpline
 70
8
 71
3
 72
8
 73
4
 74
0
 40
0
 40
0
 40
0
 40
0
 40
1
 40
1
 40
1
 40
1
 10
84.196538
 20
236.920831
 30
0.0
 10
83.340497
 20
236.920831
 30
0.0
 10
82.646538
 20
237.614790
 30
0.0
 10
82.646538
 20
238.470831
 30
0.0
  0
SPLINE
  5
1ba
100
AcDbEntity
  8
Layer_1
 62
5
100
AcDbSpline
 70
8
 71
3
 72
8
 73
4
 74
0
 40
0
 40
0
 40
0
 40
0
 40
1
 40
1
 40
1
 40
1
 10
82.646538
 20
238.470831
 30
0.0
 10
82.646538
 20
239.326872
 30
0.0
 10
83.340497
 20
240.020830
 30
0.0
 10
84.196538
 20
240.020830
 30
0.0
  0
SPLINE
  5
1bb
100
AcDbEntity
  8
Layer_1
 62
5
100
AcDbSpline
 70
8
 71
3
 72
8
 73
4
 74
0
 40
0
 40
0
 40
0
 40
0
 40
1
 40
1
 40
1
 40
1
 10
84.196538
 20
240.020830
 30
0.0
 10
85.052579
 20
240.020830
 30
0.0
 10
85.746537
 20
239.326872
 30
0.0
 10
85.746537
 20
238.470831
 30
0.0
  0
LINE
  5
1bc
100
AcDbEntity
  8
Layer_1
 62
5
100
AcDbLine
 10
85.746537
 20
238.470831
 30
0.0
 11
85.746537
 21
238.470831
 31
0.0
  0
LINE
  5
1bd
100
AcDbEntity
  8
Layer_1
 62
1
100
AcDbLine
 10
83.307707
 20
289.190791
 30
0.0
 11
83.307707
 21
286.190797
 31
0.0
  0
LINE
  5
1be
100
AcDbEntity
  8
Layer_1
 62
1
100
AcDbLine
 10
83.307707
 20
286.190797
 30
0.0
 11
84.907710
 21
286.190797
 31
0.0
  0
LINE
  5
1bf
100
AcDbEntity
  8
Layer_1
 62
1
100
AcDbLine
 10
84.907710
 20
286.190797
 30
0.0
 11
84.907710
 21
283.190803
 31
0.0
  0
LINE
  5
1c0
100
AcDbEntity
  8
Layer_1
 62
1
100
AcDbLine
 10
84.907710
 20
283.190803
 30
0.0
 11
83.307707
 21
283.190803
 31
0.0
  0
LINE
  5
1c1
100
AcDbEntity
  8
Layer_1
 62
1
100
AcDbLine
 10
83.307707
 20
283.190803
 30
0.0
 11
83.307707
 21
281.190807
 31
0.0
  0
LINE
  5
1c2
100
AcDbEntity
  8
Layer_1
 62
1
100
AcDbLine
 10
83.307707
 20
281.190807
 30
0.0
 11
80.107702
 21
281.190807
 31
0.0
  0
LINE
  5
1c3
100
AcDbEntity
  8
Layer_1
 62
1
100
AcDbLine
 10
80.107702
 20
281.190807
 30
0.0
 11
80.107702
 21
283.190803
 31
0.0
  0
LINE
  5
1c4
100
AcDbEntity
  8
Layer_1
 62
1
100
AcDbLine
 10
80.107702
 20
283.190803
 30
0.0
 11
78.507700
 21
283.190803
 31
0.0
  0
LINE
  5
1c5
100
AcDbEntity
  8
Layer_1
 62
1
100
AcDbLine
 10
78.507700
 20
283.190803
 30
0.0
 11
78.507700
 21
286.190797
 31
0.0
  0
LINE
  5
1c6
100
AcDbEntity
  8
Layer_1
 62
1
100
AcDbLine
 10
78.507700
 20
286.190797
 30
0.0
 11
80.107702
 21
286.190797
 31
0.0
  0
LINE
  5
1c7
100
AcDbEntity
  8
Layer_1
 62
1
100
AcDbLine
 10
80.107702
 20
286.190797
 30
0.0
 11
80.107702
 21
289.190791
 31
0.0
  0
LINE
  5
1c8
100
AcDbEntity
  8
Layer_1
 62
1
100
AcDbLine
 10
80.107702
 20
289.190791
 30
0.0
 11
76.524580
 21
289.190791
 31
0.0
  0
LINE
  5
1c9
100
AcDbEntity
  8
Layer_1
 62
1
100
AcDbLine
 10
76.524580
 20
289.190791
 30
0.0
 11
76.524580
 21
292.190785
 31
0.0
  0
LINE
  5
1ca
100
AcDbEntity
  8
Layer_1
 62
1
100
AcDbLine
 10
76.524580
 20
292.190785
 30
0.0
 11
45.357933
 21
292.190785
 31
0.0
  0
LINE
  5
1cb
100
AcDbEntity
  8
Layer_1
 62
1
100
AcDbLine
 10
45.357933
 20
292.190785
 30
0.0
 11
45.357933
 21
289.190791
 31
0.0
  0
LINE
  5
1cc
100
AcDbEntity
  8
Layer_1
 62
1
100
AcDbLine
 10
45.357933
 20
289.190791
 30
0.0
 11
41.957917
 21
289.190791
 31
0.0
  0
LINE
  5
1cd
100
AcDbEntity
  8
Layer_1
 62
1
100
AcDbLine
 10
41.957917
 20
289.190791
 30
0.0
 11
41.957917
 21
286.190797
 31
0.0
  0
LINE
  5
1ce
100
AcDbEntity
  8
Layer_1
 62
1
100
AcDbLine
 10
41.957917
 20
286.190797
 30
0.0
 11
43.557920
 21
286.190797
 31
0.0
  0
LINE
  5
1cf
100
AcDbEntity
  8
Layer_1
 62
1
100
AcDbLine
 10
43.557920
 20
286.190797
 30
0.0
 11
43.557920
 21
283.190803
 31
0.0
  0
LINE
  5
1d0
100
AcDbEntity
  8
Layer_1
 62
1
100
AcDbLine
 10
43.557920
 20
283.190803
 30
0.0
 11
41.957917
 21
283.190803
 31
0.0
  0
LINE
  5
1d1
100
AcDbEntity
  8
Layer_1
 62
1
100
AcDbLine
 10
41.957917
 20
283.190803
 30
0.0
 11
41.957917
 21
281.190807
 31
0.0
  0
LINE
  5
1d2
100
AcDbEntity
  8
Layer_1
 62
1
100
AcDbLine
 10
41.957917
 20
281.190807
 30
0.0
 11
38.757940
 21
281.190807
 31
0.0
  0
LINE
  5
1d3
100
AcDbEntity
  8
Layer_1
 62
1
100
AcDbLine
 10
38.757940
 20
281.190807
 30
0.0
 11
38.757940
 21
283.190803
 31
0.0
  0
LINE
  5
1d4
100
AcDbEntity
  8
Layer_1
 62
1
100
AcDbLine
 10
38.757940
 20
283.190803
 30
0.0
 11
37.157938
 21
283.190803
 31
0.0
  0
LINE
  5
1d5
100
AcDbEntity
  8
Layer_1
 62
1
100
AcDbLine
 10
37.157938
 20
283.190803
 30
0.0
 11
37.157938
 21
286.190797
 31
0.0
  0
LINE
  5
1d6
100
AcDbEntity
  8
Layer_1
 62
1
100
AcDbLine
 10
37.157938
 20
286.190797
 30
0.0
 11
38.757940
 21
286.190797
 31
0.0
  0
LINE
  5
1d7
100
AcDbEntity
  8
Layer_1
 62
1
100
AcDbLine
 10
38.757940
 20
286.190797
 30
0.0
 11
38.767818
 21
289.149163
 31
0.0
  0
LINE
  5
1d8
100
AcDbEntity
  8
Layer_1
 62
1
100
AcDbLine
 10
38.767818
 20
289.149163
 30
0.0
 11
22.839562
 21
289.107564
 31
0.0
  0
LINE
  5
1d9
100
AcDbEntity
  8
Layer_1
 62
1
100
AcDbLine
 10
22.839562
 20
289.107564
 30
0.0
 11
3.789562
 21
159.051901
 31
0.0
  0
LINE
  5
1da
100
AcDbEntity
  8
Layer_1
 62
1
100
AcDbLine
 10
3.789562
 20
159.051901
 30
0.0
 11
19.810782
 21
159.051901
 31
0.0
  0
LINE
  5
1db
100
AcDbEntity
  8
Layer_1
 62
1
100
AcDbLine
 10
19.810782
 20
159.051901
 30
0.0
 11
19.810782
 21
180.038239
 31
0.0
  0
LINE
  5
1dc
100
AcDbEntity
  8
Layer_1
 62
1
100
AcDbLine
 10
19.810782
 20
180.038239
 30
0.0
 11
22.517603
 21
180.038239
 31
0.0
  0
LINE
  5
1dd
100
AcDbEntity
  8
Layer_1
 62
1
100
AcDbLine
 10
22.517603
 20
180.038239
 30
0.0
 11
22.517603
 21
159.051901
 31
0.0
  0
LINE
  5
1de
100
AcDbEntity
  8
Layer_1
 62
1
100
AcDbLine
 10
22.517603
 20
159.051901
 30
0.0
 11
46.027703
 21
159.057263
 31
0.0
  0
LINE
  5
1df
100
AcDbEntity
  8
Layer_1
 62
1
100
AcDbLine
 10
46.027703
 20
159.057263
 30
0.0
 11
46.048587
 21
156.062631
 31
0.0
  0
LINE
  5
1e0
100
AcDbEntity
  8
Layer_1
 62
1
100
AcDbLine
 10
46.048587
 20
156.062631
 30
0.0
 11
56.048596
 21
156.062631
 31
0.0
  0
LINE
  5
1e1
100
AcDbEntity
  8
Layer_1
 62
1
100
AcDbLine
 10
56.048596
 20
156.062631
 30
0.0
 11
56.048596
 21
159.062625
 31
0.0
  0
LINE
  5
1e2
100
AcDbEntity
  8
Layer_1
 62
1
100
AcDbLine
 10
56.048596
 20
159.062625
 30
0.0
 11
59.448612
 21
159.062625
 31
0.0
  0
LINE
  5
1e3
100
AcDbEntity
  8
Layer_1
 62
1
100
AcDbLine
 10
59.448612
 20
159.062625
 30
0.0
 11
59.448612
 21
162.062619
 31
0.0
  0
LINE
  5
1e4
100
AcDbEntity
  8
Layer_1
 62
1
100
AcDbLine
 10
59.448612
 20
162.062619
 30
0.0
 11
57.848609
 21
162.062619
 31
0.0
  0
LINE
  5
1e5
100
AcDbEntity
  8
Layer_1
 62
1
100
AcDbLine
 10
57.848609
 20
162.062619
 30
0.0
 11
57.848609
 21
165.062624
 31
0.0
  0
LINE
  5
1e6
100
AcDbEntity
  8
Layer_1
 62
1
100
AcDbLine
 10
57.848609
 20
165.062624
 30
0.0
 11
59.448612
 21
165.062624
 31
0.0
  0
LINE
  5
1e7
100
AcDbEntity
  8
Layer_1
 62
1
100
AcDbLine
 10
59.448612
 20
165.062624
 30
0.0
 11
59.448612
 21
167.062620
 31
0.0
  0
LINE
  5
1e8
100
AcDbEntity
  8
Layer_1
 62
1
100
AcDbLine
 10
59.448612
 20
167.062620
 30
0.0
 11
62.648588
 21
167.062620
 31
0.0
  0
LINE
  5
1e9
100
AcDbEntity
  8
Layer_1
 62
1
100
AcDbLine
 10
62.648588
 20
167.062620
 30
0.0
 11
62.648588
 21
165.062624
 31
0.0
  0
LINE
  5
1ea
100
AcDbEntity
  8
Layer_1
 62
1
100
AcDbLine
 10
62.648588
 20
165.062624
 30
0.0
 11
64.248591
 21
165.062624
 31
0.0
  0
LINE
  5
1eb
100
AcDbEntity
  8
Layer_1
 62
1
100
AcDbLine
 10
64.248591
 20
165.062624
 30
0.0
 11
64.248591
 21
162.062619
 31
0.0
  0
LINE
  5
1ec
100
AcDbEntity
  8
Layer_1
 62
1
100
AcDbLine
 10
64.248591
 20
162.062619
 30
0.0
 11
62.648588
 21
162.062619
 31
0.0
  0
LINE
  5
1ed
100
AcDbEntity
  8
Layer_1
 62
1
100
AcDbLine
 10
62.648588
 20
162.062619
 30
0.0
 11
62.648588
 21
159.062625
 31
0.0
  0
LINE
  5
1ee
100
AcDbEntity
  8
Layer_1
 62
1
100
AcDbLine
 10
62.648588
 20
159.062625
 30
0.0
 11
66.048576
 21
159.062625
 31
0.0
  0
LINE
  5
1ef
100
AcDbEntity
  8
Layer_1
 62
1
100
AcDbLine
 10
66.048576
 20
159.062625
 30
0.0
 11
66.048576
 21
156.062631
 31
0.0
  0
LINE
  5
1f0
100
AcDbEntity
  8
Layer_1
 62
1
100
AcDbLine
 10
66.048576
 20
156.062631
 30
0.0
 11
76.048584
 21
156.062631
 31
0.0
  0
LINE
  5
1f1
100
AcDbEntity
  8
Layer_1
 62
1
100
AcDbLine
 10
76.048584
 20
156.062631
 30
0.0
 11
76.036167
 21
159.057263
 31
0.0
  0
LINE
  5
1f2
100
AcDbEntity
  8
Layer_1
 62
1
100
AcDbLine
 10
76.036167
 20
159.057263
 30
0.0
 11
99.306829
 21
159.051901
 31
0.0
  0
LINE
  5
1f3
100
AcDbEntity
  8
Layer_1
 62
1
100
AcDbLine
 10
99.306829
 20
159.051901
 30
0.0
 11
99.306829
 21
179.929217
 31
0.0
  0
LINE
  5
1f4
100
AcDbEntity
  8
Layer_1
 62
1
100
AcDbLine
 10
99.306829
 20
179.929217
 30
0.0
 11
102.013622
 21
179.929217
 31
0.0
  0
LINE
  5
1f5
100
AcDbEntity
  8
Layer_1
 62
1
100
AcDbLine
 10
102.013622
 20
179.929217
 30
0.0
 11
102.013622
 21
159.051901
 31
0.0
  0
LINE
  5
1f6
100
AcDbEntity
  8
Layer_1
 62
1
100
AcDbLine
 10
102.013622
 20
159.051901
 30
0.0
 11
118.307723
 21
159.051901
 31
0.0
  0
LINE
  5
1f7
100
AcDbEntity
  8
Layer_1
 62
1
100
AcDbLine
 10
118.307723
 20
159.051901
 30
0.0
 11
99.257722
 21
289.107564
 31
0.0
  0
LINE
  5
1f8
100
AcDbEntity
  8
Layer_1
 62
1
100
AcDbLine
 10
99.257722
 20
289.107564
 30
0.0
 11
83.426607
 21
289.107564
 31
0.0
  0
LINE
  5
1f9
100
AcDbEntity
  8
Layer_1
 62
5
100
AcDbLine
 10
200.312716
 20
208.108713
 30
0.0
 11
190.312710
 21
208.108713
 31
0.0
  0
LINE
  5
1fa
100
AcDbEntity
  8
Layer_1
 62
5
100
AcDbLine
 10
190.312710
 20
208.108713
 30
0.0
 11
190.312710
 21
211.108707
 31
0.0
  0
LINE
  5
1fb
100
AcDbEntity
  8
Layer_1
 62
5
100
AcDbLine
 10
190.312710
 20
211.108707
 30
0.0
 11
200.312716
 21
211.108707
 31
0.0
  0
LINE
  5
1fc
100
AcDbEntity
  8
Layer_1
 62
5
100
AcDbLine
 10
200.312716
 20
211.108707
 30
0.0
 11
200.312716
 21
208.108713
 31
0.0
  0
LINE
  5
1fd
100
AcDbEntity
  8
Layer_1
 62
5
100
AcDbLine
 10
180.312755
 20
208.108713
 30
0.0
 11
170.312750
 21
208.108713
 31
0.0
  0
LINE
  5
1fe
100
AcDbEntity
  8
Layer_1
 62
5
100
AcDbLine
 10
170.312750
 20
208.108713
 30
0.0
 11
170.312750
 21
211.108707
 31
0.0
  0
LINE
  5
1ff
100
AcDbEntity
  8
Layer_1
 62
5
100
AcDbLine
 10
170.312750
 20
211.108707
 30
0.0
 11
180.312755
 21
211.108707
 31
0.0
  0
LINE
  5
200
100
AcDbEntity
  8
Layer_1
 62
5
100
AcDbLine
 10
180.312755
 20
211.108707
 30
0.0
 11
180.312755
 21
208.108713
 31
0.0
  0
SPLINE
  5
201
100
AcDbEntity
  8
Layer_1
 62
5
100
AcDbSpline
 70
8
 71
3
 72
8
 73
4
 74
0
 40
0
 40
0
 40
0
 40
0
 40
1
 40
1
 40
1
 40
1
 10
183.762746
 20
209.609853
 30
0.0
 10
183.762746
 20
210.465894
 30
0.0
 10
184.456704
 20
211.159852
 30
0.0
 10
185.312745
 20
211.159852
 30
0.0
  0
SPLINE
  5
202
100
AcDbEntity
  8
Layer_1
 62
5
100
AcDbSpline
 70
8
 71
3
 72
8
 73
4
 74
0
 40
0
 40
0
 40
0
 40
0
 40
1
 40
1
 40
1
 40
1
 10
185.312745
 20
211.159852
 30
0.0
 10
186.168786
 20
211.159852
 30
0.0
 10
186.862745
 20
210.465894
 30
0.0
 10
186.862745
 20
209.609853
 30
0.0
  0
SPLINE
  5
203
100
AcDbEntity
  8
Layer_1
 62
5
100
AcDbSpline
 70
8
 71
3
 72
8
 73
4
 74
0
 40
0
 40
0
 40
0
 40
0
 40
1
 40
1
 40
1
 40
1
 10
186.862745
 20
209.609853
 30
0.0
 10
186.862745
 20
208.753812
 30
0.0
 10
186.168786
 20
208.059853
 30
0.0
 10
185.312745
 20
208.059853
 30
0.0
  0
SPLINE
  5
204
100
AcDbEntity
  8
Layer_1
 62
5
100
AcDbSpline
 70
8
 71
3
 72
8
 73
4
 74
0
 40
0
 40
0
 40
0
 40
0
 40
1
 40
1
 40
1
 40
1
 10
185.312745
 20
208.059853
 30
0.0
 10
184.456704
 20
208.059853
 30
0.0
 10
183.762746
 20
208.753812
 30
0.0
 10
183.762746
 20
209.609853
 30
0.0
  0
LINE
  5
205
100
AcDbEntity
  8
Layer_1
 62
5
100
AcDbLine
 10
183.762746
 20
209.609853
 30
0.0
 11
183.762746
 21
209.609853
 31
0.0
  0
LINE
  5
206
100
AcDbEntity
  8
Layer_1
 62
5
100
AcDbLine
 10
154.016755
 20
208.108713
 30
0.0
 11
144.016750
 21
208.108713
 31
0.0
  0
LINE
  5
207
100
AcDbEntity
  8
Layer_1
 62
5
100
AcDbLine
 10
144.016750
 20
208.108713
 30
0.0
 11
144.016750
 21
211.108707
 31
0.0
  0
LINE
  5
208
100
AcDbEntity
  8
Layer_1
 62
5
100
AcDbLine
 10
144.016750
 20
211.108707
 30
0.0
 11
154.016755
 21
211.108707
 31
0.0
  0
LINE
  5
209
100
AcDbEntity
  8
Layer_1
 62
5
100
AcDbLine
 10
154.016755
 20
211.108707
 30
0.0
 11
154.016755
 21
208.108713
 31
0.0
  0
LINE
  5
20a
100
AcDbEntity
  8
Layer_1
 62
5
100
AcDbLine
 10
134.016795
 20
208.108713
 30
0.0
 11
124.016789
 21
208.108713
 31
0.0
  0
LINE
  5
20b
100
AcDbEntity
  8
Layer_1
 62
5
100
AcDbLine
 10
124.016789
 20
208.108713
 30
0.0
 11
124.016789
 21
211.108707
 31
0.0
  0
LINE
  5
20c
100
AcDbEntity
  8
Layer_1
 62
5
100
AcDbLine
 10
124.016789
 20
211.108707
 30
0.0
 11
134.016795
 21
211.108707
 31
0.0
  0
LINE
  5
20d
100
AcDbEntity
  8
Layer_1
 62
5
100
AcDbLine
 10
134.016795
 20
211.108707
 30
0.0
 11
134.016795
 21
208.108713
 31
0.0
  0
SPLINE
  5
20e
100
AcDbEntity
  8
Layer_1
 62
5
100
AcDbSpline
 70
8
 71
3
 72
8
 73
4
 74
0
 40
0
 40
0
 40
0
 40
0
 40
1
 40
1
 40
1
 40
1
 10
137.466785
 20
209.609853
 30
0.0
 10
137.466785
 20
210.465894
 30
0.0
 10
138.160744
 20
211.159852
 30
0.0
 10
139.016785
 20
211.159852
 30
0.0
  0
SPLINE
  5
20f
100
AcDbEntity
  8
Layer_1
 62
5
100
AcDbSpline
 70
8
 71
3
 72
8
 73
4
 74
0
 40
0
 40
0
 40
0
 40
0
 40
1
 40
1
 40
1
 40
1
 10
139.016785
 20
211.159852
 30
0.0
 10
139.872826
 20
211.159852
 30
0.0
 10
140.566784
 20
210.465894
 30
0.0
 10
140.566784
 20
209.609853
 30
0.0
  0
SPLINE
  5
210
100
AcDbEntity
  8
Layer_1
 62
5
100
AcDbSpline
 70
8
 71
3
 72
8
 73
4
 74
0
 40
0
 40
0
 40
0
 40
0
 40
1
 40
1
 40
1
 40
1
 10
140.566784
 20
209.609853
 30
0.0
 10
140.566784
 20
208.753812
 30
0.0
 10
139.872826
 20
208.059853
 30
0.0
 10
139.016785
 20
208.059853
 30
0.0
  0
SPLINE
  5
211
100
AcDbEntity
  8
Layer_1
 62
5
100
AcDbSpline
 70
8
 71
3
 72
8
 73
4
 74
0
 40
0
 40
0
 40
0
 40
0
 40
1
 40
1
 40
1
 40
1
 10
139.016785
 20
208.059853
 30
0.0
 10
138.160744
 20
208.059853
 30
0.0
 10
137.466785
 20
208.753812
 30
0.0
 10
137.466785
 20
209.609853
 30
0.0
  0
LINE
  5
212
100
AcDbEntity
  8
Layer_1
 62
5
100
AcDbLine
 10
137.466785
 20
209.609853
 30
0.0
 11
137.466785
 21
209.609853
 31
0.0
  0
LINE
  5
213
100
AcDbEntity
  8
Layer_1
 62
1
100
AcDbLine
 10
139.905620
 20
158.889895
 30
0.0
 11
139.905620
 21
161.889889
 31
0.0
  0
LINE
  5
214
100
AcDbEntity
  8
Layer_1
 62
1
100
AcDbLine
 10
139.905620
 20
161.889889
 30
0.0
 11
138.305610
 21
161.889889
 31
0.0
  0
LINE
  5
215
100
AcDbEntity
  8
Layer_1
 62
1
100
AcDbLine
 10
138.305610
 20
161.889889
 30
0.0
 11
138.305610
 21
164.889883
 31
0.0
  0
LINE
  5
216
100
AcDbEntity
  8
Layer_1
 62
1
100
AcDbLine
 10
138.305610
 20
164.889883
 30
0.0
 11
139.905620
 21
164.889883
 31
0.0
  0
LINE
  5
217
100
AcDbEntity
  8
Layer_1
 62
1
100
AcDbLine
 10
139.905620
 20
164.889883
 30
0.0
 11
139.905620
 21
166.889879
 31
0.0
  0
LINE
  5
218
100
AcDbEntity
  8
Layer_1
 62
1
100
AcDbLine
 10
139.905620
 20
166.889879
 30
0.0
 11
143.105620
 21
166.889879
 31
0.0
  0
LINE
  5
219
100
AcDbEntity
  8
Layer_1
 62
1
100
AcDbLine
 10
143.105620
 20
166.889879
 30
0.0
 11
143.105620
 21
164.889883
 31
0.0
  0
LINE
  5
21a
100
AcDbEntity
  8
Layer_1
 62
1
100
AcDbLine
 10
143.105620
 20
164.889883
 30
0.0
 11
144.705620
 21
164.889883
 31
0.0
  0
LINE
  5
21b
100
AcDbEntity
  8
Layer_1
 62
1
100
AcDbLine
 10
144.705620
 20
164.889883
 30
0.0
 11
144.705620
 21
161.889889
 31
0.0
  0
LINE
  5
21c
100
AcDbEntity
  8
Layer_1
 62
1
100
AcDbLine
 10
144.705620
 20
161.889889
 30
0.0
 11
143.105620
 21
161.889889
 31
0.0
  0
LINE
  5
21d
100
AcDbEntity
  8
Layer_1
 62
1
100
AcDbLine
 10
143.105620
 20
161.889889
 30
0.0
 11
143.105620
 21
158.889895
 31
0.0
  0
LINE
  5
21e
100
AcDbEntity
  8
Layer_1
 62
1
100
AcDbLine
 10
143.105620
 20
158.889895
 30
0.0
 11
146.688740
 21
158.889895
 31
0.0
  0
LINE
  5
21f
100
AcDbEntity
  8
Layer_1
 62
1
100
AcDbLine
 10
146.688740
 20
158.889895
 30
0.0
 11
146.688740
 21
155.889901
 31
0.0
  0
LINE
  5
220
100
AcDbEntity
  8
Layer_1
 62
1
100
AcDbLine
 10
146.688740
 20
155.889901
 30
0.0
 11
177.855390
 21
155.889901
 31
0.0
  0
LINE
  5
221
100
AcDbEntity
  8
Layer_1
 62
1
100
AcDbLine
 10
177.855390
 20
155.889901
 30
0.0
 11
177.855390
 21
158.889895
 31
0.0
  0
LINE
  5
222
100
AcDbEntity
  8
Layer_1
 62
1
100
AcDbLine
 10
177.855390
 20
158.889895
 30
0.0
 11
181.255410
 21
158.889895
 31
0.0
  0
LINE
  5
223
100
AcDbEntity
  8
Layer_1
 62
1
100
AcDbLine
 10
181.255410
 20
158.889895
 30
0.0
 11
181.255410
 21
161.889889
 31
0.0
  0
LINE
  5
224
100
AcDbEntity
  8
Layer_1
 62
1
100
AcDbLine
 10
181.255410
 20
161.889889
 30
0.0
 11
179.655400
 21
161.889889
 31
0.0
  0
LINE
  5
225
100
AcDbEntity
  8
Layer_1
 62
1
100
AcDbLine
 10
179.655400
 20
161.889889
 30
0.0
 11
179.655400
 21
164.889883
 31
0.0
  0
LINE
  5
226
100
AcDbEntity
  8
Layer_1
 62
1
100
AcDbLine
 10
179.655400
 20
164.889883
 30
0.0
 11
181.255410
 21
164.889883
 31
0.0
  0
LINE
  5
227
100
AcDbEntity
  8
Layer_1
 62
1
100
AcDbLine
 10
181.255410
 20
164.889883
 30
0.0
 11
181.255410
 21
166.889879
 31
0.0
  0
LINE
  5
228
100
AcDbEntity
  8
Layer_1
 62
1
100
AcDbLine
 10
181.255410
 20
166.889879
 30
0.0
 11
184.455380
 21
166.889879
 31
0.0
  0
LINE
  5
229
100
AcDbEntity
  8
Layer_1
 62
1
100
AcDbLine
 10
184.455380
 20
166.889879
 30
0.0
 11
184.455380
 21
164.889883
 31
0.0
  0
LINE
  5
22a
100
AcDbEntity
  8
Layer_1
 62
1
100
AcDbLine
 10
184.455380
 20
164.889883
 30
0.0
 11
186.055390
 21
164.889883
 31
0.0
  0
LINE
  5
22b
100
AcDbEntity
  8
Layer_1
 62
1
100
AcDbLine
 10
186.055390
 20
164.889883
 30
0.0
 11
186.055390
 21
161.889889
 31
0.0
  0
LINE
  5
22c
100
AcDbEntity
  8
Layer_1
 62
1
100
AcDbLine
 10
186.055390
 20
161.889889
 30
0.0
 11
184.455380
 21
161.889889
 31
0.0
  0
LINE
  5
22d
100
AcDbEntity
  8
Layer_1
 62
1
100
AcDbLine
 10
184.455380
 20
161.889889
 30
0.0
 11
184.445380
 21
158.931523
 31
0.0
  0
LINE
  5
22e
100
AcDbEntity
  8
Layer_1
 62
1
100
AcDbLine
 10
184.445380
 20
158.931523
 30
0.0
 11
200.373640
 21
158.973123
 31
0.0
  0
LINE
  5
22f
100
AcDbEntity
  8
Layer_1
 62
1
100
AcDbLine
 10
200.373640
 20
158.973123
 30
0.0
 11
219.423640
 21
289.028786
 31
0.0
  0
LINE
  5
230
100
AcDbEntity
  8
Layer_1
 62
1
100
AcDbLine
 10
219.423640
 20
289.028786
 30
0.0
 11
203.402420
 21
289.028786
 31
0.0
  0
LINE
  5
231
100
AcDbEntity
  8
Layer_1
 62
1
100
AcDbLine
 10
203.402420
 20
289.028786
 30
0.0
 11
203.402420
 21
268.042446
 31
0.0
  0
LINE
  5
232
100
AcDbEntity
  8
Layer_1
 62
1
100
AcDbLine
 10
203.402420
 20
268.042446
 30
0.0
 11
200.695600
 21
268.042446
 31
0.0
  0
LINE
  5
233
100
AcDbEntity
  8
Layer_1
 62
1
100
AcDbLine
 10
200.695600
 20
268.042446
 30
0.0
 11
200.695600
 21
289.028786
 31
0.0
  0
LINE
  5
234
100
AcDbEntity
  8
Layer_1
 62
1
100
AcDbLine
 10
200.695600
 20
289.028786
 30
0.0
 11
177.185500
 21
289.023786
 31
0.0
  0
LINE
  5
235
100
AcDbEntity
  8
Layer_1
 62
1
100
AcDbLine
 10
177.185500
 20
289.023786
 30
0.0
 11
177.164600
 21
292.018416
 31
0.0
  0
LINE
  5
236
100
AcDbEntity
  8
Layer_1
 62
1
100
AcDbLine
 10
177.164600
 20
292.018416
 30
0.0
 11
167.164590
 21
292.018416
 31
0.0
  0
LINE
  5
237
100
AcDbEntity
  8
Layer_1
 62
1
100
AcDbLine
 10
167.164590
 20
292.018416
 30
0.0
 11
167.164590
 21
289.018426
 31
0.0
  0
LINE
  5
238
100
AcDbEntity
  8
Layer_1
 62
1
100
AcDbLine
 10
167.164590
 20
289.018426
 30
0.0
 11
163.764570
 21
289.018426
 31
0.0
  0
LINE
  5
239
100
AcDbEntity
  8
Layer_1
 62
1
100
AcDbLine
 10
163.764570
 20
289.018426
 30
0.0
 11
163.764570
 21
286.018426
 31
0.0
  0
LINE
  5
23a
100
AcDbEntity
  8
Layer_1
 62
1
100
AcDbLine
 10
163.764570
 20
286.018426
 30
0.0
 11
165.364570
 21
286.018426
 31
0.0
  0
LINE
  5
23b
100
AcDbEntity
  8
Layer_1
 62
1
100
AcDbLine
 10
165.364570
 20
286.018426
 30
0.0
 11
165.364570
 21
283.018426
 31
0.0
  0
LINE
  5
23c
100
AcDbEntity
  8
Layer_1
 62
1
100
AcDbLine
 10
165.364570
 20
283.018426
 30
0.0
 11
163.764570
 21
283.018426
 31
0.0
  0
LINE
  5
23d
100
AcDbEntity
  8
Layer_1
 62
1
100
AcDbLine
 10
163.764570
 20
283.018426
 30
0.0
 11
163.764570
 21
281.018426
 31
0.0
  0
LINE
  5
23e
100
AcDbEntity
  8
Layer_1
 62
1
100
AcDbLine
 10
163.764570
 20
281.018426
 30
0.0
 11
160.564590
 21
281.018426
 31
0.0
  0
LINE
  5
23f
100
AcDbEntity
  8
Layer_1
 62
1
100
AcDbLine
 10
160.564590
 20
281.018426
 30
0.0
 11
160.564590
 21
283.018426
 31
0.0
  0
LINE
  5
240
100
AcDbEntity
  8
Layer_1
 62
1
100
AcDbLine
 10
160.564590
 20
283.018426
 30
0.0
 11
158.964590
 21
283.018426
 31
0.0
  0
LINE
  5
241
100
AcDbEntity
  8
Layer_1
 62
1
100
AcDbLine
 10
158.964590
 20
283.018426
 30
0.0
 11
158.964590
 21
286.018426
 31
0.0
  0
LINE
  5
242
100
AcDbEntity
  8
Layer_1
 62
1
100
AcDbLine
 10
158.964590
 20
286.018426
 30
0.0
 11
160.564590
 21
286.018426
 31
0.0
  0
LINE
  5
243
100
AcDbEntity
  8
Layer_1
 62
1
100
AcDbLine
 10
160.564590
 20
286.018426
 30
0.0
 11
160.564590
 21
289.018426
 31
0.0
  0
LINE
  5
244
100
AcDbEntity
  8
Layer_1
 62
1
100
AcDbLine
 10
160.564590
 20
289.018426
 30
0.0
 11
157.164610
 21
289.018426
 31
0.0
  0
LINE
  5
245
100
AcDbEntity
  8
Layer_1
 62
1
100
AcDbLine
 10
157.164610
 20
289.018426
 30
0.0
 11
157.164610
 21
292.018416
 31
0.0
  0
LINE
  5
246
100
AcDbEntity
  8
Layer_1
 62
1
100
AcDbLine
 10
157.164610
 20
292.018416
 30
0.0
 11
147.164600
 21
292.018416
 31
0.0
  0
LINE
  5
247
100
AcDbEntity
  8
Layer_1
 62
1
100
AcDbLine
 10
147.164600
 20
292.018416
 30
0.0
 11
147.177000
 21
289.023786
 31
0.0
  0
LINE
  5
248
100
AcDbEntity
  8
Layer_1
 62
1
100
AcDbLine
 10
147.177000
 20
289.023786
 30
0.0
 11
123.906330
 21
289.028786
 31
0.0
  0
LINE
  5
249
100
AcDbEntity
  8
Layer_1
 62
1
100
AcDbLine
 10
123.906330
 20
289.028786
 30
0.0
 11
123.906330
 21
268.151466
 31
0.0
  0
LINE
  5
24a
100
AcDbEntity
  8
Layer_1
 62
1
100
AcDbLine
 10
123.906330
 20
268.151466
 30
0.0
 11
121.199540
 21
268.151466
 31
0.0
  0
LINE
  5
24b
100
AcDbEntity
  8
Layer_1
 62
1
100
AcDbLine
 10
121.199540
 20
268.151466
 30
0.0
 11
121.199540
 21
289.028786
 31
0.0
  0
LINE
  5
24c
100
AcDbEntity
  8
Layer_1
 62
1
100
AcDbLine
 10
121.199540
 20
289.028786
 30
0.0
 11
104.905440
 21
289.028786
 31
0.0
  0
LINE
  5
24d
100
AcDbEntity
  8
Layer_1
 62
1
100
AcDbLine
 10
104.905440
 20
289.028786
 30
0.0
 11
123.955440
 21
158.973123
 31
0.0
  0
LINE
  5
24e
100
AcDbEntity
  8
Layer_1
 62
1
100
AcDbLine
 10
123.955440
 20
158.973123
 30
0.0
 11
139.786560
 21
158.973123
 31
0.0
  0
LINE
  5
24f
100
AcDbEntity
  8
Layer_1
 62
1
100
AcDbLine
 10
230.372520
 20
111.911210
 30
0.0
 11
240.372530
 21
111.911210
 31
0.0
  0
LINE
  5
250
100
AcDbEntity
  8
Layer_1
 62
1
100
AcDbLine
 10
240.372530
 20
111.911210
 30
0.0
 11
240.372530
 21
108.911210
 31
0.0
  0
LINE
  5
251
100
AcDbEntity
  8
Layer_1
 62
1
100
AcDbLine
 10
240.372530
 20
108.911210
 30
0.0
 11
246.418360
 21
108.911210
 31
0.0
  0
LINE
  5
252
100
AcDbEntity
  8
Layer_1
 62
1
100
AcDbLine
 10
246.418360
 20
108.911210
 30
0.0
 11
246.418360
 21
105.911220
 31
0.0
  0
LINE
  5
253
100
AcDbEntity
  8
Layer_1
 62
1
100
AcDbLine
 10
246.418360
 20
105.911220
 30
0.0
 11
244.818350
 21
105.911220
 31
0.0
  0
LINE
  5
254
100
AcDbEntity
  8
Layer_1
 62
1
100
AcDbLine
 10
244.818350
 20
105.911220
 30
0.0
 11
244.818350
 21
102.911220
 31
0.0
  0
LINE
  5
255
100
AcDbEntity
  8
Layer_1
 62
1
100
AcDbLine
 10
244.818350
 20
102.911220
 30
0.0
 11
246.418360
 21
102.911220
 31
0.0
  0
LINE
  5
256
100
AcDbEntity
  8
Layer_1
 62
1
100
AcDbLine
 10
246.418360
 20
102.911220
 30
0.0
 11
246.418360
 21
100.911230
 31
0.0
  0
LINE
  5
257
100
AcDbEntity
  8
Layer_1
 62
1
100
AcDbLine
 10
246.418360
 20
100.911230
 30
0.0
 11
249.618350
 21
100.911230
 31
0.0
  0
LINE
  5
258
100
AcDbEntity
  8
Layer_1
 62
1
100
AcDbLine
 10
249.618350
 20
100.911230
 30
0.0
 11
249.618350
 21
102.911220
 31
0.0
  0
LINE
  5
259
100
AcDbEntity
  8
Layer_1
 62
1
100
AcDbLine
 10
249.618350
 20
102.911220
 30
0.0
 11
251.218340
 21
102.911220
 31
0.0
  0
LINE
  5
25a
100
AcDbEntity
  8
Layer_1
 62
1
100
AcDbLine
 10
251.218340
 20
102.911220
 30
0.0
 11
251.218340
 21
105.911220
 31
0.0
  0
LINE
  5
25b
100
AcDbEntity
  8
Layer_1
 62
1
100
AcDbLine
 10
251.218340
 20
105.911220
 30
0.0
 11
249.618350
 21
105.911220
 31
0.0
  0
LINE
  5
25c
100
AcDbEntity
  8
Layer_1
 62
1
100
AcDbLine
 10
249.618350
 20
105.911220
 30
0.0
 11
249.618350
 21
108.911210
 31
0.0
  0
LINE
  5
25d
100
AcDbEntity
  8
Layer_1
 62
1
100
AcDbLine
 10
249.618350
 20
108.911210
 30
0.0
 11
255.664170
 21
108.911210
 31
0.0
  0
LINE
  5
25e
100
AcDbEntity
  8
Layer_1
 62
1
100
AcDbLine
 10
255.664170
 20
108.911210
 30
0.0
 11
255.664170
 21
111.911210
 31
0.0
  0
LINE
  5
25f
100
AcDbEntity
  8
Layer_1
 62
1
100
AcDbLine
 10
255.664170
 20
111.911210
 30
0.0
 11
265.664170
 21
111.911210
 31
0.0
  0
LINE
  5
260
100
AcDbEntity
  8
Layer_1
 62
1
100
AcDbLine
 10
265.664170
 20
111.911210
 30
0.0
 11
265.705570
 21
108.914950
 31
0.0
  0
LINE
  5
261
100
AcDbEntity
  8
Layer_1
 62
1
100
AcDbLine
 10
265.705570
 20
108.914950
 30
0.0
 11
286.270390
 21
108.918950
 31
0.0
  0
LINE
  5
262
100
AcDbEntity
  8
Layer_1
 62
1
100
AcDbLine
 10
286.270390
 20
108.918950
 30
0.0
 11
286.270390
 21
70.178940
 31
0.0
  0
LINE
  5
263
100
AcDbEntity
  8
Layer_1
 62
1
100
AcDbLine
 10
286.270390
 20
70.178940
 30
0.0
 11
265.670570
 21
70.141940
 31
0.0
  0
LINE
  5
264
100
AcDbEntity
  8
Layer_1
 62
1
100
AcDbLine
 10
265.670570
 20
70.141940
 30
0.0
 11
265.664570
 21
67.104910
 31
0.0
  0
LINE
  5
265
100
AcDbEntity
  8
Layer_1
 62
1
100
AcDbLine
 10
265.664570
 20
67.104910
 30
0.0
 11
255.664570
 21
67.104910
 31
0.0
  0
LINE
  5
266
100
AcDbEntity
  8
Layer_1
 62
1
100
AcDbLine
 10
255.664570
 20
67.104910
 30
0.0
 11
255.664570
 21
70.104910
 31
0.0
  0
LINE
  5
267
100
AcDbEntity
  8
Layer_1
 62
1
100
AcDbLine
 10
255.664570
 20
70.104910
 30
0.0
 11
249.618750
 21
70.104910
 31
0.0
  0
LINE
  5
268
100
AcDbEntity
  8
Layer_1
 62
1
100
AcDbLine
 10
249.618750
 20
70.104910
 30
0.0
 11
249.618750
 21
73.104900
 31
0.0
  0
LINE
  5
269
100
AcDbEntity
  8
Layer_1
 62
1
100
AcDbLine
 10
249.618750
 20
73.104900
 30
0.0
 11
251.218740
 21
73.104900
 31
0.0
  0
LINE
  5
26a
100
AcDbEntity
  8
Layer_1
 62
1
100
AcDbLine
 10
251.218740
 20
73.104900
 30
0.0
 11
251.218740
 21
76.104900
 31
0.0
  0
LINE
  5
26b
100
AcDbEntity
  8
Layer_1
 62
1
100
AcDbLine
 10
251.218740
 20
76.104900
 30
0.0
 11
249.618750
 21
76.104900
 31
0.0
  0
LINE
  5
26c
100
AcDbEntity
  8
Layer_1
 62
1
100
AcDbLine
 10
249.618750
 20
76.104900
 30
0.0
 11
249.618750
 21
78.104880
 31
0.0
  0
LINE
  5
26d
100
AcDbEntity
  8
Layer_1
 62
1
100
AcDbLine
 10
249.618750
 20
78.104880
 30
0.0
 11
246.418750
 21
78.104880
 31
0.0
  0
LINE
  5
26e
100
AcDbEntity
  8
Layer_1
 62
1
100
AcDbLine
 10
246.418750
 20
78.104880
 30
0.0
 11
246.418750
 21
76.104880
 31
0.0
  0
LINE
  5
26f
100
AcDbEntity
  8
Layer_1
 62
1
100
AcDbLine
 10
246.418750
 20
76.104880
 30
0.0
 11
244.818750
 21
76.104880
 31
0.0
  0
LINE
  5
270
100
AcDbEntity
  8
Layer_1
 62
1
100
AcDbLine
 10
244.818750
 20
76.104880
 30
0.0
 11
244.818750
 21
73.104890
 31
0.0
  0
LINE
  5
271
100
AcDbEntity
  8
Layer_1
 62
1
100
AcDbLine
 10
244.818750
 20
73.104890
 30
0.0
 11
246.418750
 21
73.104890
 31
0.0
  0
LINE
  5
272
100
AcDbEntity
  8
Layer_1
 62
1
100
AcDbLine
 10
246.418750
 20
73.104890
 30
0.0
 11
246.418750
 21
70.104890
 31
0.0
  0
LINE
  5
273
100
AcDbEntity
  8
Layer_1
 62
1
100
AcDbLine
 10
246.418750
 20
70.104890
 30
0.0
 11
240.372930
 21
70.104890
 31
0.0
  0
LINE
  5
274
100
AcDbEntity
  8
Layer_1
 62
1
100
AcDbLine
 10
240.372930
 20
70.104890
 30
0.0
 11
240.372930
 21
67.104890
 31
0.0
  0
LINE
  5
275
100
AcDbEntity
  8
Layer_1
 62
1
100
AcDbLine
 10
240.372930
 20
67.104890
 30
0.0
 11
230.372920
 21
67.104890
 31
0.0
  0
LINE
  5
276
100
AcDbEntity
  8
Layer_1
 62
1
100
AcDbLine
 10
230.372920
 20
67.104890
 30
0.0
 11
230.406620
 21
70.141930
 31
0.0
  0
LINE
  5
277
100
AcDbEntity
  8
Layer_1
 62
1
100
AcDbLine
 10
230.406620
 20
70.141930
 30
0.0
 11
209.766640
 21
70.178930
 31
0.0
  0
LINE
  5
278
100
AcDbEntity
  8
Layer_1
 62
1
100
AcDbLine
 10
209.766640
 20
70.178930
 30
0.0
 11
209.766640
 21
108.918990
 31
0.0
  0
LINE
  5
279
100
AcDbEntity
  8
Layer_1
 62
1
100
AcDbLine
 10
209.766640
 20
108.918990
 30
0.0
 11
230.376230
 21
108.914990
 31
0.0
  0
LINE
  5
27a
100
AcDbEntity
  8
Layer_1
 62
1
100
AcDbLine
 10
230.376230
 20
108.914990
 30
0.0
 11
230.372520
 21
111.911210
 31
0.0
  0
LINE
  5
27b
100
AcDbEntity
  8
Layer_1
 62
1
100
AcDbLine
 10
296.825290
 20
154.081200
 30
0.0
 11
296.825290
 21
164.081210
 31
0.0
  0
LINE
  5
27c
100
AcDbEntity
  8
Layer_1
 62
1
100
AcDbLine
 10
296.825290
 20
164.081210
 30
0.0
 11
299.825280
 21
164.081210
 31
0.0
  0
LINE
  5
27d
100
AcDbEntity
  8
Layer_1
 62
1
100
AcDbLine
 10
299.825280
 20
164.081210
 30
0.0
 11
299.825280
 21
170.127040
 31
0.0
  0
LINE
  5
27e
100
AcDbEntity
  8
Layer_1
 62
1
100
AcDbLine
 10
299.825280
 20
170.127040
 30
0.0
 11
302.825280
 21
170.127040
 31
0.0
  0
LINE
  5
27f
100
AcDbEntity
  8
Layer_1
 62
1
100
AcDbLine
 10
302.825280
 20
170.127040
 30
0.0
 11
302.825280
 21
168.527030
 31
0.0
  0
LINE
  5
280
100
AcDbEntity
  8
Layer_1
 62
1
100
AcDbLine
 10
302.825280
 20
168.527030
 30
0.0
 11
305.825270
 21
168.527030
 31
0.0
  0
LINE
  5
281
100
AcDbEntity
  8
Layer_1
 62
1
100
AcDbLine
 10
305.825270
 20
168.527030
 30
0.0
 11
305.825270
 21
170.127040
 31
0.0
  0
LINE
  5
282
100
AcDbEntity
  8
Layer_1
 62
1
100
AcDbLine
 10
305.825270
 20
170.127040
 30
0.0
 11
307.825260
 21
170.127040
 31
0.0
  0
LINE
  5
283
100
AcDbEntity
  8
Layer_1
 62
1
100
AcDbLine
 10
307.825260
 20
170.127040
 30
0.0
 11
307.825260
 21
173.327030
 31
0.0
  0
LINE
  5
284
100
AcDbEntity
  8
Layer_1
 62
1
100
AcDbLine
 10
307.825260
 20
173.327030
 30
0.0
 11
305.825270
 21
173.327030
 31
0.0
  0
LINE
  5
285
100
AcDbEntity
  8
Layer_1
 62
1
100
AcDbLine
 10
305.825270
 20
173.327030
 30
0.0
 11
305.825270
 21
174.927030
 31
0.0
  0
LINE
  5
286
100
AcDbEntity
  8
Layer_1
 62
1
100
AcDbLine
 10
305.825270
 20
174.927030
 30
0.0
 11
302.825280
 21
174.927030
 31
0.0
  0
LINE
  5
287
100
AcDbEntity
  8
Layer_1
 62
1
100
AcDbLine
 10
302.825280
 20
174.927030
 30
0.0
 11
302.825280
 21
173.327030
 31
0.0
  0
LINE
  5
288
100
AcDbEntity
  8
Layer_1
 62
1
100
AcDbLine
 10
302.825280
 20
173.327030
 30
0.0
 11
299.825280
 21
173.327030
 31
0.0
  0
LINE
  5
289
100
AcDbEntity
  8
Layer_1
 62
1
100
AcDbLine
 10
299.825280
 20
173.327030
 30
0.0
 11
299.825280
 21
179.372860
 31
0.0
  0
LINE
  5
28a
100
AcDbEntity
  8
Layer_1
 62
1
100
AcDbLine
 10
299.825280
 20
179.372860
 30
0.0
 11
296.825290
 21
179.372860
 31
0.0
  0
LINE
  5
28b
100
AcDbEntity
  8
Layer_1
 62
1
100
AcDbLine
 10
296.825290
 20
179.372860
 30
0.0
 11
296.825290
 21
189.372860
 31
0.0
  0
LINE
  5
28c
100
AcDbEntity
  8
Layer_1
 62
1
100
AcDbLine
 10
296.825290
 20
189.372860
 30
0.0
 11
299.821550
 21
189.414260
 31
0.0
  0
LINE
  5
28d
100
AcDbEntity
  8
Layer_1
 62
1
100
AcDbLine
 10
299.821550
 20
189.414260
 30
0.0
 11
299.817550
 21
209.979064
 31
0.0
  0
LINE
  5
28e
100
AcDbEntity
  8
Layer_1
 62
1
100
AcDbLine
 10
299.817550
 20
209.979064
 30
0.0
 11
338.557550
 21
209.979064
 31
0.0
  0
LINE
  5
28f
100
AcDbEntity
  8
Layer_1
 62
1
100
AcDbLine
 10
338.557550
 20
209.979064
 30
0.0
 11
338.594550
 21
189.379260
 31
0.0
  0
LINE
  5
290
100
AcDbEntity
  8
Layer_1
 62
1
100
AcDbLine
 10
338.594550
 20
189.379260
 30
0.0
 11
341.631580
 21
189.373260
 31
0.0
  0
LINE
  5
291
100
AcDbEntity
  8
Layer_1
 62
1
100
AcDbLine
 10
341.631580
 20
189.373260
 30
0.0
 11
341.631580
 21
179.373250
 31
0.0
  0
LINE
  5
292
100
AcDbEntity
  8
Layer_1
 62
1
100
AcDbLine
 10
341.631580
 20
179.373250
 30
0.0
 11
338.631580
 21
179.373250
 31
0.0
  0
LINE
  5
293
100
AcDbEntity
  8
Layer_1
 62
1
100
AcDbLine
 10
338.631580
 20
179.373250
 30
0.0
 11
338.631580
 21
173.327430
 31
0.0
  0
LINE
  5
294
100
AcDbEntity
  8
Layer_1
 62
1
100
AcDbLine
 10
338.631580
 20
173.327430
 30
0.0
 11
335.631590
 21
173.327430
 31
0.0
  0
LINE
  5
295
100
AcDbEntity
  8
Layer_1
 62
1
100
AcDbLine
 10
335.631590
 20
173.327430
 30
0.0
 11
335.631590
 21
174.927420
 31
0.0
  0
LINE
  5
296
100
AcDbEntity
  8
Layer_1
 62
1
100
AcDbLine
 10
335.631590
 20
174.927420
 30
0.0
 11
332.631600
 21
174.927420
 31
0.0
  0
LINE
  5
297
100
AcDbEntity
  8
Layer_1
 62
1
100
AcDbLine
 10
332.631600
 20
174.927420
 30
0.0
 11
332.631600
 21
173.327430
 31
0.0
  0
LINE
  5
298
100
AcDbEntity
  8
Layer_1
 62
1
100
AcDbLine
 10
332.631600
 20
173.327430
 30
0.0
 11
330.631620
 21
173.327430
 31
0.0
  0
LINE
  5
299
100
AcDbEntity
  8
Layer_1
 62
1
100
AcDbLine
 10
330.631620
 20
173.327430
 30
0.0
 11
330.631620
 21
170.127430
 31
0.0
  0
LINE
  5
29a
100
AcDbEntity
  8
Layer_1
 62
1
100
AcDbLine
 10
330.631620
 20
170.127430
 30
0.0
 11
332.631610
 21
170.127430
 31
0.0
  0
LINE
  5
29b
100
AcDbEntity
  8
Layer_1
 62
1
100
AcDbLine
 10
332.631610
 20
170.127430
 30
0.0
 11
332.631610
 21
168.527430
 31
0.0
  0
LINE
  5
29c
100
AcDbEntity
  8
Layer_1
 62
1
100
AcDbLine
 10
332.631610
 20
168.527430
 30
0.0
 11
335.631610
 21
168.527430
 31
0.0
  0
LINE
  5
29d
100
AcDbEntity
  8
Layer_1
 62
1
100
AcDbLine
 10
335.631610
 20
168.527430
 30
0.0
 11
335.631610
 21
170.127430
 31
0.0
  0
LINE
  5
29e
100
AcDbEntity
  8
Layer_1
 62
1
100
AcDbLine
 10
335.631610
 20
170.127430
 30
0.0
 11
338.631600
 21
170.127430
 31
0.0
  0
LINE
  5
29f
100
AcDbEntity
  8
Layer_1
 62
1
100
AcDbLine
 10
338.631600
 20
170.127430
 30
0.0
 11
338.631600
 21
164.081610
 31
0.0
  0
LINE
  5
2a0
100
AcDbEntity
  8
Layer_1
 62
1
100
AcDbLine
 10
338.631600
 20
164.081610
 30
0.0
 11
341.631600
 21
164.081610
 31
0.0
  0
LINE
  5
2a1
100
AcDbEntity
  8
Layer_1
 62
1
100
AcDbLine
 10
341.631600
 20
164.081610
 30
0.0
 11
341.631600
 21
154.081600
 31
0.0
  0
LINE
  5
2a2
100
AcDbEntity
  8
Layer_1
 62
1
100
AcDbLine
 10
341.631600
 20
154.081600
 30
0.0
 11
338.594570
 21
154.115300
 31
0.0
  0
LINE
  5
2a3
100
AcDbEntity
  8
Layer_1
 62
1
100
AcDbLine
 10
338.594570
 20
154.115300
 30
0.0
 11
338.557570
 21
133.475320
 31
0.0
  0
LINE
  5
2a4
100
AcDbEntity
  8
Layer_1
 62
1
100
AcDbLine
 10
338.557570
 20
133.475320
 30
0.0
 11
299.817500
 21
133.475320
 31
0.0
  0
LINE
  5
2a5
100
AcDbEntity
  8
Layer_1
 62
1
100
AcDbLine
 10
299.817500
 20
133.475320
 30
0.0
 11
299.821500
 21
154.084910
 31
0.0
  0
LINE
  5
2a6
100
AcDbEntity
  8
Layer_1
 62
1
100
AcDbLine
 10
299.821500
 20
154.084910
 30
0.0
 11
296.825290
 21
154.081200
 31
0.0
  0
LINE
  5
2a7
100
AcDbEntity
  8
Layer_1
 62
5
100
AcDbLine
 10
90.540397
 20
130.247774
 30
0.0
 11
90.540397
 21
120.247768
 31
0.0
  0
LINE
  5
2a8
100
AcDbEntity
  8
Layer_1
 62
5
100
AcDbLine
 10
90.540397
 20
120.247768
 30
0.0
 11
87.540403
 21
120.247768
 31
0.0
  0
LINE
  5
2a9
100
AcDbEntity
  8
Layer_1
 62
5
100
AcDbLine
 10
87.540403
 20
120.247768
 30
0.0
 11
87.540403
 21
130.247774
 31
0.0
  0
LINE
  5
2aa
100
AcDbEntity
  8
Layer_1
 62
5
100
AcDbLine
 10
87.540403
 20
130.247774
 30
0.0
 11
90.540397
 21
130.247774
 31
0.0
  0
LINE
  5
2ab
100
AcDbEntity
  8
Layer_1
 62
5
100
AcDbLine
 10
90.540397
 20
104.956144
 30
0.0
 11
90.540397
 21
94.956138
 31
0.0
  0
LINE
  5
2ac
100
AcDbEntity
  8
Layer_1
 62
5
100
AcDbLine
 10
90.540397
 20
94.956138
 30
0.0
 11
87.540403
 21
94.956138
 31
0.0
  0
LINE
  5
2ad
100
AcDbEntity
  8
Layer_1
 62
5
100
AcDbLine
 10
87.540403
 20
94.956138
 30
0.0
 11
87.540403
 21
104.956144
 31
0.0
  0
LINE
  5
2ae
100
AcDbEntity
  8
Layer_1
 62
5
100
AcDbLine
 10
87.540403
 20
104.956144
 30
0.0
 11
90.540397
 21
104.956144
 31
0.0
  0
SPLINE
  5
2af
100
AcDbEntity
  8
Layer_1
 62
5
100
AcDbSpline
 70
8
 71
3
 72
8
 73
4
 74
0
 40
0
 40
0
 40
0
 40
0
 40
1
 40
1
 40
1
 40
1
 10
89.039266
 20
111.051969
 30
0.0
 10
88.183226
 20
111.051970
 30
0.0
 10
87.489268
 20
111.745927
 30
0.0
 10
87.489267
 20
112.601967
 30
0.0
  0
SPLINE
  5
2b0
100
AcDbEntity
  8
Layer_1
 62
5
100
AcDbSpline
 70
8
 71
3
 72
8
 73
4
 74
0
 40
0
 40
0
 40
0
 40
0
 40
1
 40
1
 40
1
 40
1
 10
87.489267
 20
112.601967
 30
0.0
 10
87.489267
 20
113.013053
 30
0.0
 10
87.652570
 20
113.407301
 30
0.0
 10
87.943251
 20
113.697983
 30
0.0
  0
SPLINE
  5
2b1
100
AcDbEntity
  8
Layer_1
 62
5
100
AcDbSpline
 70
8
 71
3
 72
8
 73
4
 74
0
 40
0
 40
0
 40
0
 40
0
 40
1
 40
1
 40
1
 40
1
 10
87.943251
 20
113.697983
 30
0.0
 10
88.233932
 20
113.988665
 30
0.0
 10
88.628180
 20
114.151968
 30
0.0
 10
89.039266
 20
114.151968
 30
0.0
  0
SPLINE
  5
2b2
100
AcDbEntity
  8
Layer_1
 62
5
100
AcDbSpline
 70
8
 71
3
 72
8
 73
4
 74
0
 40
0
 40
0
 40
0
 40
0
 40
1
 40
1
 40
1
 40
1
 10
89.039266
 20
114.151968
 30
0.0
 10
89.450351
 20
114.151968
 30
0.0
 10
89.844600
 20
113.988665
 30
0.0
 10
90.135281
 20
113.697983
 30
0.0
  0
SPLINE
  5
2b3
100
AcDbEntity
  8
Layer_1
 62
5
100
AcDbSpline
 70
8
 71
3
 72
8
 73
4
 74
0
 40
0
 40
0
 40
0
 40
0
 40
1
 40
1
 40
1
 40
1
 10
90.135281
 20
113.697983
 30
0.0
 10
90.425962
 20
113.407301
 30
0.0
 10
90.589265
 20
113.013053
 30
0.0
 10
90.589264
 20
112.601967
 30
0.0
  0
SPLINE
  5
2b4
100
AcDbEntity
  8
Layer_1
 62
5
100
AcDbSpline
 70
8
 71
3
 72
8
 73
4
 74
0
 40
0
 40
0
 40
0
 40
0
 40
1
 40
1
 40
1
 40
1
 10
90.589264
 20
112.601967
 30
0.0
 10
90.589264
 20
111.745927
 30
0.0
 10
89.895306
 20
111.051970
 30
0.0
 10
89.039266
 20
111.051969
 30
0.0
  0
LINE
  5
2b5
100
AcDbEntity
  8
Layer_1
 62
5
100
AcDbLine
 10
89.039266
 20
111.051969
 30
0.0
 11
89.039266
 21
111.051969
 31
0.0
  0
SPLINE
  5
2b6
100
AcDbEntity
  8
Layer_1
 62
1
100
AcDbSpline
 70
8
 71
3
 72
8
 73
4
 74
0
 40
0
 40
0
 40
0
 40
0
 40
1
 40
1
 40
1
 40
1
 10
110.993923
 20
112.601964
 30
0.0
 10
110.993924
 20
120.080174
 30
0.0
 10
117.056211
 20
126.142461
 30
0.0
 10
124.534421
 20
126.142462
 30
0.0
  0
SPLINE
  5
2b7
100
AcDbEntity
  8
Layer_1
 62
1
100
AcDbSpline
 70
8
 71
3
 72
8
 73
4
 74
0
 40
0
 40
0
 40
0
 40
0
 40
1
 40
1
 40
1
 40
1
 10
124.534421
 20
126.142462
 30
0.0
 10
132.012632
 20
126.142463
 30
0.0
 10
138.074920
 20
120.080176
 30
0.0
 10
138.074921
 20
112.601964
 30
0.0
  0
SPLINE
  5
2b8
100
AcDbEntity
  8
Layer_1
 62
1
100
AcDbSpline
 70
8
 71
3
 72
8
 73
4
 74
0
 40
0
 40
0
 40
0
 40
0
 40
1
 40
1
 40
1
 40
1
 10
138.074921
 20
112.601964
 30
0.0
 10
138.074921
 20
109.010800
 30
0.0
 10
136.648337
 20
105.566721
 30
0.0
 10
134.109001
 20
103.027384
 30
0.0
  0
SPLINE
  5
2b9
100
AcDbEntity
  8
Layer_1
 62
1
100
AcDbSpline
 70
8
 71
3
 72
8
 73
4
 74
0
 40
0
 40
0
 40
0
 40
0
 40
1
 40
1
 40
1
 40
1
 10
134.109001
 20
103.027384
 30
0.0
 10
131.569664
 20
100.488048
 30
0.0
 10
128.125585
 20
99.061464
 30
0.0
 10
124.534421
 20
99.061464
 30
0.0
  0
SPLINE
  5
2ba
100
AcDbEntity
  8
Layer_1
 62
1
100
AcDbSpline
 70
8
 71
3
 72
8
 73
4
 74
0
 40
0
 40
0
 40
0
 40
0
 40
1
 40
1
 40
1
 40
1
 10
124.534421
 20
99.061464
 30
0.0
 10
117.056210
 20
99.061465
 30
0.0
 10
110.993922
 20
105.123753
 30
0.0
 10
110.993923
 20
112.601964
 30
0.0
  0
LINE
  5
2bb
100
AcDbEntity
  8
Layer_1
 62
1
100
AcDbLine
 10
110.993923
 20
112.601964
 30
0.0
 11
110.993923
 21
112.601964
 31
0.0
  0
SPLINE
  5
2bc
100
AcDbEntity
  8
Layer_1
 62
3
100
AcDbSpline
 70
8
 71
3
 72
8
 73
4
 74
0
 40
0
 40
0
 40
0
 40
0
 40
1
 40
1
 40
1
 40
1
 10
100.728346
 20
112.601956
 30
0.0
 10
100.728347
 20
125.749683
 30
0.0
 10
111.386685
 20
136.408022
 30
0.0
 10
124.534412
 20
136.408022
 30
0.0
  0
SPLINE
  5
2bd
100
AcDbEntity
  8
Layer_1
 62
3
100
AcDbSpline
 70
8
 71
3
 72
8
 73
4
 74
0
 40
0
 40
0
 40
0
 40
0
 40
1
 40
1
 40
1
 40
1
 10
124.534412
 20
136.408022
 30
0.0
 10
130.848174
 20
136.408023
 30
0.0
 10
136.903340
 20
133.899891
 30
0.0
 10
141.367844
 20
129.435387
 30
0.0
  0
SPLINE
  5
2be
100
AcDbEntity
  8
Layer_1
 62
3
100
AcDbSpline
 70
8
 71
3
 72
8
 73
4
 74
0
 40
0
 40
0
 40
0
 40
0
 40
1
 40
1
 40
1
 40
1
 10
141.367844
 20
129.435387
 30
0.0
 10
145.832348
 20
124.970884
 30
0.0
 10
148.340481
 20
118.915718
 30
0.0
 10
148.340481
 20
112.601956
 30
0.0
  0
SPLINE
  5
2bf
100
AcDbEntity
  8
Layer_1
 62
3
100
AcDbSpline
 70
8
 71
3
 72
8
 73
4
 74
0
 40
0
 40
0
 40
0
 40
0
 40
1
 40
1
 40
1
 40
1
 10
148.340481
 20
112.601956
 30
0.0
 10
148.340481
 20
106.288194
 30
0.0
 10
145.832348
 20
100.233028
 30
0.0
 10
141.367844
 20
95.768525
 30
0.0
  0
SPLINE
  5
2c0
100
AcDbEntity
  8
Layer_1
 62
3
100
AcDbSpline
 70
8
 71
3
 72
8
 73
4
 74
0
 40
0
 40
0
 40
0
 40
0
 40
1
 40
1
 40
1
 40
1
 10
141.367844
 20
95.768525
 30
0.0
 10
136.903340
 20
91.304021
 30
0.0
 10
130.848174
 20
88.795889
 30
0.0
 10
124.534412
 20
88.795890
 30
0.0
  0
SPLINE
  5
2c1
100
AcDbEntity
  8
Layer_1
 62
3
100
AcDbSpline
 70
8
 71
3
 72
8
 73
4
 74
0
 40
0
 40
0
 40
0
 40
0
 40
1
 40
1
 40
1
 40
1
 10
124.534412
 20
88.795890
 30
0.0
 10
111.386685
 20
88.795890
 30
0.0
 10
100.728347
 20
99.454229
 30
0.0
 10
100.728346
 20
112.601956
 30
0.0
  0
LINE
  5
2c2
100
AcDbEntity
  8
Layer_1
 62
3
100
AcDbLine
 10
100.728346
 20
112.601956
 30
0.0
 11
100.728346
 21
112.601956
 31
0.0
  0
LINE
  5
2c3
100
AcDbEntity
  8
Layer_1
 62
5
100
AcDbLine
 10
158.369643
 20
94.956138
 30
0.0
 11
158.369643
 21
104.956144
 31
0.0
  0
LINE
  5
2c4
100
AcDbEntity
  8
Layer_1
 62
5
100
AcDbLine
 10
158.369643
 20
104.956144
 30
0.0
 11
161.369637
 21
104.956144
 31
0.0
  0
LINE
  5
2c5
100
AcDbEntity
  8
Layer_1
 62
5
100
AcDbLine
 10
161.369637
 20
104.956144
 30
0.0
 11
161.369637
 21
94.956138
 31
0.0
  0
LINE
  5
2c6
100
AcDbEntity
  8
Layer_1
 62
5
100
AcDbLine
 10
161.369637
 20
94.956138
 30
0.0
 11
158.369643
 21
94.956138
 31
0.0
  0
LINE
  5
2c7
100
AcDbEntity
  8
Layer_1
 62
5
100
AcDbLine
 10
158.369643
 20
120.247765
 30
0.0
 11
158.369643
 21
130.247771
 31
0.0
  0
LINE
  5
2c8
100
AcDbEntity
  8
Layer_1
 62
5
100
AcDbLine
 10
158.369643
 20
130.247771
 30
0.0
 11
161.369637
 21
130.247771
 31
0.0
  0
LINE
  5
2c9
100
AcDbEntity
  8
Layer_1
 62
5
100
AcDbLine
 10
161.369637
 20
130.247771
 30
0.0
 11
161.369637
 21
120.247765
 31
0.0
  0
LINE
  5
2ca
100
AcDbEntity
  8
Layer_1
 62
5
100
AcDbLine
 10
161.369637
 20
120.247765
 30
0.0
 11
158.369643
 21
120.247765
 31
0.0
  0
SPLINE
  5
2cb
100
AcDbEntity
  8
Layer_1
 62
5
100
AcDbSpline
 70
8
 71
3
 72
8
 73
4
 74
0
 40
0
 40
0
 40
0
 40
0
 40
1
 40
1
 40
1
 40
1
 10
159.870775
 20
114.151943
 30
0.0
 10
160.281861
 20
114.151944
 30
0.0
 10
160.676110
 20
113.988640
 30
0.0
 10
160.966791
 20
113.697959
 30
0.0
  0
SPLINE
  5
2cc
100
AcDbEntity
  8
Layer_1
 62
5
100
AcDbSpline
 70
8
 71
3
 72
8
 73
4
 74
0
 40
0
 40
0
 40
0
 40
0
 40
1
 40
1
 40
1
 40
1
 10
160.966791
 20
113.697959
 30
0.0
 10
161.257473
 20
113.407277
 30
0.0
 10
161.420776
 20
113.013028
 30
0.0
 10
161.420776
 20
112.601942
 30
0.0
  0
SPLINE
  5
2cd
100
AcDbEntity
  8
Layer_1
 62
5
100
AcDbSpline
 70
8
 71
3
 72
8
 73
4
 74
0
 40
0
 40
0
 40
0
 40
0
 40
1
 40
1
 40
1
 40
1
 10
161.420776
 20
112.601942
 30
0.0
 10
161.420775
 20
112.190856
 30
0.0
 10
161.257472
 20
111.796608
 30
0.0
 10
160.966790
 20
111.505927
 30
0.0
  0
SPLINE
  5
2ce
100
AcDbEntity
  8
Layer_1
 62
5
100
AcDbSpline
 70
8
 71
3
 72
8
 73
4
 74
0
 40
0
 40
0
 40
0
 40
0
 40
1
 40
1
 40
1
 40
1
 10
160.966790
 20
111.505927
 30
0.0
 10
160.676109
 20
111.215246
 30
0.0
 10
160.281860
 20
111.051943
 30
0.0
 10
159.870775
 20
111.051944
 30
0.0
  0
SPLINE
  5
2cf
100
AcDbEntity
  8
Layer_1
 62
5
100
AcDbSpline
 70
8
 71
3
 72
8
 73
4
 74
0
 40
0
 40
0
 40
0
 40
0
 40
1
 40
1
 40
1
 40
1
 10
159.870775
 20
111.051944
 30
0.0
 10
159.014734
 20
111.051944
 30
0.0
 10
158.320777
 20
111.745902
 30
0.0
 10
158.320776
 20
112.601942
 30
0.0
  0
SPLINE
  5
2d0
100
AcDbEntity
  8
Layer_1
 62
5
100
AcDbSpline
 70
8
 71
3
 72
8
 73
4
 74
0
 40
0
 40
0
 40
0
 40
0
 40
1
 40
1
 40
1
 40
1
 10
158.320776
 20
112.601942
 30
0.0
 10
158.320776
 20
113.013027
 30
0.0
 10
158.484078
 20
113.407276
 30
0.0
 10
158.774760
 20
113.697958
 30
0.0
  0
SPLINE
  5
2d1
100
AcDbEntity
  8
Layer_1
 62
5
100
AcDbSpline
 70
8
 71
3
 72
8
 73
4
 74
0
 40
0
 40
0
 40
0
 40
0
 40
1
 40
1
 40
1
 40
1
 10
158.774760
 20
113.697958
 30
0.0
 10
159.065441
 20
113.988639
 30
0.0
 10
159.459689
 20
114.151943
 30
0.0
 10
159.870775
 20
114.151943
 30
0.0
  0
LINE
  5
2d2
100
AcDbEntity
  8
Layer_1
 62
5
100
AcDbLine
 10
159.870775
 20
114.151943
 30
0.0
 11
159.870775
 21
114.151943
 31
0.0
  0
LINE
  5
2d3
100
AcDbEntity
  8
Layer_1
 62
1
100
AcDbLine
 10
10.167037
 20
90.342840
 30
0.0
 11
13.167031
 21
90.342840
 31
0.0
  0
LINE
  5
2d4
100
AcDbEntity
  8
Layer_1
 62
1
100
AcDbLine
 10
13.167031
 20
90.342840
 30
0.0
 11
13.167031
 21
88.742838
 31
0.0
  0
LINE
  5
2d5
100
AcDbEntity
  8
Layer_1
 62
1
100
AcDbLine
 10
13.167031
 20
88.742838
 30
0.0
 11
16.167025
 21
88.742838
 31
0.0
  0
LINE
  5
2d6
100
AcDbEntity
  8
Layer_1
 62
1
100
AcDbLine
 10
16.167025
 20
88.742838
 30
0.0
 11
16.167025
 21
90.342840
 31
0.0
  0
LINE
  5
2d7
100
AcDbEntity
  8
Layer_1
 62
1
100
AcDbLine
 10
16.167025
 20
90.342840
 30
0.0
 11
18.167021
 21
90.342840
 31
0.0
  0
LINE
  5
2d8
100
AcDbEntity
  8
Layer_1
 62
1
100
AcDbLine
 10
18.167021
 20
90.342840
 30
0.0
 11
18.167021
 21
93.542845
 31
0.0
  0
LINE
  5
2d9
100
AcDbEntity
  8
Layer_1
 62
1
100
AcDbLine
 10
18.167021
 20
93.542845
 30
0.0
 11
16.167025
 21
93.542845
 31
0.0
  0
LINE
  5
2da
100
AcDbEntity
  8
Layer_1
 62
1
100
AcDbLine
 10
16.167025
 20
93.542845
 30
0.0
 11
16.167025
 21
95.142848
 31
0.0
  0
LINE
  5
2db
100
AcDbEntity
  8
Layer_1
 62
1
100
AcDbLine
 10
16.167025
 20
95.142848
 30
0.0
 11
13.167031
 21
95.142848
 31
0.0
  0
LINE
  5
2dc
100
AcDbEntity
  8
Layer_1
 62
1
100
AcDbLine
 10
13.167031
 20
95.142848
 30
0.0
 11
13.167031
 21
93.542845
 31
0.0
  0
LINE
  5
2dd
100
AcDbEntity
  8
Layer_1
 62
1
100
AcDbLine
 10
13.167031
 20
93.542845
 30
0.0
 11
10.167037
 21
93.542845
 31
0.0
  0
LINE
  5
2de
100
AcDbEntity
  8
Layer_1
 62
1
100
AcDbLine
 10
10.167037
 20
93.542845
 30
0.0
 11
10.167037
 21
97.125967
 31
0.0
  0
LINE
  5
2df
100
AcDbEntity
  8
Layer_1
 62
1
100
AcDbLine
 10
10.167037
 20
97.125967
 30
0.0
 11
7.167043
 21
97.125967
 31
0.0
  0
LINE
  5
2e0
100
AcDbEntity
  8
Layer_1
 62
1
100
AcDbLine
 10
7.167043
 20
97.125967
 30
0.0
 11
7.167043
 21
128.292615
 31
0.0
  0
LINE
  5
2e1
100
AcDbEntity
  8
Layer_1
 62
1
100
AcDbLine
 10
7.167043
 20
128.292615
 30
0.0
 11
10.167037
 21
128.292615
 31
0.0
  0
LINE
  5
2e2
100
AcDbEntity
  8
Layer_1
 62
1
100
AcDbLine
 10
10.167037
 20
128.292615
 30
0.0
 11
10.167037
 21
131.692630
 31
0.0
  0
LINE
  5
2e3
100
AcDbEntity
  8
Layer_1
 62
1
100
AcDbLine
 10
10.167037
 20
131.692630
 30
0.0
 11
13.167031
 21
131.692630
 31
0.0
  0
LINE
  5
2e4
100
AcDbEntity
  8
Layer_1
 62
1
100
AcDbLine
 10
13.167031
 20
131.692630
 30
0.0
 11
13.167031
 21
130.092628
 31
0.0
  0
LINE
  5
2e5
100
AcDbEntity
  8
Layer_1
 62
1
100
AcDbLine
 10
13.167031
 20
130.092628
 30
0.0
 11
16.167025
 21
130.092628
 31
0.0
  0
LINE
  5
2e6
100
AcDbEntity
  8
Layer_1
 62
1
100
AcDbLine
 10
16.167025
 20
130.092628
 30
0.0
 11
16.167025
 21
131.692630
 31
0.0
  0
LINE
  5
2e7
100
AcDbEntity
  8
Layer_1
 62
1
100
AcDbLine
 10
16.167025
 20
131.692630
 30
0.0
 11
18.167021
 21
131.692630
 31
0.0
  0
LINE
  5
2e8
100
AcDbEntity
  8
Layer_1
 62
1
100
AcDbLine
 10
18.167021
 20
131.692630
 30
0.0
 11
18.167021
 21
134.892607
 31
0.0
  0
LINE
  5
2e9
100
AcDbEntity
  8
Layer_1
 62
1
100
AcDbLine
 10
18.167021
 20
134.892607
 30
0.0
 11
16.167025
 21
134.892607
 31
0.0
  0
LINE
  5
2ea
100
AcDbEntity
  8
Layer_1
 62
1
100
AcDbLine
 10
16.167025
 20
134.892607
 30
0.0
 11
16.167025
 21
136.492610
 31
0.0
  0
LINE
  5
2eb
100
AcDbEntity
  8
Layer_1
 62
1
100
AcDbLine
 10
16.167025
 20
136.492610
 30
0.0
 11
13.167031
 21
136.492610
 31
0.0
  0
LINE
  5
2ec
100
AcDbEntity
  8
Layer_1
 62
1
100
AcDbLine
 10
13.167031
 20
136.492610
 30
0.0
 11
13.167031
 21
134.892607
 31
0.0
  0
LINE
  5
2ed
100
AcDbEntity
  8
Layer_1
 62
1
100
AcDbLine
 10
13.167031
 20
134.892607
 30
0.0
 11
10.208665
 21
134.882729
 31
0.0
  0
LINE
  5
2ee
100
AcDbEntity
  8
Layer_1
 62
1
100
AcDbLine
 10
10.208665
 20
134.882729
 30
0.0
 11
10.283820
 21
150.916835
 31
0.0
  0
LINE
  5
2ef
100
AcDbEntity
  8
Layer_1
 62
1
100
AcDbLine
 10
10.283820
 20
150.916835
 30
0.0
 11
16.021822
 21
150.931398
 31
0.0
  0
LINE
  5
2f0
100
AcDbEntity
  8
Layer_1
 62
1
100
AcDbLine
 10
16.021822
 20
150.931398
 30
0.0
 11
16.048633
 21
153.945946
 31
0.0
  0
LINE
  5
2f1
100
AcDbEntity
  8
Layer_1
 62
1
100
AcDbLine
 10
16.048633
 20
153.945946
 30
0.0
 11
26.048641
 21
153.945946
 31
0.0
  0
LINE
  5
2f2
100
AcDbEntity
  8
Layer_1
 62
1
100
AcDbLine
 10
26.048641
 20
153.945946
 30
0.0
 11
26.048641
 21
150.945952
 31
0.0
  0
LINE
  5
2f3
100
AcDbEntity
  8
Layer_1
 62
1
100
AcDbLine
 10
26.048641
 20
150.945952
 30
0.0
 11
29.448618
 21
150.945952
 31
0.0
  0
LINE
  5
2f4
100
AcDbEntity
  8
Layer_1
 62
1
100
AcDbLine
 10
29.448618
 20
150.945952
 30
0.0
 11
29.448618
 21
147.945958
 31
0.0
  0
LINE
  5
2f5
100
AcDbEntity
  8
Layer_1
 62
1
100
AcDbLine
 10
29.448618
 20
147.945958
 30
0.0
 11
27.848615
 21
147.945958
 31
0.0
  0
LINE
  5
2f6
100
AcDbEntity
  8
Layer_1
 62
1
100
AcDbLine
 10
27.848615
 20
147.945958
 30
0.0
 11
27.848615
 21
144.945964
 31
0.0
  0
LINE
  5
2f7
100
AcDbEntity
  8
Layer_1
 62
1
100
AcDbLine
 10
27.848615
 20
144.945964
 30
0.0
 11
29.448618
 21
144.945964
 31
0.0
  0
LINE
  5
2f8
100
AcDbEntity
  8
Layer_1
 62
1
100
AcDbLine
 10
29.448618
 20
144.945964
 30
0.0
 11
29.448618
 21
142.945968
 31
0.0
  0
LINE
  5
2f9
100
AcDbEntity
  8
Layer_1
 62
1
100
AcDbLine
 10
29.448618
 20
142.945968
 30
0.0
 11
32.648594
 21
142.945968
 31
0.0
  0
LINE
  5
2fa
100
AcDbEntity
  8
Layer_1
 62
1
100
AcDbLine
 10
32.648594
 20
142.945968
 30
0.0
 11
32.648594
 21
144.945964
 31
0.0
  0
LINE
  5
2fb
100
AcDbEntity
  8
Layer_1
 62
1
100
AcDbLine
 10
32.648594
 20
144.945964
 30
0.0
 11
34.248597
 21
144.945964
 31
0.0
  0
LINE
  5
2fc
100
AcDbEntity
  8
Layer_1
 62
1
100
AcDbLine
 10
34.248597
 20
144.945964
 30
0.0
 11
34.248597
 21
147.945958
 31
0.0
  0
LINE
  5
2fd
100
AcDbEntity
  8
Layer_1
 62
1
100
AcDbLine
 10
34.248597
 20
147.945958
 30
0.0
 11
32.648594
 21
147.945958
 31
0.0
  0
LINE
  5
2fe
100
AcDbEntity
  8
Layer_1
 62
1
100
AcDbLine
 10
32.648594
 20
147.945958
 30
0.0
 11
32.648594
 21
150.945952
 31
0.0
  0
LINE
  5
2ff
100
AcDbEntity
  8
Layer_1
 62
1
100
AcDbLine
 10
32.648594
 20
150.945952
 30
0.0
 11
36.048610
 21
150.945952
 31
0.0
  0
LINE
  5
300
100
AcDbEntity
  8
Layer_1
 62
1
100
AcDbLine
 10
36.048610
 20
150.945952
 30
0.0
 11
36.048610
 21
153.945946
 31
0.0
  0
LINE
  5
301
100
AcDbEntity
  8
Layer_1
 62
1
100
AcDbLine
 10
36.048610
 20
153.945946
 30
0.0
 11
46.048591
 21
153.945946
 31
0.0
  0
LINE
  5
302
100
AcDbEntity
  8
Layer_1
 62
1
100
AcDbLine
 10
46.048591
 20
153.945946
 30
0.0
 11
46.030274
 21
150.931401
 31
0.0
  0
LINE
  5
303
100
AcDbEntity
  8
Layer_1
 62
1
100
AcDbLine
 10
46.030274
 20
150.931401
 30
0.0
 11
194.216593
 21
150.916895
 31
0.0
  0
LINE
  5
304
100
AcDbEntity
  8
Layer_1
 62
1
100
AcDbLine
 10
194.216593
 20
150.916895
 30
0.0
 11
194.139482
 21
134.920527
 31
0.0
  0
LINE
  5
305
100
AcDbEntity
  8
Layer_1
 62
1
100
AcDbLine
 10
194.139482
 20
134.920527
 30
0.0
 11
194.181096
 21
131.661072
 31
0.0
  0
LINE
  5
306
100
AcDbEntity
  8
Layer_1
 62
1
100
AcDbLine
 10
194.181096
 20
131.661072
 30
0.0
 11
194.181096
 21
128.077951
 31
0.0
  0
LINE
  5
307
100
AcDbEntity
  8
Layer_1
 62
1
100
AcDbLine
 10
194.181096
 20
128.077951
 30
0.0
 11
197.181090
 21
128.077951
 31
0.0
  0
LINE
  5
308
100
AcDbEntity
  8
Layer_1
 62
1
100
AcDbLine
 10
197.181090
 20
128.077951
 30
0.0
 11
197.181090
 21
96.911306
 31
0.0
  0
LINE
  5
309
100
AcDbEntity
  8
Layer_1
 62
1
100
AcDbLine
 10
197.181090
 20
96.911306
 30
0.0
 11
194.181096
 21
96.911306
 31
0.0
  0
LINE
  5
30a
100
AcDbEntity
  8
Layer_1
 62
1
100
AcDbLine
 10
194.181096
 20
96.911306
 30
0.0
 11
194.181096
 21
93.511290
 31
0.0
  0
LINE
  5
30b
100
AcDbEntity
  8
Layer_1
 62
1
100
AcDbLine
 10
194.181096
 20
93.511290
 30
0.0
 11
194.139468
 21
90.321191
 31
0.0
  0
LINE
  5
30c
100
AcDbEntity
  8
Layer_1
 62
1
100
AcDbLine
 10
194.139468
 20
90.321191
 30
0.0
 11
194.216593
 21
74.287082
 31
0.0
  0
LINE
  5
30d
100
AcDbEntity
  8
Layer_1
 62
1
100
AcDbLine
 10
194.216593
 20
74.287082
 30
0.0
 11
46.057196
 21
74.264222
 31
0.0
  0
LINE
  5
30e
100
AcDbEntity
  8
Layer_1
 62
1
100
AcDbLine
 10
46.057196
 20
74.264222
 30
0.0
 11
46.048616
 21
71.241416
 31
0.0
  0
LINE
  5
30f
100
AcDbEntity
  8
Layer_1
 62
1
100
AcDbLine
 10
46.048616
 20
71.241416
 30
0.0
 11
36.048613
 21
71.241416
 31
0.0
  0
LINE
  5
310
100
AcDbEntity
  8
Layer_1
 62
1
100
AcDbLine
 10
36.048613
 20
71.241416
 30
0.0
 11
36.048613
 21
74.241410
 31
0.0
  0
LINE
  5
311
100
AcDbEntity
  8
Layer_1
 62
1
100
AcDbLine
 10
36.048613
 20
74.241410
 30
0.0
 11
32.648620
 21
74.241410
 31
0.0
  0
LINE
  5
312
100
AcDbEntity
  8
Layer_1
 62
1
100
AcDbLine
 10
32.648620
 20
74.241410
 30
0.0
 11
32.648620
 21
77.241404
 31
0.0
  0
LINE
  5
313
100
AcDbEntity
  8
Layer_1
 62
1
100
AcDbLine
 10
32.648620
 20
77.241404
 30
0.0
 11
34.248620
 21
77.241404
 31
0.0
  0
LINE
  5
314
100
AcDbEntity
  8
Layer_1
 62
1
100
AcDbLine
 10
34.248620
 20
77.241404
 30
0.0
 11
34.248620
 21
80.241398
 31
0.0
  0
LINE
  5
315
100
AcDbEntity
  8
Layer_1
 62
1
100
AcDbLine
 10
34.248620
 20
80.241398
 30
0.0
 11
32.648620
 21
80.241398
 31
0.0
  0
LINE
  5
316
100
AcDbEntity
  8
Layer_1
 62
1
100
AcDbLine
 10
32.648620
 20
80.241398
 30
0.0
 11
32.648620
 21
82.241394
 31
0.0
  0
LINE
  5
317
100
AcDbEntity
  8
Layer_1
 62
1
100
AcDbLine
 10
32.648620
 20
82.241394
 30
0.0
 11
29.448626
 21
82.241394
 31
0.0
  0
LINE
  5
318
100
AcDbEntity
  8
Layer_1
 62
1
100
AcDbLine
 10
29.448626
 20
82.241394
 30
0.0
 11
29.448626
 21
80.241398
 31
0.0
  0
LINE
  5
319
100
AcDbEntity
  8
Layer_1
 62
1
100
AcDbLine
 10
29.448626
 20
80.241398
 30
0.0
 11
27.848624
 21
80.241398
 31
0.0
  0
LINE
  5
31a
100
AcDbEntity
  8
Layer_1
 62
1
100
AcDbLine
 10
27.848624
 20
80.241398
 30
0.0
 11
27.848624
 21
77.241404
 31
0.0
  0
LINE
  5
31b
100
AcDbEntity
  8
Layer_1
 62
1
100
AcDbLine
 10
27.848624
 20
77.241404
 30
0.0
 11
29.448626
 21
77.241404
 31
0.0
  0
LINE
  5
31c
100
AcDbEntity
  8
Layer_1
 62
1
100
AcDbLine
 10
29.448626
 20
77.241404
 30
0.0
 11
29.448626
 21
74.241410
 31
0.0
  0
LINE
  5
31d
100
AcDbEntity
  8
Layer_1
 62
1
100
AcDbLine
 10
29.448626
 20
74.241410
 30
0.0
 11
26.048613
 21
74.241410
 31
0.0
  0
LINE
  5
31e
100
AcDbEntity
  8
Layer_1
 62
1
100
AcDbLine
 10
26.048613
 20
74.241410
 30
0.0
 11
26.048613
 21
71.241416
 31
0.0
  0
LINE
  5
31f
100
AcDbEntity
  8
Layer_1
 62
1
100
AcDbLine
 10
26.048613
 20
71.241416
 30
0.0
 11
16.048633
 21
71.241416
 31
0.0
  0
LINE
  5
320
100
AcDbEntity
  8
Layer_1
 62
1
100
AcDbLine
 10
16.048633
 20
71.241416
 30
0.0
 11
16.040166
 21
74.264217
 31
0.0
  0
LINE
  5
321
100
AcDbEntity
  8
Layer_1
 62
1
100
AcDbLine
 10
16.040166
 20
74.264217
 30
0.0
 11
10.284046
 21
74.287020
 31
0.0
  0
LINE
  5
322
100
AcDbEntity
  8
Layer_1
 62
1
100
AcDbLine
 10
10.284046
 20
74.287020
 30
0.0
 11
10.250490
 21
90.223937
 31
0.0
  0
LINE
  5
323
100
AcDbEntity
  8
Layer_1
 62
1
100
AcDbLine
 10
237.252087
 20
25.955945
 30
0.0
 11
230.372920
 21
67.104886
 31
0.0
  0
LINE
  5
324
100
AcDbEntity
  8
Layer_1
 62
1
100
AcDbLine
 10
230.372920
 20
67.104886
 30
0.0
 11
208.908057
 21
67.104886
 31
0.0
  0
LINE
  5
325
100
AcDbEntity
  8
Layer_1
 62
1
100
AcDbLine
 10
208.908057
 20
67.104886
 30
0.0
 11
208.908057
 21
46.562720
 31
0.0
  0
LINE
  5
326
100
AcDbEntity
  8
Layer_1
 62
1
100
AcDbLine
 10
208.908057
 20
46.562720
 30
0.0
 11
206.201235
 21
46.562720
 31
0.0
  0
LINE
  5
327
100
AcDbEntity
  8
Layer_1
 62
1
100
AcDbLine
 10
206.201235
 20
46.562720
 30
0.0
 11
206.201235
 21
67.104886
 31
0.0
  0
LINE
  5
328
100
AcDbEntity
  8
Layer_1
 62
1
100
AcDbLine
 10
206.201235
 20
67.104886
 30
0.0
 11
129.226110
 21
67.104886
 31
0.0
  0
LINE
  5
329
100
AcDbEntity
  8
Layer_1
 62
1
100
AcDbLine
 10
129.226110
 20
67.104886
 30
0.0
 11
129.226110
 21
46.562720
 31
0.0
  0
LINE
  5
32a
100
AcDbEntity
  8
Layer_1
 62
1
100
AcDbLine
 10
129.226110
 20
46.562720
 30
0.0
 11
126.519288
 21
46.562720
 31
0.0
  0
LINE
  5
32b
100
AcDbEntity
  8
Layer_1
 62
1
100
AcDbLine
 10
126.519288
 20
46.562720
 30
0.0
 11
126.519288
 21
67.104886
 31
0.0
  0
LINE
  5
32c
100
AcDbEntity
  8
Layer_1
 62
1
100
AcDbLine
 10
126.519288
 20
67.104886
 30
0.0
 11
8.071747
 21
67.104886
 31
0.0
  0
LINE
  5
32d
100
AcDbEntity
  8
Layer_1
 62
1
100
AcDbLine
 10
8.071747
 20
67.104886
 30
0.0
 11
7.970946
 21
61.500334
 31
0.0
  0
LINE
  5
32e
100
AcDbEntity
  8
Layer_1
 62
1
100
AcDbLine
 10
7.970946
 20
61.500334
 30
0.0
 11
4.870150
 21
61.500334
 31
0.0
  0
LINE
  5
32f
100
AcDbEntity
  8
Layer_1
 62
1
100
AcDbLine
 10
4.870150
 20
61.500334
 30
0.0
 11
4.870150
 21
51.530388
 31
0.0
  0
LINE
  5
330
100
AcDbEntity
  8
Layer_1
 62
1
100
AcDbLine
 10
4.870150
 20
51.530388
 30
0.0
 11
7.870145
 21
51.530388
 31
0.0
  0
LINE
  5
331
100
AcDbEntity
  8
Layer_1
 62
1
100
AcDbLine
 10
7.870145
 20
51.530388
 30
0.0
 11
7.870145
 21
48.130400
 31
0.0
  0
LINE
  5
332
100
AcDbEntity
  8
Layer_1
 62
1
100
AcDbLine
 10
7.870145
 20
48.130400
 30
0.0
 11
10.870139
 21
48.130400
 31
0.0
  0
LINE
  5
333
100
AcDbEntity
  8
Layer_1
 62
1
100
AcDbLine
 10
10.870139
 20
48.130400
 30
0.0
 11
10.870139
 21
49.730402
 31
0.0
  0
LINE
  5
334
100
AcDbEntity
  8
Layer_1
 62
1
100
AcDbLine
 10
10.870139
 20
49.730402
 30
0.0
 11
13.870133
 21
49.730402
 31
0.0
  0
LINE
  5
335
100
AcDbEntity
  8
Layer_1
 62
1
100
AcDbLine
 10
13.870133
 20
49.730402
 30
0.0
 11
13.870133
 21
48.130400
 31
0.0
  0
LINE
  5
336
100
AcDbEntity
  8
Layer_1
 62
1
100
AcDbLine
 10
13.870133
 20
48.130400
 30
0.0
 11
15.870129
 21
48.130400
 31
0.0
  0
LINE
  5
337
100
AcDbEntity
  8
Layer_1
 62
1
100
AcDbLine
 10
15.870129
 20
48.130400
 30
0.0
 11
15.870129
 21
44.930423
 31
0.0
  0
LINE
  5
338
100
AcDbEntity
  8
Layer_1
 62
1
100
AcDbLine
 10
15.870129
 20
44.930423
 30
0.0
 11
13.870133
 21
44.930423
 31
0.0
  0
LINE
  5
339
100
AcDbEntity
  8
Layer_1
 62
1
100
AcDbLine
 10
13.870133
 20
44.930423
 30
0.0
 11
13.870133
 21
43.330421
 31
0.0
  0
LINE
  5
33a
100
AcDbEntity
  8
Layer_1
 62
1
100
AcDbLine
 10
13.870133
 20
43.330421
 30
0.0
 11
10.870139
 21
43.330421
 31
0.0
  0
LINE
  5
33b
100
AcDbEntity
  8
Layer_1
 62
1
100
AcDbLine
 10
10.870139
 20
43.330421
 30
0.0
 11
10.870139
 21
44.930423
 31
0.0
  0
LINE
  5
33c
100
AcDbEntity
  8
Layer_1
 62
1
100
AcDbLine
 10
10.870139
 20
44.930423
 30
0.0
 11
7.870145
 21
44.930423
 31
0.0
  0
LINE
  5
33d
100
AcDbEntity
  8
Layer_1
 62
1
100
AcDbLine
 10
7.870145
 20
44.930423
 30
0.0
 11
7.870145
 21
41.530407
 31
0.0
  0
LINE
  5
33e
100
AcDbEntity
  8
Layer_1
 62
1
100
AcDbLine
 10
7.870145
 20
41.530407
 30
0.0
 11
4.870150
 21
41.530407
 31
0.0
  0
LINE
  5
33f
100
AcDbEntity
  8
Layer_1
 62
1
100
AcDbLine
 10
4.870150
 20
41.530407
 30
0.0
 11
4.870150
 21
31.558886
 31
0.0
  0
LINE
  5
340
100
AcDbEntity
  8
Layer_1
 62
1
100
AcDbLine
 10
4.870150
 20
31.558886
 30
0.0
 11
7.970946
 21
31.558886
 31
0.0
  0
LINE
  5
341
100
AcDbEntity
  8
Layer_1
 62
1
100
AcDbLine
 10
7.970946
 20
31.558886
 30
0.0
 11
8.071747
 21
25.955945
 31
0.0
  0
LINE
  5
342
100
AcDbEntity
  8
Layer_1
 62
1
100
AcDbLine
 10
8.071747
 20
25.955945
 30
0.0
 11
64.818702
 21
25.853668
 31
0.0
  0
LINE
  5
343
100
AcDbEntity
  8
Layer_1
 62
1
100
AcDbLine
 10
64.818702
 20
25.853668
 30
0.0
 11
64.891944
 21
22.751397
 31
0.0
  0
LINE
  5
344
100
AcDbEntity
  8
Layer_1
 62
1
100
AcDbLine
 10
64.891944
 20
22.751397
 30
0.0
 11
74.891950
 21
22.751397
 31
0.0
  0
LINE
  5
345
100
AcDbEntity
  8
Layer_1
 62
1
100
AcDbLine
 10
74.891950
 20
22.751397
 30
0.0
 11
74.891950
 21
25.751391
 31
0.0
  0
LINE
  5
346
100
AcDbEntity
  8
Layer_1
 62
1
100
AcDbLine
 10
74.891950
 20
25.751391
 30
0.0
 11
78.291943
 21
25.751391
 31
0.0
  0
LINE
  5
347
100
AcDbEntity
  8
Layer_1
 62
1
100
AcDbLine
 10
78.291943
 20
25.751391
 30
0.0
 11
78.291943
 21
28.751385
 31
0.0
  0
LINE
  5
348
100
AcDbEntity
  8
Layer_1
 62
1
100
AcDbLine
 10
78.291943
 20
28.751385
 30
0.0
 11
76.691943
 21
28.751385
 31
0.0
  0
LINE
  5
349
100
AcDbEntity
  8
Layer_1
 62
1
100
AcDbLine
 10
76.691943
 20
28.751385
 30
0.0
 11
76.691943
 21
31.751399
 31
0.0
  0
LINE
  5
34a
100
AcDbEntity
  8
Layer_1
 62
1
100
AcDbLine
 10
76.691943
 20
31.751399
 30
0.0
 11
78.291943
 21
31.751399
 31
0.0
  0
LINE
  5
34b
100
AcDbEntity
  8
Layer_1
 62
1
100
AcDbLine
 10
78.291943
 20
31.751399
 30
0.0
 11
78.291943
 21
33.751395
 31
0.0
  0
LINE
  5
34c
100
AcDbEntity
  8
Layer_1
 62
1
100
AcDbLine
 10
78.291943
 20
33.751395
 30
0.0
 11
81.491937
 21
33.751395
 31
0.0
  0
LINE
  5
34d
100
AcDbEntity
  8
Layer_1
 62
1
100
AcDbLine
 10
81.491937
 20
33.751395
 30
0.0
 11
81.491937
 21
31.751399
 31
0.0
  0
LINE
  5
34e
100
AcDbEntity
  8
Layer_1
 62
1
100
AcDbLine
 10
81.491937
 20
31.751399
 30
0.0
 11
83.091936
 21
31.751399
 31
0.0
  0
LINE
  5
34f
100
AcDbEntity
  8
Layer_1
 62
1
100
AcDbLine
 10
83.091936
 20
31.751399
 30
0.0
 11
83.091936
 21
28.751385
 31
0.0
  0
LINE
  5
350
100
AcDbEntity
  8
Layer_1
 62
1
100
AcDbLine
 10
83.091936
 20
28.751385
 30
0.0
 11
81.491937
 21
28.751385
 31
0.0
  0
LINE
  5
351
100
AcDbEntity
  8
Layer_1
 62
1
100
AcDbLine
 10
81.491937
 20
28.751385
 30
0.0
 11
81.491937
 21
25.751391
 31
0.0
  0
LINE
  5
352
100
AcDbEntity
  8
Layer_1
 62
1
100
AcDbLine
 10
81.491937
 20
25.751391
 30
0.0
 11
84.891930
 21
25.751391
 31
0.0
  0
LINE
  5
353
100
AcDbEntity
  8
Layer_1
 62
1
100
AcDbLine
 10
84.891930
 20
25.751391
 30
0.0
 11
84.891930
 21
22.751397
 31
0.0
  0
LINE
  5
354
100
AcDbEntity
  8
Layer_1
 62
1
100
AcDbLine
 10
84.891930
 20
22.751397
 30
0.0
 11
94.891933
 21
22.751397
 31
0.0
  0
LINE
  5
355
100
AcDbEntity
  8
Layer_1
 62
1
100
AcDbLine
 10
94.891933
 20
22.751397
 30
0.0
 11
94.868875
 21
25.853668
 31
0.0
  0
LINE
  5
356
100
AcDbEntity
  8
Layer_1
 62
1
100
AcDbLine
 10
94.868875
 20
25.853668
 30
0.0
 11
150.904017
 21
25.961477
 31
0.0
  0
LINE
  5
357
100
AcDbEntity
  8
Layer_1
 62
1
100
AcDbLine
 10
150.904017
 20
25.961477
 30
0.0
 11
150.916040
 21
22.966986
 31
0.0
  0
LINE
  5
358
100
AcDbEntity
  8
Layer_1
 62
1
100
AcDbLine
 10
150.916040
 20
22.966986
 30
0.0
 11
160.916045
 21
22.966986
 31
0.0
  0
LINE
  5
359
100
AcDbEntity
  8
Layer_1
 62
1
100
AcDbLine
 10
160.916045
 20
22.966986
 30
0.0
 11
160.916045
 21
25.966980
 31
0.0
  0
LINE
  5
35a
100
AcDbEntity
  8
Layer_1
 62
1
100
AcDbLine
 10
160.916045
 20
25.966980
 30
0.0
 11
164.316039
 21
25.966980
 31
0.0
  0
LINE
  5
35b
100
AcDbEntity
  8
Layer_1
 62
1
100
AcDbLine
 10
164.316039
 20
25.966980
 30
0.0
 11
164.316039
 21
28.966974
 31
0.0
  0
LINE
  5
35c
100
AcDbEntity
  8
Layer_1
 62
1
100
AcDbLine
 10
164.316039
 20
28.966974
 30
0.0
 11
162.716039
 21
28.966974
 31
0.0
  0
LINE
  5
35d
100
AcDbEntity
  8
Layer_1
 62
1
100
AcDbLine
 10
162.716039
 20
28.966974
 30
0.0
 11
162.716039
 21
31.966988
 31
0.0
  0
LINE
  5
35e
100
AcDbEntity
  8
Layer_1
 62
1
100
AcDbLine
 10
162.716039
 20
31.966988
 30
0.0
 11
164.316039
 21
31.966988
 31
0.0
  0
LINE
  5
35f
100
AcDbEntity
  8
Layer_1
 62
1
100
AcDbLine
 10
164.316039
 20
31.966988
 30
0.0
 11
164.316039
 21
33.966984
 31
0.0
  0
LINE
  5
360
100
AcDbEntity
  8
Layer_1
 62
1
100
AcDbLine
 10
164.316039
 20
33.966984
 30
0.0
 11
167.516032
 21
33.966984
 31
0.0
  0
LINE
  5
361
100
AcDbEntity
  8
Layer_1
 62
1
100
AcDbLine
 10
167.516032
 20
33.966984
 30
0.0
 11
167.516032
 21
31.966988
 31
0.0
  0
LINE
  5
362
100
AcDbEntity
  8
Layer_1
 62
1
100
AcDbLine
 10
167.516032
 20
31.966988
 30
0.0
 11
169.116032
 21
31.966988
 31
0.0
  0
LINE
  5
363
100
AcDbEntity
  8
Layer_1
 62
1
100
AcDbLine
 10
169.116032
 20
31.966988
 30
0.0
 11
169.116032
 21
28.966974
 31
0.0
  0
LINE
  5
364
100
AcDbEntity
  8
Layer_1
 62
1
100
AcDbLine
 10
169.116032
 20
28.966974
 30
0.0
 11
167.516032
 21
28.966974
 31
0.0
  0
LINE
  5
365
100
AcDbEntity
  8
Layer_1
 62
1
100
AcDbLine
 10
167.516032
 20
28.966974
 30
0.0
 11
167.516032
 21
25.966980
 31
0.0
  0
LINE
  5
366
100
AcDbEntity
  8
Layer_1
 62
1
100
AcDbLine
 10
167.516032
 20
25.966980
 30
0.0
 11
170.916026
 21
25.966980
 31
0.0
  0
LINE
  5
367
100
AcDbEntity
  8
Layer_1
 62
1
100
AcDbLine
 10
170.916026
 20
25.966980
 30
0.0
 11
170.916026
 21
22.966986
 31
0.0
  0
LINE
  5
368
100
AcDbEntity
  8
Layer_1
 62
1
100
AcDbLine
 10
170.916026
 20
22.966986
 30
0.0
 11
180.916029
 21
22.966986
 31
0.0
  0
LINE
  5
369
100
AcDbEntity
  8
Layer_1
 62
1
100
AcDbLine
 10
180.916029
 20
22.966986
 30
0.0
 11
180.862034
 21
25.961477
 31
0.0
  0
LINE
  5
36a
100
AcDbEntity
  8
Layer_1
 62
1
100
AcDbLine
 10
180.862034
 20
25.961477
 30
0.0
 11
237.252087
 21
25.955945
 31
0.0
  0
LINE
  5
36b
100
AcDbEntity
  8
Layer_1
 62
5
100
AcDbLine
 10
49.401471
 20
61.530396
 30
0.0
 11
49.401471
 21
51.530391
 31
0.0
  0
LINE
  5
36c
100
AcDbEntity
  8
Layer_1
 62
5
100
AcDbLine
 10
49.401471
 20
51.530391
 30
0.0
 11
46.401477
 21
51.530391
 31
0.0
  0
LINE
  5
36d
100
AcDbEntity
  8
Layer_1
 62
5
100
AcDbLine
 10
46.401477
 20
51.530391
 30
0.0
 11
46.401477
 21
61.530396
 31
0.0
  0
LINE
  5
36e
100
AcDbEntity
  8
Layer_1
 62
5
100
AcDbLine
 10
46.401477
 20
61.530396
 30
0.0
 11
49.401471
 21
61.530396
 31
0.0
  0
LINE
  5
36f
100
AcDbEntity
  8
Layer_1
 62
5
100
AcDbLine
 10
49.401471
 20
41.530436
 30
0.0
 11
49.401471
 21
31.530430
 31
0.0
  0
LINE
  5
370
100
AcDbEntity
  8
Layer_1
 62
5
100
AcDbLine
 10
49.401471
 20
31.530430
 30
0.0
 11
46.401477
 21
31.530430
 31
0.0
  0
LINE
  5
371
100
AcDbEntity
  8
Layer_1
 62
5
100
AcDbLine
 10
46.401477
 20
31.530430
 30
0.0
 11
46.401477
 21
41.530436
 31
0.0
  0
LINE
  5
372
100
AcDbEntity
  8
Layer_1
 62
5
100
AcDbLine
 10
46.401477
 20
41.530436
 30
0.0
 11
49.401471
 21
41.530436
 31
0.0
  0
SPLINE
  5
373
100
AcDbEntity
  8
Layer_1
 62
5
100
AcDbSpline
 70
8
 71
3
 72
8
 73
4
 74
0
 40
0
 40
0
 40
0
 40
0
 40
1
 40
1
 40
1
 40
1
 10
47.900331
 20
44.980426
 30
0.0
 10
47.044290
 20
44.980426
 30
0.0
 10
46.350332
 20
45.674385
 30
0.0
 10
46.350332
 20
46.530426
 30
0.0
  0
SPLINE
  5
374
100
AcDbEntity
  8
Layer_1
 62
5
100
AcDbSpline
 70
8
 71
3
 72
8
 73
4
 74
0
 40
0
 40
0
 40
0
 40
0
 40
1
 40
1
 40
1
 40
1
 10
46.350332
 20
46.530426
 30
0.0
 10
46.350332
 20
47.386467
 30
0.0
 10
47.044290
 20
48.080425
 30
0.0
 10
47.900331
 20
48.080425
 30
0.0
  0
SPLINE
  5
375
100
AcDbEntity
  8
Layer_1
 62
5
100
AcDbSpline
 70
8
 71
3
 72
8
 73
4
 74
0
 40
0
 40
0
 40
0
 40
0
 40
1
 40
1
 40
1
 40
1
 10
47.900331
 20
48.080425
 30
0.0
 10
48.756372
 20
48.080425
 30
0.0
 10
49.450331
 20
47.386467
 30
0.0
 10
49.450331
 20
46.530426
 30
0.0
  0
SPLINE
  5
376
100
AcDbEntity
  8
Layer_1
 62
5
100
AcDbSpline
 70
8
 71
3
 72
8
 73
4
 74
0
 40
0
 40
0
 40
0
 40
0
 40
1
 40
1
 40
1
 40
1
 10
49.450331
 20
46.530426
 30
0.0
 10
49.450331
 20
45.674385
 30
0.0
 10
48.756372
 20
44.980426
 30
0.0
 10
47.900331
 20
44.980426
 30
0.0
  0
LINE
  5
377
100
AcDbEntity
  8
Layer_1
 62
5
100
AcDbLine
 10
47.900331
 20
44.980426
 30
0.0
 11
47.900331
 21
44.980426
 31
0.0
  0
LINE
  5
378
100
AcDbEntity
  8
Layer_1
 62
1
100
AcDbLine
 10
390.237948
 20
295.635226
 30
0.0
 11
349.089007
 21
288.756059
 31
0.0
  0
LINE
  5
379
100
AcDbEntity
  8
Layer_1
 62
1
100
AcDbLine
 10
349.089007
 20
288.756059
 30
0.0
 11
349.089007
 21
267.291196
 31
0.0
  0
LINE
  5
37a
100
AcDbEntity
  8
Layer_1
 62
1
100
AcDbLine
 10
349.089007
 20
267.291196
 30
0.0
 11
369.631173
 21
267.291196
 31
0.0
  0
LINE
  5
37b
100
AcDbEntity
  8
Layer_1
 62
1
100
AcDbLine
 10
369.631173
 20
267.291196
 30
0.0
 11
369.631173
 21
264.584374
 31
0.0
  0
LINE
  5
37c
100
AcDbEntity
  8
Layer_1
 62
1
100
AcDbLine
 10
369.631173
 20
264.584374
 30
0.0
 11
349.089007
 21
264.584374
 31
0.0
  0
LINE
  5
37d
100
AcDbEntity
  8
Layer_1
 62
1
100
AcDbLine
 10
349.089007
 20
264.584374
 30
0.0
 11
349.089007
 21
187.609249
 31
0.0
  0
LINE
  5
37e
100
AcDbEntity
  8
Layer_1
 62
1
100
AcDbLine
 10
349.089007
 20
187.609249
 30
0.0
 11
369.631173
 21
187.609249
 31
0.0
  0
LINE
  5
37f
100
AcDbEntity
  8
Layer_1
 62
1
100
AcDbLine
 10
369.631173
 20
187.609249
 30
0.0
 11
369.631173
 21
184.902427
 31
0.0
  0
LINE
  5
380
100
AcDbEntity
  8
Layer_1
 62
1
100
AcDbLine
 10
369.631173
 20
184.902427
 30
0.0
 11
349.089007
 21
184.902427
 31
0.0
  0
LINE
  5
381
100
AcDbEntity
  8
Layer_1
 62
1
100
AcDbLine
 10
349.089007
 20
184.902427
 30
0.0
 11
349.089007
 21
66.454886
 31
0.0
  0
LINE
  5
382
100
AcDbEntity
  8
Layer_1
 62
1
100
AcDbLine
 10
349.089007
 20
66.454886
 30
0.0
 11
354.693559
 21
66.354085
 31
0.0
  0
LINE
  5
383
100
AcDbEntity
  8
Layer_1
 62
1
100
AcDbLine
 10
354.693559
 20
66.354085
 30
0.0
 11
354.693559
 21
63.253289
 31
0.0
  0
LINE
  5
384
100
AcDbEntity
  8
Layer_1
 62
1
100
AcDbLine
 10
354.693559
 20
63.253289
 30
0.0
 11
364.663505
 21
63.253289
 31
0.0
  0
LINE
  5
385
100
AcDbEntity
  8
Layer_1
 62
1
100
AcDbLine
 10
364.663505
 20
63.253289
 30
0.0
 11
364.663505
 21
66.253284
 31
0.0
  0
LINE
  5
386
100
AcDbEntity
  8
Layer_1
 62
1
100
AcDbLine
 10
364.663505
 20
66.253284
 30
0.0
 11
368.063493
 21
66.253284
 31
0.0
  0
LINE
  5
387
100
AcDbEntity
  8
Layer_1
 62
1
100
AcDbLine
 10
368.063493
 20
66.253284
 30
0.0
 11
368.063493
 21
69.253278
 31
0.0
  0
LINE
  5
388
100
AcDbEntity
  8
Layer_1
 62
1
100
AcDbLine
 10
368.063493
 20
69.253278
 30
0.0
 11
366.463491
 21
69.253278
 31
0.0
  0
LINE
  5
389
100
AcDbEntity
  8
Layer_1
 62
1
100
AcDbLine
 10
366.463491
 20
69.253278
 30
0.0
 11
366.463491
 21
72.253272
 31
0.0
  0
LINE
  5
38a
100
AcDbEntity
  8
Layer_1
 62
1
100
AcDbLine
 10
366.463491
 20
72.253272
 30
0.0
 11
368.063493
 21
72.253272
 31
0.0
  0
LINE
  5
38b
100
AcDbEntity
  8
Layer_1
 62
1
100
AcDbLine
 10
368.063493
 20
72.253272
 30
0.0
 11
368.063493
 21
74.253268
 31
0.0
  0
LINE
  5
38c
100
AcDbEntity
  8
Layer_1
 62
1
100
AcDbLine
 10
368.063493
 20
74.253268
 30
0.0
 11
371.263470
 21
74.253268
 31
0.0
  0
LINE
  5
38d
100
AcDbEntity
  8
Layer_1
 62
1
100
AcDbLine
 10
371.263470
 20
74.253268
 30
0.0
 11
371.263470
 21
72.253272
 31
0.0
  0
LINE
  5
38e
100
AcDbEntity
  8
Layer_1
 62
1
100
AcDbLine
 10
371.263470
 20
72.253272
 30
0.0
 11
372.863472
 21
72.253272
 31
0.0
  0
LINE
  5
38f
100
AcDbEntity
  8
Layer_1
 62
1
100
AcDbLine
 10
372.863472
 20
72.253272
 30
0.0
 11
372.863472
 21
69.253278
 31
0.0
  0
LINE
  5
390
100
AcDbEntity
  8
Layer_1
 62
1
100
AcDbLine
 10
372.863472
 20
69.253278
 30
0.0
 11
371.263470
 21
69.253278
 31
0.0
  0
LINE
  5
391
100
AcDbEntity
  8
Layer_1
 62
1
100
AcDbLine
 10
371.263470
 20
69.253278
 30
0.0
 11
371.263470
 21
66.253284
 31
0.0
  0
LINE
  5
392
100
AcDbEntity
  8
Layer_1
 62
1
100
AcDbLine
 10
371.263470
 20
66.253284
 30
0.0
 11
374.663486
 21
66.253284
 31
0.0
  0
LINE
  5
393
100
AcDbEntity
  8
Layer_1
 62
1
100
AcDbLine
 10
374.663486
 20
66.253284
 30
0.0
 11
374.663486
 21
63.253289
 31
0.0
  0
LINE
  5
394
100
AcDbEntity
  8
Layer_1
 62
1
100
AcDbLine
 10
374.663486
 20
63.253289
 30
0.0
 11
384.635007
 21
63.253289
 31
0.0
  0
LINE
  5
395
100
AcDbEntity
  8
Layer_1
 62
1
100
AcDbLine
 10
384.635007
 20
63.253289
 30
0.0
 11
384.635007
 21
66.354085
 31
0.0
  0
LINE
  5
396
100
AcDbEntity
  8
Layer_1
 62
1
100
AcDbLine
 10
384.635007
 20
66.354085
 30
0.0
 11
390.237948
 21
66.454886
 31
0.0
  0
LINE
  5
397
100
AcDbEntity
  8
Layer_1
 62
1
100
AcDbLine
 10
390.237948
 20
66.454886
 30
0.0
 11
390.340225
 21
123.201841
 31
0.0
  0
LINE
  5
398
100
AcDbEntity
  8
Layer_1
 62
1
100
AcDbLine
 10
390.340225
 20
123.201841
 30
0.0
 11
393.442496
 21
123.275083
 31
0.0
  0
LINE
  5
399
100
AcDbEntity
  8
Layer_1
 62
1
100
AcDbLine
 10
393.442496
 20
123.275083
 30
0.0
 11
393.442496
 21
133.275089
 31
0.0
  0
LINE
  5
39a
100
AcDbEntity
  8
Layer_1
 62
1
100
AcDbLine
 10
393.442496
 20
133.275089
 30
0.0
 11
390.442502
 21
133.275089
 31
0.0
  0
LINE
  5
39b
100
AcDbEntity
  8
Layer_1
 62
1
100
AcDbLine
 10
390.442502
 20
133.275089
 30
0.0
 11
390.442502
 21
136.675082
 31
0.0
  0
LINE
  5
39c
100
AcDbEntity
  8
Layer_1
 62
1
100
AcDbLine
 10
390.442502
 20
136.675082
 30
0.0
 11
387.442508
 21
136.675082
 31
0.0
  0
LINE
  5
39d
100
AcDbEntity
  8
Layer_1
 62
1
100
AcDbLine
 10
387.442508
 20
136.675082
 30
0.0
 11
387.442508
 21
135.075082
 31
0.0
  0
LINE
  5
39e
100
AcDbEntity
  8
Layer_1
 62
1
100
AcDbLine
 10
387.442508
 20
135.075082
 30
0.0
 11
384.442494
 21
135.075082
 31
0.0
  0
LINE
  5
39f
100
AcDbEntity
  8
Layer_1
 62
1
100
AcDbLine
 10
384.442494
 20
135.075082
 30
0.0
 11
384.442494
 21
136.675082
 31
0.0
  0
LINE
  5
3a0
100
AcDbEntity
  8
Layer_1
 62
1
100
AcDbLine
 10
384.442494
 20
136.675082
 30
0.0
 11
382.442498
 21
136.675082
 31
0.0
  0
LINE
  5
3a1
100
AcDbEntity
  8
Layer_1
 62
1
100
AcDbLine
 10
382.442498
 20
136.675082
 30
0.0
 11
382.442498
 21
139.875076
 31
0.0
  0
LINE
  5
3a2
100
AcDbEntity
  8
Layer_1
 62
1
100
AcDbLine
 10
382.442498
 20
139.875076
 30
0.0
 11
384.442494
 21
139.875076
 31
0.0
  0
LINE
  5
3a3
100
AcDbEntity
  8
Layer_1
 62
1
100
AcDbLine
 10
384.442494
 20
139.875076
 30
0.0
 11
384.442494
 21
141.475075
 31
0.0
  0
LINE
  5
3a4
100
AcDbEntity
  8
Layer_1
 62
1
100
AcDbLine
 10
384.442494
 20
141.475075
 30
0.0
 11
387.442508
 21
141.475075
 31
0.0
  0
LINE
  5
3a5
100
AcDbEntity
  8
Layer_1
 62
1
100
AcDbLine
 10
387.442508
 20
141.475075
 30
0.0
 11
387.442508
 21
139.875076
 31
0.0
  0
LINE
  5
3a6
100
AcDbEntity
  8
Layer_1
 62
1
100
AcDbLine
 10
387.442508
 20
139.875076
 30
0.0
 11
390.442502
 21
139.875076
 31
0.0
  0
LINE
  5
3a7
100
AcDbEntity
  8
Layer_1
 62
1
100
AcDbLine
 10
390.442502
 20
139.875076
 30
0.0
 11
390.442502
 21
143.275069
 31
0.0
  0
LINE
  5
3a8
100
AcDbEntity
  8
Layer_1
 62
1
100
AcDbLine
 10
390.442502
 20
143.275069
 30
0.0
 11
393.442496
 21
143.275069
 31
0.0
  0
LINE
  5
3a9
100
AcDbEntity
  8
Layer_1
 62
1
100
AcDbLine
 10
393.442496
 20
143.275069
 30
0.0
 11
393.442496
 21
153.275072
 31
0.0
  0
LINE
  5
3aa
100
AcDbEntity
  8
Layer_1
 62
1
100
AcDbLine
 10
393.442496
 20
153.275072
 30
0.0
 11
390.340225
 21
153.252014
 31
0.0
  0
LINE
  5
3ab
100
AcDbEntity
  8
Layer_1
 62
1
100
AcDbLine
 10
390.340225
 20
153.252014
 30
0.0
 11
390.232416
 21
209.287156
 31
0.0
  0
LINE
  5
3ac
100
AcDbEntity
  8
Layer_1
 62
1
100
AcDbLine
 10
390.232416
 20
209.287156
 30
0.0
 11
393.226907
 21
209.299179
 31
0.0
  0
LINE
  5
3ad
100
AcDbEntity
  8
Layer_1
 62
1
100
AcDbLine
 10
393.226907
 20
209.299179
 30
0.0
 11
393.226907
 21
219.299184
 31
0.0
  0
LINE
  5
3ae
100
AcDbEntity
  8
Layer_1
 62
1
100
AcDbLine
 10
393.226907
 20
219.299184
 30
0.0
 11
390.226913
 21
219.299184
 31
0.0
  0
LINE
  5
3af
100
AcDbEntity
  8
Layer_1
 62
1
100
AcDbLine
 10
390.226913
 20
219.299184
 30
0.0
 11
390.226913
 21
222.699178
 31
0.0
  0
LINE
  5
3b0
100
AcDbEntity
  8
Layer_1
 62
1
100
AcDbLine
 10
390.226913
 20
222.699178
 30
0.0
 11
387.226919
 21
222.699178
 31
0.0
  0
LINE
  5
3b1
100
AcDbEntity
  8
Layer_1
 62
1
100
AcDbLine
 10
387.226919
 20
222.699178
 30
0.0
 11
387.226919
 21
221.099178
 31
0.0
  0
LINE
  5
3b2
100
AcDbEntity
  8
Layer_1
 62
1
100
AcDbLine
 10
387.226919
 20
221.099178
 30
0.0
 11
384.226905
 21
221.099178
 31
0.0
  0
LINE
  5
3b3
100
AcDbEntity
  8
Layer_1
 62
1
100
AcDbLine
 10
384.226905
 20
221.099178
 30
0.0
 11
384.226905
 21
222.699178
 31
0.0
  0
LINE
  5
3b4
100
AcDbEntity
  8
Layer_1
 62
1
100
AcDbLine
 10
384.226905
 20
222.699178
 30
0.0
 11
382.226909
 21
222.699178
 31
0.0
  0
LINE
  5
3b5
100
AcDbEntity
  8
Layer_1
 62
1
100
AcDbLine
 10
382.226909
 20
222.699178
 30
0.0
 11
382.226909
 21
225.899171
 31
0.0
  0
LINE
  5
3b6
100
AcDbEntity
  8
Layer_1
 62
1
100
AcDbLine
 10
382.226909
 20
225.899171
 30
0.0
 11
384.226905
 21
225.899171
 31
0.0
  0
LINE
  5
3b7
100
AcDbEntity
  8
Layer_1
 62
1
100
AcDbLine
 10
384.226905
 20
225.899171
 30
0.0
 11
384.226905
 21
227.499171
 31
0.0
  0
LINE
  5
3b8
100
AcDbEntity
  8
Layer_1
 62
1
100
AcDbLine
 10
384.226905
 20
227.499171
 30
0.0
 11
387.226919
 21
227.499171
 31
0.0
  0
LINE
  5
3b9
100
AcDbEntity
  8
Layer_1
 62
1
100
AcDbLine
 10
387.226919
 20
227.499171
 30
0.0
 11
387.226919
 21
225.899171
 31
0.0
  0
LINE
  5
3ba
100
AcDbEntity
  8
Layer_1
 62
1
100
AcDbLine
 10
387.226919
 20
225.899171
 30
0.0
 11
390.226913
 21
225.899171
 31
0.0
  0
LINE
  5
3bb
100
AcDbEntity
  8
Layer_1
 62
1
100
AcDbLine
 10
390.226913
 20
225.899171
 30
0.0
 11
390.226913
 21
229.299165
 31
0.0
  0
LINE
  5
3bc
100
AcDbEntity
  8
Layer_1
 62
1
100
AcDbLine
 10
390.226913
 20
229.299165
 30
0.0
 11
393.226907
 21
229.299165
 31
0.0
  0
LINE
  5
3bd
100
AcDbEntity
  8
Layer_1
 62
1
100
AcDbLine
 10
393.226907
 20
229.299165
 30
0.0
 11
393.226907
 21
239.299168
 31
0.0
  0
LINE
  5
3be
100
AcDbEntity
  8
Layer_1
 62
1
100
AcDbLine
 10
393.226907
 20
239.299168
 30
0.0
 11
390.232416
 21
239.245173
 31
0.0
  0
LINE
  5
3bf
100
AcDbEntity
  8
Layer_1
 62
1
100
AcDbLine
 10
390.232416
 20
239.245173
 30
0.0
 11
390.237948
 21
295.635226
 31
0.0
  0
LINE
  5
3c0
100
AcDbEntity
  8
Layer_1
 62
5
100
AcDbLine
 10
354.663497
 20
107.784610
 30
0.0
 11
364.663502
 21
107.784610
 31
0.0
  0
LINE
  5
3c1
100
AcDbEntity
  8
Layer_1
 62
5
100
AcDbLine
 10
364.663502
 20
107.784610
 30
0.0
 11
364.663502
 21
104.784616
 31
0.0
  0
LINE
  5
3c2
100
AcDbEntity
  8
Layer_1
 62
5
100
AcDbLine
 10
364.663502
 20
104.784616
 30
0.0
 11
354.663497
 21
104.784616
 31
0.0
  0
LINE
  5
3c3
100
AcDbEntity
  8
Layer_1
 62
5
100
AcDbLine
 10
354.663497
 20
104.784616
 30
0.0
 11
354.663497
 21
107.784610
 31
0.0
  0
LINE
  5
3c4
100
AcDbEntity
  8
Layer_1
 62
5
100
AcDbLine
 10
374.663457
 20
107.784610
 30
0.0
 11
384.663463
 21
107.784610
 31
0.0
  0
LINE
  5
3c5
100
AcDbEntity
  8
Layer_1
 62
5
100
AcDbLine
 10
384.663463
 20
107.784610
 30
0.0
 11
384.663463
 21
104.784616
 31
0.0
  0
LINE
  5
3c6
100
AcDbEntity
  8
Layer_1
 62
5
100
AcDbLine
 10
384.663463
 20
104.784616
 30
0.0
 11
374.663457
 21
104.784616
 31
0.0
  0
LINE
  5
3c7
100
AcDbEntity
  8
Layer_1
 62
5
100
AcDbLine
 10
374.663457
 20
104.784616
 30
0.0
 11
374.663457
 21
107.784610
 31
0.0
  0
SPLINE
  5
3c8
100
AcDbEntity
  8
Layer_1
 62
5
100
AcDbSpline
 70
8
 71
3
 72
8
 73
4
 74
0
 40
0
 40
0
 40
0
 40
0
 40
1
 40
1
 40
1
 40
1
 10
371.213467
 20
106.283470
 30
0.0
 10
371.213467
 20
105.427429
 30
0.0
 10
370.519508
 20
104.733471
 30
0.0
 10
369.663467
 20
104.733471
 30
0.0
  0
SPLINE
  5
3c9
100
AcDbEntity
  8
Layer_1
 62
5
100
AcDbSpline
 70
8
 71
3
 72
8
 73
4
 74
0
 40
0
 40
0
 40
0
 40
0
 40
1
 40
1
 40
1
 40
1
 10
369.663467
 20
104.733471
 30
0.0
 10
368.807426
 20
104.733471
 30
0.0
 10
368.113468
 20
105.427429
 30
0.0
 10
368.113468
 20
106.283470
 30
0.0
  0
SPLINE
  5
3ca
100
AcDbEntity
  8
Layer_1
 62
5
100
AcDbSpline
 70
8
 71
3
 72
8
 73
4
 74
0
 40
0
 40
0
 40
0
 40
0
 40
1
 40
1
 40
1
 40
1
 10
368.113468
 20
106.283470
 30
0.0
 10
368.113468
 20
107.139511
 30
0.0
 10
368.807426
 20
107.833470
 30
0.0
 10
369.663467
 20
107.833470
 30
0.0
  0
SPLINE
  5
3cb
100
AcDbEntity
  8
Layer_1
 62
5
100
AcDbSpline
 70
8
 71
3
 72
8
 73
4
 74
0
 40
0
 40
0
 40
0
 40
0
 40
1
 40
1
 40
1
 40
1
 10
369.663467
 20
107.833470
 30
0.0
 10
370.519508
 20
107.833470
 30
0.0
 10
371.213467
 20
107.139511
 30
0.0
 10
371.213467
 20
106.283470
 30
0.0
  0
LINE
  5
3cc
100
AcDbEntity
  8
Layer_1
 62
5
100
AcDbLine
 10
371.213467
 20
106.283470
 30
0.0
 11
371.213467
 21
106.283470
 31
0.0
  0
ENDSEC
  0
SECTION
  2
OBJECTS
  0
DICTIONARY
  5
C
330
0
100
AcDbDictionary
  3
ACAD_GROUP
350
D
  3
ACAD_MLINESTYLE
350
17
  0
DICTIONARY
  5
D
330
C
100
AcDbDictionary
  0
DICTIONARY
  5
1A
330
C
100
AcDbDictionary
  0
DICTIONARY
  5
17
330
C
100
AcDbDictionary
  3
STANDARD
350
18
  0
DICTIONARY
  5
19
330
C
100
AcDbDictionary
  0
ENDSEC
  0
EOF
