  0
SECTION
  2
HEADER
  9
$ACADVER
  1
AC1009
  9
$INSBASE
 10
0.0
 20
0.0
 30
0.0
  9
$EXTMIN
 10
0.0
 20
0.0
 30
0.0
  9
$EXTMAX
 10
0.0
 20
0.0
 30
0.0
  0
ENDSEC
  0
SECTION
  2
TABLES
  0
TABLE
  2
VPORT
 70
0
  0
ENDTAB
  0
TABLE
  2
LTYPE
 70
1
  0
LTYPE
  2
CONTINUOUS
 70
0
  3
Solid line
 72
65
 73
0
 40
0.0
  0
ENDTAB
  0
TABLE
  2
LAYER
 70
1
  0
LAYER
  2
0
 70
64
 62
7
  6
continuous
  0
ENDTAB
  0
TABLE
  2
STYLE
 70
1
  0
STYLE
  2
STANDARD
 70
0
 40
0
 41
1.0
 50
0.0
 71
0
 42
1
 3
ARIAL.TTF
 4

  0
ENDTAB
  0
TABLE
  2
VIEW
 70
0
  0
ENDTAB
  0
ENDSEC
  0
SECTION
  2
BLOCKS
  0
ENDSEC
  0
SECTION
  2
ENTITIES
  0
POLYLINE
  8
0
 62
0
 70
0
 66
1
 10
0.0
 20
0.0
 30
0.0
  0
VERTEX
  8
0
 10
150.0
 20
68.0
  0
VERTEX
  8
0
 10
154.0
 20
68.0
  0
SEQEND
  8
0
  0
CIRCLE
  8
0
 62
0
 10
18.0
 20
68.0
 30
0.0
 40
6.25
  0
CIRCLE
  8
0
 62
0
 10
35.0
 20
68.0
 30
0.0
 40
6.25
  0
CIRCLE
  8
0
 62
0
 10
52.0
 20
68.0
 30
0.0
 40
6.25
  0
CIRCLE
  8
0
 62
0
 10
69.0
 20
68.0
 30
0.0
 40
6.25
  0
CIRCLE
  8
0
 62
0
 10
86.0
 20
68.0
 30
0.0
 40
6.25
  0
CIRCLE
  8
0
 62
0
 10
103.0
 20
68.0
 30
0.0
 40
6.25
  0
POLYLINE
  8
0
 62
0
 70
1
 66
1
 10
0.0
 20
0.0
 30
0.0
  0
VERTEX
  8
0
 10
122.3
 20
10.0
  0
VERTEX
  8
0
 10
135.7
 20
10.0
  0
VERTEX
  8
0
 10
135.7
 20
24.2
  0
VERTEX
  8
0
 10
122.3
 20
24.2
  0
SEQEND
  8
0
  0
POLYLINE
  8
0
 62
0
 70
1
 66
1
 10
0.0
 20
0.0
 30
0.0
  0
VERTEX
  8
0
 10
37.02
 20
10.0
  0
VERTEX
  8
0
 10
39.52
 20
10.0
  0
VERTEX
  8
0
 10
39.52
 20
20.6
  0
VERTEX
  8
0
 10
37.02
 20
20.6
  0
SEQEND
  8
0
  0
POLYLINE
  8
0
 62
0
 70
1
 66
1
 10
0.0
 20
0.0
 30
0.0
  0
VERTEX
  8
0
 10
19.22
 20
10.0
  0
VERTEX
  8
0
 10
24.22
 20
10.0
  0
VERTEX
  8
0
 10
24.22
 20
20.6
  0
VERTEX
  8
0
 10
19.22
 20
20.6
  0
SEQEND
  8
0
  0
POLYLINE
  8
0
 62
0
 70
1
 66
1
 10
0.0
 20
0.0
 30
0.0
  0
VERTEX
  8
0
 10
52.32
 20
10.0
  0
VERTEX
  8
0
 10
54.82
 20
10.0
  0
VERTEX
  8
0
 10
54.82
 20
20.6
  0
VERTEX
  8
0
 10
52.32
 20
20.6
  0
SEQEND
  8
0
  0
POLYLINE
  8
0
 62
0
 70
1
 66
1
 10
0.0
 20
0.0
 30
0.0
  0
VERTEX
  8
0
 10
67.62
 20
10.0
  0
VERTEX
  8
0
 10
70.12
 20
10.0
  0
VERTEX
  8
0
 10
70.12
 20
20.6
  0
VERTEX
  8
0
 10
67.62
 20
20.6
  0
SEQEND
  8
0
  0
POLYLINE
  8
0
 62
0
 70
1
 66
1
 10
0.0
 20
0.0
 30
0.0
  0
VERTEX
  8
0
 10
82.92
 20
10.0
  0
VERTEX
  8
0
 10
85.42
 20
10.0
  0
VERTEX
  8
0
 10
85.42
 20
20.6
  0
VERTEX
  8
0
 10
82.92
 20
20.6
  0
SEQEND
  8
0
  0
POLYLINE
  8
0
 62
0
 70
1
 66
1
 10
0.0
 20
0.0
 30
0.0
  0
VERTEX
  8
0
 10
98.22
 20
10.0
  0
VERTEX
  8
0
 10
100.72
 20
10.0
  0
VERTEX
  8
0
 10
100.72
 20
20.6
  0
VERTEX
  8
0
 10
98.22
 20
20.6
  0
SEQEND
  8
0
  0
CIRCLE
  8
0
 62
0
 10
129.0
 20
42.6
 30
0.0
 40
4.7
  0
POLYLINE
  8
0
 62
0
 70
0
 66
1
 10
0.0
 20
0.0
 30
0.0
  0
VERTEX
  8
0
 10
-2.63299061816e-15
 20
86.0
  0
VERTEX
  8
0
 10
-1.94335306785e-15
 20
68.0
  0
SEQEND
  8
0
  0
POLYLINE
  8
0
 62
0
 70
1
 66
1
 10
0.0
 20
0.0
 30
0.0
  0
VERTEX
  8
0
 10
138.85
 20
75.5
  0
VERTEX
  8
0
 10
128.35
 20
75.5
  0
VERTEX
  8
0
 10
128.35
 20
60.5
  0
VERTEX
  8
0
 10
138.85
 20
60.5
  0
SEQEND
  8
0
  0
CIRCLE
  8
0
 62
0
 10
120.5
 20
73.5
 30
0.0
 40
2.5
  0
CIRCLE
  8
0
 62
0
 10
120.5
 20
63.5
 30
0.0
 40
2.5
  0
CIRCLE
  8
0
 62
0
 10
22.97
 20
40.3
 30
0.0
 40
3.8
  0
CIRCLE
  8
0
 62
0
 10
38.27
 20
40.3
 30
0.0
 40
3.8
  0
CIRCLE
  8
0
 62
0
 10
53.57
 20
40.3
 30
0.0
 40
3.8
  0
CIRCLE
  8
0
 62
0
 10
68.87
 20
40.3
 30
0.0
 40
3.8
  0
CIRCLE
  8
0
 62
0
 10
84.17
 20
40.3
 30
0.0
 40
3.8
  0
CIRCLE
  8
0
 62
0
 10
99.47
 20
40.3
 30
0.0
 40
3.8
  0
POLYLINE
  8
0
 62
0
 70
1
 66
1
 10
0.0
 20
0.0
 30
0.0
  0
VERTEX
  8
0
 10
37.2677234356
 20
28.9990896
  0
VERTEX
  8
0
 10
37.6166429534
 20
28.9990896
  0
VERTEX
  8
0
 10
37.6166429534
 20
28.7146632222
  0
VERTEX
  8
0
 10
37.3454448956
 20
28.1854965555
  0
VERTEX
  8
0
 10
37.132124689
 20
28.1854965555
  0
VERTEX
  8
0
 10
37.2677234356
 20
28.7146632222
  0
SEQEND
  8
0
  0
POLYLINE
  8
0
 62
0
 70
1
 66
1
 10
0.0
 20
0.0
 30
0.0
  0
VERTEX
  8
0
 10
51.7065125462
 20
31.0479523778
  0
VERTEX
  8
0
 10
53.0178538685
 20
31.0479523778
  0
VERTEX
  8
0
 10
53.0178538685
 20
30.7668336445
  0
VERTEX
  8
0
 10
52.0124372018
 20
30.7668336445
  0
VERTEX
  8
0
 10
52.0124372018
 20
30.1615996222
  0
VERTEX
  8
0
 10
52.1579580351
 20
30.1979780667
  0
VERTEX
  8
0
 10
52.3034788685
 20
30.2112142889
  0
VERTEX
  8
0
 10
52.9583224774
 20
29.9846660445
  0
VERTEX
  8
0
 10
53.1997548396
 20
29.3711629111
  0
VERTEX
  8
0
 10
52.9517080351
 20
28.7510444889
  0
VERTEX
  8
0
 10
52.2522157418
 20
28.5311087111
  0
VERTEX
  8
0
 10
51.9347157418
 20
28.5575529333
  0
VERTEX
  8
0
 10
51.6023330351
 20
28.6369279333
  0
VERTEX
  8
0
 10
51.6023330351
 20
28.9726199778
  0
VERTEX
  8
0
 10
51.9099109485
 20
28.8519022444
  0
VERTEX
  8
0
 10
52.2456012996
 20
28.8122161556
  0
VERTEX
  8
0
 10
52.6987000462
 20
28.9626970444
  0
VERTEX
  8
0
 10
52.8657183107
 20
29.3711488
  0
VERTEX
  8
0
 10
52.6987000462
 20
29.7795977334
  0
VERTEX
  8
0
 10
52.2456012996
 20
29.9300814445
  0
VERTEX
  8
0
 10
51.977710604
 20
29.9003154667
  0
VERTEX
  8
0
 10
51.7065125462
 20
29.8077098889
  0
SEQEND
  8
0
  0
POLYLINE
  8
0
 62
0
 70
1
 66
1
 10
0.0
 20
0.0
 30
0.0
  0
VERTEX
  8
0
 10
39.3232054534
 20
29.9102496889
  0
VERTEX
  8
0
 10
39.6969292001
 20
29.6969292
  0
VERTEX
  8
0
 10
39.832528229
 20
29.2967465556
  0
VERTEX
  8
0
 10
39.5811740623
 20
28.7311986222
  0
VERTEX
  8
0
 10
38.8667990623
 20
28.5311087111
  0
VERTEX
  8
0
 10
38.5459917001
 20
28.5625285111
  0
VERTEX
  8
0
 10
38.206994269
 20
28.6534774444
  0
VERTEX
  8
0
 10
38.206994269
 20
28.9759389111
  0
VERTEX
  8
0
 10
38.5112651023
 20
28.8535701778
  0
VERTEX
  8
0
 10
38.8568772579
 20
28.8122274444
  0
VERTEX
  8
0
 10
39.3347807979
 20
28.9362528222
  0
VERTEX
  8
0
 10
39.5001455223
 20
29.2967465556
  0
VERTEX
  8
0
 10
39.3463564245
 20
29.6373972445
  0
VERTEX
  8
0
 10
38.921369269
 20
29.7614198
  0
VERTEX
  8
0
 10
38.6336349645
 20
29.7614198
  0
VERTEX
  8
0
 10
38.6336349645
 20
30.0359260667
  0
VERTEX
  8
0
 10
38.9345984356
 20
30.0359260667
  0
VERTEX
  8
0
 10
39.3116298268
 20
30.1334902889
  0
VERTEX
  8
0
 10
39.4422679534
 20
30.4179194889
  0
VERTEX
  8
0
 10
39.3066689245
 20
30.7089611556
  0
VERTEX
  8
0
 10
38.921369269
 20
30.8114868445
  0
VERTEX
  8
0
 10
38.6270205223
 20
30.7817208667
  0
VERTEX
  8
0
 10
38.2814083668
 20
30.6891152889
  0
VERTEX
  8
0
 10
38.2814083668
 20
30.9867722445
  0
VERTEX
  8
0
 10
38.6369423268
 20
31.0661472445
  0
VERTEX
  8
0
 10
38.9511349645
 20
31.0925914667
  0
VERTEX
  8
0
 10
39.553062189
 20
30.9189598889
  0
VERTEX
  8
0
 10
39.7746506601
 20
30.45263
  0
VERTEX
  8
0
 10
39.6572417001
 20
30.1053640222
  0
SEQEND
  8
0
  0
POLYLINE
  8
0
 62
0
 70
1
 66
1
 10
0.0
 20
0.0
 30
0.0
  0
VERTEX
  8
0
 10
41.0744163556
 20
28.5790639111
  0
VERTEX
  8
0
 10
40.1318381601
 20
31.0479580223
  0
VERTEX
  8
0
 10
40.4807573956
 20
31.0479580223
  0
VERTEX
  8
0
 10
41.262931769
 20
28.9693236222
  0
VERTEX
  8
0
 10
42.0467599645
 20
31.0479580223
  0
VERTEX
  8
0
 10
42.3940256601
 20
31.0479580223
  0
VERTEX
  8
0
 10
41.4531012868
 20
28.5790639111
  0
SEQEND
  8
0
  0
POLYLINE
  8
0
 62
0
 70
1
 66
1
 10
0.0
 20
0.0
 30
0.0
  0
VERTEX
  8
0
 10
65.9497656955
 20
28.8122302667
  0
VERTEX
  8
0
 10
66.4954688911
 20
28.8122302667
  0
VERTEX
  8
0
 10
66.4954688911
 20
30.6957334
  0
VERTEX
  8
0
 10
65.9018099311
 20
30.5766694889
  0
VERTEX
  8
0
 10
65.9018099311
 20
30.8809417334
  0
VERTEX
  8
0
 10
66.4921615289
 20
31.0000028223
  0
VERTEX
  8
0
 10
66.8261980578
 20
31.0000028223
  0
VERTEX
  8
0
 10
66.8261980578
 20
28.8122302667
  0
VERTEX
  8
0
 10
67.3719012533
 20
28.8122302667
  0
VERTEX
  8
0
 10
67.3719012533
 20
28.5311087111
  0
VERTEX
  8
0
 10
65.9497656955
 20
28.5311087111
  0
SEQEND
  8
0
  0
POLYLINE
  8
0
 62
0
 70
1
 66
1
 10
0.0
 20
0.0
 30
0.0
  0
VERTEX
  8
0
 10
68.3359765978
 20
28.8122302667
  0
VERTEX
  8
0
 10
69.5017970866
 20
28.8122302667
  0
VERTEX
  8
0
 10
69.5017970866
 20
28.5311087111
  0
VERTEX
  8
0
 10
67.9341406955
 20
28.5311087111
  0
VERTEX
  8
0
 10
67.9341406955
 20
28.8122302667
  0
VERTEX
  8
0
 10
68.4517317355
 20
29.3397431111
  0
VERTEX
  8
0
 10
68.8651432644
 20
29.7680379111
  0
VERTEX
  8
0
 10
69.0883855578
 20
30.0723073334
  0
VERTEX
  8
0
 10
69.1528775689
 20
30.3187014445
  0
VERTEX
  8
0
 10
69.01397146
 20
30.6395090889
  0
VERTEX
  8
0
 10
68.65513042
 20
30.7635316445
  0
VERTEX
  8
0
 10
68.3227474311
 20
30.7089611556
  0
VERTEX
  8
0
 10
67.9506772244
 20
30.5435958667
  0
VERTEX
  8
0
 10
67.9506772244
 20
30.8809417334
  0
VERTEX
  8
0
 10
68.3277083333
 20
31.0033104667
  0
VERTEX
  8
0
 10
68.6485156955
 20
31.0446503778
  0
VERTEX
  8
0
 10
69.2603647244
 20
30.8528295778
  0
VERTEX
  8
0
 10
69.48856792
 20
30.3401983111
  0
VERTEX
  8
0
 10
69.4306900689
 20
30.0508104667
  0
VERTEX
  8
0
 10
69.2239845866
 20
29.7300028222
  0
VERTEX
  8
0
 10
68.9610547933
 20
29.4521917333
  0
SEQEND
  8
0
  0
POLYLINE
  8
0
 62
0
 70
1
 66
1
 10
0.0
 20
0.0
 30
0.0
  0
VERTEX
  8
0
 10
70.8114845866
 20
28.5311087111
  0
VERTEX
  8
0
 10
69.8689063911
 20
31.0000028223
  0
VERTEX
  8
0
 10
70.2178256266
 20
31.0000028223
  0
VERTEX
  8
0
 10
71.0
 20
28.9213712444
  0
VERTEX
  8
0
 10
71.7838281955
 20
31.0000028223
  0
VERTEX
  8
0
 10
72.1310938911
 20
31.0000028223
  0
VERTEX
  8
0
 10
71.1901692355
 20
28.5311087111
  0
SEQEND
  8
0
  0
POLYLINE
  8
0
 62
0
 70
1
 66
1
 10
0.0
 20
0.0
 30
0.0
  0
VERTEX
  8
0
 10
79.675844231
 20
29.5944006889
  0
VERTEX
  8
0
 10
80.5671612754
 20
29.5944006889
  0
VERTEX
  8
0
 10
80.5671612754
 20
29.3232048889
  0
VERTEX
  8
0
 10
79.675844231
 20
29.3232048889
  0
SEQEND
  8
0
  0
POLYLINE
  8
0
 62
0
 70
1
 66
1
 10
0.0
 20
0.0
 30
0.0
  0
VERTEX
  8
0
 10
81.1542060754
 20
28.8122274444
  0
VERTEX
  8
0
 10
81.6999081421
 20
28.8122274444
  0
VERTEX
  8
0
 10
81.6999081421
 20
30.6957305778
  0
VERTEX
  8
0
 10
81.1062480532
 20
30.5766666667
  0
VERTEX
  8
0
 10
81.1062480532
 20
30.8809389112
  0
VERTEX
  8
0
 10
81.6966004977
 20
31.0
  0
VERTEX
  8
0
 10
82.0306358977
 20
31.0
  0
VERTEX
  8
0
 10
82.0306358977
 20
28.8122274444
  0
VERTEX
  8
0
 10
82.5763407865
 20
28.8122274444
  0
VERTEX
  8
0
 10
82.5763407865
 20
28.5311087111
  0
VERTEX
  8
0
 10
81.1542060754
 20
28.5311087111
  0
SEQEND
  8
0
  0
POLYLINE
  8
0
 62
0
 70
1
 66
1
 10
0.0
 20
0.0
 30
0.0
  0
VERTEX
  8
0
 10
83.5404147199
 20
28.8122274444
  0
VERTEX
  8
0
 10
84.7062352088
 20
28.8122274444
  0
VERTEX
  8
0
 10
84.7062352088
 20
28.5311087111
  0
VERTEX
  8
0
 10
83.1385810754
 20
28.5311087111
  0
VERTEX
  8
0
 10
83.1385810754
 20
28.8122274444
  0
VERTEX
  8
0
 10
83.6561709865
 20
29.3397402889
  0
VERTEX
  8
0
 10
84.0695813865
 20
29.7680350889
  0
VERTEX
  8
0
 10
84.2928248088
 20
30.0723045111
  0
VERTEX
  8
0
 10
84.357318231
 20
30.3186986223
  0
VERTEX
  8
0
 10
84.2184112754
 20
30.6395062667
  0
VERTEX
  8
0
 10
83.8595685421
 20
30.7635288223
  0
VERTEX
  8
0
 10
83.5271869643
 20
30.7089583334
  0
VERTEX
  8
0
 10
83.1551164754
 20
30.5435958667
  0
VERTEX
  8
0
 10
83.1551164754
 20
30.8809389112
  0
VERTEX
  8
0
 10
83.532148431
 20
31.0033076445
  0
VERTEX
  8
0
 10
83.8529560754
 20
31.0446503778
  0
VERTEX
  8
0
 10
84.4648025643
 20
30.8528267556
  0
VERTEX
  8
0
 10
84.6930074532
 20
30.3401954889
  0
VERTEX
  8
0
 10
84.6351293199
 20
30.0508076445
  0
VERTEX
  8
0
 10
84.4284241199
 20
29.73
  0
VERTEX
  8
0
 10
84.1654946088
 20
29.4521889111
  0
SEQEND
  8
0
  0
POLYLINE
  8
0
 62
0
 70
1
 66
1
 10
0.0
 20
0.0
 30
0.0
  0
VERTEX
  8
0
 10
86.0159241199
 20
28.5311087111
  0
VERTEX
  8
0
 10
85.073344231
 20
31.0
  0
VERTEX
  8
0
 10
85.422264031
 20
31.0
  0
VERTEX
  8
0
 10
86.2044400976
 20
28.9213684222
  0
VERTEX
  8
0
 10
86.9882671643
 20
31.0
  0
VERTEX
  8
0
 10
87.3355331421
 20
31.0
  0
VERTEX
  8
0
 10
86.3946098976
 20
28.5311087111
  0
SEQEND
  8
0
  0
POLYLINE
  8
0
 62
0
 70
1
 66
1
 10
0.0
 20
0.0
 30
0.0
  0
VERTEX
  8
0
 10
97.3015382222
 20
28.5311087111
  0
VERTEX
  8
0
 10
96.3589583333
 20
31.0000028223
  0
VERTEX
  8
0
 10
96.7078781333
 20
31.0000028223
  0
VERTEX
  8
0
 10
97.4900513778
 20
28.9213712444
  0
VERTEX
  8
0
 10
98.2738812667
 20
31.0000028223
  0
VERTEX
  8
0
 10
98.6211472444
 20
31.0000028223
  0
VERTEX
  8
0
 10
97.6802211778
 20
28.5311087111
  0
SEQEND
  8
0
  0
POLYLINE
  8
0
 62
0
 70
1
 66
1
 10
0.0
 20
0.0
 30
0.0
  0
VERTEX
  8
0
 10
99.586875
 20
30.6709260667
  0
VERTEX
  8
0
 10
99.1337756889
 20
29.4422688
  0
VERTEX
  8
0
 10
100.041628133
 20
29.4422688
  0
SEQEND
  8
0
  0
POLYLINE
  8
0
 62
0
 70
1
 66
1
 10
0.0
 20
0.0
 30
0.0
  0
VERTEX
  8
0
 10
99.3983590222
 20
31.0000028223
  0
VERTEX
  8
0
 10
99.7770448
 20
31.0000028223
  0
VERTEX
  8
0
 10
100.717968044
 20
28.5311087111
  0
VERTEX
  8
0
 10
100.370704889
 20
28.5311087111
  0
VERTEX
  8
0
 10
100.145807644
 20
29.1644548889
  0
VERTEX
  8
0
 10
99.0329038222
 20
29.1644548889
  0
VERTEX
  8
0
 10
98.8080094
 20
28.5311087111
  0
VERTEX
  8
0
 10
98.4557819556
 20
28.5311087111
  0
SEQEND
  8
0
  0
POLYLINE
  8
0
 62
0
 70
1
 66
1
 10
0.0
 20
0.0
 30
0.0
  0
VERTEX
  8
0
 10
20.6076312666
 20
28.8833333333
  0
VERTEX
  8
0
 10
20.6076312666
 20
29.5464454889
  0
VERTEX
  8
0
 10
20.0619292
 20
29.5464454889
  0
VERTEX
  8
0
 10
20.0619292
 20
29.8209517555
  0
VERTEX
  8
0
 10
20.9383618444
 20
29.8209517555
  0
VERTEX
  8
0
 10
20.9383618444
 20
28.7609645999
  0
VERTEX
  8
0
 10
20.5117208666
 20
28.5526055777
  0
VERTEX
  8
0
 10
20.0139711777
 20
28.4831506888
  0
VERTEX
  8
0
 10
19.1077753777
 20
28.8204965555
  0
VERTEX
  8
0
 10
18.7820062666
 20
29.7630736222
  0
VERTEX
  8
0
 10
19.1077753777
 20
30.7056506889
  0
VERTEX
  8
0
 10
20.0139711777
 20
31.0446503778
  0
VERTEX
  8
0
 10
20.4720319555
 20
30.9851184222
  0
VERTEX
  8
0
 10
20.8738684222
 20
30.8098330222
  0
VERTEX
  8
0
 10
20.8738684222
 20
30.4542979333
  0
VERTEX
  8
0
 10
20.4803010666
 20
30.6907691111
  0
VERTEX
  8
0
 10
20.0420833333
 20
30.7701441111
  0
VERTEX
  8
0
 10
19.3607819555
 20
30.5171375333
  0
VERTEX
  8
0
 10
19.1342337111
 20
29.7630736222
  0
VERTEX
  8
0
 10
19.3607819555
 20
29.0106663555
  0
VERTEX
  8
0
 10
20.0420833333
 20
28.7576569555
  0
VERTEX
  8
0
 10
20.3579295111
 20
28.7874229333
  0
SEQEND
  8
0
  0
POLYLINE
  8
0
 62
0
 70
1
 66
1
 10
0.0
 20
0.0
 30
0.0
  0
VERTEX
  8
0
 10
102.247592733
 20
29.6886629111
  0
VERTEX
  8
0
 10
102.455951756
 20
29.5332177333
  0
VERTEX
  8
0
 10
102.661003133
 20
29.2057976222
  0
VERTEX
  8
0
 10
103.0
 20
28.5311087111
  0
VERTEX
  8
0
 10
102.641160089
 20
28.5311087111
  0
VERTEX
  8
0
 10
102.325313911
 20
29.1644548889
  0
VERTEX
  8
0
 10
102.087188911
 20
29.4935316445
  0
VERTEX
  8
0
 10
101.774647556
 20
29.5745604667
  0
VERTEX
  8
0
 10
101.410846178
 20
29.5745604667
  0
VERTEX
  8
0
 10
101.410846178
 20
28.5311087111
  0
VERTEX
  8
0
 10
101.076810778
 20
28.5311087111
  0
VERTEX
  8
0
 10
101.076810778
 20
31.0000028223
  0
VERTEX
  8
0
 10
101.830871867
 20
31.0000028223
  0
VERTEX
  8
0
 10
102.462564222
 20
30.8230636
  0
VERTEX
  8
0
 10
102.670926067
 20
30.2889354667
  0
VERTEX
  8
0
 10
102.561785089
 20
29.9019834
  0
SEQEND
  8
0
  0
POLYLINE
  8
0
 62
0
 70
1
 66
1
 10
0.0
 20
0.0
 30
0.0
  0
VERTEX
  8
0
 10
101.410846178
 20
30.7254965556
  0
VERTEX
  8
0
 10
101.410846178
 20
29.8490667334
  0
VERTEX
  8
0
 10
101.830871867
 20
29.8490667334
  0
VERTEX
  8
0
 10
102.194676067
 20
29.9598587111
  0
VERTEX
  8
0
 10
102.318698622
 20
30.2889354667
  0
VERTEX
  8
0
 10
102.194676067
 20
30.6147045778
  0
VERTEX
  8
0
 10
101.830871867
 20
30.7254965556
  0
SEQEND
  8
0
  0
POLYLINE
  8
0
 62
0
 70
1
 66
1
 10
0.0
 20
0.0
 30
0.0
  0
VERTEX
  8
0
 10
21.5502083333
 20
31.0
  0
VERTEX
  8
0
 10
22.0
 20
31.0
  0
VERTEX
  8
0
 10
23.0947145999
 20
28.9345961777
  0
VERTEX
  8
0
 10
23.0947145999
 20
31.0
  0
VERTEX
  8
0
 10
23.4188298888
 20
31.0
  0
VERTEX
  8
0
 10
23.4188298888
 20
28.5311087111
  0
VERTEX
  8
0
 10
22.9690382222
 20
28.5311087111
  0
VERTEX
  8
0
 10
21.8743236222
 20
30.5965125333
  0
VERTEX
  8
0
 10
21.8743236222
 20
28.5311087111
  0
VERTEX
  8
0
 10
21.5502083333
 20
28.5311087111
  0
SEQEND
  8
0
  0
POLYLINE
  8
0
 62
0
 70
1
 66
1
 10
0.0
 20
0.0
 30
0.0
  0
VERTEX
  8
0
 10
24.4176312666
 20
30.7254965555
  0
VERTEX
  8
0
 10
24.4176312666
 20
28.8056121555
  0
VERTEX
  8
0
 10
24.8211215555
 20
28.8056121555
  0
VERTEX
  8
0
 10
25.5685701777
 20
29.0371246888
  0
VERTEX
  8
0
 10
25.8066951777
 20
29.7680350889
  0
VERTEX
  8
0
 10
25.5685701777
 20
30.4939840222
  0
VERTEX
  8
0
 10
24.8211215555
 20
30.7254965555
  0
SEQEND
  8
0
  0
POLYLINE
  8
0
 62
0
 70
1
 66
1
 10
0.0
 20
0.0
 30
0.0
  0
VERTEX
  8
0
 10
24.0835958666
 20
31.0
  0
VERTEX
  8
0
 10
24.7698587111
 20
31.0
  0
VERTEX
  8
0
 10
25.8232305777
 20
30.7006920444
  0
VERTEX
  8
0
 10
26.1589197999
 20
29.7680350889
  0
VERTEX
  8
0
 10
25.8215767555
 20
28.8304166666
  0
VERTEX
  8
0
 10
24.7698587111
 20
28.5311087111
  0
VERTEX
  8
0
 10
24.0835958666
 20
28.5311087111
  0
SEQEND
  8
0
  0
POLYLINE
  8
0
 62
0
 70
0
 66
1
 10
0.0
 20
0.0
 30
0.0
  0
VERTEX
  8
0
 10
50.0
 20
1.28526015847e-15
  0
VERTEX
  8
0
 10
100.0
 20
4.34687715634e-15
  0
SEQEND
  8
0
  0
POLYLINE
  8
0
 62
0
 70
0
 66
1
 10
0.0
 20
0.0
 30
0.0
  0
VERTEX
  8
0
 10
-4.0
 20
18.0
  0
VERTEX
  8
0
 10
-4.4408920985e-16
 20
18.0
  0
SEQEND
  8
0
  0
POLYLINE
  8
0
 62
0
 70
0
 66
1
 10
0.0
 20
0.0
 30
0.0
  0
VERTEX
  8
0
 10
150.0
 20
-4.0
  0
VERTEX
  8
0
 10
100.0
 20
-4.0
  0
SEQEND
  8
0
  0
POLYLINE
  8
0
 62
0
 70
1
 66
1
 10
0.0
 20
0.0
 30
0.0
  0
VERTEX
  8
0
 10
36.0886740623
 20
29.9102496889
  0
VERTEX
  8
0
 10
36.4623980912
 20
29.6969292
  0
VERTEX
  8
0
 10
36.5979971201
 20
29.2967465556
  0
VERTEX
  8
0
 10
36.3466429534
 20
28.7311986222
  0
VERTEX
  8
0
 10
35.6322679534
 20
28.5311087111
  0
VERTEX
  8
0
 10
35.3114605912
 20
28.5625285111
  0
VERTEX
  8
0
 10
34.9724631601
 20
28.6534774444
  0
VERTEX
  8
0
 10
34.9724631601
 20
28.9759389111
  0
VERTEX
  8
0
 10
35.2767339934
 20
28.8535701778
  0
VERTEX
  8
0
 10
35.6223458668
 20
28.8122274444
  0
VERTEX
  8
0
 10
36.100249689
 20
28.9362528222
  0
VERTEX
  8
0
 10
36.2656141312
 20
29.2967465556
  0
VERTEX
  8
0
 10
36.1118250334
 20
29.6373972445
  0
VERTEX
  8
0
 10
35.6868381601
 20
29.7614198
  0
VERTEX
  8
0
 10
35.3991038556
 20
29.7614198
  0
VERTEX
  8
0
 10
35.3991038556
 20
30.0359260667
  0
VERTEX
  8
0
 10
35.7000673268
 20
30.0359260667
  0
VERTEX
  8
0
 10
36.0770984356
 20
30.1334902889
  0
VERTEX
  8
0
 10
36.2077365623
 20
30.4179194889
  0
VERTEX
  8
0
 10
36.0721375334
 20
30.7089611556
  0
VERTEX
  8
0
 10
35.6868381601
 20
30.8114868445
  0
VERTEX
  8
0
 10
35.3924891312
 20
30.7817208667
  0
VERTEX
  8
0
 10
35.0468772579
 20
30.6891152889
  0
VERTEX
  8
0
 10
35.0468772579
 20
30.9867722445
  0
VERTEX
  8
0
 10
35.4024109356
 20
31.0661472445
  0
VERTEX
  8
0
 10
35.7166038556
 20
31.0925914667
  0
VERTEX
  8
0
 10
36.3185307979
 20
30.9189598889
  0
VERTEX
  8
0
 10
36.540119269
 20
30.45263
  0
VERTEX
  8
0
 10
36.4227105912
 20
30.1053640222
  0
SEQEND
  8
0
  0
POLYLINE
  8
0
 62
0
 70
1
 66
1
 10
0.0
 20
0.0
 30
0.0
  0
VERTEX
  8
0
 10
54.4664474773
 20
28.5790610889
  0
VERTEX
  8
0
 10
53.5238692818
 20
31.0479523778
  0
VERTEX
  8
0
 10
53.8727887996
 20
31.0479523778
  0
VERTEX
  8
0
 10
54.6549631729
 20
28.9693208
  0
VERTEX
  8
0
 10
55.4387913685
 20
31.0479523778
  0
VERTEX
  8
0
 10
55.7860567818
 20
31.0479523778
  0
VERTEX
  8
0
 10
54.8451324085
 20
28.5790610889
  0
SEQEND
  8
0
  0
POLYLINE
  8
0
 62
0
 70
0
 66
1
 10
0.0
 20
0.0
 30
0.0
  0
VERTEX
  8
0
 10
-2.44929359829e-16
 20
-4.0
  0
VERTEX
  8
0
 10
50.0
 20
-4.0
  0
SEQEND
  8
0
  0
POLYLINE
  8
0
 62
0
 70
0
 66
1
 10
0.0
 20
0.0
 30
0.0
  0
VERTEX
  8
0
 10
50.0
 20
-4.0
  0
VERTEX
  8
0
 10
50.0
 20
1.7763568394e-15
  0
SEQEND
  8
0
  0
POLYLINE
  8
0
 62
0
 70
0
 66
1
 10
0.0
 20
0.0
 30
0.0
  0
VERTEX
  8
0
 10
100.0
 20
-4.0
  0
VERTEX
  8
0
 10
100.0
 20
2.6645352591e-15
  0
SEQEND
  8
0
  0
POLYLINE
  8
0
 62
0
 70
0
 66
1
 10
0.0
 20
0.0
 30
0.0
  0
VERTEX
  8
0
 10
0.0
 20
0.0
  0
VERTEX
  8
0
 10
0.0
 20
-4.0
  0
SEQEND
  8
0
  0
POLYLINE
  8
0
 62
0
 70
0
 66
1
 10
0.0
 20
0.0
 30
0.0
  0
VERTEX
  8
0
 10
150.0
 20
4.59242549682e-15
  0
VERTEX
  8
0
 10
150.0
 20
-4.0
  0
SEQEND
  8
0
  0
POLYLINE
  8
0
 62
0
 70
0
 66
1
 10
0.0
 20
0.0
 30
0.0
  0
VERTEX
  8
0
 10
150.0
 20
90.0
  0
VERTEX
  8
0
 10
100.0
 20
90.0
  0
SEQEND
  8
0
  0
POLYLINE
  8
0
 62
0
 70
0
 66
1
 10
0.0
 20
0.0
 30
0.0
  0
VERTEX
  8
0
 10
150.0
 20
86.0
  0
VERTEX
  8
0
 10
150.0
 20
90.0
  0
SEQEND
  8
0
  0
POLYLINE
  8
0
 62
0
 70
0
 66
1
 10
0.0
 20
0.0
 30
0.0
  0
VERTEX
  8
0
 10
-2.63299061817e-15
 20
86.0
  0
VERTEX
  8
0
 10
-2.63299061817e-15
 20
90.0
  0
SEQEND
  8
0
  0
POLYLINE
  8
0
 62
0
 70
0
 66
1
 10
0.0
 20
0.0
 30
0.0
  0
VERTEX
  8
0
 10
100.0
 20
90.0
  0
VERTEX
  8
0
 10
100.0
 20
86.0
  0
SEQEND
  8
0
  0
POLYLINE
  8
0
 62
0
 70
0
 66
1
 10
0.0
 20
0.0
 30
0.0
  0
VERTEX
  8
0
 10
100.0
 20
86.0
  0
VERTEX
  8
0
 10
50.0
 20
86.0
  0
SEQEND
  8
0
  0
POLYLINE
  8
0
 62
0
 70
0
 66
1
 10
0.0
 20
0.0
 30
0.0
  0
VERTEX
  8
0
 10
-2.87791997799e-15
 20
90.0
  0
VERTEX
  8
0
 10
50.0
 20
90.0
  0
SEQEND
  8
0
  0
POLYLINE
  8
0
 62
0
 70
0
 66
1
 10
0.0
 20
0.0
 30
0.0
  0
VERTEX
  8
0
 10
50.0
 20
90.0
  0
VERTEX
  8
0
 10
50.0
 20
86.0
  0
SEQEND
  8
0
  0
POLYLINE
  8
0
 62
0
 70
0
 66
1
 10
0.0
 20
0.0
 30
0.0
  0
VERTEX
  8
0
 10
-4.0
 20
43.0
  0
VERTEX
  8
0
 10
-4.0
 20
68.0
  0
SEQEND
  8
0
  0
POLYLINE
  8
0
 62
0
 70
0
 66
1
 10
0.0
 20
0.0
 30
0.0
  0
VERTEX
  8
0
 10
-4.0
 20
68.0
  0
VERTEX
  8
0
 10
-2.22044604925e-15
 20
68.0
  0
SEQEND
  8
0
  0
POLYLINE
  8
0
 62
0
 70
0
 66
1
 10
0.0
 20
0.0
 30
0.0
  0
VERTEX
  8
0
 10
-4.0
 20
43.0
  0
VERTEX
  8
0
 10
-4.0
 20
18.0
  0
SEQEND
  8
0
  0
POLYLINE
  8
0
 62
0
 70
0
 66
1
 10
0.0
 20
0.0
 30
0.0
  0
VERTEX
  8
0
 10
-4.0
 20
43.0
  0
VERTEX
  8
0
 10
-4.0
 20
68.0
  0
SEQEND
  8
0
  0
POLYLINE
  8
0
 62
0
 70
0
 66
1
 10
0.0
 20
0.0
 30
0.0
  0
VERTEX
  8
0
 10
-4.0
 20
68.0
  0
VERTEX
  8
0
 10
-2.22044604925e-15
 20
68.0
  0
SEQEND
  8
0
  0
POLYLINE
  8
0
 62
0
 70
0
 66
1
 10
0.0
 20
0.0
 30
0.0
  0
VERTEX
  8
0
 10
-4.0
 20
43.0
  0
VERTEX
  8
0
 10
-4.0
 20
18.0
  0
SEQEND
  8
0
  0
POLYLINE
  8
0
 62
0
 70
0
 66
1
 10
0.0
 20
0.0
 30
0.0
  0
VERTEX
  8
0
 10
-6.58092909383e-16
 20
18.0
  0
VERTEX
  8
0
 10
0.0
 20
0.0
  0
SEQEND
  8
0
  0
POLYLINE
  8
0
 62
0
 70
0
 66
1
 10
0.0
 20
0.0
 30
0.0
  0
VERTEX
  8
0
 10
154.0
 20
18.0
  0
VERTEX
  8
0
 10
150.0
 20
18.0
  0
SEQEND
  8
0
  0
POLYLINE
  8
0
 62
0
 70
0
 66
1
 10
0.0
 20
0.0
 30
0.0
  0
VERTEX
  8
0
 10
154.0
 20
68.0
  0
VERTEX
  8
0
 10
154.0
 20
18.0
  0
SEQEND
  8
0
  0
POLYLINE
  8
0
 62
0
 70
0
 66
1
 10
0.0
 20
0.0
 30
0.0
  0
VERTEX
  8
0
 10
150.0
 20
4.59242549679e-15
  0
VERTEX
  8
0
 10
150.0
 20
18.0
  0
SEQEND
  8
0
  0
POLYLINE
  8
0
 62
0
 70
0
 66
1
 10
0.0
 20
0.0
 30
0.0
  0
VERTEX
  8
0
 10
150.0
 20
86.0
  0
VERTEX
  8
0
 10
150.0
 20
68.0
  0
SEQEND
  8
0
  0
ENDSEC
  0
EOF
