  0
SECTION
  2
HEADER
  9
$ACADVER
  1
AC1024
  9
$ACADMAINTVER
 70
     6
  9
$DWGCODEPAGE
  3
ANSI_1252
  9
$INSBASE
 10
0.0
 20
0.0
 30
0.0
  9
$EXTMIN
 10
-12.77994251251221
 20
-0.2529991567134857
 30
0.0
  9
$EXTMAX
 10
48.43891143798828
 20
6.669440269470215
 30
2.745225132228258
  9
$LIMMIN
 10
0.0
 20
0.0
  9
$LIMMAX
 10
12.0
 20
9.0
  9
$ORTHOMODE
 70
     0
  9
$REGENMODE
 70
     1
  9
$FILLMODE
 70
     1
  9
$QTEXTMODE
 70
     0
  9
$MIRRTEXT
 70
     1
  9
$LTSCALE
 40
1.0
  9
$ATTMODE
 70
     1
  9
$TEXTSIZE
 40
0.2
  9
$TRACEWID
 40
0.05
  9
$TEXTSTYLE
  7
Standard
  9
$CLAYER
  8
0
  9
$CELTYPE
  6
ByLayer
  9
$CECOLOR
 62
   256
  9
$CELTSCALE
 40
1.0
  9
$DISPSILH
 70
     0
  9
$DIMSCALE
 40
1.0
  9
$DIMASZ
 40
0.18
  9
$DIMEXO
 40
0.0625
  9
$DIMDLI
 40
0.38
  9
$DIMRND
 40
0.0
  9
$DIMDLE
 40
0.0
  9
$DIMEXE
 40
0.18
  9
$DIMTP
 40
0.0
  9
$DIMTM
 40
0.0
  9
$DIMTXT
 40
0.18
  9
$DIMCEN
 40
0.09
  9
$DIMTSZ
 40
0.0
  9
$DIMTOL
 70
     0
  9
$DIMLIM
 70
     0
  9
$DIMTIH
 70
     1
  9
$DIMTOH
 70
     1
  9
$DIMSE1
 70
     0
  9
$DIMSE2
 70
     0
  9
$DIMTAD
 70
     0
  9
$DIMZIN
 70
     0
  9
$DIMBLK
  1

  9
$DIMASO
 70
     1
  9
$DIMSHO
 70
     1
  9
$DIMPOST
  1

  9
$DIMAPOST
  1

  9
$DIMALT
 70
     0
  9
$DIMALTD
 70
     2
  9
$DIMALTF
 40
25.4
  9
$DIMLFAC
 40
1.0
  9
$DIMTOFL
 70
     0
  9
$DIMTVP
 40
0.0
  9
$DIMTIX
 70
     0
  9
$DIMSOXD
 70
     0
  9
$DIMSAH
 70
     0
  9
$DIMBLK1
  1

  9
$DIMBLK2
  1

  9
$DIMSTYLE
  2
Standard
  9
$DIMCLRD
 70
     0
  9
$DIMCLRE
 70
     0
  9
$DIMCLRT
 70
     0
  9
$DIMTFAC
 40
1.0
  9
$DIMGAP
 40
0.09
  9
$DIMJUST
 70
     0
  9
$DIMSD1
 70
     0
  9
$DIMSD2
 70
     0
  9
$DIMTOLJ
 70
     1
  9
$DIMTZIN
 70
     0
  9
$DIMALTZ
 70
     0
  9
$DIMALTTZ
 70
     0
  9
$DIMUPT
 70
     0
  9
$DIMDEC
 70
     4
  9
$DIMTDEC
 70
     4
  9
$DIMALTU
 70
     2
  9
$DIMALTTD
 70
     2
  9
$DIMTXSTY
  7
Standard
  9
$DIMAUNIT
 70
     0
  9
$DIMADEC
 70
     0
  9
$DIMALTRND
 40
0.0
  9
$DIMAZIN
 70
     0
  9
$DIMDSEP
 70
    46
  9
$DIMATFIT
 70
     3
  9
$DIMFRAC
 70
     0
  9
$DIMLDRBLK
  1

  9
$DIMLUNIT
 70
     2
  9
$DIMLWD
 70
    -2
  9
$DIMLWE
 70
    -2
  9
$DIMTMOVE
 70
     0
  9
$DIMFXL
 40
1.0
  9
$DIMFXLON
 70
     0
  9
$DIMJOGANG
 40
0.7853981633974483
  9
$DIMTFILL
 70
     0
  9
$DIMTFILLCLR
 70
     0
  9
$DIMARCSYM
 70
     0
  9
$DIMLTYPE
  6

  9
$DIMLTEX1
  6

  9
$DIMLTEX2
  6

  9
$DIMTXTDIRECTION
 70
     0
  9
$LUNITS
 70
     2
  9
$LUPREC
 70
     4
  9
$SKETCHINC
 40
0.1
  9
$FILLETRAD
 40
0.5
  9
$AUNITS
 70
     0
  9
$AUPREC
 70
     0
  9
$MENU
  1
.
  9
$ELEVATION
 40
0.0
  9
$PELEVATION
 40
0.0
  9
$THICKNESS
 40
0.0
  9
$LIMCHECK
 70
     0
  9
$CHAMFERA
 40
0.5
  9
$CHAMFERB
 40
0.5
  9
$CHAMFERC
 40
1.0
  9
$CHAMFERD
 40
0.0
  9
$SKPOLY
 70
     0
  9
$TDCREATE
 40
2305814.42056713
  9
$TDUCREATE
 40
1798394.712233796
  9
$TDUPDATE
 40
2305814.420567141
  9
$TDUUPDATE
 40
1798394.712233808
  9
$TDINDWG
 40
0.0000000116
  9
$TDUSRTIMER
 40
0.0000000116
  9
$USRTIMER
 70
     1
  9
$ANGBASE
 50
0.0
  9
$ANGDIR
 70
     0
  9
$PDMODE
 70
     0
  9
$PDSIZE
 40
0.0
  9
$PLINEWID
 40
0.0
  9
$SPLFRAME
 70
     0
  9
$SPLINETYPE
 70
     6
  9
$SPLINESEGS
 70
     8
  9
$HANDSEED
  5
4BC
  9
$SURFTAB1
 70
     6
  9
$SURFTAB2
 70
     6
  9
$SURFTYPE
 70
     6
  9
$SURFU
 70
     6
  9
$SURFV
 70
     6
  9
$UCSBASE
  2

  9
$UCSNAME
  2

  9
$UCSORG
 10
0.0
 20
0.0
 30
0.0
  9
$UCSXDIR
 10
1.0
 20
0.0
 30
0.0
  9
$UCSYDIR
 10
0.0
 20
1.0
 30
0.0
  9
$UCSORTHOREF
  2

  9
$UCSORTHOVIEW
 70
     0
  9
$UCSORGTOP
 10
0.0
 20
0.0
 30
0.0
  9
$UCSORGBOTTOM
 10
0.0
 20
0.0
 30
0.0
  9
$UCSORGLEFT
 10
0.0
 20
0.0
 30
0.0
  9
$UCSORGRIGHT
 10
0.0
 20
0.0
 30
0.0
  9
$UCSORGFRONT
 10
0.0
 20
0.0
 30
0.0
  9
$UCSORGBACK
 10
0.0
 20
0.0
 30
0.0
  9
$PUCSBASE
  2

  9
$PUCSNAME
  2

  9
$PUCSORG
 10
0.0
 20
0.0
 30
0.0
  9
$PUCSXDIR
 10
1.0
 20
0.0
 30
0.0
  9
$PUCSYDIR
 10
0.0
 20
1.0
 30
0.0
  9
$PUCSORTHOREF
  2

  9
$PUCSORTHOVIEW
 70
     0
  9
$PUCSORGTOP
 10
0.0
 20
0.0
 30
0.0
  9
$PUCSORGBOTTOM
 10
0.0
 20
0.0
 30
0.0
  9
$PUCSORGLEFT
 10
0.0
 20
0.0
 30
0.0
  9
$PUCSORGRIGHT
 10
0.0
 20
0.0
 30
0.0
  9
$PUCSORGFRONT
 10
0.0
 20
0.0
 30
0.0
  9
$PUCSORGBACK
 10
0.0
 20
0.0
 30
0.0
  9
$USERI1
 70
     0
  9
$USERI2
 70
     0
  9
$USERI3
 70
     0
  9
$USERI4
 70
     0
  9
$USERI5
 70
     0
  9
$USERR1
 40
0.0
  9
$USERR2
 40
0.0
  9
$USERR3
 40
0.0
  9
$USERR4
 40
0.0
  9
$USERR5
 40
0.0
  9
$WORLDVIEW
 70
     1
  9
$SHADEDGE
 70
     3
  9
$SHADEDIF
 70
    70
  9
$TILEMODE
 70
     1
  9
$MAXACTVP
 70
    64
  9
$PINSBASE
 10
0.0
 20
0.0
 30
0.0
  9
$PLIMCHECK
 70
     0
  9
$PEXTMIN
 10
1.000000000000000E+20
 20
1.000000000000000E+20
 30
1.000000000000000E+20
  9
$PEXTMAX
 10
-1.000000000000000E+20
 20
-1.000000000000000E+20
 30
-1.000000000000000E+20
  9
$PLIMMIN
 10
0.0
 20
0.0
  9
$PLIMMAX
 10
12.0
 20
9.0
  9
$UNITMODE
 70
     0
  9
$VISRETAIN
 70
     1
  9
$PLINEGEN
 70
     0
  9
$PSLTSCALE
 70
     1
  9
$TREEDEPTH
 70
  3020
  9
$CMLSTYLE
  2
Standard
  9
$CMLJUST
 70
     0
  9
$CMLSCALE
 40
1.0
  9
$PROXYGRAPHICS
 70
     1
  9
$MEASUREMENT
 70
     0
  9
$CELWEIGHT
370
    -1
  9
$ENDCAPS
280
     0
  9
$JOINSTYLE
280
     0
  9
$LWDISPLAY
290
     0
  9
$INSUNITS
 70
     1
  9
$HYPERLINKBASE
  1

  9
$STYLESHEET
  1

  9
$XEDIT
290
     1
  9
$CEPSNTYPE
380
     0
  9
$PSTYLEMODE
290
     1
  9
$FINGERPRINTGUID
  2
{0A1D07A9-E9C6-4313-86EC-61DA2406C32C}
  9
$VERSIONGUID
  2
{FAEB1C32-E019-11D5-929B-00C0DF256EC4}
  9
$EXTNAMES
290
     1
  9
$PSVPSCALE
 40
0.0
  9
$OLESTARTUP
290
     0
  9
$SORTENTS
280
   127
  9
$INDEXCTL
280
     0
  9
$HIDETEXT
280
     1
  9
$XCLIPFRAME
280
     2
  9
$HALOGAP
280
     0
  9
$OBSCOLOR
 70
   257
  9
$OBSLTYPE
280
     0
  9
$INTERSECTIONDISPLAY
280
     0
  9
$INTERSECTIONCOLOR
 70
   257
  9
$DIMASSOC
280
     2
  9
$PROJECTNAME
  1

  9
$CAMERADISPLAY
290
     0
  9
$LENSLENGTH
 40
50.0
  9
$CAMERAHEIGHT
 40
0.0
  9
$STEPSPERSEC
 40
2.0
  9
$STEPSIZE
 40
6.0
  9
$3DDWFPREC
 40
2.0
  9
$PSOLWIDTH
 40
0.25
  9
$PSOLHEIGHT
 40
4.0
  9
$LOFTANG1
 40
1.570796326794897
  9
$LOFTANG2
 40
1.570796326794897
  9
$LOFTMAG1
 40
0.0
  9
$LOFTMAG2
 40
0.0
  9
$LOFTPARAM
 70
     7
  9
$LOFTNORMALS
280
     1
  9
$LATITUDE
 40
37.795
  9
$LONGITUDE
 40
-122.394
  9
$NORTHDIRECTION
 40
0.0
  9
$TIMEZONE
 70
 -8000
  9
$LIGHTGLYPHDISPLAY
280
     1
  9
$TILEMODELIGHTSYNCH
280
     1
  9
$SOLIDHIST
280
     1
  9
$SHOWHIST
280
     1
  9
$DWFFRAME
280
     2
  9
$DGNFRAME
280
     2
  9
$REALWORLDSCALE
290
     1
  9
$INTERFERECOLOR
 62
   256
  9
$CSHADOW
280
     0
  9
$SHADOWPLANELOCATION
 40
0.0
  0
ENDSEC
  0
SECTION
  2
CLASSES
  0
CLASS
  1
ACDBDICTIONARYWDFLT
  2
AcDbDictionaryWithDefault
  3
ObjectDBX Classes
 90
        0
 91
        4
280
     0
281
     0
  0
CLASS
  1
VISUALSTYLE
  2
AcDbVisualStyle
  3
ObjectDBX Classes
 90
     4095
 91
        4
280
     0
281
     0
  0
CLASS
  1
MATERIAL
  2
AcDbMaterial
  3
ObjectDBX Classes
 90
     1153
 91
        4
280
     0
281
     0
  0
ENDSEC
  0
SECTION
  2
TABLES
  0
TABLE
  2
VPORT
  5
8
330
0
100
AcDbSymbolTable
 70
     1
  0
VPORT
  5
29
330
8
100
AcDbSymbolTableRecord
100
AcDbViewportTableRecord
  2
*Active
 70
     0
 10
0.0
 20
0.0
 11
1.0
 21
1.0
 12
24.43872366041254
 22
3.47826260577172
 13
0.0
 23
0.0
 14
0.5
 24
0.5
 15
0.5
 25
0.5
 16
0.0
 26
0.0
 36
1.0
 17
0.0
 27
0.0
 37
0.0
 40
6.51000224530949
 41
7.520793488788053
 42
50.0
 43
0.0
 44
0.0
 50
0.0
 51
0.0
 71
     0
 72
   100
 73
     1
 74
     3
 75
     0
 76
     0
 77
     0
 78
     0
281
     0
 65
     1
110
0.0
120
0.0
130
0.0
111
1.0
121
0.0
131
0.0
112
0.0
122
1.0
132
0.0
 79
     0
146
0.0
 60
     3
 61
     5
292
     1
282
     1
141
0.0
142
0.0
 63
   250
  0
ENDTAB
  0
TABLE
  2
LTYPE
  5
5
330
0
100
AcDbSymbolTable
 70
    11
  0
LTYPE
  5
14
330
5
100
AcDbSymbolTableRecord
100
AcDbLinetypeTableRecord
  2
ByBlock
 70
     0
  3

 72
    65
 73
     0
 40
0.0
  0
LTYPE
  5
15
330
5
100
AcDbSymbolTableRecord
100
AcDbLinetypeTableRecord
  2
ByLayer
 70
     0
  3

 72
    65
 73
     0
 40
0.0
  0
LTYPE
  5
16
330
5
100
AcDbSymbolTableRecord
100
AcDbLinetypeTableRecord
  2
Continuous
 70
     0
  3
Solid line
 72
    65
 73
     0
 40
0.0
  0
LTYPE
  5
46
330
5
100
AcDbSymbolTableRecord
100
AcDbLinetypeTableRecord
  2
BORDER
 70
     0
  3
__ __ . __ __ . __ 
 72
    65
 73
     6
 40
0.875
 49
0.25
 74
     0
 49
-0.125
 74
     0
 49
0.25
 74
     0
 49
-0.125
 74
     0
 49
0.0
 74
     0
 49
-0.125
 74
     0
  0
LTYPE
  5
47
330
5
100
AcDbSymbolTableRecord
100
AcDbLinetypeTableRecord
  2
CENTER
 70
     0
  3
___ _ ___ _ ___ _ _
 72
    65
 73
     4
 40
1.125
 49
0.75
 74
     0
 49
-0.125
 74
     0
 49
0.125
 74
     0
 49
-0.125
 74
     0
  0
LTYPE
  5
48
330
5
100
AcDbSymbolTableRecord
100
AcDbLinetypeTableRecord
  2
DASHDOT
 70
     0
  3
_._._._._._._._._._
 72
    65
 73
     4
 40
0.5
 49
0.25
 74
     0
 49
-0.125
 74
     0
 49
0.0
 74
     0
 49
-0.125
 74
     0
  0
LTYPE
  5
49
330
5
100
AcDbSymbolTableRecord
100
AcDbLinetypeTableRecord
  2
DASHED
 70
     0
  3
_ _ _ _ _ _ _ _ _ _
 72
    65
 73
     2
 40
0.375
 49
0.25
 74
     0
 49
-0.125
 74
     0
  0
LTYPE
  5
4A
330
5
100
AcDbSymbolTableRecord
100
AcDbLinetypeTableRecord
  2
DIVIDE
 70
     0
  3
__..__..__..__..__.
 72
    65
 73
     6
 40
0.625
 49
0.25
 74
     0
 49
-0.125
 74
     0
 49
0.0
 74
     0
 49
-0.125
 74
     0
 49
0.0
 74
     0
 49
-0.125
 74
     0
  0
LTYPE
  5
4B
330
5
100
AcDbSymbolTableRecord
100
AcDbLinetypeTableRecord
  2
DOT
 70
     0
  3
...................
 72
    65
 73
     2
 40
0.125
 49
0.0
 74
     0
 49
-0.125
 74
     0
  0
LTYPE
  5
4C
330
5
100
AcDbSymbolTableRecord
100
AcDbLinetypeTableRecord
  2
HIDDEN
 70
     0
  3
__ __ __ __ __ __ _
 72
    65
 73
     2
 40
0.1875
 49
0.125
 74
     0
 49
-0.0625
 74
     0
  0
LTYPE
  5
4D
330
5
100
AcDbSymbolTableRecord
100
AcDbLinetypeTableRecord
  2
PHANTOM
 70
     0
  3
___ _ _ ___ _ _ ___
 72
    65
 73
     6
 40
1.25
 49
0.625
 74
     0
 49
-0.125
 74
     0
 49
0.125
 74
     0
 49
-0.125
 74
     0
 49
0.125
 74
     0
 49
-0.125
 74
     0
  0
LTYPE
  5
4E
330
5
100
AcDbSymbolTableRecord
100
AcDbLinetypeTableRecord
  2
CUTTING
 70
     0
  3
________ _ _ ______
 72
    65
 73
     6
 40
1.4675
 49
1.0
 74
     0
 49
-0.0725
 74
     0
 49
0.125
 74
     0
 49
-0.0725
 74
     0
 49
0.125
 74
     0
 49
-0.0725
 74
     0
  0
LTYPE
  5
4F
330
5
100
AcDbSymbolTableRecord
100
AcDbLinetypeTableRecord
  2
STITCH
 70
     0
  3
_ _ _ _ _ _ _ _ _ _
 72
    65
 73
     2
 40
0.145
 49
0.0725
 74
     0
 49
-0.0725
 74
     0
  0
ENDTAB
  0
TABLE
  2
LAYER
  5
2
330
0
100
AcDbSymbolTable
 70
     6
  0
LAYER
  5
10
330
2
100
AcDbSymbolTableRecord
100
AcDbLayerTableRecord
  2
0
 70
     0
 62
     7
  6
Continuous
370
    -3
390
F
347
3E
  0
LAYER
  5
40
330
2
100
AcDbSymbolTableRecord
100
AcDbLayerTableRecord
  2
Construction
 70
     0
 62
     7
420
 16777215
  6
Continuous
370
    -3
390
F
347
3E
  0
LAYER
  5
41
330
2
100
AcDbSymbolTableRecord
100
AcDbLayerTableRecord
  2
Layer1
 70
     0
 62
     7
420
 16777215
  6
Continuous
370
    -3
390
F
347
3E
  0
LAYER
  5
42
330
2
100
AcDbSymbolTableRecord
100
AcDbLayerTableRecord
  2
DXF_flaming
 70
     0
 62
     7
420
 16777215
  6
Continuous
370
    -3
390
F
347
3E
  0
LAYER
  5
43
330
2
100
AcDbSymbolTableRecord
100
AcDbLayerTableRecord
  2
DXF_flaming_Model
 70
     0
 62
     7
420
 16777215
  6
Continuous
370
    -3
390
F
347
3E
  0
LAYER
  5
44
330
2
100
AcDbSymbolTableRecord
100
AcDbLayerTableRecord
  2
DXF_flaming_Model_Default
 70
     0
 62
     7
420
 16777215
  6
Continuous
370
    -3
390
F
347
3E
  0
ENDTAB
  0
TABLE
  2
STYLE
  5
3
330
0
100
AcDbSymbolTable
 70
     1
  0
STYLE
  5
11
330
3
100
AcDbSymbolTableRecord
100
AcDbTextStyleTableRecord
  2
Standard
 70
     0
 40
0.0
 41
1.0
 50
0.0
 71
     0
 42
0.2
  3
txt
  4

  0
ENDTAB
  0
TABLE
  2
VIEW
  5
6
330
0
100
AcDbSymbolTable
 70
     0
  0
ENDTAB
  0
TABLE
  2
UCS
  5
7
330
0
100
AcDbSymbolTable
 70
     0
  0
ENDTAB
  0
TABLE
  2
APPID
  5
9
330
0
100
AcDbSymbolTable
 70
     2
  0
APPID
  5
12
330
9
100
AcDbSymbolTableRecord
100
AcDbRegAppTableRecord
  2
ACAD
 70
     0
  0
APPID
  5
3F
330
9
100
AcDbSymbolTableRecord
100
AcDbRegAppTableRecord
  2
Encore Software ViaCAD
 70
     0
  0
ENDTAB
  0
TABLE
  2
DIMSTYLE
  5
A
330
0
100
AcDbSymbolTable
 70
     1
100
AcDbDimStyleTable
  0
DIMSTYLE
105
27
330
A
100
AcDbSymbolTableRecord
100
AcDbDimStyleTableRecord
  2
Standard
 70
     0
340
11
  0
ENDTAB
  0
TABLE
  2
BLOCK_RECORD
  5
1
330
0
100
AcDbSymbolTable
 70
     1
  0
BLOCK_RECORD
  5
1F
330
1
100
AcDbSymbolTableRecord
100
AcDbBlockTableRecord
  2
*Model_Space
340
22
 70
     0
280
     1
281
     0
  0
BLOCK_RECORD
  5
1B
330
1
100
AcDbSymbolTableRecord
100
AcDbBlockTableRecord
  2
*Paper_Space
340
1E
 70
     0
280
     1
281
     0
  0
BLOCK_RECORD
  5
23
330
1
100
AcDbSymbolTableRecord
100
AcDbBlockTableRecord
  2
*Paper_Space0
340
26
 70
     0
280
     1
281
     0
  0
ENDTAB
  0
ENDSEC
  0
SECTION
  2
BLOCKS
  0
BLOCK
  5
20
330
1F
100
AcDbEntity
  8
0
100
AcDbBlockBegin
  2
*Model_Space
 70
     0
 10
0.0
 20
0.0
 30
0.0
  3
*Model_Space
  1

  0
ENDBLK
  5
21
330
1F
100
AcDbEntity
  8
0
100
AcDbBlockEnd
  0
BLOCK
  5
1C
330
1B
100
AcDbEntity
 67
     1
  8
0
100
AcDbBlockBegin
  2
*Paper_Space
 70
     0
 10
0.0
 20
0.0
 30
0.0
  3
*Paper_Space
  1

  0
ENDBLK
  5
1D
330
1B
100
AcDbEntity
 67
     1
  8
0
100
AcDbBlockEnd
  0
BLOCK
  5
24
330
23
100
AcDbEntity
  8
0
100
AcDbBlockBegin
  2
*Paper_Space0
 70
     0
 10
0.0
 20
0.0
 30
0.0
  3
*Paper_Space0
  1

  0
ENDBLK
  5
25
330
23
100
AcDbEntity
  8
0
100
AcDbBlockEnd
  0
ENDSEC
  0
SECTION
  2
ENTITIES
  0
LINE
  5
50
330
1F
100
AcDbEntity
  8
Layer1
 62
    18
420
        0
370
   100
100
AcDbLine
 10
17.05999959795581
 20
2.350188531715922
 30
0.0
 11
17.2719987570321
 21
2.582946866572208
 31
0.0
  0
ARC
  5
51
330
1F
100
AcDbEntity
  8
Layer1
 62
    18
420
        0
370
   100
100
AcDbCircle
 10
16.98493999193492
 20
2.91123272350971
 30
0.0
 40
0.4360893749999939
100
AcDbArc
 50
311.167067139122
 51
32.34507113912286
  0
LINE
  5
52
330
1F
100
AcDbEntity
  8
Layer1
 62
    18
420
        0
370
   100
100
AcDbLine
 10
17.35336510672092
 20
3.144547502985283
 30
0.0
 11
17.21465225348341
 21
3.393029625207433
 31
0.0
  0
LINE
  5
53
330
1F
100
AcDbEntity
  8
Layer1
 62
    18
420
        0
370
   100
100
AcDbLine
 10
17.21465225348341
 20
3.393029625207433
 30
0.0
 11
17.13378262351012
 21
3.497959801103626
 31
0.0
  0
ARC
  5
54
330
1F
100
AcDbEntity
  8
Layer1
 62
    18
420
        0
370
   100
100
AcDbCircle
 10
16.99740180055593
 20
3.453698709083101
 30
0.0
 40
0.1433834999999215
100
AcDbArc
 50
17.98026413911001
 51
62.20346813913627
  0
LINE
  5
55
330
1F
100
AcDbEntity
  8
Layer1
 62
    18
420
        0
370
   100
100
AcDbLine
 10
17.06426613983904
 20
3.580536334808968
 30
0.0
 11
16.93610848184189
 21
3.761443855156944
 31
0.0
  0
LINE
  5
56
330
1F
100
AcDbEntity
  8
Layer1
 62
    18
420
        0
370
   100
100
AcDbLine
 10
16.93610848184189
 20
3.761443855156944
 30
0.0
 11
16.79806709920351
 21
3.962742772772607
 31
0.0
  0
ARC
  5
57
330
1F
100
AcDbEntity
  8
Layer1
 62
    18
420
        0
370
   100
100
AcDbCircle
 10
17.79181850708572
 20
4.4520676836016
 30
0.0
 40
1.10769187499979
100
AcDbArc
 50
181.2181051391199
 51
206.2157461391246
  0
ARC
  5
58
330
1F
100
AcDbEntity
  8
Layer1
 62
    18
420
        0
370
   100
100
AcDbCircle
 10
17.61005684300943
 20
4.491057914526256
 30
0.0
 40
0.9277908749999428
100
AcDbArc
 50
165.8841921391225
 51
183.8649441391235
  0
LINE
  5
59
330
1F
100
AcDbEntity
  8
Layer1
 62
    18
420
        0
370
   100
100
AcDbLine
 10
16.71028119370294
 20
4.717329575199589
 30
0.0
 11
16.76687566320412
 21
5.036315158611416
 31
0.0
  0
LINE
  5
5A
330
1F
100
AcDbEntity
  8
Layer1
 62
    18
420
        0
370
   100
100
AcDbLine
 10
16.76687566320412
 20
5.036315158611416
 30
0.0
 11
16.79532329890214
 21
5.163292980329505
 31
0.0
  0
ARC
  5
5B
330
1F
100
AcDbEntity
  8
Layer1
 62
    18
420
        0
370
   100
100
AcDbCircle
 10
16.68535475298201
 20
5.269308690878842
 30
0.0
 40
0.1527491249999676
100
AcDbArc
 50
316.0485131391163
 51
0.3735481391259064
  0
LINE
  5
5C
330
1F
100
AcDbEntity
  8
Layer1
 62
    18
420
        0
370
   100
100
AcDbLine
 10
16.83810107077598
 20
5.270303824379123
 30
0.0
 11
16.89137523445724
 21
5.391514175496898
 31
0.0
  0
LINE
  5
5D
330
1F
100
AcDbEntity
  8
Layer1
 62
    18
420
        0
370
   100
100
AcDbLine
 10
16.89137523445724
 20
5.391514175496898
 30
0.0
 11
16.91602583626489
 21
5.441818001810475
 31
0.0
  0
LINE
  5
5E
330
1F
100
AcDbEntity
  8
Layer1
 62
    18
420
        0
370
   100
100
AcDbLine
 10
16.91602583626489
 20
5.441818001810475
 30
0.0
 11
16.92801599069245
 21
5.472450601852497
 31
0.0
  0
LINE
  5
5F
330
1F
100
AcDbEntity
  8
Layer1
 62
    18
420
        0
370
   100
100
AcDbLine
 10
16.92801599069245
 20
5.472450601852497
 30
0.0
 11
16.90500198732763
 21
5.469401397607058
 31
0.0
  0
LINE
  5
60
330
1F
100
AcDbEntity
  8
Layer1
 62
    18
420
        0
370
   100
100
AcDbLine
 10
16.90500198732763
 20
5.469401397607058
 30
0.0
 11
16.73815558314369
 21
5.270805218907441
 31
0.0
  0
LINE
  5
61
330
1F
100
AcDbEntity
  8
Layer1
 62
    18
420
        0
370
   100
100
AcDbLine
 10
16.73815558314369
 20
5.270805218907441
 30
0.0
 11
16.62790728468698
 21
5.048969488798015
 31
0.0
  0
ARC
  5
62
330
1F
100
AcDbEntity
  8
Layer1
 62
    18
420
        0
370
   100
100
AcDbCircle
 10
18.30642019141765
 20
4.271591700446042
 30
0.0
 40
1.849789124999763
100
AcDbArc
 50
155.1494921391206
 51
175.8332691391234
  0
LINE
  5
63
330
1F
100
AcDbEntity
  8
Layer1
 62
    18
420
        0
370
   100
100
AcDbLine
 10
16.46151967970356
 20
4.405995063463337
 30
0.0
 11
16.47179500275867
 21
4.236881149113042
 31
0.0
  0
LINE
  5
64
330
1F
100
AcDbEntity
  8
Layer1
 62
    18
420
        0
370
   100
100
AcDbLine
 10
16.47179500275867
 20
4.236881149113042
 30
0.0
 11
16.5032531218305
 21
4.078367602253099
 31
0.0
  0
ARC
  5
65
330
1F
100
AcDbEntity
  8
Layer1
 62
    18
420
        0
370
   100
100
AcDbCircle
 10
17.15605647437841
 20
4.105174731078703
 30
0.0
 40
0.6533538750000085
100
AcDbArc
 50
182.3514421391219
 51
208.2323431391213
  0
ARC
  5
66
330
1F
100
AcDbEntity
  8
Layer1
 62
    18
420
        0
370
   100
100
AcDbCircle
 10
17.58264958880526
 20
4.125205873075678
 30
0.0
 40
1.054871999999975
100
AcDbArc
 50
198.1786041391231
 51
215.5152491391237
  0
ARC
  5
67
330
1F
100
AcDbEntity
  8
Layer1
 62
    18
420
        0
370
   100
100
AcDbCircle
 10
15.71362147180884
 20
2.965021322452867
 30
0.0
 40
1.149151499999817
100
AcDbArc
 50
11.88607913912126
 51
28.44670713912389
  0
ARC
  5
68
330
1F
100
AcDbEntity
  8
Layer1
 62
    18
420
        0
370
   100
100
AcDbCircle
 10
16.29311870791841
 20
3.086993931226672
 30
0.0
 40
0.5569571250000717
100
AcDbArc
 50
338.5494011391249
 51
11.88607913912058
  0
ARC
  5
69
330
1F
100
AcDbEntity
  8
Layer1
 62
    18
420
        0
370
   100
100
AcDbCircle
 10
16.56864450120841
 20
2.99792390971206
 30
0.0
 40
0.2685374999999945
100
AcDbArc
 50
271.5883421391212
 51
334.7361381391225
  0
ARC
  5
6A
330
1F
100
AcDbEntity
  8
Layer1
 62
    18
420
        0
370
   100
100
AcDbCircle
 10
16.49895562153735
 20
3.110374004920339
 30
0.0
 40
0.3886166250000067
100
AcDbArc
 50
214.4071521391222
 51
281.4480351391209
  0
ARC
  5
6B
330
1F
100
AcDbEntity
  8
Layer1
 62
    18
420
        0
370
   100
100
AcDbCircle
 10
16.56358699779491
 20
3.154640313558731
 30
0.0
 40
0.4669526250001664
100
AcDbArc
 50
185.6073101391277
 51
214.4071521391179
  0
LINE
  5
6C
330
1F
100
AcDbEntity
  8
Layer1
 62
    18
420
        0
370
   100
100
AcDbLine
 10
16.08765399844448
 20
3.168060612540778
 30
0.0
 11
16.09886816736396
 21
3.109013819205227
 31
0.0
  0
LINE
  5
6D
330
1F
100
AcDbEntity
  8
Layer1
 62
    18
420
        0
370
   100
100
AcDbLine
 10
16.08765399844448
 20
3.168060612540778
 30
0.0
 11
16.10029300952474
 21
3.221186241740057
 31
0.0
  0
LINE
  5
6E
330
1F
100
AcDbEntity
  8
Layer1
 62
    18
420
        0
370
   100
100
AcDbLine
 10
16.10029300952474
 20
3.221186241740057
 30
0.0
 11
16.1129902885718
 21
3.33027316390195
 31
0.0
  0
ARC
  5
6F
330
1F
100
AcDbEntity
  8
Layer1
 62
    18
420
        0
370
   100
100
AcDbCircle
 10
16.62308652655346
 20
3.270904696779871
 30
0.0
 40
0.5135400000000152
100
AcDbArc
 50
148.1381391391233
 51
173.3613621391223
  0
ARC
  5
70
330
1F
100
AcDbEntity
  8
Layer1
 62
    18
420
        0
370
   100
100
AcDbCircle
 10
16.08260363360255
 20
3.648371379850336
 30
0.0
 40
0.1489983750000005
100
AcDbArc
 50
314.4394331391214
 51
357.8143471391207
  0
LINE
  5
71
330
1F
100
AcDbEntity
  8
Layer1
 62
    18
420
        0
370
   100
100
AcDbLine
 10
16.23149254306749
 20
3.642689710875224
 30
0.0
 11
16.24525288037827
 21
3.658625408241406
 31
0.0
  0
ARC
  5
72
330
1F
100
AcDbEntity
  8
Layer1
 62
    18
420
        0
370
   100
100
AcDbCircle
 10
16.24984296827072
 20
3.664676056044971
 30
0.0
 40
0.0075948749999983
100
AcDbArc
 50
232.8137261391778
 51
136.8828801391492
  0
LINE
  5
73
330
1F
100
AcDbEntity
  8
Layer1
 62
    18
420
        0
370
   100
100
AcDbLine
 10
16.24429922080536
 20
3.669867087089571
 30
0.0
 11
16.21851041234986
 21
3.634357145121136
 31
0.0
  0
ARC
  5
74
330
1F
100
AcDbEntity
  8
Layer1
 62
    18
420
        0
370
   100
100
AcDbCircle
 10
17.20733795331008
 20
2.61058893127456
 30
0.0
 40
1.42333425000022
100
AcDbArc
 50
134.0053991391225
 51
146.7549571391207
  0
LINE
  5
75
330
1F
100
AcDbEntity
  8
Layer1
 62
    18
420
        0
370
   100
100
AcDbLine
 10
15.94766293258173
 20
3.285180360325363
 30
0.0
 11
16.01695581244336
 21
3.390890351731748
 31
0.0
  0
LINE
  5
76
330
1F
100
AcDbEntity
  8
Layer1
 62
    18
420
        0
370
   100
100
AcDbLine
 10
15.94766293258173
 20
3.285180360325363
 30
0.0
 11
15.90092446374544
 21
3.161110592281162
 31
0.0
  0
LINE
  5
77
330
1F
100
AcDbEntity
  8
Layer1
 62
    18
420
        0
370
   100
100
AcDbLine
 10
15.90092446374544
 20
3.161110592281162
 30
0.0
 11
15.87681476326437
 21
3.091939708888713
 31
0.0
  0
LINE
  5
78
330
1F
100
AcDbEntity
  8
Layer1
 62
    18
420
        0
370
   100
100
AcDbLine
 10
15.87681476326437
 20
3.091939708888713
 30
0.0
 11
15.85210215913093
 21
3.03134566183563
 31
0.0
  0
LINE
  5
79
330
1F
100
AcDbEntity
  8
Layer1
 62
    18
420
        0
370
   100
100
AcDbLine
 10
15.85210215913093
 20
3.03134566183563
 30
0.0
 11
15.82749481849218
 21
2.894417807459853
 31
0.0
  0
ARC
  5
7A
330
1F
100
AcDbEntity
  8
Layer1
 62
    18
420
        0
370
   100
100
AcDbCircle
 10
16.62105009665104
 20
2.8160004997577
 30
0.0
 40
0.7974202499999946
100
AcDbArc
 50
174.3564991391227
 51
209.9340411391231
  0
ARC
  5
7B
330
1F
100
AcDbEntity
  8
Layer1
 62
    18
420
        0
370
   100
100
AcDbCircle
 10
15.59849847153193
 20
2.076338905028333
 30
0.0
 40
0.4761168749998287
100
AcDbArc
 50
20.64016313911871
 51
45.87133913912867
  0
LINE
  5
7C
330
1F
100
AcDbEntity
  8
Layer1
 62
    18
420
        0
370
   100
100
AcDbLine
 10
16.04405405636041
 20
2.244169003116426
 30
0.0
 11
16.11248615429121
 21
2.1714908406354
 31
0.0
  0
ARC
  5
7D
330
1F
100
AcDbEntity
  8
Layer1
 62
    18
420
        0
370
   100
100
AcDbCircle
 10
16.22220210682352
 20
2.207288708186967
 30
0.0
 40
0.11540925
100
AcDbArc
 50
198.0703121391243
 51
250.9597971391248
  0
LINE
  5
7E
330
1F
100
AcDbEntity
  8
Layer1
 62
    18
420
        0
370
   100
100
AcDbLine
 10
16.18455247959738
 20
2.098194370514754
 30
0.0
 11
16.35888960226449
 21
1.897119882526319
 31
0.0
  0
LINE
  5
7F
330
1F
100
AcDbEntity
  8
Layer1
 62
    18
420
        0
370
   100
100
AcDbLine
 10
16.35888960226449
 20
1.897119882526319
 30
0.0
 11
16.39079954275492
 21
1.613929931107791
 31
0.0
  0
ARC
  5
80
330
1F
100
AcDbEntity
  8
Layer1
 62
    18
420
        0
370
   100
100
AcDbCircle
 10
15.91213339771478
 20
1.621240972479996
 30
0.0
 40
0.4787212500000062
100
AcDbArc
 50
303.3185391391229
 51
359.1248641391219
  0
ARC
  5
81
330
1F
100
AcDbEntity
  8
Layer1
 62
    18
420
        0
370
   100
100
AcDbCircle
 10
15.81763087327835
 20
1.85175889814861
 30
0.0
 40
0.7248262500000592
100
AcDbArc
 50
263.8513261391235
 51
299.5490331391208
  0
LINE
  5
82
330
1F
100
AcDbEntity
  8
Layer1
 62
    18
420
        0
370
   100
100
AcDbLine
 10
15.73999587073573
 20
1.131101847497366
 30
0.0
 11
15.48618875732202
 21
1.191161715889049
 31
0.0
  0
LINE
  5
83
330
1F
100
AcDbEntity
  8
Layer1
 62
    18
420
        0
370
   100
100
AcDbLine
 10
15.48618875732202
 20
1.191161715889049
 30
0.0
 11
15.32344875443264
 21
1.286210052231112
 31
0.0
  0
ARC
  5
84
330
1F
100
AcDbEntity
  8
Layer1
 62
    18
420
        0
370
   100
100
AcDbCircle
 10
15.58055991775962
 20
1.6300364455091
 30
0.0
 40
0.4293281250000139
100
AcDbArc
 50
167.6235471391233
 51
233.2112281391207
  0
ARC
  5
85
330
1F
100
AcDbEntity
  8
Layer1
 62
    18
420
        0
370
   100
100
AcDbCircle
 10
16.34461582500742
 20
1.4909264645548
 30
0.0
 40
1.205767125000235
100
AcDbArc
 50
147.474278139124
 51
168.9487301391197
  0
LINE
  5
86
330
1F
100
AcDbEntity
  8
Layer1
 62
    18
420
        0
370
   100
100
AcDbLine
 10
15.32797389105567
 20
2.139240513652439
 30
0.0
 11
15.52307566599439
 21
2.469307319772849
 31
0.0
  0
ARC
  5
87
330
1F
100
AcDbEntity
  8
Layer1
 62
    18
420
        0
370
   100
100
AcDbCircle
 10
15.19651016733844
 20
2.52860811791345
 30
0.0
 40
0.331906500000008
100
AcDbArc
 50
349.7079901391236
 51
73.20992013912038
  0
LINE
  5
88
330
1F
100
AcDbEntity
  8
Layer1
 62
    18
420
        0
370
   100
100
AcDbLine
 10
15.29238620110285
 20
2.846364955017879
 30
0.0
 11
15.25523467066381
 21
2.845392931296324
 31
0.0
  0
ARC
  5
89
330
1F
100
AcDbEntity
  8
Layer1
 62
    18
420
        0
370
   100
100
AcDbCircle
 10
15.23712296155525
 20
2.844772451647418
 30
0.0
 40
0.0181226249999945
100
AcDbArc
 50
1.964184139102966
 51
132.0954611391408
  0
ARC
  5
8A
330
1F
100
AcDbEntity
  8
Layer1
 62
    18
420
        0
370
   100
100
AcDbCircle
 10
15.21513931421362
 20
2.856851875148625
 30
0.0
 40
0.0099303750000009
100
AcDbArc
 50
7.913548139095095
 51
279.1664431391036
  0
LINE
  5
8B
330
1F
100
AcDbEntity
  8
Layer1
 62
    18
420
        0
370
   100
100
AcDbLine
 10
15.21672066189761
 20
2.847049388530781
 30
0.0
 11
15.22884205690552
 21
2.82362377166324
 31
0.0
  0
LINE
  5
8C
330
1F
100
AcDbEntity
  8
Layer1
 62
    18
420
        0
370
   100
100
AcDbLine
 10
15.22884205690552
 20
2.82362377166324
 30
0.0
 11
15.28525426355198
 21
2.752795447510564
 31
0.0
  0
ARC
  5
8D
330
1F
100
AcDbEntity
  8
Layer1
 62
    18
420
        0
370
   100
100
AcDbCircle
 10
14.97366330351931
 20
2.598840591993907
 30
0.0
 40
0.3475496249999332
100
AcDbArc
 50
338.4448921391171
 51
26.29383013912712
  0
ARC
  5
8E
330
1F
100
AcDbEntity
  8
Layer1
 62
    18
420
        0
370
   100
100
AcDbCircle
 10
15.00703671182134
 20
2.597150407549034
 30
0.0
 40
0.3160698750000137
100
AcDbArc
 50
259.5419861391233
 51
336.50671113912
  0
ARC
  5
8F
330
1F
100
AcDbEntity
  8
Layer1
 62
    18
420
        0
370
   100
100
AcDbCircle
 10
14.92516595553395
 20
2.505019072153865
 30
0.0
 40
0.2200556250000024
100
AcDbArc
 50
156.3520361391234
 51
276.3922531391203
  0
ARC
  5
90
330
1F
100
AcDbEntity
  8
Layer1
 62
    18
420
        0
370
   100
100
AcDbCircle
 10
15.97648316952897
 20
2.230360157510966
 30
0.0
 40
1.304400374999967
100
AcDbArc
 50
133.5752861391216
 51
163.8452261391224
  0
ARC
  5
91
330
1F
100
AcDbEntity
  8
Layer1
 62
    18
420
        0
370
   100
100
AcDbCircle
 10
14.38843588004145
 20
3.968234172735226
 30
0.0
 40
1.050359624999976
100
AcDbArc
 50
310.9867161391214
 51
1.480713139122973
  0
ARC
  5
92
330
1F
100
AcDbEntity
  8
Layer1
 62
    18
420
        0
370
   100
100
AcDbCircle
 10
14.83802226002744
 20
3.996527011137945
 30
0.0
 40
0.6004237500001031
100
AcDbArc
 50
359.8901141391233
 51
22.30403313912089
  0
LINE
  5
93
330
1F
100
AcDbEntity
  8
Layer1
 62
    18
420
        0
370
   100
100
AcDbLine
 10
15.39352448391557
 20
4.224401015889956
 30
0.0
 11
15.30114165146123
 21
4.381027270735224
 31
0.0
  0
ARC
  5
94
330
1F
100
AcDbEntity
  8
Layer1
 62
    18
420
        0
370
   100
100
AcDbCircle
 10
16.16521606345028
 20
5.280948676845693
 30
0.0
 40
1.24759012499972
100
AcDbArc
 50
209.6163171391201
 51
226.1641991391239
  0
LINE
  5
95
330
1F
100
AcDbEntity
  8
Layer1
 62
    18
420
        0
370
   100
100
AcDbLine
 10
15.08061791609193
 20
4.66440255303058
 30
0.0
 11
15.04633971443205
 21
4.738518230006122
 31
0.0
  0
LINE
  5
96
330
1F
100
AcDbEntity
  8
Layer1
 62
    18
420
        0
370
   100
100
AcDbLine
 10
15.04633971443205
 20
4.738518230006122
 30
0.0
 11
15.03680116829263
 21
4.782334533721169
 31
0.0
  0
LINE
  5
97
330
1F
100
AcDbEntity
  8
Layer1
 62
    18
420
        0
370
   100
100
AcDbLine
 10
15.03680116829263
 20
4.782334533721169
 30
0.0
 11
15.05874321310184
 21
4.830198776255202
 31
0.0
  0
LINE
  5
98
330
1F
100
AcDbEntity
  8
Layer1
 62
    18
420
        0
370
   100
100
AcDbLine
 10
15.05874321310184
 20
4.830198776255202
 30
0.0
 11
15.08553693442525
 21
4.875618497948253
 31
0.0
  0
ARC
  5
99
330
1F
100
AcDbEntity
  8
Layer1
 62
    18
420
        0
370
   100
100
AcDbCircle
 10
15.09173771741429
 20
4.88794999497357
 30
0.0
 40
0.0138037499999998
100
AcDbArc
 50
243.3050191391263
 51
129.7061881391293
  0
LINE
  5
9A
330
1F
100
AcDbEntity
  8
Layer1
 62
    18
420
        0
370
   100
100
AcDbLine
 10
15.08291920524985
 20
4.898569189350795
 30
0.0
 11
15.00415243826176
 21
4.852019383986573
 31
0.0
  0
ARC
  5
9B
330
1F
100
AcDbEntity
  8
Layer1
 62
    18
420
        0
370
   100
100
AcDbCircle
 10
15.3074970600901
 20
4.589443097254714
 30
0.0
 40
0.4012042499999884
100
AcDbArc
 50
139.1204541391212
 51
192.2498371391228
  0
ARC
  5
9C
330
1F
100
AcDbEntity
  8
Layer1
 62
    18
420
        0
370
   100
100
AcDbCircle
 10
15.10941134388494
 20
4.496334288348845
 30
0.0
 40
0.1941468750000107
100
AcDbArc
 50
177.6433781391245
 51
225.6263911391213
  0
ARC
  5
9D
330
1F
100
AcDbEntity
  8
Layer1
 62
    18
420
        0
370
   100
100
AcDbCircle
 10
15.05588637869926
 20
4.353660296350376
 30
0.0
 40
0.0823410000000076
100
AcDbArc
 50
177.2862021391279
 51
234.5999731391211
  0
LINE
  5
9E
330
1F
100
AcDbEntity
  8
Layer1
 62
    18
420
        0
370
   100
100
AcDbLine
 10
15.00818746769641
 20
4.286541556804075
 30
0.0
 11
15.03932274241232
 21
4.208788461746572
 31
0.0
  0
ARC
  5
9F
330
1F
100
AcDbEntity
  8
Layer1
 62
    18
420
        0
370
   100
100
AcDbCircle
 10
14.56856288699687
 20
4.020278220679089
 30
0.0
 40
0.5071016250000846
100
AcDbArc
 50
342.0323221391256
 51
21.8230641391185
  0
ARC
  5
A0
330
1F
100
AcDbEntity
  8
Layer1
 62
    18
420
        0
370
   100
100
AcDbCircle
 10
14.61773476771886
 20
4.129192030553397
 30
0.0
 40
0.5080050000000111
100
AcDbArc
 50
240.9545291391224
 51
328.5113991391212
  0
ARC
  5
A1
330
1F
100
AcDbEntity
  8
Layer1
 62
    18
420
        0
370
   100
100
AcDbCircle
 10
14.59091324883625
 20
4.004504405847048
 30
0.0
 40
0.3877537500000005
100
AcDbArc
 50
162.5156631391216
 51
235.4659211391218
  0
LINE
  5
A2
330
1F
100
AcDbEntity
  8
Layer1
 62
    18
420
        0
370
   100
100
AcDbLine
 10
14.2210732556387
 20
4.121003964462197
 30
0.0
 11
14.37688754325447
 21
4.475582291445363
 31
0.0
  0
ARC
  5
A3
330
1F
100
AcDbEntity
  8
Layer1
 62
    18
420
        0
370
   100
100
AcDbCircle
 10
13.93531886197469
 20
4.742591502344099
 30
0.0
 40
0.5160206249999724
100
AcDbArc
 50
328.8392921391229
 51
353.0704061391237
  0
ARC
  5
A4
330
1F
100
AcDbEntity
  8
Layer1
 62
    18
420
        0
370
   100
100
AcDbCircle
 10
13.98153231695704
 20
4.998575688910217
 30
0.0
 40
0.5643303750000054
100
AcDbArc
 50
325.6721951391223
 51
347.4089151391217
  0
ARC
  5
A5
330
1F
100
AcDbEntity
  8
Layer1
 62
    18
420
        0
370
   100
100
AcDbCircle
 10
13.1617566193489
 20
5.335833473542135
 30
0.0
 40
1.445760000000262
100
AcDbArc
 50
341.4359841391234
 51
356.9383211391204
  0
ARC
  5
A6
330
1F
100
AcDbEntity
  8
Layer1
 62
    18
420
        0
370
   100
100
AcDbCircle
 10
13.58078867448014
 20
5.450097370540364
 30
0.0
 40
1.042401374999987
100
AcDbArc
 50
349.415004139121
 51
41.12133913912162
  0
LINE
  5
A7
330
1F
100
AcDbEntity
  8
Layer1
 62
    18
420
        0
370
   100
100
AcDbLine
 10
14.36604910669466
 20
6.135639129783634
 30
0.0
 11
14.26165914450369
 21
6.182973436345286
 31
0.0
  0
LINE
  5
A8
330
1F
100
AcDbEntity
  8
Layer1
 62
    18
420
        0
370
   100
100
AcDbLine
 10
14.26165914450369
 20
6.182973436345286
 30
0.0
 11
14.2845002077621
 21
6.100429871418992
 31
0.0
  0
ARC
  5
A9
330
1F
100
AcDbEntity
  8
Layer1
 62
    18
420
        0
370
   100
100
AcDbCircle
 10
13.56308902320579
 20
5.774245714303582
 30
0.0
 40
0.7917266249999163
100
AcDbArc
 50
4.33970613911957
 51
24.32999613912169
  0
ARC
  5
AA
330
1F
100
AcDbEntity
  8
Layer1
 62
    18
420
        0
370
   100
100
AcDbCircle
 10
12.75247791490423
 20
5.658588346459845
 30
0.0
 40
1.609670250000324
100
AcDbArc
 50
349.8340911391234
 51
6.26170113912029
  0
LINE
  5
AB
330
1F
100
AcDbEntity
  8
Layer1
 62
    18
420
        0
370
   100
100
AcDbLine
 10
14.33687814752838
 20
5.374482985566111
 30
0.0
 11
14.30093902604996
 21
5.266626210869369
 31
0.0
  0
LINE
  5
AC
330
1F
100
AcDbEntity
  8
Layer1
 62
    18
420
        0
370
   100
100
AcDbLine
 10
14.30093902604996
 20
5.266626210869369
 30
0.0
 11
14.28876695371916
 21
5.210212599276602
 31
0.0
  0
LINE
  5
AD
330
1F
100
AcDbEntity
  8
Layer1
 62
    18
420
        0
370
   100
100
AcDbLine
 10
14.28876695371916
 20
5.210212599276602
 30
0.0
 11
14.25417511381703
 21
5.175673367666491
 31
0.0
  0
ARC
  5
AE
330
1F
100
AcDbEntity
  8
Layer1
 62
    18
420
        0
370
   100
100
AcDbCircle
 10
13.75556927511659
 20
5.292257796899245
 30
0.0
 40
0.5120538750000763
100
AcDbArc
 50
323.674723139125
 51
346.8394971391214
  0
LINE
  5
AF
330
1F
100
AcDbEntity
  8
Layer1
 62
    18
420
        0
370
   100
100
AcDbLine
 10
13.90891064032589
 20
4.636394897466413
 30
0.0
 11
14.16811452175143
 21
4.988932612273764
 31
0.0
  0
ARC
  5
B0
330
1F
100
AcDbEntity
  8
Layer1
 62
    18
420
        0
370
   100
100
AcDbCircle
 10
15.72938262519469
 20
3.134884921283885
 30
0.0
 40
2.359798875000603
100
AcDbArc
 50
140.4844641391234
 51
152.4922421391203
  0
ARC
  5
B1
330
1F
100
AcDbEntity
  8
Layer1
 62
    18
420
        0
370
   100
100
AcDbCircle
 10
14.10383426729831
 20
3.921468870682968
 30
0.0
 40
0.55726199999999
100
AcDbArc
 50
147.0211801391216
 51
204.5015041391226
  0
ARC
  5
B2
330
1F
100
AcDbEntity
  8
Layer1
 62
    18
420
        0
370
   100
100
AcDbCircle
 10
13.97788318456128
 20
3.761481367342762
 30
0.0
 40
0.3877087499999006
100
AcDbArc
 50
190.5698671391158
 51
226.6655241391252
  0
LINE
  5
B3
330
1F
100
AcDbEntity
  8
Layer1
 62
    18
420
        0
370
   100
100
AcDbLine
 10
13.71181588494727
 20
3.479477085750375
 30
0.0
 11
13.85067002388825
 21
3.299048613478146
 31
0.0
  0
LINE
  5
B4
330
1F
100
AcDbEntity
  8
Layer1
 62
    18
420
        0
370
   100
100
AcDbLine
 10
13.85067002388825
 20
3.299048613478146
 30
0.0
 11
14.06483952894479
 21
2.926881981543112
 31
0.0
  0
ARC
  5
B5
330
1F
100
AcDbEntity
  8
Layer1
 62
    18
420
        0
370
   100
100
AcDbCircle
 10
13.55982421879718
 20
2.58026188041475
 30
0.0
 40
0.6125242499999453
100
AcDbArc
 50
343.6758491391199
 51
34.4640001391244
  0
ARC
  5
B6
330
1F
100
AcDbEntity
  8
Layer1
 62
    18
420
        0
370
   100
100
AcDbCircle
 10
13.82850194508462
 20
2.570504981160318
 30
0.0
 40
0.3580998750000031
100
AcDbArc
 50
253.9068901391208
 51
333.0300651391217
  0
ARC
  5
B7
330
1F
100
AcDbEntity
  8
Layer1
 62
    18
420
        0
370
   100
100
AcDbCircle
 10
13.77594116055941
 20
3.000367382132619
 30
0.0
 40
0.7753365000000007
100
AcDbArc
 50
231.5105331391221
 51
266.5465341391226
  0
LINE
  5
B8
330
1F
100
AcDbEntity
  8
Layer1
 62
    18
420
        0
370
   100
100
AcDbLine
 10
13.29339456105946
 20
2.393493165874375
 30
0.0
 11
13.14059382624486
 21
2.556068211439278
 31
0.0
  0
LINE
  5
B9
330
1F
100
AcDbEntity
  8
Layer1
 62
    18
420
        0
370
   100
100
AcDbLine
 10
13.14059382624486
 20
2.556068211439278
 30
0.0
 11
13.06112354091714
 21
2.75516699612627
 31
0.0
  0
ARC
  5
BA
330
1F
100
AcDbEntity
  8
Layer1
 62
    18
420
        0
370
   100
100
AcDbCircle
 10
13.50891206370278
 20
2.933899923223141
 30
0.0
 40
0.4821401250000055
100
AcDbArc
 50
161.2572101391227
 51
201.7592621391223
  0
LINE
  5
BB
330
1F
100
AcDbEntity
  8
Layer1
 62
    18
420
        0
370
   100
100
AcDbLine
 10
13.14790089575076
 20
3.322117119415545
 30
0.0
 11
13.05233890104128
 21
3.08882230531362
 31
0.0
  0
LINE
  5
BC
330
1F
100
AcDbEntity
  8
Layer1
 62
    18
420
        0
370
   100
100
AcDbLine
 10
13.14790089575076
 20
3.322117119415545
 30
0.0
 11
13.20757090556078
 21
3.407361540684924
 31
0.0
  0
LINE
  5
BD
330
1F
100
AcDbEntity
  8
Layer1
 62
    18
420
        0
370
   100
100
AcDbLine
 10
13.20757090556078
 20
3.407361540684924
 30
0.0
 11
13.2660386326903
 21
3.484351678067675
 31
0.0
  0
ARC
  5
BE
330
1F
100
AcDbEntity
  8
Layer1
 62
    18
420
        0
370
   100
100
AcDbCircle
 10
13.27982281964344
 20
3.324574889651373
 30
0.0
 40
0.1603710000000283
100
AcDbArc
 50
94.93084513912557
 51
135.1551901391187
  0
ARC
  5
BF
330
1F
100
AcDbEntity
  8
Layer1
 62
    18
420
        0
370
   100
100
AcDbCircle
 10
13.21464152292052
 20
3.255436370220024
 30
0.0
 40
0.1885803750000441
100
AcDbArc
 50
104.9106461391257
 51
141.8536821391172
  0
ARC
  5
C0
330
1F
100
AcDbEntity
  8
Layer1
 62
    18
420
        0
370
   100
100
AcDbCircle
 10
13.320533525517
 20
2.930542740913144
 30
0.0
 40
0.5093403749999597
100
AcDbArc
 50
119.9387141391197
 51
145.5635291391218
  0
ARC
  5
C1
330
1F
100
AcDbEntity
  8
Layer1
 62
    18
420
        0
370
   100
100
AcDbCircle
 10
13.05972868469599
 20
2.989551954260301
 30
0.0
 40
0.2789595000000719
100
AcDbArc
 50
124.8175641391268
 51
166.5012431391157
  0
ARC
  5
C2
330
1F
100
AcDbEntity
  8
Layer1
 62
    18
420
        0
370
   100
100
AcDbCircle
 10
13.4843132107465
 20
2.650946171731626
 30
0.0
 40
0.8044762499999462
100
AcDbArc
 50
149.8779051391211
 51
191.1654361391239
  0
ARC
  5
C3
330
1F
100
AcDbEntity
  8
Layer1
 62
    18
420
        0
370
   100
100
AcDbCircle
 10
13.13189891909882
 20
2.555208681714817
 30
0.0
 40
0.4409414999999734
100
AcDbArc
 50
187.8262231391217
 51
218.308078139124
  0
LINE
  5
C4
330
1F
100
AcDbEntity
  8
Layer1
 62
    18
420
        0
370
   100
100
AcDbLine
 10
12.7858972377635
 20
2.281873704288881
 30
0.0
 11
12.83542213909297
 21
2.139797972495632
 31
0.0
  0
LINE
  5
C5
330
1F
100
AcDbEntity
  8
Layer1
 62
    18
420
        0
370
   100
100
AcDbLine
 10
12.83542213909297
 20
2.139797972495632
 30
0.0
 11
12.87760890936841
 21
2.013458979721197
 31
0.0
  0
ARC
  5
C6
330
1F
100
AcDbEntity
  8
Layer1
 62
    18
420
        0
370
   100
100
AcDbCircle
 10
12.65493972539536
 20
1.861571962192702
 30
0.0
 40
0.2695387499998614
100
AcDbArc
 50
2.823714139112665
 51
34.29860913912854
  0
LINE
  5
C7
330
1F
100
AcDbEntity
  8
Layer1
 62
    18
420
        0
370
   100
100
AcDbLine
 10
12.92415055875238
 20
1.874850225326593
 30
0.0
 11
12.92242790497398
 21
1.673133830906053
 31
0.0
  0
ARC
  5
C8
330
1F
100
AcDbEntity
  8
Layer1
 62
    18
420
        0
370
   100
100
AcDbCircle
 10
12.57080847676098
 20
1.676136653449592
 30
0.0
 40
0.351633375000003
100
AcDbArc
 50
308.740878139123
 51
359.5107071391216
  0
ARC
  5
C9
330
1F
100
AcDbEntity
  8
Layer1
 62
    18
420
        0
370
   100
100
AcDbCircle
 10
12.49819112069315
 20
1.818228462717343
 30
0.0
 40
0.5089308749999968
100
AcDbArc
 50
162.4002051391217
 51
305.1042291391223
  0
LINE
  5
CA
330
1F
100
AcDbEntity
  8
Layer1
 62
    18
420
        0
370
   100
100
AcDbLine
 10
12.01308254605109
 20
1.972111989861453
 30
0.0
 11
12.04664408184329
 21
2.041589168890486
 31
0.0
  0
LINE
  5
CB
330
1F
100
AcDbEntity
  8
Layer1
 62
    18
420
        0
370
   100
100
AcDbLine
 10
12.04664408184329
 20
2.041589168890486
 30
0.0
 11
12.05905547473182
 21
2.123655047139898
 31
0.0
  0
LINE
  5
CC
330
1F
100
AcDbEntity
  8
Layer1
 62
    18
420
        0
370
   100
100
AcDbLine
 10
12.05905547473182
 20
2.123655047139898
 30
0.0
 11
12.08210729028668
 21
2.179216343263104
 31
0.0
  0
LINE
  5
CD
330
1F
100
AcDbEntity
  8
Layer1
 62
    18
420
        0
370
   100
100
AcDbLine
 10
12.08210729028668
 20
2.179216343263104
 30
0.0
 11
12.11793281421709
 21
2.234513296523456
 31
0.0
  0
LINE
  5
CE
330
1F
100
AcDbEntity
  8
Layer1
 62
    18
420
        0
370
   100
100
AcDbLine
 10
12.11793281421709
 20
2.234513296523456
 30
0.0
 11
12.23054685794562
 21
2.426946126818205
 31
0.0
  0
ARC
  5
CF
330
1F
100
AcDbEntity
  8
Layer1
 62
    18
420
        0
370
   100
100
AcDbCircle
 10
11.89032528407118
 20
2.763517403589486
 30
0.0
 40
0.4785716250000225
100
AcDbArc
 50
315.3090001391237
 51
12.34695613912095
  0
ARC
  5
D0
330
1F
100
AcDbEntity
  8
Layer1
 62
    18
420
        0
370
   100
100
AcDbCircle
 10
10.91380310315856
 20
2.36987522482783
 30
0.0
 40
1.526826375000289
100
AcDbArc
 50
18.95592813912369
 51
39.4138211391197
  0
ARC
  5
D1
330
1F
100
AcDbEntity
  8
Layer1
 62
    18
420
        0
370
   100
100
AcDbCircle
 10
12.88271102700429
 20
3.904434986174977
 30
0.0
 40
0.9707782499997919
100
AcDbArc
 50
187.3893851391194
 51
215.6028821391255
  0
ARC
  5
D2
330
1F
100
AcDbEntity
  8
Layer1
 62
    18
420
        0
370
   100
100
AcDbCircle
 10
12.52414607563379
 20
3.841493216598891
 30
0.0
 40
0.6073143750000615
100
AcDbArc
 50
162.0429751391223
 51
185.8510821391198
  0
LINE
  5
D3
330
1F
100
AcDbEntity
  8
Layer1
 62
    18
420
        0
370
   100
100
AcDbLine
 10
11.94641533225216
 20
4.028730922493683
 30
0.0
 11
11.97452019840326
 21
4.152063163418681
 31
0.0
  0
LINE
  5
D4
330
1F
100
AcDbEntity
  8
Layer1
 62
    18
420
        0
370
   100
100
AcDbLine
 10
11.97452019840326
 20
4.152063163418681
 30
0.0
 11
12.00568285084107
 21
4.210571428147851
 31
0.0
  0
LINE
  5
D5
330
1F
100
AcDbEntity
  8
Layer1
 62
    18
420
        0
370
   100
100
AcDbLine
 10
12.00568285084107
 20
4.210571428147851
 30
0.0
 11
11.96267355185327
 21
4.175648439847475
 31
0.0
  0
ARC
  5
D6
330
1F
100
AcDbEntity
  8
Layer1
 62
    18
420
        0
370
   100
100
AcDbCircle
 10
13.12826620892827
 20
3.35223001614048
 30
0.0
 40
1.427102999999953
100
AcDbArc
 50
144.761181139121
 51
163.9934801391218
  0
ARC
  5
D7
330
1F
100
AcDbEntity
  8
Layer1
 62
    18
420
        0
370
   100
100
AcDbCircle
 10
12.21959886438783
 20
3.634695782976704
 30
0.0
 40
0.4762372500000326
100
AcDbArc
 50
166.5150091391233
 51
196.7166171391212
  0
LINE
  5
D8
330
1F
100
AcDbEntity
  8
Layer1
 62
    18
420
        0
370
   100
100
AcDbLine
 10
11.76348830402847
 20
3.497711070606037
 30
0.0
 11
11.8464341091378
 21
3.287314194165866
 31
0.0
  0
ARC
  5
D9
330
1F
100
AcDbEntity
  8
Layer1
 62
    18
420
        0
370
   100
100
AcDbCircle
 10
11.04725427297785
 20
2.797225428930902
 30
0.0
 40
0.9374827499998903
100
AcDbArc
 50
3.478380139120002
 51
31.51834013912363
  0
ARC
  5
DA
330
1F
100
AcDbEntity
  8
Layer1
 62
    18
420
        0
370
   100
100
AcDbCircle
 10
11.74488420552129
 20
2.839629822395083
 30
0.0
 40
0.2385663750000012
100
AcDbArc
 50
303.7411631391208
 51
3.478380139121155
  0
ARC
  5
DB
330
1F
100
AcDbEntity
  8
Layer1
 62
    18
420
        0
370
   100
100
AcDbCircle
 10
11.70131911190445
 20
2.891914635308779
 30
0.0
 40
0.3063262499999873
100
AcDbArc
 50
254.8036501391211
 51
305.0853031391232
  0
ARC
  5
DC
330
1F
100
AcDbEntity
  8
Layer1
 62
    18
420
        0
370
   100
100
AcDbCircle
 10
11.68733528898618
 20
2.968110455884669
 30
0.0
 40
0.3776782499999994
100
AcDbArc
 50
189.7017161391223
 51
259.8876071391214
  0
LINE
  5
DD
330
1F
100
AcDbEntity
  8
Layer1
 62
    18
420
        0
370
   100
100
AcDbLine
 10
11.31505907413827
 20
2.904464500264254
 30
0.0
 11
11.32877198643937
 21
3.063184059041639
 31
0.0
  0
LINE
  5
DE
330
1F
100
AcDbEntity
  8
Layer1
 62
    18
420
        0
370
   100
100
AcDbLine
 10
11.32877198643937
 20
3.063184059041639
 30
0.0
 11
11.36582437194351
 21
3.197458540118994
 31
0.0
  0
LINE
  5
DF
330
1F
100
AcDbEntity
  8
Layer1
 62
    18
420
        0
370
   100
100
AcDbLine
 10
11.36582437194351
 20
3.197458540118994
 30
0.0
 11
11.44853465390177
 21
3.410158977630655
 31
0.0
  0
LINE
  5
E0
330
1F
100
AcDbEntity
  8
Layer1
 62
    18
420
        0
370
   100
100
AcDbLine
 10
11.44853465390177
 20
3.410158977630655
 30
0.0
 11
11.66263985968186
 21
3.801789995622244
 31
0.0
  0
ARC
  5
E1
330
1F
100
AcDbEntity
  8
Layer1
 62
    18
420
        0
370
   100
100
AcDbCircle
 10
10.78023448382036
 20
4.255926503712375
 30
0.0
 40
0.9924108749999702
100
AcDbArc
 50
332.7670151391214
 51
29.65552613912314
  0
LINE
  5
E2
330
1F
100
AcDbEntity
  8
Layer1
 62
    18
420
        0
370
   100
100
AcDbLine
 10
11.53266498987795
 20
4.940138696132582
 30
0.0
 11
11.64265529194756
 21
4.746956871400322
 31
0.0
  0
LINE
  5
E3
330
1F
100
AcDbEntity
  8
Layer1
 62
    18
420
        0
370
   100
100
AcDbLine
 10
11.53266498987795
 20
4.940138696132582
 30
0.0
 11
11.46287009451888
 21
5.018437951416121
 31
0.0
  0
LINE
  5
E4
330
1F
100
AcDbEntity
  8
Layer1
 62
    18
420
        0
370
   100
100
AcDbLine
 10
11.46287009451888
 20
5.018437951416121
 30
0.0
 11
11.43796107845805
 21
5.031145379493221
 31
0.0
  0
LINE
  5
E5
330
1F
100
AcDbEntity
  8
Layer1
 62
    18
420
        0
370
   100
100
AcDbLine
 10
11.43796107845805
 20
5.031145379493221
 30
0.0
 11
11.45082978084209
 21
5.005249540795823
 31
0.0
  0
LINE
  5
E6
330
1F
100
AcDbEntity
  8
Layer1
 62
    18
420
        0
370
   100
100
AcDbLine
 10
11.45082978084209
 20
5.005249540795823
 30
0.0
 11
11.47277247893728
 21
4.953332764373211
 31
0.0
  0
ARC
  5
E7
330
1F
100
AcDbEntity
  8
Layer1
 62
    18
420
        0
370
   100
100
AcDbCircle
 10
10.10014159271839
 20
4.517298801542756
 30
0.0
 40
1.440222750000385
100
AcDbArc
 50
359.4759581391245
 51
17.62312113911901
  0
ARC
  5
E8
330
1F
100
AcDbEntity
  8
Layer1
 62
    18
420
        0
370
   100
100
AcDbCircle
 10
10.98247177001139
 20
4.493967019326021
 30
0.0
 40
0.5579246249999809
100
AcDbArc
 50
309.5219651391216
 51
1.043408139123697
  0
ARC
  5
E9
330
1F
100
AcDbEntity
  8
Layer1
 62
    18
420
        0
370
   100
100
AcDbCircle
 10
11.20057780852075
 20
4.361960777822445
 30
0.0
 40
0.3282918749999922
100
AcDbArc
 50
215.3453441391211
 51
294.6538371391217
  0
ARC
  5
EA
330
1F
100
AcDbEntity
  8
Layer1
 62
    18
420
        0
370
   100
100
AcDbCircle
 10
11.55267373227785
 20
4.480227683099394
 30
0.0
 40
0.6922608749999922
100
AcDbArc
 50
155.7674561391218
 51
206.4352301391224
  0
ARC
  5
EB
330
1F
100
AcDbEntity
  8
Layer1
 62
    18
420
        0
370
   100
100
AcDbCircle
 10
12.68138262846045
 20
4.060669710668176
 30
0.0
 40
1.895438249999749
100
AcDbArc
 50
143.3752351391216
 51
158.2069681391236
  0
ARC
  5
EC
330
1F
100
AcDbEntity
  8
Layer1
 62
    18
420
        0
370
   100
100
AcDbCircle
 10
9.89903524620177
 20
5.636193231849172
 30
0.0
 40
1.337272874999943
100
AcDbArc
 50
340.5741721391211
 51
22.62431313912289
  0
ARC
  5
ED
330
1F
100
AcDbEntity
  8
Layer1
 62
    18
420
        0
370
   100
100
AcDbCircle
 10
9.874711872978555
 20
5.849874111951925
 30
0.0
 40
1.294121250000068
100
AcDbArc
 50
13.43828313912284
 51
35.98999513912175
  0
LINE
  5
EE
330
1F
100
AcDbEntity
  8
Layer1
 62
    18
420
        0
370
   100
100
AcDbLine
 10
10.92180969557839
 20
6.610356474514001
 30
0.0
 11
10.87793640043895
 21
6.636827603105738
 31
0.0
  0
ARC
  5
EF
330
1F
100
AcDbEntity
  8
Layer1
 62
    18
420
        0
370
   100
100
AcDbCircle
 10
10.83825283442523
 20
6.629450968591086
 30
0.0
 40
0.0403638749999988
100
AcDbArc
 50
10.53024313912388
 51
82.18731713912592
  0
LINE
  5
F0
330
1F
100
AcDbEntity
  8
Layer1
 62
    18
420
        0
370
   100
100
AcDbLine
 10
10.84373915102243
 20
6.669439825409562
 30
0.0
 11
10.86608699769685
 21
6.581969417738412
 31
0.0
  0
LINE
  5
F1
330
1F
100
AcDbEntity
  8
Layer1
 62
    18
420
        0
370
   100
100
AcDbLine
 10
10.86608699769685
 20
6.581969417738412
 30
0.0
 11
10.94636862714427
 21
6.314652466960579
 31
0.0
  0
ARC
  5
F2
330
1F
100
AcDbEntity
  8
Layer1
 62
    18
420
        0
370
   100
100
AcDbCircle
 10
9.564989455926433
 20
5.997450294614423
 30
0.0
 40
1.417330124999941
100
AcDbArc
 50
340.3169451391212
 51
12.93249713912263
  0
ARC
  5
F3
330
1F
100
AcDbEntity
  8
Layer1
 62
    18
420
        0
370
   100
100
AcDbCircle
 10
9.641582189557212
 20
5.891789365345747
 30
0.0
 40
1.311696000000426
100
AcDbArc
 50
326.5956731391248
 51
343.5374461391193
  0
ARC
  5
F4
330
1F
100
AcDbEntity
  8
Layer1
 62
    18
420
        0
370
   100
100
AcDbCircle
 10
11.96869748106128
 20
4.124324376032615
 30
0.0
 40
1.615786875000206
100
AcDbArc
 50
139.6886691391236
 51
153.3614671391219
  0
ARC
  5
F5
330
1F
100
AcDbEntity
  8
Layer1
 62
    18
420
        0
370
   100
100
AcDbCircle
 10
11.17836602550994
 20
4.268678682663401
 30
0.0
 40
0.8741632499999835
100
AcDbArc
 50
138.4244271391212
 51
184.7181171391223
  0
LINE
  5
F6
330
1F
100
AcDbEntity
  8
Layer1
 62
    18
420
        0
370
   100
100
AcDbLine
 10
10.30716485154875
 20
4.196775204267677
 30
0.0
 11
10.34097392850969
 21
4.038876103413674
 31
0.0
  0
LINE
  5
F7
330
1F
100
AcDbEntity
  8
Layer1
 62
    18
420
        0
370
   100
100
AcDbLine
 10
10.34097392850969
 20
4.038876103413674
 30
0.0
 11
10.35142641197525
 21
3.955453925803834
 31
0.0
  0
LINE
  5
F8
330
1F
100
AcDbEntity
  8
Layer1
 62
    18
420
        0
370
   100
100
AcDbLine
 10
10.35142641197525
 20
3.955453925803834
 30
0.0
 11
10.38469791097701
 21
3.896249139439544
 31
0.0
  0
LINE
  5
F9
330
1F
100
AcDbEntity
  8
Layer1
 62
    18
420
        0
370
   100
100
AcDbLine
 10
10.38469791097701
 20
3.896249139439544
 30
0.0
 11
10.4777316535652
 21
3.599923232082133
 31
0.0
  0
ARC
  5
FA
330
1F
100
AcDbEntity
  8
Layer1
 62
    18
420
        0
370
   100
100
AcDbCircle
 10
-1.324484435188847
 20
-3.184750909028517
 30
0.0
 40
13.61337862500235
100
AcDbArc
 50
24.59274413912272
 51
29.8930651391218
  0
LINE
  5
FB
330
1F
100
AcDbEntity
  8
Layer1
 62
    18
420
        0
370
   100
100
AcDbLine
 10
11.05400910718469
 20
2.480668952094717
 30
0.0
 11
11.1776737703795
 21
2.225246708351989
 31
0.0
  0
LINE
  5
FC
330
1F
100
AcDbEntity
  8
Layer1
 62
    18
420
        0
370
   100
100
AcDbLine
 10
11.1776737703795
 20
2.225246708351989
 30
0.0
 11
11.24903133025178
 21
1.959482022763467
 31
0.0
  0
ARC
  5
FD
330
1F
100
AcDbEntity
  8
Layer1
 62
    18
420
        0
370
   100
100
AcDbCircle
 10
10.54469382639802
 20
1.799294739937579
 30
0.0
 40
0.722323125000001
100
AcDbArc
 50
320.6226811391222
 51
12.81279813912225
  0
ARC
  5
FE
330
1F
100
AcDbEntity
  8
Layer1
 62
    18
420
        0
370
   100
100
AcDbCircle
 10
10.71085961890792
 20
1.751940262581839
 30
0.0
 40
0.5680203749999988
100
AcDbArc
 50
186.0361601391217
 51
313.664275139122
  0
LINE
  5
FF
330
1F
100
AcDbEntity
  8
Layer1
 62
    18
420
        0
370
   100
100
AcDbLine
 10
10.1459884399143
 20
1.692209396701113
 30
0.0
 11
10.11143787407345
 21
1.861954761581451
 31
0.0
  0
LINE
  5
100
330
1F
100
AcDbEntity
  8
Layer1
 62
    18
420
        0
370
   100
100
AcDbLine
 10
10.11143787407345
 20
1.861954761581451
 30
0.0
 11
10.13663027040178
 21
2.067258738017465
 31
0.0
  0
ARC
  5
101
330
1F
100
AcDbEntity
  8
Layer1
 62
    18
420
        0
370
   100
100
AcDbCircle
 10
11.68845341168763
 20
1.776650962554512
 30
0.0
 40
1.578800250000156
100
AcDbArc
 50
157.8915401391224
 51
169.3931501391212
  0
LINE
  5
102
330
1F
100
AcDbEntity
  8
Layer1
 62
    18
420
        0
370
   100
100
AcDbLine
 10
10.34049658902667
 20
2.653348283365371
 30
0.0
 11
10.22573746827473
 21
2.370850612224736
 31
0.0
  0
ARC
  5
103
330
1F
100
AcDbEntity
  8
Layer1
 62
    18
420
        0
370
   100
100
AcDbCircle
 10
10.01099350608798
 20
2.804195130600329
 30
0.0
 40
0.3623917500000165
100
AcDbArc
 50
335.401622139123
 51
40.63136813911959
  0
LINE
  5
104
330
1F
100
AcDbEntity
  8
Layer1
 62
    18
420
        0
370
   100
100
AcDbLine
 10
10.28601802317092
 20
3.040180742525106
 30
0.0
 11
10.13362962736156
 21
3.230356273265734
 31
0.0
  0
LINE
  5
105
330
1F
100
AcDbEntity
  8
Layer1
 62
    18
420
        0
370
   100
100
AcDbLine
 10
10.13362962736156
 20
3.230356273265734
 30
0.0
 11
10.06603470226946
 21
3.341123425431654
 31
0.0
  0
ARC
  5
106
330
1F
100
AcDbEntity
  8
Layer1
 62
    18
420
        0
370
   100
100
AcDbCircle
 10
10.20566652602331
 20
3.470971250788592
 30
0.0
 40
0.1906762499999623
100
AcDbArc
 50
174.5702391391164
 51
222.9207771391268
  0
LINE
  5
107
330
1F
100
AcDbEntity
  8
Layer1
 62
    18
420
        0
370
   100
100
AcDbLine
 10
10.01584617853964
 20
3.489013411348424
 30
0.0
 11
9.985745778477597
 21
3.669503165071486
 31
0.0
  0
LINE
  5
108
330
1F
100
AcDbEntity
  8
Layer1
 62
    18
420
        0
370
   100
100
AcDbLine
 10
9.985745778477597
 20
3.669503165071486
 30
0.0
 11
10.01160803804824
 21
3.894885653233402
 31
0.0
  0
LINE
  5
109
330
1F
100
AcDbEntity
  8
Layer1
 62
    18
420
        0
370
   100
100
AcDbLine
 10
10.01160803804824
 20
3.894885653233402
 30
0.0
 11
10.10490475395593
 21
4.1905574615548
 31
0.0
  0
LINE
  5
10A
330
1F
100
AcDbEntity
  8
Layer1
 62
    18
420
        0
370
   100
100
AcDbLine
 10
10.10490475395593
 20
4.1905574615548
 30
0.0
 11
10.13820466191197
 21
4.272740838112632
 31
0.0
  0
ARC
  5
10B
330
1F
100
AcDbEntity
  8
Layer1
 62
    18
420
        0
370
   100
100
AcDbCircle
 10
10.14238199475186
 20
4.283022915000405
 30
0.0
 40
0.011098125
100
AcDbArc
 50
247.891329139127
 51
152.1521761391178
  0
LINE
  5
10C
330
1F
100
AcDbEntity
  8
Layer1
 62
    18
420
        0
370
   100
100
AcDbLine
 10
10.13256866289262
 20
4.288207656647323
 30
0.0
 11
10.10904612528136
 21
4.263946771660528
 31
0.0
  0
LINE
  5
10D
330
1F
100
AcDbEntity
  8
Layer1
 62
    18
420
        0
370
   100
100
AcDbLine
 10
10.10904612528136
 20
4.263946771660528
 30
0.0
 11
10.05126216282946
 21
4.215513336435613
 31
0.0
  0
ARC
  5
10E
330
1F
100
AcDbEntity
  8
Layer1
 62
    18
420
        0
370
   100
100
AcDbCircle
 10
9.980370220236134
 20
4.222790245405605
 30
0.0
 40
0.0712642499999989
100
AcDbArc
 50
287.0635931391244
 51
354.1390181391241
  0
LINE
  5
10F
330
1F
100
AcDbEntity
  8
Layer1
 62
    18
420
        0
370
   100
100
AcDbLine
 10
10.00128119496569
 20
4.154662563449222
 30
0.0
 11
9.834776998338352
 21
3.874148100373088
 31
0.0
  0
ARC
  5
110
330
1F
100
AcDbEntity
  8
Layer1
 62
    18
420
        0
370
   100
100
AcDbCircle
 10
10.70677937739564
 20
3.510545856625629
 30
0.0
 40
0.9447727499999836
100
AcDbArc
 50
157.3651421391218
 51
195.2460871391224
  0
ARC
  5
111
330
1F
100
AcDbEntity
  8
Layer1
 62
    18
420
        0
370
   100
100
AcDbCircle
 10
9.186772421396729
 20
3.174478206582276
 30
0.0
 40
0.6147630000000244
100
AcDbArc
 50
337.5331911391224
 51
8.19451613912098
  0
ARC
  5
112
330
1F
100
AcDbEntity
  8
Layer1
 62
    18
420
        0
370
   100
100
AcDbCircle
 10
9.607858257809132
 20
3.082113030525686
 30
0.0
 40
0.2047893750000099
100
AcDbArc
 50
238.9824291391237
 51
315.8809571391204
  0
ARC
  5
113
330
1F
100
AcDbEntity
  8
Layer1
 62
    18
420
        0
370
   100
100
AcDbCircle
 10
9.954855964824517
 20
3.401335550449546
 30
0.0
 40
0.6704752499999618
100
AcDbArc
 50
197.1726681391212
 51
227.5510381391231
  0
ARC
  5
114
330
1F
100
AcDbEntity
  8
Layer1
 62
    18
420
        0
370
   100
100
AcDbCircle
 10
9.954855964824452
 20
3.401335550449559
 30
0.0
 40
0.6704752499999037
100
AcDbArc
 50
170.5589331391203
 51
197.1726681391239
  0
ARC
  5
115
330
1F
100
AcDbEntity
  8
Layer1
 62
    18
420
        0
370
   100
100
AcDbCircle
 10
14.2266445831963
 20
2.464147847202214
 30
0.0
 40
5.043099374960662
100
AcDbArc
 50
166.7483351391155
 51
168.0157021391253
  0
ARC
  5
116
330
1F
100
AcDbEntity
  8
Layer1
 62
    18
420
        0
370
   100
100
AcDbCircle
 10
14.22664458323428
 20
2.464147847193933
 30
0.0
 40
5.04309937499953
100
AcDbArc
 50
154.4464441391216
 51
166.7483351391228
  0
LINE
  5
117
330
1F
100
AcDbEntity
  8
Layer1
 62
    18
420
        0
370
   100
100
AcDbLine
 10
9.67684906940265
 20
4.639512160345102
 30
0.0
 11
9.7383524300763
 21
4.832200343196643
 31
0.0
  0
LINE
  5
118
330
1F
100
AcDbEntity
  8
Layer1
 62
    18
420
        0
370
   100
100
AcDbLine
 10
9.7383524300763
 20
4.832200343196643
 30
0.0
 11
9.775302950803063
 21
5.042152703655262
 31
0.0
  0
ARC
  5
119
330
1F
100
AcDbEntity
  8
Layer1
 62
    18
420
        0
370
   100
100
AcDbCircle
 10
9.14006835717062
 20
5.114294776514541
 30
0.0
 40
0.6393172499999976
100
AcDbArc
 50
353.5208031391223
 51
27.92840613912239
  0
ARC
  5
11A
330
1F
100
AcDbEntity
  8
Layer1
 62
    18
420
        0
370
   100
100
AcDbCircle
 10
8.567130153341894
 20
4.77034843681782
 30
0.0
 40
1.307104874999997
100
AcDbArc
 50
29.48654813912229
 51
53.93229513912238
  0
ARC
  5
11B
330
1F
100
AcDbEntity
  8
Layer1
 62
    18
420
        0
370
   100
100
AcDbCircle
 10
8.567130153343195
 20
4.770348436819708
 30
0.0
 40
1.307104874997707
100
AcDbArc
 50
53.93229513911976
 51
56.66559613912462
  0
ARC
  5
11C
330
1F
100
AcDbEntity
  8
Layer1
 62
    18
420
        0
370
   100
100
AcDbCircle
 10
7.964942520488412
 20
4.915737595469718
 30
0.0
 40
1.624755375000856
100
AcDbArc
 50
32.42856313912256
 51
35.6373391391209
  0
ARC
  5
11D
330
1F
100
AcDbEntity
  8
Layer1
 62
    18
420
        0
370
   100
100
AcDbCircle
 10
7.96494252048937
 20
4.915737595470299
 30
0.0
 40
1.624755374999736
100
AcDbArc
 50
15.4493141391206
 51
32.42856313912339
  0
ARC
  5
11E
330
1F
100
AcDbEntity
  8
Layer1
 62
    18
420
        0
370
   100
100
AcDbCircle
 10
8.844121812939305
 20
5.175552670323952
 30
0.0
 40
0.7083191250000228
100
AcDbArc
 50
321.7154671391227
 51
14.1366171391209
  0
LINE
  5
11F
330
1F
100
AcDbEntity
  8
Layer1
 62
    18
420
        0
370
   100
100
AcDbLine
 10
8.850902398263862
 20
3.835507903487159
 30
0.0
 11
8.80274560475004
 21
3.685658682451951
 31
0.0
  0
ARC
  5
120
330
1F
100
AcDbEntity
  8
Layer1
 62
    18
420
        0
370
   100
100
AcDbCircle
 10
10.07916835159871
 20
3.366539570196397
 30
0.0
 40
1.315710000000004
100
AcDbArc
 50
165.9631591391216
 51
187.6246151391216
  0
LINE
  5
121
330
1F
100
AcDbEntity
  8
Layer1
 62
    18
420
        0
370
   100
100
AcDbLine
 10
8.775091517787299
 20
3.191968087413837
 30
0.0
 11
8.809290077095998
 21
2.993519181917112
 31
0.0
  0
LINE
  5
122
330
1F
100
AcDbEntity
  8
Layer1
 62
    18
420
        0
370
   100
100
AcDbLine
 10
9.400112320960108
 20
4.736701819085649
 30
0.0
 11
9.326437275483332
 21
4.628078268678198
 31
0.0
  0
LINE
  5
123
330
1F
100
AcDbEntity
  8
Layer1
 62
    18
420
        0
370
   100
100
AcDbLine
 10
9.326437275483332
 20
4.628078268678198
 30
0.0
 11
9.217598455720488
 21
4.46760936474622
 31
0.0
  0
LINE
  5
124
330
1F
100
AcDbEntity
  8
Layer1
 62
    18
420
        0
370
   100
100
AcDbLine
 10
9.217598455720488
 20
4.46760936474622
 30
0.0
 11
9.112678962834995
 21
4.348337493258573
 31
0.0
  0
LINE
  5
125
330
1F
100
AcDbEntity
  8
Layer1
 62
    18
420
        0
370
   100
100
AcDbLine
 10
9.112678962834995
 20
4.348337493258573
 30
0.0
 11
9.039019283791891
 21
4.223069954726718
 31
0.0
  0
ARC
  5
126
330
1F
100
AcDbEntity
  8
Layer1
 62
    18
420
        0
370
   100
100
AcDbCircle
 10
8.826556102167416
 20
1.677325742615795
 30
0.0
 40
0.16105499999999
100
AcDbArc
 50
244.93203513912
 51
307.5181051391228
  0
LINE
  5
127
330
1F
100
AcDbEntity
  8
Layer1
 62
    18
420
        0
370
   100
100
AcDbLine
 10
8.758317427741478
 20
1.531440533711262
 30
0.0
 11
8.6640789243198
 21
1.542835339704528
 31
0.0
  0
LINE
  5
128
330
1F
100
AcDbEntity
  8
Layer1
 62
    18
420
        0
370
   100
100
AcDbLine
 10
8.6640789243198
 20
1.542835339704528
 30
0.0
 11
8.593883212461204
 21
1.59027251748449
 31
0.0
  0
LINE
  5
129
330
1F
100
AcDbEntity
  8
Layer1
 62
    18
420
        0
370
   100
100
AcDbLine
 10
8.593883212461204
 20
1.59027251748449
 30
0.0
 11
8.399518134492418
 21
1.761840586643505
 31
0.0
  0
ARC
  5
12A
330
1F
100
AcDbEntity
  8
Layer1
 62
    18
420
        0
370
   100
100
AcDbCircle
 10
9.279641209280868
 20
2.458089265861694
 30
0.0
 40
1.122221250000006
100
AcDbArc
 50
182.9720251391223
 51
218.3468321391223
  0
ARC
  5
12B
330
1F
100
AcDbEntity
  8
Layer1
 62
    18
420
        0
370
   100
100
AcDbCircle
 10
9.13533495037612
 20
2.263966139916773
 30
0.0
 40
0.9858228749999334
100
AcDbArc
 50
138.5942901391211
 51
172.0740911391234
  0
LINE
  5
12C
330
1F
100
AcDbEntity
  8
Layer1
 62
    18
420
        0
370
   100
100
AcDbLine
 10
8.395923441527223
 20
2.915976618111763
 30
0.0
 11
8.43319143755821
 21
2.974586873954838
 31
0.0
  0
LINE
  5
12D
330
1F
100
AcDbEntity
  8
Layer1
 62
    18
420
        0
370
   100
100
AcDbLine
 10
8.43319143755821
 20
2.974586873954838
 30
0.0
 11
8.44423532173813
 21
2.987026641453614
 31
0.0
  0
LINE
  5
12E
330
1F
100
AcDbEntity
  8
Layer1
 62
    18
420
        0
370
   100
100
AcDbLine
 10
8.44423532173813
 20
2.987026641453614
 30
0.0
 11
8.42061671561584
 21
2.986690574245589
 31
0.0
  0
LINE
  5
12F
330
1F
100
AcDbEntity
  8
Layer1
 62
    18
420
        0
370
   100
100
AcDbLine
 10
8.42061671561584
 20
2.986690574245589
 30
0.0
 11
8.374283706878526
 21
2.974255164300434
 31
0.0
  0
LINE
  5
130
330
1F
100
AcDbEntity
  8
Layer1
 62
    18
420
        0
370
   100
100
AcDbLine
 10
8.374283706878526
 20
2.974255164300434
 30
0.0
 11
8.256173744848795
 21
2.917765224292076
 31
0.0
  0
LINE
  5
131
330
1F
100
AcDbEntity
  8
Layer1
 62
    18
420
        0
370
   100
100
AcDbLine
 10
8.256173744848795
 20
2.917765224292076
 30
0.0
 11
8.056822146383258
 21
2.778918557831815
 31
0.0
  0
ARC
  5
132
330
1F
100
AcDbEntity
  8
Layer1
 62
    18
420
        0
370
   100
100
AcDbCircle
 10
8.531815162139447
 20
2.308431369680868
 30
0.0
 40
0.6685627500000223
100
AcDbArc
 50
135.2729841391226
 51
174.3156421391213
  0
ARC
  5
133
330
1F
100
AcDbEntity
  8
Layer1
 62
    18
420
        0
370
   100
100
AcDbCircle
 10
8.619379705402956
 20
2.160530454581367
 30
0.0
 40
0.7826973750000887
100
AcDbArc
 50
164.1233311391227
 51
185.1695431391202
  0
ARC
  5
134
330
1F
100
AcDbEntity
  8
Layer1
 62
    18
420
        0
370
   100
100
AcDbCircle
 10
7.126428725483457
 20
2.001898225433762
 30
0.0
 40
0.7188558750000298
100
AcDbArc
 50
340.8178801391228
 51
7.040373139121903
  0
ARC
  5
135
330
1F
100
AcDbEntity
  8
Layer1
 62
    18
420
        0
370
   100
100
AcDbCircle
 10
7.456626049417196
 20
1.887026511395276
 30
0.0
 40
0.3692486250000037
100
AcDbArc
 50
240.1378811391223
 51
340.8178801391213
  0
ARC
  5
136
330
1F
100
AcDbEntity
  8
Layer1
 62
    18
420
        0
370
   100
100
AcDbCircle
 10
7.338045658590477
 20
1.773606762825209
 30
0.0
 40
0.2168594999999968
100
AcDbArc
 50
185.3218701391222
 51
252.4824471391229
  0
ARC
  5
137
330
1F
100
AcDbEntity
  8
Layer1
 62
    18
420
        0
370
   100
100
AcDbCircle
 10
7.211968432928942
 20
1.804228161995531
 30
0.0
 40
0.1031827499999927
100
AcDbArc
 50
137.9225671391179
 51
209.4529651391246
  0
LINE
  5
138
330
1F
100
AcDbEntity
  8
Layer1
 62
    18
420
        0
370
   100
100
AcDbLine
 10
7.135382253804384
 20
1.873374703844096
 30
0.0
 11
7.171552433585681
 21
1.984047733070582
 31
0.0
  0
LINE
  5
139
330
1F
100
AcDbEntity
  8
Layer1
 62
    18
420
        0
370
   100
100
AcDbLine
 10
7.171552433585681
 20
1.984047733070582
 30
0.0
 11
7.446509004215521
 21
2.433001940842804
 31
0.0
  0
ARC
  5
13A
330
1F
100
AcDbEntity
  8
Layer1
 62
    18
420
        0
370
   100
100
AcDbCircle
 10
2.570604662456638
 20
5.929575541078084
 30
0.0
 40
6.000040124999721
100
AcDbArc
 50
324.3552001391218
 51
332.3026381391222
  0
ARC
  5
13B
330
1F
100
AcDbEntity
  8
Layer1
 62
    18
420
        0
370
   100
100
AcDbCircle
 10
4.787272338812837
 20
4.984936740916392
 30
0.0
 40
3.603520125000414
100
AcDbArc
 50
329.2179611391226
 51
338.2841721391216
  0
ARC
  5
13C
330
1F
100
AcDbEntity
  8
Layer1
 62
    18
420
        0
370
   100
100
AcDbCircle
 10
6.791653591585025
 20
4.23788375094945
 30
0.0
 40
1.465750124999923
100
AcDbArc
 50
336.4234341391214
 51
1.400043139122441
  0
ARC
  5
13D
330
1F
100
AcDbEntity
  8
Layer1
 62
    18
420
        0
370
   100
100
AcDbCircle
 10
7.529538347122466
 20
4.297382504927111
 30
0.0
 40
0.7278131250000159
100
AcDbArc
 50
358.1349881391226
 51
42.89541713912136
  0
LINE
  5
13E
330
1F
100
AcDbEntity
  8
Layer1
 62
    18
420
        0
370
   100
100
AcDbLine
 10
8.062732928394531
 20
4.792778139341454
 30
0.0
 11
7.655012881034484
 21
5.090558416181405
 31
0.0
  0
ARC
  5
13F
330
1F
100
AcDbEntity
  8
Layer1
 62
    18
420
        0
370
   100
100
AcDbCircle
 10
8.527503505842315
 20
6.150384281328261
 30
0.0
 40
1.372759874999921
100
AcDbArc
 50
207.1747321391211
 51
230.5374531391223
  0
ARC
  5
140
330
1F
100
AcDbEntity
  8
Layer1
 62
    18
420
        0
370
   100
100
AcDbCircle
 10
8.285470918414163
 20
5.900709805144211
 30
0.0
 40
1.049365125000343
100
AcDbArc
 50
184.1950841391248
 51
201.0710401391192
  0
LINE
  5
141
330
1F
100
AcDbEntity
  8
Layer1
 62
    18
420
        0
370
   100
100
AcDbLine
 10
7.238917596811795
 20
5.82394622359076
 30
0.0
 11
7.21706750135959
 21
6.009881596021597
 31
0.0
  0
LINE
  5
142
330
1F
100
AcDbEntity
  8
Layer1
 62
    18
420
        0
370
   100
100
AcDbLine
 10
7.21706750135959
 20
6.009881596021597
 30
0.0
 11
7.206235013027143
 21
6.113753514418409
 31
0.0
  0
LINE
  5
143
330
1F
100
AcDbEntity
  8
Layer1
 62
    18
420
        0
370
   100
100
AcDbLine
 10
7.206235013027143
 20
6.113753514418409
 30
0.0
 11
7.194069399269686
 21
6.124755680895323
 31
0.0
  0
LINE
  5
144
330
1F
100
AcDbEntity
  8
Layer1
 62
    18
420
        0
370
   100
100
AcDbLine
 10
7.194069399269686
 20
6.124755680895323
 30
0.0
 11
7.182295741010382
 21
6.107222334694278
 31
0.0
  0
LINE
  5
145
330
1F
100
AcDbEntity
  8
Layer1
 62
    18
420
        0
370
   100
100
AcDbLine
 10
7.182295741010382
 20
6.107222334694278
 30
0.0
 11
7.170031764173135
 21
6.086945825625257
 31
0.0
  0
ARC
  5
146
330
1F
100
AcDbEntity
  8
Layer1
 62
    18
420
        0
370
   100
100
AcDbCircle
 10
7.162518760940181
 20
6.077199628794101
 30
0.0
 40
0.0123052500000007
100
AcDbArc
 50
249.0550771391391
 51
52.37558313911173
  0
ARC
  5
147
330
1F
100
AcDbEntity
  8
Layer1
 62
    18
420
        0
370
   100
100
AcDbCircle
 10
8.177405260452716
 20
5.625658995595539
 30
0.0
 40
1.110218625000007
100
AcDbArc
 50
156.649078139122
 51
228.9595301391215
  0
ARC
  5
148
330
1F
100
AcDbEntity
  8
Layer1
 62
    18
420
        0
370
   100
100
AcDbCircle
 10
7.053735327991567
 20
4.421006212337257
 30
0.0
 40
0.5391540000000385
100
AcDbArc
 50
12.39104413912282
 51
42.93808613912046
  0
LINE
  5
149
330
1F
100
AcDbEntity
  8
Layer1
 62
    18
420
        0
370
   100
100
AcDbLine
 10
7.580330136654759
 20
4.536699486291106
 30
0.0
 11
7.566268233559729
 21
4.314191956838375
 31
0.0
  0
ARC
  5
14A
330
1F
100
AcDbEntity
  8
Layer1
 62
    18
420
        0
370
   100
100
AcDbCircle
 10
7.349407621801108
 20
4.414581784962411
 30
0.0
 40
0.2389702500000752
100
AcDbArc
 50
300.5847201391275
 51
335.159379139116
  0
ARC
  5
14B
330
1F
100
AcDbEntity
  8
Layer1
 62
    18
420
        0
370
   100
100
AcDbCircle
 10
7.299672992764402
 20
4.555943781735151
 30
0.0
 40
0.3870674999999996
100
AcDbArc
 50
204.2396121391221
 51
296.2714501391224
  0
ARC
  5
14C
330
1F
100
AcDbEntity
  8
Layer1
 62
    18
420
        0
370
   100
100
AcDbCircle
 10
7.6609775083851
 20
4.718621793088189
 30
0.0
 40
0.7833059999998961
100
AcDbArc
 50
180.9851911391214
 51
204.2396121391241
  0
LINE
  5
14D
330
1F
100
AcDbEntity
  8
Layer1
 62
    18
420
        0
370
   100
100
AcDbLine
 10
6.902773118235899
 20
4.872770852410579
 30
0.0
 11
6.877787805208509
 21
4.705152856719526
 31
0.0
  0
LINE
  5
14E
330
1F
100
AcDbEntity
  8
Layer1
 62
    18
420
        0
370
   100
100
AcDbLine
 10
6.902773118235899
 20
4.872770852410579
 30
0.0
 11
6.892676093848149
 21
4.945120715781311
 31
0.0
  0
LINE
  5
14F
330
1F
100
AcDbEntity
  8
Layer1
 62
    18
420
        0
370
   100
100
AcDbLine
 10
6.892676093848149
 20
4.945120715781311
 30
0.0
 11
6.840338594314254
 21
4.898284452812
 31
0.0
  0
ARC
  5
150
330
1F
100
AcDbEntity
  8
Layer1
 62
    18
420
        0
370
   100
100
AcDbCircle
 10
7.408210513247028
 20
4.418577523512739
 30
0.0
 40
0.7433685000000348
100
AcDbArc
 50
139.8106961391229
 51
176.2170191391209
  0
ARC
  5
151
330
1F
100
AcDbEntity
  8
Layer1
 62
    18
420
        0
370
   100
100
AcDbCircle
 10
7.793694026098113
 20
4.393088443011259
 30
0.0
 40
1.129693500000029
100
AcDbArc
 50
176.2170191391225
 51
213.2211561391215
  0
ARC
  5
152
330
1F
100
AcDbEntity
  8
Layer1
 62
    18
420
        0
370
   100
100
AcDbCircle
 10
7.681732659742035
 20
4.31976488222465
 30
0.0
 40
0.9958590000000992
100
AcDbArc
 50
213.2211561391233
 51
231.9234731391214
  0
ARC
  5
153
330
1F
100
AcDbEntity
  8
Layer1
 62
    18
420
        0
370
   100
100
AcDbCircle
 10
6.535503981265017
 20
2.896626026364902
 30
0.0
 40
0.831677625000038
100
AcDbArc
 50
32.91372313912354
 51
50.2265251391227
  0
ARC
  5
154
330
1F
100
AcDbEntity
  8
Layer1
 62
    18
420
        0
370
   100
100
AcDbCircle
 10
6.874485038459127
 20
3.116036991322568
 30
0.0
 40
0.4278836249999991
100
AcDbArc
 50
236.4636921391221
 51
32.91372313912184
  0
ARC
  5
155
330
1F
100
AcDbEntity
  8
Layer1
 62
    18
420
        0
370
   100
100
AcDbCircle
 10
6.866900463316354
 20
3.041657798938338
 30
0.0
 40
0.3633637500000075
100
AcDbArc
 50
192.4771771391231
 51
230.9725831391222
  0
ARC
  5
156
330
1F
100
AcDbEntity
  8
Layer1
 62
    18
420
        0
370
   100
100
AcDbCircle
 10
6.822726109158211
 20
3.145116930735806
 30
0.0
 40
0.3599831250000078
100
AcDbArc
 50
162.463234139122
 51
210.3632371391207
  0
ARC
  5
157
330
1F
100
AcDbEntity
  8
Layer1
 62
    18
420
        0
370
   100
100
AcDbCircle
 10
7.220649189834465
 20
3.287460990264514
 30
0.0
 40
0.7419487500000022
100
AcDbArc
 50
158.9746501391216
 51
182.6168691391217
  0
ARC
  5
158
330
1F
100
AcDbEntity
  8
Layer1
 62
    18
420
        0
370
   100
100
AcDbCircle
 10
5.678732801964108
 20
3.665632733245754
 30
0.0
 40
0.8567144999999151
100
AcDbArc
 50
352.4898461391209
 51
11.32313713912287
  0
ARC
  5
159
330
1F
100
AcDbEntity
  8
Layer1
 62
    18
420
        0
370
   100
100
AcDbCircle
 10
5.679662043949225
 20
3.615435592458278
 30
0.0
 40
0.8670667499999487
100
AcDbArc
 50
14.58941013912161
 51
46.60082213912344
  0
ARC
  5
15A
330
1F
100
AcDbEntity
  8
Layer1
 62
    18
420
        0
370
   100
100
AcDbCircle
 10
5.322510906744045
 20
3.873892468739204
 30
0.0
 40
1.022764500000014
100
AcDbArc
 50
344.6334811391224
 51
21.30121313912179
  0
LINE
  5
15B
330
1F
100
AcDbEntity
  8
Layer1
 62
    18
420
        0
370
   100
100
AcDbLine
 10
6.308712531231677
 20
3.602867752104359
 30
0.0
 11
6.256866440711104
 21
3.473404279777711
 31
0.0
  0
LINE
  5
15C
330
1F
100
AcDbEntity
  8
Layer1
 62
    18
420
        0
370
   100
100
AcDbLine
 10
6.256866440711104
 20
3.473404279777711
 30
0.0
 11
6.162471442124694
 21
3.356340988139582
 31
0.0
  0
LINE
  5
15D
330
1F
100
AcDbEntity
  8
Layer1
 62
    18
420
        0
370
   100
100
AcDbLine
 10
6.162471442124694
 20
3.356340988139582
 30
0.0
 11
5.997617505197336
 21
3.13153121358906
 31
0.0
  0
ARC
  5
15E
330
1F
100
AcDbEntity
  8
Layer1
 62
    18
420
        0
370
   100
100
AcDbCircle
 10
6.344616926384244
 20
2.799245837533974
 30
0.0
 40
0.4804391249999819
100
AcDbArc
 50
136.2409211391217
 51
175.4249221391231
  0
ARC
  5
15F
330
1F
100
AcDbEntity
  8
Layer1
 62
    18
420
        0
370
   100
100
AcDbCircle
 10
7.134706992429185
 20
3.119194647464805
 30
0.0
 40
1.299873374999986
100
AcDbArc
 50
192.5127681391214
 51
206.2793211391215
  0
ARC
  5
160
330
1F
100
AcDbEntity
  8
Layer1
 62
    18
420
        0
370
   100
100
AcDbCircle
 10
4.430195018890811
 20
1.378672315068208
 30
0.0
 40
1.930212000000167
100
AcDbArc
 50
23.57296913912275
 51
37.12558913912155
  0
ARC
  5
161
330
1F
100
AcDbEntity
  8
Layer1
 62
    18
420
        0
370
   100
100
AcDbCircle
 10
5.694070031927097
 20
1.851545235190642
 30
0.0
 40
0.5871307499999915
100
AcDbArc
 50
330.9350911391214
 51
30.62009313912254
  0
ARC
  5
162
330
1F
100
AcDbEntity
  8
Layer1
 62
    18
420
        0
370
   100
100
AcDbCircle
 10
5.772831846680911
 20
2.008965625588881
 30
0.0
 40
0.620215874999991
100
AcDbArc
 50
231.348656139121
 51
314.4632071391223
  0
ARC
  5
163
330
1F
100
AcDbEntity
  8
Layer1
 62
    18
420
        0
370
   100
100
AcDbCircle
 10
5.626685816651419
 20
1.800049296264026
 30
0.0
 40
0.366145874999991
100
AcDbArc
 50
154.6986721391213
 51
228.7891971391226
  0
ARC
  5
164
330
1F
100
AcDbEntity
  8
Layer1
 62
    18
420
        0
370
   100
100
AcDbCircle
 10
5.775754521604735
 20
1.851253791171035
 30
0.0
 40
0.4914989999999939
100
AcDbArc
 50
135.3454961391215
 51
167.6314981391216
  0
LINE
  5
165
330
1F
100
AcDbEntity
  8
Layer1
 62
    18
420
        0
370
   100
100
AcDbLine
 10
5.426123469452246
 20
2.196694245161755
 30
0.0
 11
5.546428309450622
 21
2.415081344999326
 31
0.0
  0
ARC
  5
166
330
1F
100
AcDbEntity
  8
Layer1
 62
    18
420
        0
370
   100
100
AcDbCircle
 10
4.342615715440063
 20
2.716811631623318
 30
0.0
 40
1.241050499999988
100
AcDbArc
 50
345.9289411391217
 51
10.7971421391219
  0
LINE
  5
167
330
1F
100
AcDbEntity
  8
Layer1
 62
    18
420
        0
370
   100
100
AcDbLine
 10
5.561695294735863
 20
2.949300449585113
 30
0.0
 11
5.494095878932256
 21
3.136740310865246
 31
0.0
  0
LINE
  5
168
330
1F
100
AcDbEntity
  8
Layer1
 62
    18
420
        0
370
   100
100
AcDbLine
 10
5.494095878932256
 20
3.136740310865246
 30
0.0
 11
5.36314878744837
 21
3.306264861983738
 31
0.0
  0
ARC
  5
169
330
1F
100
AcDbEntity
  8
Layer1
 62
    18
420
        0
370
   100
100
AcDbCircle
 10
4.155910484599159
 20
2.076939200170615
 30
0.0
 40
1.722981374999823
100
AcDbArc
 50
45.51938313912115
 51
59.82656013912258
  0
LINE
  5
16A
330
1F
100
AcDbEntity
  8
Layer1
 62
    18
420
        0
370
   100
100
AcDbLine
 10
5.021913912380441
 20
3.566470257433448
 30
0.0
 11
4.996248355785593
 21
3.577931975692163
 31
0.0
  0
ARC
  5
16B
330
1F
100
AcDbEntity
  8
Layer1
 62
    18
420
        0
370
   100
100
AcDbCircle
 10
4.988841121814343
 20
3.582678779094011
 30
0.0
 40
0.0087975000000007
100
AcDbArc
 50
327.3463001391102
 51
180.8509071391319
  0
ARC
  5
16C
330
1F
100
AcDbEntity
  8
Layer1
 62
    18
420
        0
370
   100
100
AcDbCircle
 10
4.98300590985948
 20
3.569285496497012
 30
0.0
 40
0.0135888750000002
100
AcDbArc
 50
312.0787401391265
 51
102.5831071391331
  0
LINE
  5
16D
330
1F
100
AcDbEntity
  8
Layer1
 62
    18
420
        0
370
   100
100
AcDbLine
 10
4.992112484678497
 20
3.559199361597742
 30
0.0
 11
5.012533002945514
 21
3.543510655091744
 31
0.0
  0
ARC
  5
16E
330
1F
100
AcDbEntity
  8
Layer1
 62
    18
420
        0
370
   100
100
AcDbCircle
 10
5.03791932746961
 20
3.535052930918623
 30
0.0
 40
0.0267581249999991
100
AcDbArc
 50
161.5733761391173
 51
269.6638161391261
  0
LINE
  5
16F
330
1F
100
AcDbEntity
  8
Layer1
 62
    18
420
        0
370
   100
100
AcDbLine
 10
5.037761694391307
 20
3.508295176367955
 30
0.0
 11
5.059531672708989
 21
3.461183800137153
 31
0.0
  0
LINE
  5
170
330
1F
100
AcDbEntity
  8
Layer1
 62
    18
420
        0
370
   100
100
AcDbLine
 10
5.059531672708989
 20
3.461183800137153
 30
0.0
 11
5.128425009639503
 21
3.313806850039686
 31
0.0
  0
ARC
  5
171
330
1F
100
AcDbEntity
  8
Layer1
 62
    18
420
        0
370
   100
100
AcDbCircle
 10
4.505587555374195
 20
3.022651683314367
 30
0.0
 40
0.6875313750000049
100
AcDbArc
 50
307.6510901391223
 51
25.05449313912188
  0
ARC
  5
172
330
1F
100
AcDbEntity
  8
Layer1
 62
    18
420
        0
370
   100
100
AcDbCircle
 10
4.578819747890678
 20
3.022376169684128
 30
0.0
 40
0.6451740000000095
100
AcDbArc
 50
259.6983821391222
 51
302.5099761391216
  0
ARC
  5
173
330
1F
100
AcDbEntity
  8
Layer1
 62
    18
420
        0
370
   100
100
AcDbCircle
 10
4.493809335014347
 20
2.706197226324425
 30
0.0
 40
0.3200388749999926
100
AcDbArc
 50
171.317818139121
 51
264.5555501391229
  0
ARC
  5
174
330
1F
100
AcDbEntity
  8
Layer1
 62
    18
420
        0
370
   100
100
AcDbCircle
 10
5.301660364443417
 20
2.610768717367796
 30
0.0
 40
1.133374499999983
100
AcDbArc
 50
144.2585071391216
 51
172.7138611391221
  0
LINE
  5
175
330
1F
100
AcDbEntity
  8
Layer1
 62
    18
420
        0
370
   100
100
AcDbLine
 10
4.512148014443643
 20
3.454002762799025
 30
0.0
 11
4.38174514724135
 21
3.272805752843052
 31
0.0
  0
LINE
  5
176
330
1F
100
AcDbEntity
  8
Layer1
 62
    18
420
        0
370
   100
100
AcDbLine
 10
4.512148014443643
 20
3.454002762799025
 30
0.0
 11
4.642198659307599
 21
3.657717101680166
 31
0.0
  0
ARC
  5
177
330
1F
100
AcDbEntity
  8
Layer1
 62
    18
420
        0
370
   100
100
AcDbCircle
 10
3.936400302543423
 20
4.021783285235146
 30
0.0
 40
0.794163375000015
100
AcDbArc
 50
332.7143941391225
 51
13.36170613912186
  0
ARC
  5
178
330
1F
100
AcDbEntity
  8
Layer1
 62
    18
420
        0
370
   100
100
AcDbCircle
 10
3.35328323794801
 20
3.883276485696942
 30
0.0
 40
1.393503749999845
100
AcDbArc
 50
13.36170613912106
 51
33.93077913912351
  0
LINE
  5
179
330
1F
100
AcDbEntity
  8
Layer1
 62
    18
420
        0
370
   100
100
AcDbLine
 10
4.232324340761028
 20
5.04077759853255
 30
0.0
 11
4.509491780181502
 21
4.661117961954449
 31
0.0
  0
ARC
  5
17A
330
1F
100
AcDbEntity
  8
Layer1
 62
    18
420
        0
370
   100
100
AcDbCircle
 10
4.94433505821476
 20
5.703860192051362
 30
0.0
 40
0.9729528749999949
100
AcDbArc
 50
191.5882021391217
 51
222.962206139122
  0
ARC
  5
17B
330
1F
100
AcDbEntity
  8
Layer1
 62
    18
420
        0
370
   100
100
AcDbCircle
 10
5.028082113822499
 20
5.743659971275638
 30
0.0
 40
1.063218374999999
100
AcDbArc
 50
157.8707841391222
 51
192.782759139122
  0
LINE
  5
17C
330
1F
100
AcDbEntity
  8
Layer1
 62
    18
420
        0
370
   100
100
AcDbLine
 10
4.043183185404178
 20
6.144171409874485
 30
0.0
 11
4.07840257737033
 21
6.252853360910969
 31
0.0
  0
LINE
  5
17D
330
1F
100
AcDbEntity
  8
Layer1
 62
    18
420
        0
370
   100
100
AcDbLine
 10
4.07840257737033
 20
6.252853360910969
 30
0.0
 11
4.091116231638072
 21
6.292060470162525
 31
0.0
  0
LINE
  5
17E
330
1F
100
AcDbEntity
  8
Layer1
 62
    18
420
        0
370
   100
100
AcDbLine
 10
4.091116231638072
 20
6.292060470162525
 30
0.0
 11
4.061030484575316
 21
6.282455292203268
 31
0.0
  0
LINE
  5
17F
330
1F
100
AcDbEntity
  8
Layer1
 62
    18
420
        0
370
   100
100
AcDbLine
 10
4.061030484575316
 20
6.282455292203268
 30
0.0
 11
4.01923645447911
 21
6.244001672170835
 31
0.0
  0
ARC
  5
180
330
1F
100
AcDbEntity
  8
Layer1
 62
    18
420
        0
370
   100
100
AcDbCircle
 10
3.993560260096147
 20
6.247762575473081
 30
0.0
 40
0.0259503749999972
100
AcDbArc
 50
248.7540421391109
 51
351.6667301391229
  0
ARC
  5
181
330
1F
100
AcDbEntity
  8
Layer1
 62
    18
420
        0
370
   100
100
AcDbCircle
 10
3.963244113440012
 20
6.212759313943544
 30
0.0
 40
0.0235440000000017
100
AcDbArc
 50
273.1407051391224
 51
27.35208813911654
  0
LINE
  5
182
330
1F
100
AcDbEntity
  8
Layer1
 62
    18
420
        0
370
   100
100
AcDbLine
 10
3.96453515460998
 20
6.189250681671069
 30
0.0
 11
3.916778080836011
 21
6.142854569437649
 31
0.0
  0
LINE
  5
183
330
1F
100
AcDbEntity
  8
Layer1
 62
    18
420
        0
370
   100
100
AcDbLine
 10
3.916778080836011
 20
6.142854569437649
 30
0.0
 11
3.842182432563888
 21
6.037223614792985
 31
0.0
  0
ARC
  5
184
330
1F
100
AcDbEntity
  8
Layer1
 62
    18
420
        0
370
   100
100
AcDbCircle
 10
4.837484150805774
 20
5.302042886570649
 30
0.0
 40
1.237382999999996
100
AcDbArc
 50
143.5485471391219
 51
191.9466101391219
  0
LINE
  5
185
330
1F
100
AcDbEntity
  8
Layer1
 62
    18
420
        0
370
   100
100
AcDbLine
 10
3.678542295298531
 20
4.801836500482185
 30
0.0
 11
3.626902542748716
 21
5.045904011392079
 31
0.0
  0
LINE
  5
186
330
1F
100
AcDbEntity
  8
Layer1
 62
    18
420
        0
370
   100
100
AcDbLine
 10
3.678542295298531
 20
4.801836500482185
 30
0.0
 11
3.778491103285461
 21
4.620320477149345
 31
0.0
  0
ARC
  5
187
330
1F
100
AcDbEntity
  8
Layer1
 62
    18
420
        0
370
   100
100
AcDbCircle
 10
3.860262745756583
 20
4.622461752579632
 30
0.0
 40
0.0817998750000188
100
AcDbArc
 50
181.4998881391315
 51
248.5227931391128
  0
LINE
  5
188
330
1F
100
AcDbEntity
  8
Layer1
 62
    18
420
        0
370
   100
100
AcDbLine
 10
3.830313240113
 20
4.546341860796247
 30
0.0
 11
3.875444195601517
 21
4.453590575388258
 31
0.0
  0
LINE
  5
189
330
1F
100
AcDbEntity
  8
Layer1
 62
    18
420
        0
370
   100
100
AcDbLine
 10
3.875444195601517
 20
4.453590575388258
 30
0.0
 11
3.955512671348835
 21
4.213350682199891
 31
0.0
  0
LINE
  5
18A
330
1F
100
AcDbEntity
  8
Layer1
 62
    18
420
        0
370
   100
100
AcDbLine
 10
3.955512671348835
 20
4.213350682199891
 30
0.0
 11
3.954105342662821
 21
4.048557691369066
 31
0.0
  0
LINE
  5
18B
330
1F
100
AcDbEntity
  8
Layer1
 62
    18
420
        0
370
   100
100
AcDbLine
 10
3.954105342662821
 20
4.048557691369066
 30
0.0
 11
3.941860798938329
 21
3.987083139117665
 31
0.0
  0
LINE
  5
18C
330
1F
100
AcDbEntity
  8
Layer1
 62
    18
420
        0
370
   100
100
AcDbLine
 10
3.941860798938329
 20
3.987083139117665
 30
0.0
 11
3.930692561119727
 21
3.953099898004456
 31
0.0
  0
LINE
  5
18D
330
1F
100
AcDbEntity
  8
Layer1
 62
    18
420
        0
370
   100
100
AcDbLine
 10
3.930692561119727
 20
3.953099898004456
 30
0.0
 11
3.906311010148002
 21
3.939306980406304
 31
0.0
  0
ARC
  5
18E
330
1F
100
AcDbEntity
  8
Layer1
 62
    18
420
        0
370
   100
100
AcDbCircle
 10
3.671398938914622
 20
4.044287004369624
 30
0.0
 40
0.2573021249999627
100
AcDbArc
 50
288.2952881391177
 51
335.9205221391256
  0
ARC
  5
18F
330
1F
100
AcDbEntity
  8
Layer1
 62
    18
420
        0
370
   100
100
AcDbCircle
 10
3.544149437072516
 20
4.225618784835993
 30
0.0
 40
0.4737420000000243
100
AcDbArc
 50
255.2057541391229
 51
296.0465171391207
  0
ARC
  5
190
330
1F
100
AcDbEntity
  8
Layer1
 62
    18
420
        0
370
   100
100
AcDbCircle
 10
3.427937174365035
 20
3.991385407935842
 30
0.0
 40
0.223853624999992
100
AcDbArc
 50
204.4304941391209
 51
268.7824451391225
  0
ARC
  5
191
330
1F
100
AcDbEntity
  8
Layer1
 62
    18
420
        0
370
   100
100
AcDbCircle
 10
3.322397825785256
 20
4.00253921060286
 30
0.0
 40
0.1428941249999931
100
AcDbArc
 50
170.9285551391197
 51
226.5498371391218
  0
ARC
  5
192
330
1F
100
AcDbEntity
  8
Layer1
 62
    18
420
        0
370
   100
100
AcDbCircle
 10
3.376390534476304
 20
4.094461982653741
 30
0.0
 40
0.2070731249999957
100
AcDbArc
 50
160.736612139122
 51
199.5794841391235
  0
LINE
  5
193
330
1F
100
AcDbEntity
  8
Layer1
 62
    18
420
        0
370
   100
100
AcDbLine
 10
3.180910809538357
 20
4.162778805612525
 30
0.0
 11
3.193514018865173
 21
4.1837836943082
 31
0.0
  0
LINE
  5
194
330
1F
100
AcDbEntity
  8
Layer1
 62
    18
420
        0
370
   100
100
AcDbLine
 10
3.193514018865173
 20
4.1837836943082
 30
0.0
 11
3.20506679938407
 21
4.202854607797011
 31
0.0
  0
ARC
  5
195
330
1F
100
AcDbEntity
  8
Layer1
 62
    18
420
        0
370
   100
100
AcDbCircle
 10
3.229701645670154
 20
4.219828103312774
 30
0.0
 40
0.0299160000000008
100
AcDbArc
 50
90.95983613912038
 51
214.5654011391177
  0
LINE
  5
196
330
1F
100
AcDbEntity
  8
Layer1
 62
    18
420
        0
370
   100
100
AcDbLine
 10
3.229201069076513
 20
4.249740468783827
 30
0.0
 11
3.241127829893443
 21
4.312076141195202
 31
0.0
  0
LINE
  5
197
330
1F
100
AcDbEntity
  8
Layer1
 62
    18
420
        0
370
   100
100
AcDbLine
 10
3.241127829893443
 20
4.312076141195202
 30
0.0
 11
3.273204908251671
 21
4.354485134993137
 31
0.0
  0
ARC
  5
198
330
1F
100
AcDbEntity
  8
Layer1
 62
    18
420
        0
370
   100
100
AcDbCircle
 10
2.935673060736209
 20
4.735159800564788
 30
0.0
 40
0.5087632500000056
100
AcDbArc
 50
311.5623611391219
 51
358.2135591391213
  0
ARC
  5
199
330
1F
100
AcDbEntity
  8
Layer1
 62
    18
420
        0
370
   100
100
AcDbCircle
 10
3.183620227089444
 20
4.699385609717215
 30
0.0
 40
0.261328499999988
100
AcDbArc
 50
4.370131139120781
 51
53.26188713912286
  0
LINE
  5
19A
330
1F
100
AcDbEntity
  8
Layer1
 62
    18
420
        0
370
   100
100
AcDbLine
 10
3.339936459010495
 20
4.908809107391367
 30
0.0
 11
3.244641549335384
 21
4.96433704399691
 31
0.0
  0
LINE
  5
19B
330
1F
100
AcDbEntity
  8
Layer1
 62
    18
420
        0
370
   100
100
AcDbLine
 10
3.244641549335384
 20
4.96433704399691
 30
0.0
 11
3.197377662778091
 21
4.988601671655406
 31
0.0
  0
ARC
  5
19C
330
1F
100
AcDbEntity
  8
Layer1
 62
    18
420
        0
370
   100
100
AcDbCircle
 10
3.193895657628933
 20
4.982804820447852
 30
0.0
 40
0.006762374999999
100
AcDbArc
 50
59.00263113912331
 51
303.3946311391298
  0
LINE
  5
19D
330
1F
100
AcDbEntity
  8
Layer1
 62
    18
420
        0
370
   100
100
AcDbLine
 10
3.197617455606451
 20
4.977159081666024
 30
0.0
 11
3.211270917429509
 21
4.95541806788383
 31
0.0
  0
ARC
  5
19E
330
1F
100
AcDbEntity
  8
Layer1
 62
    18
420
        0
370
   100
100
AcDbCircle
 10
3.127525714831946
 20
4.854445292246179
 30
0.0
 40
0.1311817499999998
100
AcDbArc
 50
310.2992861391224
 51
50.32805713912147
  0
LINE
  5
19F
330
1F
100
AcDbEntity
  8
Layer1
 62
    18
420
        0
370
   100
100
AcDbLine
 10
3.212371299886652
 20
4.754396466006781
 30
0.0
 11
3.070276312093959
 21
4.569034275996994
 31
0.0
  0
ARC
  5
1A0
330
1F
100
AcDbEntity
  8
Layer1
 62
    18
420
        0
370
   100
100
AcDbCircle
 10
3.950461415831183
 20
3.894301809564248
 30
0.0
 40
1.109048624999971
100
AcDbArc
 50
142.5269301391218
 51
171.8831311391227
  0
LINE
  5
1A1
330
1F
100
AcDbEntity
  8
Layer1
 62
    18
420
        0
370
   100
100
AcDbLine
 10
2.908691930656836
 20
3.766706272120313
 30
0.0
 11
2.852522225031155
 21
4.050890930140522
 31
0.0
  0
ARC
  5
1A2
330
1F
100
AcDbEntity
  8
Layer1
 62
    18
420
        0
370
   100
100
AcDbCircle
 10
3.36049602209098
 20
3.799903350830764
 30
0.0
 40
0.4530217500000081
100
AcDbArc
 50
184.2023231391225
 51
217.3526021391214
  0
ARC
  5
1A3
330
1F
100
AcDbEntity
  8
Layer1
 62
    18
420
        0
370
   100
100
AcDbCircle
 10
3.367386019928946
 20
3.627618730417228
 30
0.0
 40
0.3810701250000342
100
AcDbArc
 50
195.6148011391241
 51
233.3278791391203
  0
LINE
  5
1A4
330
1F
100
AcDbEntity
  8
Layer1
 62
    18
420
        0
370
   100
100
AcDbLine
 10
3.139798000258377
 20
3.321974986582823
 30
0.0
 11
3.325963811665016
 21
3.133811706313491
 31
0.0
  0
ARC
  5
1A5
330
1F
100
AcDbEntity
  8
Layer1
 62
    18
420
        0
370
   100
100
AcDbCircle
 10
3.606556594475408
 20
3.2387691143362
 30
0.0
 40
0.2995796250000043
100
AcDbArc
 50
200.5086881391234
 51
238.7070951391223
  0
ARC
  5
1A6
330
1F
100
AcDbEntity
  8
Layer1
 62
    18
420
        0
370
   100
100
AcDbCircle
 10
2.991538641656832
 20
2.690647426736279
 30
0.0
 40
0.5444234999999408
100
AcDbArc
 50
6.090445139119841
 51
32.45087613912303
  0
ARC
  5
1A7
330
1F
100
AcDbEntity
  8
Layer1
 62
    18
420
        0
370
   100
100
AcDbCircle
 10
3.279422280934049
 20
2.653660272454487
 30
0.0
 40
0.2705962500000025
100
AcDbArc
 50
250.7482191391225
 51
20.4963881391212
  0
ARC
  5
1A8
330
1F
100
AcDbEntity
  8
Layer1
 62
    18
420
        0
370
   100
100
AcDbCircle
 10
3.195141621967517
 20
2.677846133174018
 30
0.0
 40
0.2796930000000004
100
AcDbArc
 50
143.4500611391223
 51
268.9880721391221
  0
LINE
  5
1A9
330
1F
100
AcDbEntity
  8
Layer1
 62
    18
420
        0
370
   100
100
AcDbLine
 10
2.970453330958719
 20
2.844410220030575
 30
0.0
 11
3.054393162853913
 21
2.934184925276455
 31
0.0
  0
ARC
  5
1AA
330
1F
100
AcDbEntity
  8
Layer1
 62
    18
420
        0
370
   100
100
AcDbCircle
 10
3.037282181112973
 20
2.937055902059598
 30
0.0
 40
0.0173497500000009
100
AcDbArc
 50
350.4745771391324
 51
126.4634021391154
  0
LINE
  5
1AB
330
1F
100
AcDbEntity
  8
Layer1
 62
    18
420
        0
370
   100
100
AcDbLine
 10
3.026971084645915
 20
2.951008964175589
 30
0.0
 11
2.998970267369813
 21
2.939191025923652
 31
0.0
  0
LINE
  5
1AC
330
1F
100
AcDbEntity
  8
Layer1
 62
    18
420
        0
370
   100
100
AcDbLine
 10
2.998970267369813
 20
2.939191025923652
 30
0.0
 11
2.966677763188095
 21
2.927018224311865
 31
0.0
  0
LINE
  5
1AD
330
1F
100
AcDbEntity
  8
Layer1
 62
    18
420
        0
370
   100
100
AcDbLine
 10
2.966677763188095
 20
2.927018224311865
 30
0.0
 11
2.93492669589828
 21
2.915538324274682
 31
0.0
  0
ARC
  5
1AE
330
1F
100
AcDbEntity
  8
Layer1
 62
    18
420
        0
370
   100
100
AcDbCircle
 10
3.061931632897136
 20
2.616118701399872
 30
0.0
 40
0.3252419999999989
100
AcDbArc
 50
112.9851941391221
 51
165.4996041391221
  0
ARC
  5
1AF
330
1F
100
AcDbEntity
  8
Layer1
 62
    18
420
        0
370
   100
100
AcDbCircle
 10
3.046432088537219
 20
2.56344051651949
 30
0.0
 40
0.3280488749999901
100
AcDbArc
 50
155.8690161391208
 51
188.3465901391224
  0
LINE
  5
1B0
330
1F
100
AcDbEntity
  8
Layer1
 62
    18
420
        0
370
   100
100
AcDbLine
 10
2.721857220669694
 20
2.515820666620218
 30
0.0
 11
2.757551236556015
 21
2.4703521936427
 31
0.0
  0
ARC
  5
1B1
330
1F
100
AcDbEntity
  8
Layer1
 62
    18
420
        0
370
   100
100
AcDbCircle
 10
2.803211496491002
 20
2.471065921223983
 30
0.0
 40
0.0456660000000021
100
AcDbArc
 50
180.8954341391235
 51
277.1146791391195
  0
LINE
  5
1B2
330
1F
100
AcDbEntity
  8
Layer1
 62
    18
420
        0
370
   100
100
AcDbLine
 10
2.808867108446044
 20
2.425751596853036
 30
0.0
 11
2.965357437201867
 21
2.189603360636841
 31
0.0
  0
ARC
  5
1B3
330
1F
100
AcDbEntity
  8
Layer1
 62
    18
420
        0
370
   100
100
AcDbCircle
 10
2.304782723777563
 20
1.777116408365167
 30
0.0
 40
0.778784624999972
100
AcDbArc
 50
340.7420101391212
 51
31.98211613912306
  0
ARC
  5
1B4
330
1F
100
AcDbEntity
  8
Layer1
 62
    18
420
        0
370
   100
100
AcDbCircle
 10
2.628055360582553
 20
1.763149133194936
 30
0.0
 40
0.4782104999999563
100
AcDbArc
 50
299.425283139121
 51
329.4747111391235
  0
ARC
  5
1B5
330
1F
100
AcDbEntity
  8
Layer1
 62
    18
420
        0
370
   100
100
AcDbCircle
 10
2.495718168140476
 20
2.041805534656624
 30
0.0
 40
0.7862332499999791
100
AcDbArc
 50
275.5108861391212
 51
297.8483811391218
  0
ARC
  5
1B6
330
1F
100
AcDbEntity
  8
Layer1
 62
    18
420
        0
370
   100
100
AcDbCircle
 10
2.476172242610441
 20
1.904333812646721
 30
0.0
 40
0.652091625000018
100
AcDbArc
 50
220.2952201391229
 51
278.3815371391213
  0
ARC
  5
1B7
330
1F
100
AcDbEntity
  8
Layer1
 62
    18
420
        0
370
   100
100
AcDbCircle
 10
2.279082272720055
 20
1.725868637995617
 30
0.0
 40
0.3864453749999824
100
AcDbArc
 50
172.9767541391205
 51
219.0118291391232
  0
ARC
  5
1B8
330
1F
100
AcDbEntity
  8
Layer1
 62
    18
420
        0
370
   100
100
AcDbCircle
 10
2.093161936073743
 20
1.815121840371952
 30
0.0
 40
0.2020387500000247
100
AcDbArc
 50
148.8651491391237
 51
191.9986171391184
  0
ARC
  5
1B9
330
1F
100
AcDbEntity
  8
Layer1
 62
    18
420
        0
370
   100
100
AcDbCircle
 10
2.131086526891578
 20
1.917023692682395
 30
0.0
 40
0.2108767499999763
100
AcDbArc
 50
142.5078021391201
 51
179.3034201391245
  0
ARC
  5
1BA
330
1F
100
AcDbEntity
  8
Layer1
 62
    18
420
        0
370
   100
100
AcDbCircle
 10
2.976735678047199
 20
1.655750728038812
 30
0.0
 40
1.085314500000035
100
AcDbArc
 50
134.1563021391224
 51
158.9614771391218
  0
LINE
  5
1BB
330
1F
100
AcDbEntity
  8
Layer1
 62
    18
420
        0
370
   100
100
AcDbLine
 10
2.312013879560329
 20
2.523078357176018
 30
0.0
 11
2.220686271330898
 21
2.43440065608532
 31
0.0
  0
LINE
  5
1BC
330
1F
100
AcDbEntity
  8
Layer1
 62
    18
420
        0
370
   100
100
AcDbLine
 10
2.312013879560329
 20
2.523078357176018
 30
0.0
 11
2.380902037346257
 21
2.639229935512535
 31
0.0
  0
LINE
  5
1BD
330
1F
100
AcDbEntity
  8
Layer1
 62
    18
420
        0
370
   100
100
AcDbLine
 10
2.380902037346257
 20
2.639229935512535
 30
0.0
 11
2.421296649724173
 21
2.957774469237602
 31
0.0
  0
ARC
  5
1BE
330
1F
100
AcDbEntity
  8
Layer1
 62
    18
420
        0
370
   100
100
AcDbCircle
 10
1.236197326130415
 20
2.929554919584364
 30
0.0
 40
1.185436124999995
100
AcDbArc
 50
1.364078139122263
 51
46.6462621391222
  0
ARC
  5
1BF
330
1F
100
AcDbEntity
  8
Layer1
 62
    18
420
        0
370
   100
100
AcDbCircle
 10
2.379045941670029
 20
3.770491410848529
 30
0.0
 40
0.3297172499999948
100
AcDbArc
 50
176.343430139121
 51
218.9331181391221
  0
LINE
  5
1C0
330
1F
100
AcDbEntity
  8
Layer1
 62
    18
420
        0
370
   100
100
AcDbLine
 10
2.122564939159201
 20
3.563293618180875
 30
0.0
 11
2.154324306097912
 21
3.258519915588597
 31
0.0
  0
ARC
  5
1C1
330
1F
100
AcDbEntity
  8
Layer1
 62
    18
420
        0
370
   100
100
AcDbCircle
 10
1.696200651752426
 20
3.265742152679826
 30
0.0
 40
0.4581810000000155
100
AcDbArc
 50
288.7463151391233
 51
359.0967521391208
  0
ARC
  5
1C2
330
1F
100
AcDbEntity
  8
Layer1
 62
    18
420
        0
370
   100
100
AcDbCircle
 10
1.748040097161634
 20
3.15598145877287
 30
0.0
 40
0.337865624999995
100
AcDbArc
 50
192.7782281391212
 51
286.4028621391226
  0
ARC
  5
1C3
330
1F
100
AcDbEntity
  8
Layer1
 62
    18
420
        0
370
   100
100
AcDbCircle
 10
1.912470897778771
 20
3.202667101715057
 30
0.0
 40
0.5086327499999564
100
AcDbArc
 50
167.1877451391205
 51
193.810165139123
  0
LINE
  5
1C4
330
1F
100
AcDbEntity
  8
Layer1
 62
    18
420
        0
370
   100
100
AcDbLine
 10
1.416502402861845
 20
3.315460120659882
 30
0.0
 11
1.50094692464311
 21
3.545219370366013
 31
0.0
  0
LINE
  5
1C5
330
1F
100
AcDbEntity
  8
Layer1
 62
    18
420
        0
370
   100
100
AcDbLine
 10
1.50094692464311
 20
3.545219370366013
 30
0.0
 11
1.619567676209034
 21
3.771258755789141
 31
0.0
  0
ARC
  5
1C6
330
1F
100
AcDbEntity
  8
Layer1
 62
    18
420
        0
370
   100
100
AcDbCircle
 10
1.153771733728649
 20
4.186268131068891
 30
0.0
 40
0.6238586250000221
100
AcDbArc
 50
318.2999281391222
 51
347.0738011391211
  0
ARC
  5
1C7
330
1F
100
AcDbEntity
  8
Layer1
 62
    18
420
        0
370
   100
100
AcDbCircle
 10
0.4811463968538054
 20
4.410698936447419
 30
0.0
 40
1.331394750000071
100
AcDbArc
 50
344.134136139122
 51
359.597247139121
  0
ARC
  5
1C8
330
1F
100
AcDbEntity
  8
Layer1
 62
    18
420
        0
370
   100
100
AcDbCircle
 10
0.9543438045359922
 20
4.494297411165237
 30
0.0
 40
0.863184374999978
100
AcDbArc
 50
353.8177721391214
 51
16.89174413912202
  0
ARC
  5
1C9
330
1F
100
AcDbEntity
  8
Layer1
 62
    18
420
        0
370
   100
100
AcDbCircle
 10
0.2529309589912112
 20
4.502945934095168
 30
0.0
 40
1.546435125000116
100
AcDbArc
 50
9.009264139122434
 51
30.45569113912088
  0
LINE
  5
1CA
330
1F
100
AcDbEntity
  8
Layer1
 62
    18
420
        0
370
   100
100
AcDbLine
 10
1.585989836112727
 20
5.286790136153442
 30
0.0
 11
1.411742926817745
 21
5.543219247179959
 31
0.0
  0
LINE
  5
1CB
330
1F
100
AcDbEntity
  8
Layer1
 62
    18
420
        0
370
   100
100
AcDbLine
 10
1.411742926817745
 20
5.543219247179959
 30
0.0
 11
1.493242653834024
 21
5.295361853819774
 31
0.0
  0
ARC
  5
1CC
330
1F
100
AcDbEntity
  8
Layer1
 62
    18
420
        0
370
   100
100
AcDbCircle
 10
0.1621138411066139
 20
4.707089550913771
 30
0.0
 40
1.455324749999988
100
AcDbArc
 50
336.8723891391217
 51
23.84230013912223
  0
LINE
  5
1CD
330
1F
100
AcDbEntity
  8
Layer1
 62
    18
420
        0
370
   100
100
AcDbLine
 10
1.500477177410556
 20
4.135467154425946
 30
0.0
 11
1.340026916416285
 21
3.869586151340666
 31
0.0
  0
LINE
  5
1CE
330
1F
100
AcDbEntity
  8
Layer1
 62
    18
420
        0
370
   100
100
AcDbLine
 10
1.340026916416285
 20
3.869586151340666
 30
0.0
 11
1.137175020606517
 21
3.643494319981233
 31
0.0
  0
LINE
  5
1CF
330
1F
100
AcDbEntity
  8
Layer1
 62
    18
420
        0
370
   100
100
AcDbLine
 10
1.137175020606517
 20
3.643494319981233
 30
0.0
 11
1.022500479051693
 21
3.495656586752037
 31
0.0
  0
LINE
  5
1D0
330
1F
100
AcDbEntity
  8
Layer1
 62
    18
420
        0
370
   100
100
AcDbLine
 10
1.022500479051693
 20
3.495656586752037
 30
0.0
 11
0.9253341076026409
 21
3.35575612899115
 31
0.0
  0
ARC
  5
1D1
330
1F
100
AcDbEntity
  8
Layer1
 62
    18
420
        0
370
   100
100
AcDbCircle
 10
1.321805145268156
 20
3.110966847199021
 30
0.0
 40
0.4659524999999811
100
AcDbArc
 50
148.3079881391207
 51
190.2278451391224
  0
ARC
  5
1D2
330
1F
100
AcDbEntity
  8
Layer1
 62
    18
420
        0
370
   100
100
AcDbCircle
 10
1.690846544470664
 20
3.19802440574184
 30
0.0
 40
0.844826625000001
100
AcDbArc
 50
191.5942821391221
 51
215.2508661391221
  0
ARC
  5
1D3
330
1F
100
AcDbEntity
  8
Layer1
 62
    18
420
        0
370
   100
100
AcDbCircle
 10
0.4220444729192632
 20
2.042293661589018
 30
0.0
 40
0.8840317500000098
100
AcDbArc
 50
30.18336713912144
 51
49.09345613912129
  0
ARC
  5
1D4
330
1F
100
AcDbEntity
  8
Layer1
 62
    18
420
        0
370
   100
100
AcDbCircle
 10
0.7289653395627984
 20
2.158565774101571
 30
0.0
 40
0.5628419999999772
100
AcDbArc
 50
4.801231139121715
 51
35.66870513912283
  0
LINE
  5
1D5
330
1F
100
AcDbEntity
  8
Layer1
 62
    18
420
        0
370
   100
100
AcDbLine
 10
1.289832715052789
 20
2.205675245911674
 30
0.0
 11
1.265047059017874
 21
2.074873637675267
 31
0.0
  0
ARC
  5
1D6
330
1F
100
AcDbEntity
  8
Layer1
 62
    18
420
        0
370
   100
100
AcDbCircle
 10
1.097446718473303
 20
2.16660973390921
 30
0.0
 40
0.1910643750000216
100
AcDbArc
 50
295.0152061391253
 51
331.3057541391213
  0
ARC
  5
1D7
330
1F
100
AcDbEntity
  8
Layer1
 62
    18
420
        0
370
   100
100
AcDbCircle
 10
1.00956926739802
 20
2.396039418971991
 30
0.0
 40
0.4364786249999769
100
AcDbArc
 50
242.5602341391208
 51
292.7329051391235
  0
ARC
  5
1D8
330
1F
100
AcDbEntity
  8
Layer1
 62
    18
420
        0
370
   100
100
AcDbCircle
 10
0.9643584069606572
 20
2.270497426977187
 30
0.0
 40
0.3047422499999985
100
AcDbArc
 50
165.6905181391212
 51
239.2252271391218
  0
LINE
  5
1D9
330
1F
100
AcDbEntity
  8
Layer1
 62
    18
420
        0
370
   100
100
AcDbLine
 10
0.6690719705435839
 20
2.345817196432236
 30
0.0
 11
0.7431016812797608
 21
2.520737510536676
 31
0.0
  0
ARC
  5
1DA
330
1F
100
AcDbEntity
  8
Layer1
 62
    18
420
        0
370
   100
100
AcDbCircle
 10
0.7590660634756777
 20
2.196008839233786
 30
0.0
 40
0.3251205000000352
100
AcDbArc
 50
92.8145141391238
 51
124.1319151391207
  0
ARC
  5
1DB
330
1F
100
AcDbEntity
  8
Layer1
 62
    18
420
        0
370
   100
100
AcDbCircle
 10
0.6445693152077541
 20
2.307831305861566
 30
0.0
 40
0.1713363750000055
100
AcDbArc
 50
113.3573151391224
 51
161.2881161391204
  0
ARC
  5
1DC
330
1F
100
AcDbEntity
  8
Layer1
 62
    18
420
        0
370
   100
100
AcDbCircle
 10
0.6079675895062029
 20
2.255178077506158
 30
0.0
 40
0.1654593749999896
100
AcDbArc
 50
139.4260781391206
 51
192.0930331391241
  0
ARC
  5
1DD
330
1F
100
AcDbEntity
  8
Layer1
 62
    18
420
        0
370
   100
100
AcDbCircle
 10
0.6934688470004975
 20
2.18737857796945
 30
0.0
 40
0.2495002500000004
100
AcDbArc
 50
172.3681371391218
 51
217.776322139122
  0
ARC
  5
1DE
330
1F
100
AcDbEntity
  8
Layer1
 62
    18
420
        0
370
   100
100
AcDbCircle
 10
0.843407749227326
 20
2.119818561096167
 30
0.0
 40
0.3574664999999883
100
AcDbArc
 50
193.8017691391208
 51
220.7758431391219
  0
ARC
  5
1DF
330
1F
100
AcDbEntity
  8
Layer1
 62
    18
420
        0
370
   100
100
AcDbCircle
 10
-1.074844465974003
 20
1.009146673322751
 30
0.0
 40
1.86652799999986
100
AcDbArc
 50
15.77022513912153
 51
28.03224913912252
  0
LINE
  5
1E0
330
1F
100
AcDbEntity
  8
Layer1
 62
    18
420
        0
370
   100
100
AcDbLine
 10
9.039019283791891
 20
4.223069954726718
 30
0.0
 11
8.911531230385915
 21
3.991661097323671
 31
0.0
  0
ARC
  5
1E1
330
1F
100
AcDbEntity
  8
Layer1
 62
    18
420
        0
370
   100
100
AcDbCircle
 10
9.101723290026747
 20
3.827969076543473
 30
0.0
 40
0.2509346250000216
100
AcDbArc
 50
139.2825201391242
 51
178.2782621391201
  0
ARC
  5
1E2
330
1F
100
AcDbEntity
  8
Layer1
 62
    18
420
        0
370
   100
100
AcDbCircle
 10
9.154649105679043
 20
2.986880813540467
 30
0.0
 40
0.3454233749999938
100
AcDbArc
 50
178.8987631391217
 51
215.9480681391228
  0
ARC
  5
1E3
330
1F
100
AcDbEntity
  8
Layer1
 62
    18
420
        0
370
   100
100
AcDbCircle
 10
5.688374847705946
 20
1.522963763899156
 30
0.0
 40
3.427115624999331
100
AcDbArc
 50
9.658183139120872
 51
21.59155813912315
  0
ARC
  5
1E4
330
1F
100
AcDbEntity
  8
Layer1
 62
    18
420
        0
370
   100
100
AcDbCircle
 10
8.081580774937525
 20
1.930243931618416
 30
0.0
 40
0.9995017499999173
100
AcDbArc
 50
348.2937231391214
 51
9.658183139123036
  0
ARC
  5
1E5
330
1F
100
AcDbEntity
  8
Layer1
 62
    18
420
        0
370
   100
100
AcDbCircle
 10
8.828048198647284
 20
1.763911907853373
 30
0.0
 40
0.2350889999999955
100
AcDbArc
 50
294.2598091391219
 51
351.0776901391221
  0
LINE
  5
1E6
330
1F
100
AcDbEntity
  8
Layer1
 62
    18
420
        0
370
   100
100
AcDbLine
 10
26.60641574058666
 20
1.656508772308932
 30
0.0
 11
26.68917413791003
 21
1.832028443185781
 31
0.0
  0
LINE
  5
1E7
330
1F
100
AcDbEntity
  8
Layer1
 62
    18
420
        0
370
   100
100
AcDbLine
 10
26.68917413791003
 20
1.832028443185781
 30
0.0
 11
26.7254562827132
 21
1.933416677710909
 31
0.0
  0
ARC
  5
1E8
330
1F
100
AcDbEntity
  8
Layer1
 62
    18
420
        0
370
   100
100
AcDbCircle
 10
26.63628322699682
 20
2.010740630480154
 30
0.0
 40
0.1180293750000069
100
AcDbArc
 50
319.0708431391196
 51
15.89571513911689
  0
LINE
  5
1E9
330
1F
100
AcDbEntity
  8
Layer1
 62
    18
420
        0
370
   100
100
AcDbLine
 10
26.74979917090723
 20
2.043066795777484
 30
0.0
 11
26.75187393403283
 21
2.198671501901849
 31
0.0
  0
LINE
  5
1EA
330
1F
100
AcDbEntity
  8
Layer1
 62
    18
420
        0
370
   100
100
AcDbLine
 10
26.75187393403283
 20
2.198671501901849
 30
0.0
 11
26.69411096056398
 21
2.285751328742961
 31
0.0
  0
ARC
  5
1EB
330
1F
100
AcDbEntity
  8
Layer1
 62
    18
420
        0
370
   100
100
AcDbCircle
 10
26.42566532760595
 20
1.97871719464754
 30
0.0
 40
0.4078395000000674
100
AcDbArc
 50
48.83606513912353
 51
80.14190313911803
  0
LINE
  5
1EC
330
1F
100
AcDbEntity
  8
Layer1
 62
    18
420
        0
370
   100
100
AcDbLine
 10
26.49549001047375
 20
2.380534566781979
 30
0.0
 11
26.54595827559136
 21
2.233784108518044
 31
0.0
  0
ARC
  5
1ED
330
1F
100
AcDbEntity
  8
Layer1
 62
    18
420
        0
370
   100
100
AcDbCircle
 10
26.19879731409616
 20
2.114393894343688
 30
0.0
 40
0.3671167500000799
100
AcDbArc
 50
352.148833139125
 51
18.97820413911906
  0
ARC
  5
1EE
330
1F
100
AcDbEntity
  8
Layer1
 62
    18
420
        0
370
   100
100
AcDbCircle
 10
26.33013990905881
 20
2.06679903675573
 30
0.0
 40
0.2323473749999745
100
AcDbArc
 50
294.5306701391172
 51
359.3705181391257
  0
ARC
  5
1EF
330
1F
100
AcDbEntity
  8
Layer1
 62
    18
420
        0
370
   100
100
AcDbCircle
 10
26.26359789904337
 20
2.158186240713669
 30
0.0
 40
0.3438551249999937
100
AcDbArc
 50
205.2611281391207
 51
298.2980921391236
  0
ARC
  5
1F0
330
1F
100
AcDbEntity
  8
Layer1
 62
    18
420
        0
370
   100
100
AcDbCircle
 10
26.15661498406443
 20
2.083693997992539
 30
0.0
 40
0.2164061250000626
100
AcDbArc
 50
151.8348711391299
 51
199.5025491391153
  0
ARC
  5
1F1
330
1F
100
AcDbEntity
  8
Layer1
 62
    18
420
        0
370
   100
100
AcDbCircle
 10
26.19956571398028
 20
2.175256551737242
 30
0.0
 40
0.2339718750000833
100
AcDbArc
 50
131.6116131391294
 51
177.4070291391134
  0
LINE
  5
1F2
330
1F
100
AcDbEntity
  8
Layer1
 62
    18
420
        0
370
   100
100
AcDbLine
 10
26.04419065940941
 20
2.350188531715922
 30
0.0
 11
26.2561898184857
 21
2.582946866572208
 31
0.0
  0
ARC
  5
1F3
330
1F
100
AcDbEntity
  8
Layer1
 62
    18
420
        0
370
   100
100
AcDbCircle
 10
25.96913105338852
 20
2.91123272350971
 30
0.0
 40
0.4360893749999939
100
AcDbArc
 50
311.167067139122
 51
32.34507113912286
  0
LINE
  5
1F4
330
1F
100
AcDbEntity
  8
Layer1
 62
    18
420
        0
370
   100
100
AcDbLine
 10
26.33755616817452
 20
3.144547502985283
 30
0.0
 11
26.19884331493701
 21
3.393029625207433
 31
0.0
  0
LINE
  5
1F5
330
1F
100
AcDbEntity
  8
Layer1
 62
    18
420
        0
370
   100
100
AcDbLine
 10
26.19884331493701
 20
3.393029625207433
 30
0.0
 11
26.11797368496372
 21
3.497959801103626
 31
0.0
  0
ARC
  5
1F6
330
1F
100
AcDbEntity
  8
Layer1
 62
    18
420
        0
370
   100
100
AcDbCircle
 10
25.98159286200953
 20
3.453698709083101
 30
0.0
 40
0.1433834999999215
100
AcDbArc
 50
17.98026413911001
 51
62.20346813913627
  0
LINE
  5
1F7
330
1F
100
AcDbEntity
  8
Layer1
 62
    18
420
        0
370
   100
100
AcDbLine
 10
26.04845720129264
 20
3.580536334808968
 30
0.0
 11
25.92029954329549
 21
3.761443855156944
 31
0.0
  0
LINE
  5
1F8
330
1F
100
AcDbEntity
  8
Layer1
 62
    18
420
        0
370
   100
100
AcDbLine
 10
25.92029954329549
 20
3.761443855156944
 30
0.0
 11
25.78225816065711
 21
3.962742772772607
 31
0.0
  0
ARC
  5
1F9
330
1F
100
AcDbEntity
  8
Layer1
 62
    18
420
        0
370
   100
100
AcDbCircle
 10
26.77600956853932
 20
4.4520676836016
 30
0.0
 40
1.10769187499979
100
AcDbArc
 50
181.2181051391199
 51
206.2157461391246
  0
ARC
  5
1FA
330
1F
100
AcDbEntity
  8
Layer1
 62
    18
420
        0
370
   100
100
AcDbCircle
 10
26.59424790446304
 20
4.491057914526256
 30
0.0
 40
0.9277908749999428
100
AcDbArc
 50
165.8841921391225
 51
183.8649441391235
  0
LINE
  5
1FB
330
1F
100
AcDbEntity
  8
Layer1
 62
    18
420
        0
370
   100
100
AcDbLine
 10
25.69447225515654
 20
4.717329575199589
 30
0.0
 11
25.75106672465772
 21
5.036315158611416
 31
0.0
  0
LINE
  5
1FC
330
1F
100
AcDbEntity
  8
Layer1
 62
    18
420
        0
370
   100
100
AcDbLine
 10
25.75106672465772
 20
5.036315158611416
 30
0.0
 11
25.77951436035574
 21
5.163292980329505
 31
0.0
  0
ARC
  5
1FD
330
1F
100
AcDbEntity
  8
Layer1
 62
    18
420
        0
370
   100
100
AcDbCircle
 10
25.66954581443561
 20
5.269308690878842
 30
0.0
 40
0.1527491249999676
100
AcDbArc
 50
316.0485131391163
 51
0.3735481391259064
  0
LINE
  5
1FE
330
1F
100
AcDbEntity
  8
Layer1
 62
    18
420
        0
370
   100
100
AcDbLine
 10
25.82229213222958
 20
5.270303824379123
 30
0.0
 11
25.87556629591084
 21
5.391514175496898
 31
0.0
  0
LINE
  5
1FF
330
1F
100
AcDbEntity
  8
Layer1
 62
    18
420
        0
370
   100
100
AcDbLine
 10
25.87556629591084
 20
5.391514175496898
 30
0.0
 11
25.90021689771849
 21
5.441818001810475
 31
0.0
  0
LINE
  5
200
330
1F
100
AcDbEntity
  8
Layer1
 62
    18
420
        0
370
   100
100
AcDbLine
 10
25.90021689771849
 20
5.441818001810475
 30
0.0
 11
25.91220705214606
 21
5.472450601852497
 31
0.0
  0
LINE
  5
201
330
1F
100
AcDbEntity
  8
Layer1
 62
    18
420
        0
370
   100
100
AcDbLine
 10
25.91220705214606
 20
5.472450601852497
 30
0.0
 11
25.88919304878123
 21
5.469401397607058
 31
0.0
  0
LINE
  5
202
330
1F
100
AcDbEntity
  8
Layer1
 62
    18
420
        0
370
   100
100
AcDbLine
 10
25.88919304878123
 20
5.469401397607058
 30
0.0
 11
25.72234664459729
 21
5.270805218907441
 31
0.0
  0
LINE
  5
203
330
1F
100
AcDbEntity
  8
Layer1
 62
    18
420
        0
370
   100
100
AcDbLine
 10
25.72234664459729
 20
5.270805218907441
 30
0.0
 11
25.61209834614058
 21
5.048969488798015
 31
0.0
  0
ARC
  5
204
330
1F
100
AcDbEntity
  8
Layer1
 62
    18
420
        0
370
   100
100
AcDbCircle
 10
27.29061125287125
 20
4.271591700446042
 30
0.0
 40
1.849789124999763
100
AcDbArc
 50
155.1494921391206
 51
175.8332691391234
  0
LINE
  5
205
330
1F
100
AcDbEntity
  8
Layer1
 62
    18
420
        0
370
   100
100
AcDbLine
 10
25.44571074115716
 20
4.405995063463337
 30
0.0
 11
25.45598606421227
 21
4.236881149113042
 31
0.0
  0
LINE
  5
206
330
1F
100
AcDbEntity
  8
Layer1
 62
    18
420
        0
370
   100
100
AcDbLine
 10
25.45598606421227
 20
4.236881149113042
 30
0.0
 11
25.4874441832841
 21
4.078367602253099
 31
0.0
  0
ARC
  5
207
330
1F
100
AcDbEntity
  8
Layer1
 62
    18
420
        0
370
   100
100
AcDbCircle
 10
26.14024753583201
 20
4.105174731078703
 30
0.0
 40
0.6533538750000085
100
AcDbArc
 50
182.3514421391219
 51
208.2323431391213
  0
ARC
  5
208
330
1F
100
AcDbEntity
  8
Layer1
 62
    18
420
        0
370
   100
100
AcDbCircle
 10
26.56684065025886
 20
4.125205873075678
 30
0.0
 40
1.054871999999975
100
AcDbArc
 50
198.1786041391231
 51
215.5152491391237
  0
ARC
  5
209
330
1F
100
AcDbEntity
  8
Layer1
 62
    18
420
        0
370
   100
100
AcDbCircle
 10
24.69781253326244
 20
2.965021322452867
 30
0.0
 40
1.149151499999817
100
AcDbArc
 50
11.88607913912126
 51
28.44670713912394
  0
ARC
  5
20A
330
1F
100
AcDbEntity
  8
Layer1
 62
    18
420
        0
370
   100
100
AcDbCircle
 10
25.27730976937201
 20
3.086993931226672
 30
0.0
 40
0.5569571250000717
100
AcDbArc
 50
338.5494011391249
 51
11.88607913912058
  0
ARC
  5
20B
330
1F
100
AcDbEntity
  8
Layer1
 62
    18
420
        0
370
   100
100
AcDbCircle
 10
25.55283556266201
 20
2.99792390971206
 30
0.0
 40
0.2685374999999945
100
AcDbArc
 50
271.5883421391212
 51
334.7361381391225
  0
ARC
  5
20C
330
1F
100
AcDbEntity
  8
Layer1
 62
    18
420
        0
370
   100
100
AcDbCircle
 10
25.48314668299095
 20
3.110374004920339
 30
0.0
 40
0.3886166250000067
100
AcDbArc
 50
214.4071521391222
 51
281.4480351391209
  0
ARC
  5
20D
330
1F
100
AcDbEntity
  8
Layer1
 62
    18
420
        0
370
   100
100
AcDbCircle
 10
25.54777805924851
 20
3.154640313558731
 30
0.0
 40
0.4669526250001664
100
AcDbArc
 50
185.6073101391277
 51
214.4071521391179
  0
LINE
  5
20E
330
1F
100
AcDbEntity
  8
Layer1
 62
    18
420
        0
370
   100
100
AcDbLine
 10
25.07184505989808
 20
3.168060612540778
 30
0.0
 11
25.08305922881756
 21
3.109013819205227
 31
0.0
  0
LINE
  5
20F
330
1F
100
AcDbEntity
  8
Layer1
 62
    18
420
        0
370
   100
100
AcDbLine
 10
25.07184505989808
 20
3.168060612540778
 30
0.0
 11
25.08448407097834
 21
3.221186241740057
 31
0.0
  0
LINE
  5
210
330
1F
100
AcDbEntity
  8
Layer1
 62
    18
420
        0
370
   100
100
AcDbLine
 10
25.08448407097834
 20
3.221186241740057
 30
0.0
 11
25.0971813500254
 21
3.33027316390195
 31
0.0
  0
ARC
  5
211
330
1F
100
AcDbEntity
  8
Layer1
 62
    18
420
        0
370
   100
100
AcDbCircle
 10
25.60727758800706
 20
3.270904696779871
 30
0.0
 40
0.5135400000000152
100
AcDbArc
 50
148.1381391391233
 51
173.3613621391223
  0
ARC
  5
212
330
1F
100
AcDbEntity
  8
Layer1
 62
    18
420
        0
370
   100
100
AcDbCircle
 10
25.06679469505615
 20
3.648371379850336
 30
0.0
 40
0.1489983750000005
100
AcDbArc
 50
314.4394331391214
 51
357.8143471391207
  0
LINE
  5
213
330
1F
100
AcDbEntity
  8
Layer1
 62
    18
420
        0
370
   100
100
AcDbLine
 10
25.21568360452109
 20
3.642689710875224
 30
0.0
 11
25.22944394183187
 21
3.658625408241406
 31
0.0
  0
ARC
  5
214
330
1F
100
AcDbEntity
  8
Layer1
 62
    18
420
        0
370
   100
100
AcDbCircle
 10
25.23403402972432
 20
3.664676056044971
 30
0.0
 40
0.0075948749999983
100
AcDbArc
 50
232.8137261391778
 51
136.8828801391492
  0
LINE
  5
215
330
1F
100
AcDbEntity
  8
Layer1
 62
    18
420
        0
370
   100
100
AcDbLine
 10
25.22849028225896
 20
3.669867087089571
 30
0.0
 11
25.20270147380346
 21
3.634357145121136
 31
0.0
  0
ARC
  5
216
330
1F
100
AcDbEntity
  8
Layer1
 62
    18
420
        0
370
   100
100
AcDbCircle
 10
26.19152901476368
 20
2.61058893127456
 30
0.0
 40
1.42333425000022
100
AcDbArc
 50
134.0053991391225
 51
146.7549571391207
  0
LINE
  5
217
330
1F
100
AcDbEntity
  8
Layer1
 62
    18
420
        0
370
   100
100
AcDbLine
 10
24.93185399403533
 20
3.285180360325363
 30
0.0
 11
25.00114687389696
 21
3.390890351731748
 31
0.0
  0
LINE
  5
218
330
1F
100
AcDbEntity
  8
Layer1
 62
    18
420
        0
370
   100
100
AcDbLine
 10
24.93185399403533
 20
3.285180360325363
 30
0.0
 11
24.88511552519904
 21
3.161110592281162
 31
0.0
  0
LINE
  5
219
330
1F
100
AcDbEntity
  8
Layer1
 62
    18
420
        0
370
   100
100
AcDbLine
 10
24.88511552519904
 20
3.161110592281162
 30
0.0
 11
24.86100582471797
 21
3.091939708888713
 31
0.0
  0
LINE
  5
21A
330
1F
100
AcDbEntity
  8
Layer1
 62
    18
420
        0
370
   100
100
AcDbLine
 10
24.86100582471797
 20
3.091939708888713
 30
0.0
 11
24.83629322058453
 21
3.03134566183563
 31
0.0
  0
LINE
  5
21B
330
1F
100
AcDbEntity
  8
Layer1
 62
    18
420
        0
370
   100
100
AcDbLine
 10
24.83629322058453
 20
3.03134566183563
 30
0.0
 11
24.81168587994578
 21
2.894417807459853
 31
0.0
  0
ARC
  5
21C
330
1F
100
AcDbEntity
  8
Layer1
 62
    18
420
        0
370
   100
100
AcDbCircle
 10
25.60524115810464
 20
2.8160004997577
 30
0.0
 40
0.7974202499999946
100
AcDbArc
 50
174.3564991391227
 51
209.9340411391231
  0
ARC
  5
21D
330
1F
100
AcDbEntity
  8
Layer1
 62
    18
420
        0
370
   100
100
AcDbCircle
 10
24.58268953298553
 20
2.076338905028333
 30
0.0
 40
0.4761168749998287
100
AcDbArc
 50
20.64016313911871
 51
45.87133913912867
  0
LINE
  5
21E
330
1F
100
AcDbEntity
  8
Layer1
 62
    18
420
        0
370
   100
100
AcDbLine
 10
25.02824511781401
 20
2.244169003116426
 30
0.0
 11
25.09667721574481
 21
2.1714908406354
 31
0.0
  0
ARC
  5
21F
330
1F
100
AcDbEntity
  8
Layer1
 62
    18
420
        0
370
   100
100
AcDbCircle
 10
25.20639316827712
 20
2.207288708186967
 30
0.0
 40
0.11540925
100
AcDbArc
 50
198.0703121391243
 51
250.9597971391248
  0
LINE
  5
220
330
1F
100
AcDbEntity
  8
Layer1
 62
    18
420
        0
370
   100
100
AcDbLine
 10
25.16874354105098
 20
2.098194370514754
 30
0.0
 11
25.34308066371809
 21
1.897119882526319
 31
0.0
  0
LINE
  5
221
330
1F
100
AcDbEntity
  8
Layer1
 62
    18
420
        0
370
   100
100
AcDbLine
 10
25.34308066371809
 20
1.897119882526319
 30
0.0
 11
25.37499060420852
 21
1.613929931107791
 31
0.0
  0
ARC
  5
222
330
1F
100
AcDbEntity
  8
Layer1
 62
    18
420
        0
370
   100
100
AcDbCircle
 10
24.89632445916838
 20
1.621240972479996
 30
0.0
 40
0.4787212500000062
100
AcDbArc
 50
303.3185391391229
 51
359.1248641391219
  0
ARC
  5
223
330
1F
100
AcDbEntity
  8
Layer1
 62
    18
420
        0
370
   100
100
AcDbCircle
 10
24.80182193473195
 20
1.85175889814861
 30
0.0
 40
0.7248262500000592
100
AcDbArc
 50
263.8513261391234
 51
299.5490331391206
  0
LINE
  5
224
330
1F
100
AcDbEntity
  8
Layer1
 62
    18
420
        0
370
   100
100
AcDbLine
 10
24.72418693218933
 20
1.131101847497366
 30
0.0
 11
24.47037981877562
 21
1.191161715889049
 31
0.0
  0
LINE
  5
225
330
1F
100
AcDbEntity
  8
Layer1
 62
    18
420
        0
370
   100
100
AcDbLine
 10
24.47037981877562
 20
1.191161715889049
 30
0.0
 11
24.30763981588624
 21
1.286210052231112
 31
0.0
  0
ARC
  5
226
330
1F
100
AcDbEntity
  8
Layer1
 62
    18
420
        0
370
   100
100
AcDbCircle
 10
24.56475097921323
 20
1.6300364455091
 30
0.0
 40
0.4293281250000139
100
AcDbArc
 50
167.6235471391233
 51
233.2112281391205
  0
ARC
  5
227
330
1F
100
AcDbEntity
  8
Layer1
 62
    18
420
        0
370
   100
100
AcDbCircle
 10
25.32880688646102
 20
1.4909264645548
 30
0.0
 40
1.205767125000235
100
AcDbArc
 50
147.474278139124
 51
168.9487301391197
  0
LINE
  5
228
330
1F
100
AcDbEntity
  8
Layer1
 62
    18
420
        0
370
   100
100
AcDbLine
 10
24.31216495250927
 20
2.139240513652439
 30
0.0
 11
24.50726672744799
 21
2.469307319772849
 31
0.0
  0
ARC
  5
229
330
1F
100
AcDbEntity
  8
Layer1
 62
    18
420
        0
370
   100
100
AcDbCircle
 10
24.18070122879204
 20
2.52860811791345
 30
0.0
 40
0.331906500000008
100
AcDbArc
 50
349.7079901391236
 51
73.20992013912038
  0
LINE
  5
22A
330
1F
100
AcDbEntity
  8
Layer1
 62
    18
420
        0
370
   100
100
AcDbLine
 10
24.27657726255645
 20
2.846364955017879
 30
0.0
 11
24.23942573211741
 21
2.845392931296324
 31
0.0
  0
ARC
  5
22B
330
1F
100
AcDbEntity
  8
Layer1
 62
    18
420
        0
370
   100
100
AcDbCircle
 10
24.22131402300885
 20
2.844772451647418
 30
0.0
 40
0.0181226249999945
100
AcDbArc
 50
1.964184139102966
 51
132.0954611391408
  0
ARC
  5
22C
330
1F
100
AcDbEntity
  8
Layer1
 62
    18
420
        0
370
   100
100
AcDbCircle
 10
24.19933037566722
 20
2.856851875148625
 30
0.0
 40
0.0099303750000009
100
AcDbArc
 50
7.913548139093662
 51
279.1664431391138
  0
LINE
  5
22D
330
1F
100
AcDbEntity
  8
Layer1
 62
    18
420
        0
370
   100
100
AcDbLine
 10
24.20091172335121
 20
2.847049388530781
 30
0.0
 11
24.21303311835912
 21
2.82362377166324
 31
0.0
  0
LINE
  5
22E
330
1F
100
AcDbEntity
  8
Layer1
 62
    18
420
        0
370
   100
100
AcDbLine
 10
24.21303311835912
 20
2.82362377166324
 30
0.0
 11
24.26944532500558
 21
2.752795447510564
 31
0.0
  0
ARC
  5
22F
330
1F
100
AcDbEntity
  8
Layer1
 62
    18
420
        0
370
   100
100
AcDbCircle
 10
23.95785436497291
 20
2.598840591993907
 30
0.0
 40
0.3475496249999332
100
AcDbArc
 50
338.4448921391172
 51
26.29383013912699
  0
ARC
  5
230
330
1F
100
AcDbEntity
  8
Layer1
 62
    18
420
        0
370
   100
100
AcDbCircle
 10
23.99122777327494
 20
2.597150407549034
 30
0.0
 40
0.3160698750000137
100
AcDbArc
 50
259.5419861391233
 51
336.50671113912
  0
ARC
  5
231
330
1F
100
AcDbEntity
  8
Layer1
 62
    18
420
        0
370
   100
100
AcDbCircle
 10
23.90935701698755
 20
2.505019072153865
 30
0.0
 40
0.2200556250000024
100
AcDbArc
 50
156.3520361391236
 51
276.3922531391199
  0
ARC
  5
232
330
1F
100
AcDbEntity
  8
Layer1
 62
    18
420
        0
370
   100
100
AcDbCircle
 10
24.96067423098257
 20
2.230360157510966
 30
0.0
 40
1.304400374999967
100
AcDbArc
 50
133.5752861391216
 51
163.8452261391224
  0
ARC
  5
233
330
1F
100
AcDbEntity
  8
Layer1
 62
    18
420
        0
370
   100
100
AcDbCircle
 10
23.37262694149505
 20
3.968234172735226
 30
0.0
 40
1.050359624999976
100
AcDbArc
 50
310.9867161391214
 51
1.480713139122973
  0
ARC
  5
234
330
1F
100
AcDbEntity
  8
Layer1
 62
    18
420
        0
370
   100
100
AcDbCircle
 10
23.82221332148104
 20
3.996527011137945
 30
0.0
 40
0.6004237500001031
100
AcDbArc
 50
359.8901141391233
 51
22.30403313912082
  0
LINE
  5
235
330
1F
100
AcDbEntity
  8
Layer1
 62
    18
420
        0
370
   100
100
AcDbLine
 10
24.37771554536917
 20
4.224401015889956
 30
0.0
 11
24.28533271291483
 21
4.381027270735224
 31
0.0
  0
ARC
  5
236
330
1F
100
AcDbEntity
  8
Layer1
 62
    18
420
        0
370
   100
100
AcDbCircle
 10
25.14940712490388
 20
5.280948676845693
 30
0.0
 40
1.24759012499972
100
AcDbArc
 50
209.6163171391201
 51
226.1641991391239
  0
LINE
  5
237
330
1F
100
AcDbEntity
  8
Layer1
 62
    18
420
        0
370
   100
100
AcDbLine
 10
24.06480897754553
 20
4.66440255303058
 30
0.0
 11
24.03053077588565
 21
4.738518230006122
 31
0.0
  0
LINE
  5
238
330
1F
100
AcDbEntity
  8
Layer1
 62
    18
420
        0
370
   100
100
AcDbLine
 10
24.03053077588565
 20
4.738518230006122
 30
0.0
 11
24.02099222974623
 21
4.782334533721169
 31
0.0
  0
LINE
  5
239
330
1F
100
AcDbEntity
  8
Layer1
 62
    18
420
        0
370
   100
100
AcDbLine
 10
24.02099222974623
 20
4.782334533721169
 30
0.0
 11
24.04293427455544
 21
4.830198776255202
 31
0.0
  0
LINE
  5
23A
330
1F
100
AcDbEntity
  8
Layer1
 62
    18
420
        0
370
   100
100
AcDbLine
 10
24.04293427455544
 20
4.830198776255202
 30
0.0
 11
24.06972799587885
 21
4.875618497948253
 31
0.0
  0
ARC
  5
23B
330
1F
100
AcDbEntity
  8
Layer1
 62
    18
420
        0
370
   100
100
AcDbCircle
 10
24.07592877886789
 20
4.88794999497357
 30
0.0
 40
0.0138037499999998
100
AcDbArc
 50
243.3050191391329
 51
129.7061881391236
  0
LINE
  5
23C
330
1F
100
AcDbEntity
  8
Layer1
 62
    18
420
        0
370
   100
100
AcDbLine
 10
24.06711026670345
 20
4.898569189350795
 30
0.0
 11
23.98834349971536
 21
4.852019383986573
 31
0.0
  0
ARC
  5
23D
330
1F
100
AcDbEntity
  8
Layer1
 62
    18
420
        0
370
   100
100
AcDbCircle
 10
24.2916881215437
 20
4.589443097254714
 30
0.0
 40
0.4012042499999884
100
AcDbArc
 50
139.1204541391212
 51
192.2498371391228
  0
ARC
  5
23E
330
1F
100
AcDbEntity
  8
Layer1
 62
    18
420
        0
370
   100
100
AcDbCircle
 10
24.09360240533854
 20
4.496334288348845
 30
0.0
 40
0.1941468750000107
100
AcDbArc
 50
177.6433781391245
 51
225.6263911391213
  0
ARC
  5
23F
330
1F
100
AcDbEntity
  8
Layer1
 62
    18
420
        0
370
   100
100
AcDbCircle
 10
24.04007744015286
 20
4.353660296350376
 30
0.0
 40
0.0823410000000076
100
AcDbArc
 50
177.2862021391279
 51
234.5999731391211
  0
LINE
  5
240
330
1F
100
AcDbEntity
  8
Layer1
 62
    18
420
        0
370
   100
100
AcDbLine
 10
23.99237852915001
 20
4.286541556804075
 30
0.0
 11
24.02351380386592
 21
4.208788461746572
 31
0.0
  0
ARC
  5
241
330
1F
100
AcDbEntity
  8
Layer1
 62
    18
420
        0
370
   100
100
AcDbCircle
 10
23.55275394845047
 20
4.020278220679089
 30
0.0
 40
0.5071016250000846
100
AcDbArc
 50
342.0323221391256
 51
21.82306413911843
  0
ARC
  5
242
330
1F
100
AcDbEntity
  8
Layer1
 62
    18
420
        0
370
   100
100
AcDbCircle
 10
23.60192582917245
 20
4.129192030553397
 30
0.0
 40
0.5080050000000111
100
AcDbArc
 50
240.9545291391226
 51
328.5113991391213
  0
ARC
  5
243
330
1F
100
AcDbEntity
  8
Layer1
 62
    18
420
        0
370
   100
100
AcDbCircle
 10
23.57510431028985
 20
4.004504405847048
 30
0.0
 40
0.3877537500000005
100
AcDbArc
 50
162.5156631391216
 51
235.4659211391218
  0
LINE
  5
244
330
1F
100
AcDbEntity
  8
Layer1
 62
    18
420
        0
370
   100
100
AcDbLine
 10
23.2052643170923
 20
4.121003964462197
 30
0.0
 11
23.36107860470807
 21
4.475582291445363
 31
0.0
  0
ARC
  5
245
330
1F
100
AcDbEntity
  8
Layer1
 62
    18
420
        0
370
   100
100
AcDbCircle
 10
22.91950992342829
 20
4.742591502344099
 30
0.0
 40
0.5160206249999724
100
AcDbArc
 50
328.839292139123
 51
353.0704061391238
  0
ARC
  5
246
330
1F
100
AcDbEntity
  8
Layer1
 62
    18
420
        0
370
   100
100
AcDbCircle
 10
22.96572337841064
 20
4.998575688910217
 30
0.0
 40
0.5643303750000054
100
AcDbArc
 50
325.6721951391223
 51
347.4089151391217
  0
ARC
  5
247
330
1F
100
AcDbEntity
  8
Layer1
 62
    18
420
        0
370
   100
100
AcDbCircle
 10
22.1459476808025
 20
5.335833473542135
 30
0.0
 40
1.445760000000262
100
AcDbArc
 50
341.4359841391234
 51
356.9383211391206
  0
ARC
  5
248
330
1F
100
AcDbEntity
  8
Layer1
 62
    18
420
        0
370
   100
100
AcDbCircle
 10
22.56497973593374
 20
5.450097370540364
 30
0.0
 40
1.042401374999987
100
AcDbArc
 50
349.415004139121
 51
41.12133913912162
  0
LINE
  5
249
330
1F
100
AcDbEntity
  8
Layer1
 62
    18
420
        0
370
   100
100
AcDbLine
 10
23.35024016814826
 20
6.135639129783634
 30
0.0
 11
23.24585020595729
 21
6.182973436345286
 31
0.0
  0
LINE
  5
24A
330
1F
100
AcDbEntity
  8
Layer1
 62
    18
420
        0
370
   100
100
AcDbLine
 10
23.24585020595729
 20
6.182973436345286
 30
0.0
 11
23.2686912692157
 21
6.100429871418992
 31
0.0
  0
ARC
  5
24B
330
1F
100
AcDbEntity
  8
Layer1
 62
    18
420
        0
370
   100
100
AcDbCircle
 10
22.54728008465939
 20
5.774245714303582
 30
0.0
 40
0.7917266249999163
100
AcDbArc
 50
4.33970613911957
 51
24.32999613912169
  0
ARC
  5
24C
330
1F
100
AcDbEntity
  8
Layer1
 62
    18
420
        0
370
   100
100
AcDbCircle
 10
21.73666897635783
 20
5.658588346459845
 30
0.0
 40
1.609670250000324
100
AcDbArc
 50
349.8340911391234
 51
6.26170113912029
  0
LINE
  5
24D
330
1F
100
AcDbEntity
  8
Layer1
 62
    18
420
        0
370
   100
100
AcDbLine
 10
23.32106920898198
 20
5.374482985566111
 30
0.0
 11
23.28513008750356
 21
5.266626210869369
 31
0.0
  0
LINE
  5
24E
330
1F
100
AcDbEntity
  8
Layer1
 62
    18
420
        0
370
   100
100
AcDbLine
 10
23.28513008750356
 20
5.266626210869369
 30
0.0
 11
23.27295801517276
 21
5.210212599276602
 31
0.0
  0
LINE
  5
24F
330
1F
100
AcDbEntity
  8
Layer1
 62
    18
420
        0
370
   100
100
AcDbLine
 10
23.27295801517276
 20
5.210212599276602
 30
0.0
 11
23.23836617527063
 21
5.175673367666491
 31
0.0
  0
ARC
  5
250
330
1F
100
AcDbEntity
  8
Layer1
 62
    18
420
        0
370
   100
100
AcDbCircle
 10
22.73976033657019
 20
5.292257796899245
 30
0.0
 40
0.5120538750000763
100
AcDbArc
 50
323.674723139125
 51
346.8394971391214
  0
LINE
  5
251
330
1F
100
AcDbEntity
  8
Layer1
 62
    18
420
        0
370
   100
100
AcDbLine
 10
22.89310170177949
 20
4.636394897466413
 30
0.0
 11
23.15230558320503
 21
4.988932612273764
 31
0.0
  0
ARC
  5
252
330
1F
100
AcDbEntity
  8
Layer1
 62
    18
420
        0
370
   100
100
AcDbCircle
 10
24.7135736866483
 20
3.134884921283885
 30
0.0
 40
2.359798875000603
100
AcDbArc
 50
140.4844641391234
 51
152.4922421391204
  0
ARC
  5
253
330
1F
100
AcDbEntity
  8
Layer1
 62
    18
420
        0
370
   100
100
AcDbCircle
 10
23.08802532875191
 20
3.921468870682968
 30
0.0
 40
0.55726199999999
100
AcDbArc
 50
147.0211801391216
 51
204.5015041391226
  0
ARC
  5
254
330
1F
100
AcDbEntity
  8
Layer1
 62
    18
420
        0
370
   100
100
AcDbCircle
 10
22.96207424601488
 20
3.761481367342762
 30
0.0
 40
0.3877087499999006
100
AcDbArc
 50
190.5698671391157
 51
226.665524139125
  0
LINE
  5
255
330
1F
100
AcDbEntity
  8
Layer1
 62
    18
420
        0
370
   100
100
AcDbLine
 10
22.69600694640087
 20
3.479477085750375
 30
0.0
 11
22.83486108534185
 21
3.299048613478146
 31
0.0
  0
LINE
  5
256
330
1F
100
AcDbEntity
  8
Layer1
 62
    18
420
        0
370
   100
100
AcDbLine
 10
22.83486108534185
 20
3.299048613478146
 30
0.0
 11
23.04903059039839
 21
2.926881981543112
 31
0.0
  0
ARC
  5
257
330
1F
100
AcDbEntity
  8
Layer1
 62
    18
420
        0
370
   100
100
AcDbCircle
 10
22.54401528025078
 20
2.58026188041475
 30
0.0
 40
0.6125242499999453
100
AcDbArc
 50
343.6758491391199
 51
34.4640001391244
  0
ARC
  5
258
330
1F
100
AcDbEntity
  8
Layer1
 62
    18
420
        0
370
   100
100
AcDbCircle
 10
22.81269300653822
 20
2.570504981160318
 30
0.0
 40
0.3580998750000031
100
AcDbArc
 50
253.9068901391208
 51
333.0300651391217
  0
ARC
  5
259
330
1F
100
AcDbEntity
  8
Layer1
 62
    18
420
        0
370
   100
100
AcDbCircle
 10
22.76013222201301
 20
3.000367382132619
 30
0.0
 40
0.7753365000000007
100
AcDbArc
 50
231.5105331391223
 51
266.5465341391227
  0
LINE
  5
25A
330
1F
100
AcDbEntity
  8
Layer1
 62
    18
420
        0
370
   100
100
AcDbLine
 10
22.27758562251306
 20
2.393493165874375
 30
0.0
 11
22.12478488769846
 21
2.556068211439278
 31
0.0
  0
LINE
  5
25B
330
1F
100
AcDbEntity
  8
Layer1
 62
    18
420
        0
370
   100
100
AcDbLine
 10
22.12478488769846
 20
2.556068211439278
 30
0.0
 11
22.04531460237074
 21
2.75516699612627
 31
0.0
  0
ARC
  5
25C
330
1F
100
AcDbEntity
  8
Layer1
 62
    18
420
        0
370
   100
100
AcDbCircle
 10
22.49310312515638
 20
2.933899923223141
 30
0.0
 40
0.4821401250000055
100
AcDbArc
 50
161.2572101391227
 51
201.7592621391223
  0
LINE
  5
25D
330
1F
100
AcDbEntity
  8
Layer1
 62
    18
420
        0
370
   100
100
AcDbLine
 10
22.13209195720436
 20
3.322117119415545
 30
0.0
 11
22.03652996249489
 21
3.08882230531362
 31
0.0
  0
LINE
  5
25E
330
1F
100
AcDbEntity
  8
Layer1
 62
    18
420
        0
370
   100
100
AcDbLine
 10
22.13209195720436
 20
3.322117119415545
 30
0.0
 11
22.19176196701438
 21
3.407361540684924
 31
0.0
  0
LINE
  5
25F
330
1F
100
AcDbEntity
  8
Layer1
 62
    18
420
        0
370
   100
100
AcDbLine
 10
22.19176196701438
 20
3.407361540684924
 30
0.0
 11
22.2502296941439
 21
3.484351678067675
 31
0.0
  0
ARC
  5
260
330
1F
100
AcDbEntity
  8
Layer1
 62
    18
420
        0
370
   100
100
AcDbCircle
 10
22.26401388109704
 20
3.324574889651373
 30
0.0
 40
0.1603710000000283
100
AcDbArc
 50
94.93084513912557
 51
135.1551901391187
  0
ARC
  5
261
330
1F
100
AcDbEntity
  8
Layer1
 62
    18
420
        0
370
   100
100
AcDbCircle
 10
22.19883258437412
 20
3.255436370220024
 30
0.0
 40
0.1885803750000441
100
AcDbArc
 50
104.9106461391257
 51
141.8536821391172
  0
ARC
  5
262
330
1F
100
AcDbEntity
  8
Layer1
 62
    18
420
        0
370
   100
100
AcDbCircle
 10
22.3047245869706
 20
2.930542740913144
 30
0.0
 40
0.5093403749999597
100
AcDbArc
 50
119.9387141391197
 51
145.5635291391218
  0
ARC
  5
263
330
1F
100
AcDbEntity
  8
Layer1
 62
    18
420
        0
370
   100
100
AcDbCircle
 10
22.04391974614959
 20
2.989551954260301
 30
0.0
 40
0.2789595000000719
100
AcDbArc
 50
124.8175641391268
 51
166.5012431391157
  0
ARC
  5
264
330
1F
100
AcDbEntity
  8
Layer1
 62
    18
420
        0
370
   100
100
AcDbCircle
 10
22.4685042722001
 20
2.650946171731626
 30
0.0
 40
0.8044762499999462
100
AcDbArc
 50
149.8779051391211
 51
191.1654361391239
  0
ARC
  5
265
330
1F
100
AcDbEntity
  8
Layer1
 62
    18
420
        0
370
   100
100
AcDbCircle
 10
22.11608998055242
 20
2.555208681714817
 30
0.0
 40
0.4409414999999734
100
AcDbArc
 50
187.8262231391217
 51
218.308078139124
  0
LINE
  5
266
330
1F
100
AcDbEntity
  8
Layer1
 62
    18
420
        0
370
   100
100
AcDbLine
 10
21.7700882992171
 20
2.281873704288881
 30
0.0
 11
21.81961320054657
 21
2.139797972495632
 31
0.0
  0
LINE
  5
267
330
1F
100
AcDbEntity
  8
Layer1
 62
    18
420
        0
370
   100
100
AcDbLine
 10
21.81961320054657
 20
2.139797972495632
 30
0.0
 11
21.86179997082201
 21
2.013458979721197
 31
0.0
  0
ARC
  5
268
330
1F
100
AcDbEntity
  8
Layer1
 62
    18
420
        0
370
   100
100
AcDbCircle
 10
21.63913078684896
 20
1.861571962192702
 30
0.0
 40
0.2695387499998614
100
AcDbArc
 50
2.823714139112665
 51
34.29860913912874
  0
LINE
  5
269
330
1F
100
AcDbEntity
  8
Layer1
 62
    18
420
        0
370
   100
100
AcDbLine
 10
21.90834162020598
 20
1.874850225326593
 30
0.0
 11
21.90661896642758
 21
1.673133830906053
 31
0.0
  0
ARC
  5
26A
330
1F
100
AcDbEntity
  8
Layer1
 62
    18
420
        0
370
   100
100
AcDbCircle
 10
21.55499953821458
 20
1.676136653449592
 30
0.0
 40
0.351633375000003
100
AcDbArc
 50
308.7408781391228
 51
359.5107071391216
  0
ARC
  5
26B
330
1F
100
AcDbEntity
  8
Layer1
 62
    18
420
        0
370
   100
100
AcDbCircle
 10
21.48238218214675
 20
1.818228462717343
 30
0.0
 40
0.5089308749999968
100
AcDbArc
 50
162.4002051391218
 51
305.1042291391221
  0
LINE
  5
26C
330
1F
100
AcDbEntity
  8
Layer1
 62
    18
420
        0
370
   100
100
AcDbLine
 10
20.99727360750469
 20
1.972111989861453
 30
0.0
 11
21.03083514329689
 21
2.041589168890486
 31
0.0
  0
LINE
  5
26D
330
1F
100
AcDbEntity
  8
Layer1
 62
    18
420
        0
370
   100
100
AcDbLine
 10
21.03083514329689
 20
2.041589168890486
 30
0.0
 11
21.04324653618542
 21
2.123655047139898
 31
0.0
  0
LINE
  5
26E
330
1F
100
AcDbEntity
  8
Layer1
 62
    18
420
        0
370
   100
100
AcDbLine
 10
21.04324653618542
 20
2.123655047139898
 30
0.0
 11
21.06629835174028
 21
2.179216343263104
 31
0.0
  0
LINE
  5
26F
330
1F
100
AcDbEntity
  8
Layer1
 62
    18
420
        0
370
   100
100
AcDbLine
 10
21.06629835174028
 20
2.179216343263104
 30
0.0
 11
21.10212387567069
 21
2.234513296523456
 31
0.0
  0
LINE
  5
270
330
1F
100
AcDbEntity
  8
Layer1
 62
    18
420
        0
370
   100
100
AcDbLine
 10
21.10212387567069
 20
2.234513296523456
 30
0.0
 11
21.21473791939922
 21
2.426946126818205
 31
0.0
  0
ARC
  5
271
330
1F
100
AcDbEntity
  8
Layer1
 62
    18
420
        0
370
   100
100
AcDbCircle
 10
20.87451634552478
 20
2.763517403589486
 30
0.0
 40
0.4785716250000225
100
AcDbArc
 50
315.3090001391237
 51
12.34695613912095
  0
ARC
  5
272
330
1F
100
AcDbEntity
  8
Layer1
 62
    18
420
        0
370
   100
100
AcDbCircle
 10
19.89799416461216
 20
2.36987522482783
 30
0.0
 40
1.526826375000289
100
AcDbArc
 50
18.95592813912369
 51
39.4138211391197
  0
ARC
  5
273
330
1F
100
AcDbEntity
  8
Layer1
 62
    18
420
        0
370
   100
100
AcDbCircle
 10
21.86690208845789
 20
3.904434986174977
 30
0.0
 40
0.9707782499997919
100
AcDbArc
 50
187.3893851391194
 51
215.6028821391255
  0
ARC
  5
274
330
1F
100
AcDbEntity
  8
Layer1
 62
    18
420
        0
370
   100
100
AcDbCircle
 10
21.50833713708739
 20
3.841493216598891
 30
0.0
 40
0.6073143750000615
100
AcDbArc
 50
162.0429751391222
 51
185.8510821391198
  0
LINE
  5
275
330
1F
100
AcDbEntity
  8
Layer1
 62
    18
420
        0
370
   100
100
AcDbLine
 10
20.93060639370576
 20
4.028730922493683
 30
0.0
 11
20.95871125985686
 21
4.152063163418681
 31
0.0
  0
LINE
  5
276
330
1F
100
AcDbEntity
  8
Layer1
 62
    18
420
        0
370
   100
100
AcDbLine
 10
20.95871125985686
 20
4.152063163418681
 30
0.0
 11
20.98987391229467
 21
4.210571428147851
 31
0.0
  0
LINE
  5
277
330
1F
100
AcDbEntity
  8
Layer1
 62
    18
420
        0
370
   100
100
AcDbLine
 10
20.98987391229467
 20
4.210571428147851
 30
0.0
 11
20.94686461330687
 21
4.175648439847475
 31
0.0
  0
ARC
  5
278
330
1F
100
AcDbEntity
  8
Layer1
 62
    18
420
        0
370
   100
100
AcDbCircle
 10
22.11245727038187
 20
3.35223001614048
 30
0.0
 40
1.427102999999953
100
AcDbArc
 50
144.7611811391211
 51
163.9934801391218
  0
ARC
  5
279
330
1F
100
AcDbEntity
  8
Layer1
 62
    18
420
        0
370
   100
100
AcDbCircle
 10
21.20378992584143
 20
3.634695782976704
 30
0.0
 40
0.4762372500000326
100
AcDbArc
 50
166.5150091391232
 51
196.7166171391212
  0
LINE
  5
27A
330
1F
100
AcDbEntity
  8
Layer1
 62
    18
420
        0
370
   100
100
AcDbLine
 10
20.74767936548207
 20
3.497711070606037
 30
0.0
 11
20.8306251705914
 21
3.287314194165866
 31
0.0
  0
ARC
  5
27B
330
1F
100
AcDbEntity
  8
Layer1
 62
    18
420
        0
370
   100
100
AcDbCircle
 10
20.03144533443145
 20
2.797225428930902
 30
0.0
 40
0.9374827499998903
100
AcDbArc
 50
3.478380139120002
 51
31.51834013912363
  0
ARC
  5
27C
330
1F
100
AcDbEntity
  8
Layer1
 62
    18
420
        0
370
   100
100
AcDbCircle
 10
20.72907526697489
 20
2.839629822395083
 30
0.0
 40
0.2385663750000012
100
AcDbArc
 50
303.7411631391204
 51
3.478380139121155
  0
ARC
  5
27D
330
1F
100
AcDbEntity
  8
Layer1
 62
    18
420
        0
370
   100
100
AcDbCircle
 10
20.68551017335805
 20
2.891914635308779
 30
0.0
 40
0.3063262499999873
100
AcDbArc
 50
254.8036501391208
 51
305.085303139123
  0
ARC
  5
27E
330
1F
100
AcDbEntity
  8
Layer1
 62
    18
420
        0
370
   100
100
AcDbCircle
 10
20.67152635043978
 20
2.968110455884669
 30
0.0
 40
0.3776782499999994
100
AcDbArc
 50
189.7017161391223
 51
259.8876071391214
  0
LINE
  5
27F
330
1F
100
AcDbEntity
  8
Layer1
 62
    18
420
        0
370
   100
100
AcDbLine
 10
20.29925013559187
 20
2.904464500264254
 30
0.0
 11
20.31296304789297
 21
3.063184059041639
 31
0.0
  0
LINE
  5
280
330
1F
100
AcDbEntity
  8
Layer1
 62
    18
420
        0
370
   100
100
AcDbLine
 10
20.31296304789297
 20
3.063184059041639
 30
0.0
 11
20.35001543339711
 21
3.197458540118994
 31
0.0
  0
LINE
  5
281
330
1F
100
AcDbEntity
  8
Layer1
 62
    18
420
        0
370
   100
100
AcDbLine
 10
20.35001543339711
 20
3.197458540118994
 30
0.0
 11
20.43272571535537
 21
3.410158977630655
 31
0.0
  0
LINE
  5
282
330
1F
100
AcDbEntity
  8
Layer1
 62
    18
420
        0
370
   100
100
AcDbLine
 10
20.43272571535537
 20
3.410158977630655
 30
0.0
 11
20.64683092113546
 21
3.801789995622244
 31
0.0
  0
ARC
  5
283
330
1F
100
AcDbEntity
  8
Layer1
 62
    18
420
        0
370
   100
100
AcDbCircle
 10
19.76442554527397
 20
4.255926503712375
 30
0.0
 40
0.9924108749999702
100
AcDbArc
 50
332.7670151391213
 51
29.65552613912319
  0
LINE
  5
284
330
1F
100
AcDbEntity
  8
Layer1
 62
    18
420
        0
370
   100
100
AcDbLine
 10
20.51685605133155
 20
4.940138696132582
 30
0.0
 11
20.62684635340116
 21
4.746956871400322
 31
0.0
  0
LINE
  5
285
330
1F
100
AcDbEntity
  8
Layer1
 62
    18
420
        0
370
   100
100
AcDbLine
 10
20.51685605133155
 20
4.940138696132582
 30
0.0
 11
20.44706115597248
 21
5.018437951416121
 31
0.0
  0
LINE
  5
286
330
1F
100
AcDbEntity
  8
Layer1
 62
    18
420
        0
370
   100
100
AcDbLine
 10
20.44706115597248
 20
5.018437951416121
 30
0.0
 11
20.42215213991165
 21
5.031145379493221
 31
0.0
  0
LINE
  5
287
330
1F
100
AcDbEntity
  8
Layer1
 62
    18
420
        0
370
   100
100
AcDbLine
 10
20.42215213991165
 20
5.031145379493221
 30
0.0
 11
20.43502084229569
 21
5.005249540795823
 31
0.0
  0
LINE
  5
288
330
1F
100
AcDbEntity
  8
Layer1
 62
    18
420
        0
370
   100
100
AcDbLine
 10
20.43502084229569
 20
5.005249540795823
 30
0.0
 11
20.45696354039088
 21
4.953332764373211
 31
0.0
  0
ARC
  5
289
330
1F
100
AcDbEntity
  8
Layer1
 62
    18
420
        0
370
   100
100
AcDbCircle
 10
19.08433265417199
 20
4.517298801542756
 30
0.0
 40
1.440222750000385
100
AcDbArc
 50
359.4759581391245
 51
17.62312113911901
  0
ARC
  5
28A
330
1F
100
AcDbEntity
  8
Layer1
 62
    18
420
        0
370
   100
100
AcDbCircle
 10
19.96666283146499
 20
4.493967019326021
 30
0.0
 40
0.5579246249999809
100
AcDbArc
 50
309.5219651391213
 51
1.043408139123348
  0
ARC
  5
28B
330
1F
100
AcDbEntity
  8
Layer1
 62
    18
420
        0
370
   100
100
AcDbCircle
 10
20.18476886997435
 20
4.361960777822445
 30
0.0
 40
0.3282918749999922
100
AcDbArc
 50
215.3453441391209
 51
294.6538371391214
  0
ARC
  5
28C
330
1F
100
AcDbEntity
  8
Layer1
 62
    18
420
        0
370
   100
100
AcDbCircle
 10
20.53686479373145
 20
4.480227683099394
 30
0.0
 40
0.6922608749999922
100
AcDbArc
 50
155.7674561391217
 51
206.4352301391225
  0
ARC
  5
28D
330
1F
100
AcDbEntity
  8
Layer1
 62
    18
420
        0
370
   100
100
AcDbCircle
 10
21.66557368991404
 20
4.060669710668176
 30
0.0
 40
1.895438249999749
100
AcDbArc
 50
143.3752351391216
 51
158.2069681391235
  0
ARC
  5
28E
330
1F
100
AcDbEntity
  8
Layer1
 62
    18
420
        0
370
   100
100
AcDbCircle
 10
18.88322630765537
 20
5.636193231849172
 30
0.0
 40
1.337272874999943
100
AcDbArc
 50
340.5741721391211
 51
22.62431313912289
  0
ARC
  5
28F
330
1F
100
AcDbEntity
  8
Layer1
 62
    18
420
        0
370
   100
100
AcDbCircle
 10
18.85890293443216
 20
5.849874111951925
 30
0.0
 40
1.294121250000068
100
AcDbArc
 50
13.43828313912284
 51
35.98999513912175
  0
LINE
  5
290
330
1F
100
AcDbEntity
  8
Layer1
 62
    18
420
        0
370
   100
100
AcDbLine
 10
19.90600075703199
 20
6.610356474514001
 30
0.0
 11
19.86212746189256
 21
6.636827603105738
 31
0.0
  0
ARC
  5
291
330
1F
100
AcDbEntity
  8
Layer1
 62
    18
420
        0
370
   100
100
AcDbCircle
 10
19.82244389587883
 20
6.629450968591086
 30
0.0
 40
0.0403638749999988
100
AcDbArc
 50
10.53024313912388
 51
82.18731713912592
  0
LINE
  5
292
330
1F
100
AcDbEntity
  8
Layer1
 62
    18
420
        0
370
   100
100
AcDbLine
 10
19.82793021247603
 20
6.669439825409562
 30
0.0
 11
19.85027805915045
 21
6.581969417738412
 31
0.0
  0
LINE
  5
293
330
1F
100
AcDbEntity
  8
Layer1
 62
    18
420
        0
370
   100
100
AcDbLine
 10
19.85027805915045
 20
6.581969417738412
 30
0.0
 11
19.93055968859787
 21
6.314652466960579
 31
0.0
  0
ARC
  5
294
330
1F
100
AcDbEntity
  8
Layer1
 62
    18
420
        0
370
   100
100
AcDbCircle
 10
18.54918051738003
 20
5.997450294614423
 30
0.0
 40
1.417330124999941
100
AcDbArc
 50
340.3169451391212
 51
12.93249713912263
  0
ARC
  5
295
330
1F
100
AcDbEntity
  8
Layer1
 62
    18
420
        0
370
   100
100
AcDbCircle
 10
18.62577325101081
 20
5.891789365345747
 30
0.0
 40
1.311696000000426
100
AcDbArc
 50
326.5956731391248
 51
343.5374461391193
  0
ARC
  5
296
330
1F
100
AcDbEntity
  8
Layer1
 62
    18
420
        0
370
   100
100
AcDbCircle
 10
20.95288854251488
 20
4.124324376032615
 30
0.0
 40
1.615786875000206
100
AcDbArc
 50
139.6886691391236
 51
153.3614671391219
  0
ARC
  5
297
330
1F
100
AcDbEntity
  8
Layer1
 62
    18
420
        0
370
   100
100
AcDbCircle
 10
20.16255708696354
 20
4.268678682663401
 30
0.0
 40
0.8741632499999835
100
AcDbArc
 50
138.4244271391212
 51
184.7181171391223
  0
LINE
  5
298
330
1F
100
AcDbEntity
  8
Layer1
 62
    18
420
        0
370
   100
100
AcDbLine
 10
19.29135591300235
 20
4.196775204267677
 30
0.0
 11
19.32516498996329
 21
4.038876103413674
 31
0.0
  0
LINE
  5
299
330
1F
100
AcDbEntity
  8
Layer1
 62
    18
420
        0
370
   100
100
AcDbLine
 10
19.32516498996329
 20
4.038876103413674
 30
0.0
 11
19.33561747342885
 21
3.955453925803834
 31
0.0
  0
LINE
  5
29A
330
1F
100
AcDbEntity
  8
Layer1
 62
    18
420
        0
370
   100
100
AcDbLine
 10
19.33561747342885
 20
3.955453925803834
 30
0.0
 11
19.36888897243061
 21
3.896249139439544
 31
0.0
  0
LINE
  5
29B
330
1F
100
AcDbEntity
  8
Layer1
 62
    18
420
        0
370
   100
100
AcDbLine
 10
19.36888897243061
 20
3.896249139439544
 30
0.0
 11
19.4619227150188
 21
3.599923232082133
 31
0.0
  0
ARC
  5
29C
330
1F
100
AcDbEntity
  8
Layer1
 62
    18
420
        0
370
   100
100
AcDbCircle
 10
7.659706626264754
 20
-3.184750909028517
 30
0.0
 40
13.61337862500235
100
AcDbArc
 50
24.59274413912272
 51
29.8930651391218
  0
LINE
  5
29D
330
1F
100
AcDbEntity
  8
Layer1
 62
    18
420
        0
370
   100
100
AcDbLine
 10
20.03820016863829
 20
2.480668952094717
 30
0.0
 11
20.1618648318331
 21
2.225246708351989
 31
0.0
  0
LINE
  5
29E
330
1F
100
AcDbEntity
  8
Layer1
 62
    18
420
        0
370
   100
100
AcDbLine
 10
20.1618648318331
 20
2.225246708351989
 30
0.0
 11
20.23322239170538
 21
1.959482022763467
 31
0.0
  0
ARC
  5
29F
330
1F
100
AcDbEntity
  8
Layer1
 62
    18
420
        0
370
   100
100
AcDbCircle
 10
19.52888488785162
 20
1.799294739937579
 30
0.0
 40
0.722323125000001
100
AcDbArc
 50
320.6226811391222
 51
12.81279813912225
  0
ARC
  5
2A0
330
1F
100
AcDbEntity
  8
Layer1
 62
    18
420
        0
370
   100
100
AcDbCircle
 10
19.69505068036152
 20
1.751940262581839
 30
0.0
 40
0.5680203749999988
100
AcDbArc
 50
186.0361601391217
 51
313.664275139122
  0
LINE
  5
2A1
330
1F
100
AcDbEntity
  8
Layer1
 62
    18
420
        0
370
   100
100
AcDbLine
 10
19.13017950136791
 20
1.692209396701113
 30
0.0
 11
19.09562893552705
 21
1.861954761581451
 31
0.0
  0
LINE
  5
2A2
330
1F
100
AcDbEntity
  8
Layer1
 62
    18
420
        0
370
   100
100
AcDbLine
 10
19.09562893552705
 20
1.861954761581451
 30
0.0
 11
19.12082133185539
 21
2.067258738017465
 31
0.0
  0
ARC
  5
2A3
330
1F
100
AcDbEntity
  8
Layer1
 62
    18
420
        0
370
   100
100
AcDbCircle
 10
20.67264447314124
 20
1.776650962554512
 30
0.0
 40
1.578800250000156
100
AcDbArc
 50
157.8915401391224
 51
169.3931501391213
  0
LINE
  5
2A4
330
1F
100
AcDbEntity
  8
Layer1
 62
    18
420
        0
370
   100
100
AcDbLine
 10
19.32468765048027
 20
2.653348283365371
 30
0.0
 11
19.20992852972833
 21
2.370850612224736
 31
0.0
  0
ARC
  5
2A5
330
1F
100
AcDbEntity
  8
Layer1
 62
    18
420
        0
370
   100
100
AcDbCircle
 10
18.99518456754159
 20
2.804195130600329
 30
0.0
 40
0.3623917500000165
100
AcDbArc
 50
335.401622139123
 51
40.63136813911977
  0
LINE
  5
2A6
330
1F
100
AcDbEntity
  8
Layer1
 62
    18
420
        0
370
   100
100
AcDbLine
 10
19.27020908462452
 20
3.040180742525106
 30
0.0
 11
19.11782068881516
 21
3.230356273265734
 31
0.0
  0
LINE
  5
2A7
330
1F
100
AcDbEntity
  8
Layer1
 62
    18
420
        0
370
   100
100
AcDbLine
 10
19.11782068881516
 20
3.230356273265734
 30
0.0
 11
19.05022576372306
 21
3.341123425431654
 31
0.0
  0
ARC
  5
2A8
330
1F
100
AcDbEntity
  8
Layer1
 62
    18
420
        0
370
   100
100
AcDbCircle
 10
19.18985758747691
 20
3.470971250788592
 30
0.0
 40
0.1906762499999623
100
AcDbArc
 50
174.5702391391165
 51
222.9207771391265
  0
LINE
  5
2A9
330
1F
100
AcDbEntity
  8
Layer1
 62
    18
420
        0
370
   100
100
AcDbLine
 10
19.00003723999324
 20
3.489013411348424
 30
0.0
 11
18.9699368399312
 21
3.669503165071486
 31
0.0
  0
LINE
  5
2AA
330
1F
100
AcDbEntity
  8
Layer1
 62
    18
420
        0
370
   100
100
AcDbLine
 10
18.9699368399312
 20
3.669503165071486
 30
0.0
 11
18.99579909950184
 21
3.894885653233402
 31
0.0
  0
LINE
  5
2AB
330
1F
100
AcDbEntity
  8
Layer1
 62
    18
420
        0
370
   100
100
AcDbLine
 10
18.99579909950184
 20
3.894885653233402
 30
0.0
 11
19.08909581540953
 21
4.1905574615548
 31
0.0
  0
LINE
  5
2AC
330
1F
100
AcDbEntity
  8
Layer1
 62
    18
420
        0
370
   100
100
AcDbLine
 10
19.08909581540953
 20
4.1905574615548
 30
0.0
 11
19.12239572336557
 21
4.272740838112632
 31
0.0
  0
ARC
  5
2AD
330
1F
100
AcDbEntity
  8
Layer1
 62
    18
420
        0
370
   100
100
AcDbCircle
 10
19.12657305620546
 20
4.283022915000405
 30
0.0
 40
0.011098125
100
AcDbArc
 50
247.8913291391186
 51
152.1521761391221
  0
LINE
  5
2AE
330
1F
100
AcDbEntity
  8
Layer1
 62
    18
420
        0
370
   100
100
AcDbLine
 10
19.11675972434622
 20
4.288207656647323
 30
0.0
 11
19.09323718673496
 21
4.263946771660528
 31
0.0
  0
LINE
  5
2AF
330
1F
100
AcDbEntity
  8
Layer1
 62
    18
420
        0
370
   100
100
AcDbLine
 10
19.09323718673496
 20
4.263946771660528
 30
0.0
 11
19.03545322428306
 21
4.215513336435613
 31
0.0
  0
ARC
  5
2B0
330
1F
100
AcDbEntity
  8
Layer1
 62
    18
420
        0
370
   100
100
AcDbCircle
 10
18.96456128168974
 20
4.222790245405605
 30
0.0
 40
0.0712642499999989
100
AcDbArc
 50
287.063593139123
 51
354.1390181391239
  0
LINE
  5
2B1
330
1F
100
AcDbEntity
  8
Layer1
 62
    18
420
        0
370
   100
100
AcDbLine
 10
18.98547225641929
 20
4.154662563449222
 30
0.0
 11
18.81896805979195
 21
3.874148100373088
 31
0.0
  0
ARC
  5
2B2
330
1F
100
AcDbEntity
  8
Layer1
 62
    18
420
        0
370
   100
100
AcDbCircle
 10
19.69097043884924
 20
3.510545856625629
 30
0.0
 40
0.9447727499999836
100
AcDbArc
 50
157.3651421391218
 51
195.2460871391224
  0
ARC
  5
2B3
330
1F
100
AcDbEntity
  8
Layer1
 62
    18
420
        0
370
   100
100
AcDbCircle
 10
18.17096348285033
 20
3.174478206582276
 30
0.0
 40
0.6147630000000244
100
AcDbArc
 50
337.5331911391224
 51
8.19451613912098
  0
ARC
  5
2B4
330
1F
100
AcDbEntity
  8
Layer1
 62
    18
420
        0
370
   100
100
AcDbCircle
 10
18.59204931926273
 20
3.082113030525686
 30
0.0
 40
0.2047893750000099
100
AcDbArc
 50
238.9824291391241
 51
315.8809571391207
  0
ARC
  5
2B5
330
1F
100
AcDbEntity
  8
Layer1
 62
    18
420
        0
370
   100
100
AcDbCircle
 10
18.93904702627812
 20
3.401335550449546
 30
0.0
 40
0.6704752499999618
100
AcDbArc
 50
197.1726681391212
 51
227.5510381391231
  0
ARC
  5
2B6
330
1F
100
AcDbEntity
  8
Layer1
 62
    18
420
        0
370
   100
100
AcDbCircle
 10
18.93904702627805
 20
3.401335550449559
 30
0.0
 40
0.6704752499999037
100
AcDbArc
 50
170.5589331391203
 51
197.1726681391239
  0
ARC
  5
2B7
330
1F
100
AcDbEntity
  8
Layer1
 62
    18
420
        0
370
   100
100
AcDbCircle
 10
23.2108356446499
 20
2.464147847202214
 30
0.0
 40
5.043099374960662
100
AcDbArc
 50
166.7483351391154
 51
168.0157021391253
  0
ARC
  5
2B8
330
1F
100
AcDbEntity
  8
Layer1
 62
    18
420
        0
370
   100
100
AcDbCircle
 10
23.21083564468788
 20
2.464147847193933
 30
0.0
 40
5.04309937499953
100
AcDbArc
 50
154.4464441391216
 51
166.7483351391228
  0
LINE
  5
2B9
330
1F
100
AcDbEntity
  8
Layer1
 62
    18
420
        0
370
   100
100
AcDbLine
 10
18.66104013085625
 20
4.639512160345102
 30
0.0
 11
18.7225434915299
 21
4.832200343196643
 31
0.0
  0
LINE
  5
2BA
330
1F
100
AcDbEntity
  8
Layer1
 62
    18
420
        0
370
   100
100
AcDbLine
 10
18.7225434915299
 20
4.832200343196643
 30
0.0
 11
18.75949401225666
 21
5.042152703655262
 31
0.0
  0
ARC
  5
2BB
330
1F
100
AcDbEntity
  8
Layer1
 62
    18
420
        0
370
   100
100
AcDbCircle
 10
18.12425941862422
 20
5.114294776514541
 30
0.0
 40
0.6393172499999976
100
AcDbArc
 50
353.5208031391223
 51
27.92840613912239
  0
ARC
  5
2BC
330
1F
100
AcDbEntity
  8
Layer1
 62
    18
420
        0
370
   100
100
AcDbCircle
 10
17.5513212147955
 20
4.77034843681782
 30
0.0
 40
1.307104874999997
100
AcDbArc
 50
29.48654813912233
 51
53.93229513912245
  0
ARC
  5
2BD
330
1F
100
AcDbEntity
  8
Layer1
 62
    18
420
        0
370
   100
100
AcDbCircle
 10
17.55132121479679
 20
4.770348436819708
 30
0.0
 40
1.307104874997707
100
AcDbArc
 50
53.93229513911969
 51
56.66559613912457
  0
ARC
  5
2BE
330
1F
100
AcDbEntity
  8
Layer1
 62
    18
420
        0
370
   100
100
AcDbCircle
 10
16.94913358194201
 20
4.915737595469718
 30
0.0
 40
1.624755375000856
100
AcDbArc
 50
32.42856313912259
 51
35.63733913912095
  0
ARC
  5
2BF
330
1F
100
AcDbEntity
  8
Layer1
 62
    18
420
        0
370
   100
100
AcDbCircle
 10
16.94913358194297
 20
4.915737595470299
 30
0.0
 40
1.624755374999736
100
AcDbArc
 50
15.4493141391206
 51
32.42856313912336
  0
ARC
  5
2C0
330
1F
100
AcDbEntity
  8
Layer1
 62
    18
420
        0
370
   100
100
AcDbCircle
 10
17.82831287439291
 20
5.175552670323952
 30
0.0
 40
0.7083191250000228
100
AcDbArc
 50
321.7154671391226
 51
14.13661713912095
  0
LINE
  5
2C1
330
1F
100
AcDbEntity
  8
Layer1
 62
    18
420
        0
370
   100
100
AcDbLine
 10
17.83509345971746
 20
3.835507903487159
 30
0.0
 11
17.78693666620364
 21
3.685658682451951
 31
0.0
  0
ARC
  5
2C2
330
1F
100
AcDbEntity
  8
Layer1
 62
    18
420
        0
370
   100
100
AcDbCircle
 10
19.06335941305231
 20
3.366539570196397
 30
0.0
 40
1.315710000000004
100
AcDbArc
 50
165.9631591391216
 51
187.6246151391216
  0
LINE
  5
2C3
330
1F
100
AcDbEntity
  8
Layer1
 62
    18
420
        0
370
   100
100
AcDbLine
 10
17.7592825792409
 20
3.191968087413837
 30
0.0
 11
17.7934811385496
 21
2.993519181917112
 31
0.0
  0
LINE
  5
2C4
330
1F
100
AcDbEntity
  8
Layer1
 62
    18
420
        0
370
   100
100
AcDbLine
 10
18.38430338241371
 20
4.736701819085649
 30
0.0
 11
18.31062833693693
 21
4.628078268678198
 31
0.0
  0
LINE
  5
2C5
330
1F
100
AcDbEntity
  8
Layer1
 62
    18
420
        0
370
   100
100
AcDbLine
 10
18.31062833693693
 20
4.628078268678198
 30
0.0
 11
18.20178951717409
 21
4.46760936474622
 31
0.0
  0
LINE
  5
2C6
330
1F
100
AcDbEntity
  8
Layer1
 62
    18
420
        0
370
   100
100
AcDbLine
 10
18.20178951717409
 20
4.46760936474622
 30
0.0
 11
18.0968700242886
 21
4.348337493258573
 31
0.0
  0
LINE
  5
2C7
330
1F
100
AcDbEntity
  8
Layer1
 62
    18
420
        0
370
   100
100
AcDbLine
 10
18.0968700242886
 20
4.348337493258573
 30
0.0
 11
18.02321034524549
 21
4.223069954726718
 31
0.0
  0
LINE
  5
2C8
330
1F
100
AcDbEntity
  8
Layer1
 62
    18
420
        0
370
   100
100
AcDbLine
 10
18.02321034524549
 20
4.223069954726718
 30
0.0
 11
17.89572229183952
 21
3.991661097323671
 31
0.0
  0
ARC
  5
2C9
330
1F
100
AcDbEntity
  8
Layer1
 62
    18
420
        0
370
   100
100
AcDbCircle
 10
18.08591435148035
 20
3.827969076543473
 30
0.0
 40
0.2509346250000216
100
AcDbArc
 50
139.2825201391242
 51
178.2782621391201
  0
ARC
  5
2CA
330
1F
100
AcDbEntity
  8
Layer1
 62
    18
420
        0
370
   100
100
AcDbCircle
 10
18.13884016713265
 20
2.986880813540467
 30
0.0
 40
0.3454233749999938
100
AcDbArc
 50
178.8987631391217
 51
215.9480681391226
  0
ARC
  5
2CB
330
1F
100
AcDbEntity
  8
Layer1
 62
    18
420
        0
370
   100
100
AcDbCircle
 10
14.67256590915955
 20
1.522963763899156
 30
0.0
 40
3.427115624999331
100
AcDbArc
 50
9.658183139120872
 51
21.59155813912315
  0
ARC
  5
2CC
330
1F
100
AcDbEntity
  8
Layer1
 62
   150
420
  2657520
370
   100
100
AcDbCircle
 10
17.50365953405742
 20
2.020173540898448
 30
0.0
 40
0.5529412564332158
100
AcDbArc
 50
143.3564058368238
 51
8.083992685717645
  0
LINE
  5
2CD
330
1F
100
AcDbEntity
  8
Layer1
 62
    18
420
        0
370
   100
100
AcDbLine
 10
36.42449568622524
 20
1.918661734943238
 30
0.0
 11
36.45805722201744
 21
1.98813891397227
 31
0.0
  0
LINE
  5
2CE
330
1F
100
AcDbEntity
  8
Layer1
 62
    18
420
        0
370
   100
100
AcDbLine
 10
36.45805722201744
 20
1.98813891397227
 30
0.0
 11
36.47046861490598
 21
2.070204792221683
 31
0.0
  0
LINE
  5
2CF
330
1F
100
AcDbEntity
  8
Layer1
 62
    18
420
        0
370
   100
100
AcDbLine
 10
36.47046861490598
 20
2.070204792221683
 30
0.0
 11
36.49352043046083
 21
2.125766088344888
 31
0.0
  0
LINE
  5
2D0
330
1F
100
AcDbEntity
  8
Layer1
 62
    18
420
        0
370
   100
100
AcDbLine
 10
36.49352043046083
 20
2.125766088344888
 30
0.0
 11
36.52934595439124
 21
2.181063041605241
 31
0.0
  0
LINE
  5
2D1
330
1F
100
AcDbEntity
  8
Layer1
 62
    18
420
        0
370
   100
100
AcDbLine
 10
36.52934595439124
 20
2.181063041605241
 30
0.0
 11
36.64195999811977
 21
2.373495871899989
 31
0.0
  0
ARC
  5
2D2
330
1F
100
AcDbEntity
  8
Layer1
 62
    18
420
        0
370
   100
100
AcDbCircle
 10
36.30173842424534
 20
2.71006714867127
 30
0.0
 40
0.4785716250000225
100
AcDbArc
 50
315.3090001391234
 51
12.34695613912113
  0
ARC
  5
2D3
330
1F
100
AcDbEntity
  8
Layer1
 62
    18
420
        0
370
   100
100
AcDbCircle
 10
35.32521624333271
 20
2.316424969909614
 30
0.0
 40
1.526826375000289
100
AcDbArc
 50
18.95592813912369
 51
39.4138211391197
  0
ARC
  5
2D4
330
1F
100
AcDbEntity
  8
Layer1
 62
    18
420
        0
370
   100
100
AcDbCircle
 10
37.29412416717845
 20
3.850984731256761
 30
0.0
 40
0.9707782499997919
100
AcDbArc
 50
187.3893851391194
 51
215.6028821391254
  0
ARC
  5
2D5
330
1F
100
AcDbEntity
  8
Layer1
 62
    18
420
        0
370
   100
100
AcDbCircle
 10
36.93555921580794
 20
3.788042961680675
 30
0.0
 40
0.6073143750000615
100
AcDbArc
 50
162.0429751391222
 51
185.8510821391198
  0
LINE
  5
2D6
330
1F
100
AcDbEntity
  8
Layer1
 62
    18
420
        0
370
   100
100
AcDbLine
 10
36.35782847242631
 20
3.975280667575467
 30
0.0
 11
36.38593333857741
 21
4.098612908500465
 31
0.0
  0
LINE
  5
2D7
330
1F
100
AcDbEntity
  8
Layer1
 62
    18
420
        0
370
   100
100
AcDbLine
 10
36.38593333857741
 20
4.098612908500465
 30
0.0
 11
36.41709599101522
 21
4.157121173229635
 31
0.0
  0
LINE
  5
2D8
330
1F
100
AcDbEntity
  8
Layer1
 62
    18
420
        0
370
   100
100
AcDbLine
 10
36.41709599101522
 20
4.157121173229635
 30
0.0
 11
36.37408669202742
 21
4.122198184929259
 31
0.0
  0
ARC
  5
2D9
330
1F
100
AcDbEntity
  8
Layer1
 62
    18
420
        0
370
   100
100
AcDbCircle
 10
37.53967934910241
 20
3.298779761222267
 30
0.0
 40
1.427102999999944
100
AcDbArc
 50
144.7611811391209
 51
163.9934801391218
  0
ARC
  5
2DA
330
1F
100
AcDbEntity
  8
Layer1
 62
    18
420
        0
370
   100
100
AcDbCircle
 10
36.63101200456198
 20
3.581245528058488
 30
0.0
 40
0.4762372500000326
100
AcDbArc
 50
166.5150091391232
 51
196.7166171391212
  0
LINE
  5
2DB
330
1F
100
AcDbEntity
  8
Layer1
 62
    18
420
        0
370
   100
100
AcDbLine
 10
36.17490144420262
 20
3.444260815687822
 30
0.0
 11
36.25784724931195
 21
3.23386393924765
 31
0.0
  0
ARC
  5
2DC
330
1F
100
AcDbEntity
  8
Layer1
 62
    18
420
        0
370
   100
100
AcDbCircle
 10
35.45866741315199
 20
2.743775174012687
 30
0.0
 40
0.9374827499998903
100
AcDbArc
 50
3.478380139120002
 51
31.51834013912354
  0
ARC
  5
2DD
330
1F
100
AcDbEntity
  8
Layer1
 62
    18
420
        0
370
   100
100
AcDbCircle
 10
36.15629734569544
 20
2.786179567476867
 30
0.0
 40
0.2385663750000012
100
AcDbArc
 50
303.7411631391211
 51
3.478380139121155
  0
ARC
  5
2DE
330
1F
100
AcDbEntity
  8
Layer1
 62
    18
420
        0
370
   100
100
AcDbCircle
 10
36.1127322520786
 20
2.838464380390563
 30
0.0
 40
0.3063262499999873
100
AcDbArc
 50
254.8036501391208
 51
305.085303139123
  0
ARC
  5
2DF
330
1F
100
AcDbEntity
  8
Layer1
 62
    18
420
        0
370
   100
100
AcDbCircle
 10
36.09874842916033
 20
2.914660200966453
 30
0.0
 40
0.3776782499999994
100
AcDbArc
 50
189.7017161391224
 51
259.8876071391219
  0
LINE
  5
2E0
330
1F
100
AcDbEntity
  8
Layer1
 62
    18
420
        0
370
   100
100
AcDbLine
 10
35.72647221431242
 20
2.851014245346038
 30
0.0
 11
35.74018512661352
 21
3.009733804123423
 31
0.0
  0
LINE
  5
2E1
330
1F
100
AcDbEntity
  8
Layer1
 62
    18
420
        0
370
   100
100
AcDbLine
 10
35.74018512661352
 20
3.009733804123423
 30
0.0
 11
35.77723751211766
 21
3.144008285200778
 31
0.0
  0
LINE
  5
2E2
330
1F
100
AcDbEntity
  8
Layer1
 62
    18
420
        0
370
   100
100
AcDbLine
 10
35.77723751211766
 20
3.144008285200778
 30
0.0
 11
35.85994779407592
 21
3.356708722712439
 31
0.0
  0
LINE
  5
2E3
330
1F
100
AcDbEntity
  8
Layer1
 62
    18
420
        0
370
   100
100
AcDbLine
 10
35.85994779407592
 20
3.356708722712439
 30
0.0
 11
36.07405299985601
 21
3.748339740704028
 31
0.0
  0
ARC
  5
2E4
330
1F
100
AcDbEntity
  8
Layer1
 62
    18
420
        0
370
   100
100
AcDbCircle
 10
35.19164762399451
 20
4.20247624879416
 30
0.0
 40
0.9924108749999693
100
AcDbArc
 50
332.7670151391214
 51
29.65552613912306
  0
LINE
  5
2E5
330
1F
100
AcDbEntity
  8
Layer1
 62
    18
420
        0
370
   100
100
AcDbLine
 10
35.9440781300521
 20
4.886688441214366
 30
0.0
 11
36.05406843212171
 21
4.693506616482106
 31
0.0
  0
LINE
  5
2E6
330
1F
100
AcDbEntity
  8
Layer1
 62
    18
420
        0
370
   100
100
AcDbLine
 10
35.9440781300521
 20
4.886688441214366
 30
0.0
 11
35.87428323469303
 21
4.964987696497905
 31
0.0
  0
LINE
  5
2E7
330
1F
100
AcDbEntity
  8
Layer1
 62
    18
420
        0
370
   100
100
AcDbLine
 10
35.87428323469303
 20
4.964987696497905
 30
0.0
 11
35.8493742186322
 21
4.977695124575005
 31
0.0
  0
LINE
  5
2E8
330
1F
100
AcDbEntity
  8
Layer1
 62
    18
420
        0
370
   100
100
AcDbLine
 10
35.8493742186322
 20
4.977695124575005
 30
0.0
 11
35.86224292101624
 21
4.951799285877607
 31
0.0
  0
LINE
  5
2E9
330
1F
100
AcDbEntity
  8
Layer1
 62
    18
420
        0
370
   100
100
AcDbLine
 10
35.86224292101624
 20
4.951799285877607
 30
0.0
 11
35.88418561911143
 21
4.899882509454995
 31
0.0
  0
ARC
  5
2EA
330
1F
100
AcDbEntity
  8
Layer1
 62
    18
420
        0
370
   100
100
AcDbCircle
 10
34.51155473289255
 20
4.46384854662454
 30
0.0
 40
1.440222750000385
100
AcDbArc
 50
359.4759581391245
 51
17.62312113911905
  0
ARC
  5
2EB
330
1F
100
AcDbEntity
  8
Layer1
 62
    18
420
        0
370
   100
100
AcDbCircle
 10
35.39388491018554
 20
4.440516764407805
 30
0.0
 40
0.5579246249999809
100
AcDbArc
 50
309.5219651391213
 51
1.043408139123348
  0
ARC
  5
2EC
330
1F
100
AcDbEntity
  8
Layer1
 62
    18
420
        0
370
   100
100
AcDbCircle
 10
35.6119909486949
 20
4.308510522904231
 30
0.0
 40
0.3282918749999936
100
AcDbArc
 50
215.3453441391215
 51
294.6538371391218
  0
ARC
  5
2ED
330
1F
100
AcDbEntity
  8
Layer1
 62
    18
420
        0
370
   100
100
AcDbCircle
 10
35.96408687245205
 20
4.426777428181182
 30
0.0
 40
0.6922608750000424
100
AcDbArc
 50
155.767456139124
 51
206.4352301391209
  0
ARC
  5
2EE
330
1F
100
AcDbEntity
  8
Layer1
 62
    18
420
        0
370
   100
100
AcDbCircle
 10
37.09279576863459
 20
4.00721945574996
 30
0.0
 40
1.895438249999749
100
AcDbArc
 50
143.3752351391216
 51
158.2069681391235
  0
ARC
  5
2EF
330
1F
100
AcDbEntity
  8
Layer1
 62
    18
420
        0
370
   100
100
AcDbCircle
 10
34.31044838637592
 20
5.582742976930956
 30
0.0
 40
1.337272874999943
100
AcDbArc
 50
340.5741721391212
 51
22.62431313912284
  0
ARC
  5
2F0
330
1F
100
AcDbEntity
  8
Layer1
 62
    18
420
        0
370
   100
100
AcDbCircle
 10
34.28612501315249
 20
5.796423857033615
 30
0.0
 40
1.294121250000307
100
AcDbArc
 50
13.43828313912462
 51
35.98999513911929
  0
LINE
  5
2F1
330
1F
100
AcDbEntity
  8
Layer1
 62
    18
420
        0
370
   100
100
AcDbLine
 10
35.33322283575254
 20
6.556906219595785
 30
0.0
 11
35.28934954061311
 21
6.583377348187522
 31
0.0
  0
ARC
  5
2F2
330
1F
100
AcDbEntity
  8
Layer1
 62
    18
420
        0
370
   100
100
AcDbCircle
 10
35.24966597459937
 20
6.576000713672851
 30
0.0
 40
0.0403638750000198
100
AcDbArc
 50
10.53024313914623
 51
82.18731713910954
  0
LINE
  5
2F3
330
1F
100
AcDbEntity
  8
Layer1
 62
    18
420
        0
370
   100
100
AcDbLine
 10
35.25515229119658
 20
6.615989570491346
 30
0.0
 11
35.277500137871
 21
6.528519162820196
 31
0.0
  0
LINE
  5
2F4
330
1F
100
AcDbEntity
  8
Layer1
 62
    18
420
        0
370
   100
100
AcDbLine
 10
35.277500137871
 20
6.528519162820196
 30
0.0
 11
35.35778176731842
 21
6.261202212042363
 31
0.0
  0
ARC
  5
2F5
330
1F
100
AcDbEntity
  8
Layer1
 62
    18
420
        0
370
   100
100
AcDbCircle
 10
33.97640259610058
 20
5.944000039696207
 30
0.0
 40
1.417330124999941
100
AcDbArc
 50
340.3169451391212
 51
12.93249713912263
  0
ARC
  5
2F6
330
1F
100
AcDbEntity
  8
Layer1
 62
    18
420
        0
370
   100
100
AcDbCircle
 10
34.0529953297311
 20
5.838339110427654
 30
0.0
 40
1.311696000000718
100
AcDbArc
 50
326.5956731391267
 51
343.5374461391174
  0
ARC
  5
2F7
330
1F
100
AcDbEntity
  8
Layer1
 62
    18
420
        0
370
   100
100
AcDbCircle
 10
36.38011062123525
 20
4.070874121114534
 30
0.0
 40
1.615786874999982
100
AcDbArc
 50
139.6886691391231
 51
153.3614671391232
  0
ARC
  5
2F8
330
1F
100
AcDbEntity
  8
Layer1
 62
    18
420
        0
370
   100
100
AcDbCircle
 10
35.58977916568411
 20
4.215228427745173
 30
0.0
 40
0.8741632500000054
100
AcDbArc
 50
138.4244271391214
 51
184.7181171391213
  0
LINE
  5
2F9
330
1F
100
AcDbEntity
  8
Layer1
 62
    18
420
        0
370
   100
100
AcDbLine
 10
34.7185779917229
 20
4.143324949349461
 30
0.0
 11
34.75238706868384
 21
3.985425848495459
 31
0.0
  0
LINE
  5
2FA
330
1F
100
AcDbEntity
  8
Layer1
 62
    18
420
        0
370
   100
100
AcDbLine
 10
34.75238706868384
 20
3.985425848495459
 30
0.0
 11
34.7628395521494
 21
3.902003670885618
 31
0.0
  0
LINE
  5
2FB
330
1F
100
AcDbEntity
  8
Layer1
 62
    18
420
        0
370
   100
100
AcDbLine
 10
34.7628395521494
 20
3.902003670885618
 30
0.0
 11
34.79611105115116
 21
3.842798884521328
 31
0.0
  0
LINE
  5
2FC
330
1F
100
AcDbEntity
  8
Layer1
 62
    18
420
        0
370
   100
100
AcDbLine
 10
34.79611105115116
 20
3.842798884521328
 30
0.0
 11
34.88914479373935
 21
3.546472977163918
 31
0.0
  0
ARC
  5
2FD
330
1F
100
AcDbEntity
  8
Layer1
 62
    18
420
        0
370
   100
100
AcDbCircle
 10
23.0869287049853
 20
-3.238201163946732
 30
0.0
 40
13.61337862500235
100
AcDbArc
 50
24.59274413912272
 51
29.8930651391218
  0
LINE
  5
2FE
330
1F
100
AcDbEntity
  8
Layer1
 62
    18
420
        0
370
   100
100
AcDbLine
 10
35.46542224735884
 20
2.427218697176502
 30
0.0
 11
35.58908691055365
 21
2.171796453433773
 31
0.0
  0
LINE
  5
2FF
330
1F
100
AcDbEntity
  8
Layer1
 62
    18
420
        0
370
   100
100
AcDbLine
 10
35.58908691055365
 20
2.171796453433773
 30
0.0
 11
35.66044447042593
 21
1.906031767845251
 31
0.0
  0
ARC
  5
300
330
1F
100
AcDbEntity
  8
Layer1
 62
    18
420
        0
370
   100
100
AcDbCircle
 10
34.95610696657219
 20
1.745844485019363
 30
0.0
 40
0.7223231249999872
100
AcDbArc
 50
320.6226811391211
 51
12.81279813912262
  0
ARC
  5
301
330
1F
100
AcDbEntity
  8
Layer1
 62
    18
420
        0
370
   100
100
AcDbCircle
 10
35.12227275908207
 20
1.698490007663627
 30
0.0
 40
0.568020375000002
100
AcDbArc
 50
186.036160139122
 51
313.6642751391217
  0
LINE
  5
302
330
1F
100
AcDbEntity
  8
Layer1
 62
    18
420
        0
370
   100
100
AcDbLine
 10
34.55740158008846
 20
1.638759141782897
 30
0.0
 11
34.5228510142476
 21
1.808504506663235
 31
0.0
  0
LINE
  5
303
330
1F
100
AcDbEntity
  8
Layer1
 62
    18
420
        0
370
   100
100
AcDbLine
 10
34.5228510142476
 20
1.808504506663235
 30
0.0
 11
34.54804341057594
 21
2.013808483099249
 31
0.0
  0
ARC
  5
304
330
1F
100
AcDbEntity
  8
Layer1
 62
    18
420
        0
370
   100
100
AcDbCircle
 10
36.09986655186179
 20
1.723200707636296
 30
0.0
 40
1.578800250000156
100
AcDbArc
 50
157.8915401391224
 51
169.3931501391213
  0
LINE
  5
305
330
1F
100
AcDbEntity
  8
Layer1
 62
    18
420
        0
370
   100
100
AcDbLine
 10
34.75190972920082
 20
2.599898028447156
 30
0.0
 11
34.63715060844888
 21
2.31740035730652
 31
0.0
  0
ARC
  5
306
330
1F
100
AcDbEntity
  8
Layer1
 62
    18
420
        0
370
   100
100
AcDbCircle
 10
34.42240664626213
 20
2.750744875682109
 30
0.0
 40
0.3623917500000268
100
AcDbArc
 50
335.4016221391245
 51
40.6313681391192
  0
LINE
  5
307
330
1F
100
AcDbEntity
  8
Layer1
 62
    18
420
        0
370
   100
100
AcDbLine
 10
34.69743116334507
 20
2.98673048760689
 30
0.0
 11
34.54504276753571
 21
3.176906018347518
 31
0.0
  0
LINE
  5
308
330
1F
100
AcDbEntity
  8
Layer1
 62
    18
420
        0
370
   100
100
AcDbLine
 10
34.54504276753571
 20
3.176906018347518
 30
0.0
 11
34.47744784244361
 21
3.287673170513438
 31
0.0
  0
ARC
  5
309
330
1F
100
AcDbEntity
  8
Layer1
 62
    18
420
        0
370
   100
100
AcDbCircle
 10
34.61707966619744
 20
3.417520995870365
 30
0.0
 40
0.1906762499999421
100
AcDbArc
 50
174.5702391391127
 51
222.9207771391278
  0
LINE
  5
30A
330
1F
100
AcDbEntity
  8
Layer1
 62
    18
420
        0
370
   100
100
AcDbLine
 10
34.42725931871379
 20
3.435563156430208
 30
0.0
 11
34.39715891865175
 21
3.61605291015327
 31
0.0
  0
LINE
  5
30B
330
1F
100
AcDbEntity
  8
Layer1
 62
    18
420
        0
370
   100
100
AcDbLine
 10
34.39715891865175
 20
3.61605291015327
 30
0.0
 11
34.42302117822239
 21
3.841435398315186
 31
0.0
  0
LINE
  5
30C
330
1F
100
AcDbEntity
  8
Layer1
 62
    18
420
        0
370
   100
100
AcDbLine
 10
34.42302117822239
 20
3.841435398315186
 30
0.0
 11
34.51631789413008
 21
4.137107206636584
 31
0.0
  0
LINE
  5
30D
330
1F
100
AcDbEntity
  8
Layer1
 62
    18
420
        0
370
   100
100
AcDbLine
 10
34.51631789413008
 20
4.137107206636584
 30
0.0
 11
34.54961780208613
 21
4.219290583194416
 31
0.0
  0
ARC
  5
30E
330
1F
100
AcDbEntity
  8
Layer1
 62
    18
420
        0
370
   100
100
AcDbCircle
 10
34.55379513492601
 20
4.22957266008219
 30
0.0
 40
0.0110981250000013
100
AcDbArc
 50
247.8913291391033
 51
152.1521761391348
  0
LINE
  5
30F
330
1F
100
AcDbEntity
  8
Layer1
 62
    18
420
        0
370
   100
100
AcDbLine
 10
34.54398180306676
 20
4.234757401729107
 30
0.0
 11
34.52045926545551
 21
4.210496516742312
 31
0.0
  0
LINE
  5
310
330
1F
100
AcDbEntity
  8
Layer1
 62
    18
420
        0
370
   100
100
AcDbLine
 10
34.52045926545551
 20
4.210496516742312
 30
0.0
 11
34.46267530300361
 21
4.162063081517397
 31
0.0
  0
ARC
  5
311
330
1F
100
AcDbEntity
  8
Layer1
 62
    18
420
        0
370
   100
100
AcDbCircle
 10
34.39178336041029
 20
4.169339990487388
 30
0.0
 40
0.0712642499999957
100
AcDbArc
 50
287.0635931391178
 51
354.1390181391244
  0
LINE
  5
312
330
1F
100
AcDbEntity
  8
Layer1
 62
    18
420
        0
370
   100
100
AcDbLine
 10
34.41269433513984
 20
4.101212308531005
 30
0.0
 11
34.2461901385125
 21
3.820697845454872
 31
0.0
  0
ARC
  5
313
330
1F
100
AcDbEntity
  8
Layer1
 62
    18
420
        0
370
   100
100
AcDbCircle
 10
35.11819251756979
 20
3.457095601707413
 30
0.0
 40
0.9447727499999836
100
AcDbArc
 50
157.3651421391218
 51
195.2460871391224
  0
ARC
  5
314
330
1F
100
AcDbEntity
  8
Layer1
 62
    18
420
        0
370
   100
100
AcDbCircle
 10
33.59818556157083
 20
3.121027951664073
 30
0.0
 40
0.6147630000000739
100
AcDbArc
 50
337.5331911391232
 51
8.194516139119104
  0
ARC
  5
315
330
1F
100
AcDbEntity
  8
Layer1
 62
    18
420
        0
370
   100
100
AcDbCircle
 10
34.01927139798328
 20
3.02866277560746
 30
0.0
 40
0.2047893749999998
100
AcDbArc
 50
238.9824291391235
 51
315.8809571391221
  0
ARC
  5
316
330
1F
100
AcDbEntity
  8
Layer1
 62
    18
420
        0
370
   100
100
AcDbCircle
 10
34.36626910499863
 20
3.347885295531299
 30
0.0
 40
0.6704752499999131
100
AcDbArc
 50
197.1726681391197
 51
227.5510381391237
  0
ARC
  5
317
330
1F
100
AcDbEntity
  8
Layer1
 62
    18
420
        0
370
   100
100
AcDbCircle
 10
34.36626910499847
 20
3.347885295531335
 30
0.0
 40
0.6704752499997754
100
AcDbArc
 50
170.5589331391176
 51
197.1726681391266
  0
ARC
  5
318
330
1F
100
AcDbEntity
  8
Layer1
 62
    18
420
        0
370
   100
100
AcDbCircle
 10
38.63805772328747
 20
2.410697592302733
 30
0.0
 40
5.043099374875604
100
AcDbArc
 50
166.7483351391065
 51
168.0157021391378
  0
ARC
  5
319
330
1F
100
AcDbEntity
  8
Layer1
 62
    18
420
        0
370
   100
100
AcDbCircle
 10
38.63805772340789
 20
2.410697592275906
 30
0.0
 40
5.043099374998961
100
AcDbArc
 50
154.4464441391209
 51
166.7483351391234
  0
LINE
  5
31A
330
1F
100
AcDbEntity
  8
Layer1
 62
    18
420
        0
370
   100
100
AcDbLine
 10
34.0882622095768
 20
4.586061905426886
 30
0.0
 11
34.14976557025045
 21
4.778750088278427
 31
0.0
  0
LINE
  5
31B
330
1F
100
AcDbEntity
  8
Layer1
 62
    18
420
        0
370
   100
100
AcDbLine
 10
34.14976557025045
 20
4.778750088278427
 30
0.0
 11
34.18671609097721
 21
4.988702448737046
 31
0.0
  0
ARC
  5
31C
330
1F
100
AcDbEntity
  8
Layer1
 62
    18
420
        0
370
   100
100
AcDbCircle
 10
33.55148149734481
 20
5.060844521596326
 30
0.0
 40
0.6393172499999626
100
AcDbArc
 50
353.5208031391218
 51
27.92840613912412
  0
ARC
  5
31D
330
1F
100
AcDbEntity
  8
Layer1
 62
    18
420
        0
370
   100
100
AcDbCircle
 10
32.97854329351605
 20
4.716898181899604
 30
0.0
 40
1.307104874999997
100
AcDbArc
 50
29.48654813912233
 51
53.93229513912245
  0
ARC
  5
31E
330
1F
100
AcDbEntity
  8
Layer1
 62
    18
420
        0
370
   100
100
AcDbCircle
 10
32.97854329351735
 20
4.716898181901492
 30
0.0
 40
1.307104874997707
100
AcDbArc
 50
53.93229513911981
 51
56.66559613912469
  0
ARC
  5
31F
330
1F
100
AcDbEntity
  8
Layer1
 62
    18
420
        0
370
   100
100
AcDbCircle
 10
32.37635566066256
 20
4.862287340551502
 30
0.0
 40
1.624755375000856
100
AcDbArc
 50
32.42856313912254
 51
35.63733913912085
  0
ARC
  5
320
330
1F
100
AcDbEntity
  8
Layer1
 62
    18
420
        0
370
   100
100
AcDbCircle
 10
32.37635566066352
 20
4.862287340552083
 30
0.0
 40
1.624755374999736
100
AcDbArc
 50
15.4493141391206
 51
32.42856313912336
  0
ARC
  5
321
330
1F
100
AcDbEntity
  8
Layer1
 62
    18
420
        0
370
   100
100
AcDbCircle
 10
33.25553495311344
 20
5.122102415405736
 30
0.0
 40
0.7083191250000362
100
AcDbArc
 50
321.7154671391237
 51
14.13661713912066
  0
LINE
  5
322
330
1F
100
AcDbEntity
  8
Layer1
 62
    18
420
        0
370
   100
100
AcDbLine
 10
33.26231553843801
 20
3.782057648568943
 30
0.0
 11
33.21415874492419
 21
3.632208427533735
 31
0.0
  0
ARC
  5
323
330
1F
100
AcDbEntity
  8
Layer1
 62
    18
420
        0
370
   100
100
AcDbCircle
 10
34.49058149177247
 20
3.313089315278204
 30
0.0
 40
1.315709999999613
100
AcDbArc
 50
165.9631591391183
 51
187.6246151391248
  0
LINE
  5
324
330
1F
100
AcDbEntity
  8
Layer1
 62
    18
420
        0
370
   100
100
AcDbLine
 10
33.18650465796145
 20
3.138517832495622
 30
0.0
 11
33.22070321727015
 21
2.940068926998896
 31
0.0
  0
LINE
  5
325
330
1F
100
AcDbEntity
  8
Layer1
 62
    18
420
        0
370
   100
100
AcDbLine
 10
33.81152546113426
 20
4.683251564167433
 30
0.0
 11
33.73785041565748
 21
4.574628013759982
 31
0.0
  0
LINE
  5
326
330
1F
100
AcDbEntity
  8
Layer1
 62
    18
420
        0
370
   100
100
AcDbLine
 10
33.73785041565748
 20
4.574628013759982
 30
0.0
 11
33.62901159589464
 21
4.414159109828004
 31
0.0
  0
LINE
  5
327
330
1F
100
AcDbEntity
  8
Layer1
 62
    18
420
        0
370
   100
100
AcDbLine
 10
33.62901159589464
 20
4.414159109828004
 30
0.0
 11
33.52409210300915
 21
4.294887238340356
 31
0.0
  0
LINE
  5
328
330
1F
100
AcDbEntity
  8
Layer1
 62
    18
420
        0
370
   100
100
AcDbLine
 10
33.52409210300915
 20
4.294887238340356
 30
0.0
 11
33.45043242396604
 21
4.169619699808502
 31
0.0
  0
ARC
  5
329
330
1F
100
AcDbEntity
  8
Layer1
 62
    18
420
        0
370
   100
100
AcDbCircle
 10
33.23796924234157
 20
1.623875487697574
 30
0.0
 40
0.1610549999999848
100
AcDbArc
 50
244.9320351391193
 51
307.518105139123
  0
LINE
  5
32A
330
1F
100
AcDbEntity
  8
Layer1
 62
    18
420
        0
370
   100
100
AcDbLine
 10
33.16973056791563
 20
1.477990278793046
 30
0.0
 11
33.07549206449395
 21
1.489385084786312
 31
0.0
  0
LINE
  5
32B
330
1F
100
AcDbEntity
  8
Layer1
 62
    18
420
        0
370
   100
100
AcDbLine
 10
33.07549206449395
 20
1.489385084786312
 30
0.0
 11
33.00529635263536
 21
1.536822262566274
 31
0.0
  0
LINE
  5
32C
330
1F
100
AcDbEntity
  8
Layer1
 62
    18
420
        0
370
   100
100
AcDbLine
 10
33.00529635263536
 20
1.536822262566274
 30
0.0
 11
32.81093127466657
 21
1.708390331725289
 31
0.0
  0
ARC
  5
32D
330
1F
100
AcDbEntity
  8
Layer1
 62
    18
420
        0
370
   100
100
AcDbCircle
 10
33.69105434945502
 20
2.404639010943478
 30
0.0
 40
1.122221250000006
100
AcDbArc
 50
182.9720251391223
 51
218.3468321391224
  0
ARC
  5
32E
330
1F
100
AcDbEntity
  8
Layer1
 62
    18
420
        0
370
   100
100
AcDbCircle
 10
33.54674809055034
 20
2.210515884998526
 30
0.0
 40
0.9858228750000062
100
AcDbArc
 50
138.5942901391223
 51
172.0740911391221
  0
LINE
  5
32F
330
1F
100
AcDbEntity
  8
Layer1
 62
    18
420
        0
370
   100
100
AcDbLine
 10
32.80733658170137
 20
2.862526363193548
 30
0.0
 11
32.84460457773236
 21
2.921136619036622
 31
0.0
  0
LINE
  5
330
330
1F
100
AcDbEntity
  8
Layer1
 62
    18
420
        0
370
   100
100
AcDbLine
 10
32.84460457773236
 20
2.921136619036622
 30
0.0
 11
32.85564846191228
 21
2.933576386535398
 31
0.0
  0
LINE
  5
331
330
1F
100
AcDbEntity
  8
Layer1
 62
    18
420
        0
370
   100
100
AcDbLine
 10
32.85564846191228
 20
2.933576386535398
 30
0.0
 11
32.83202985578999
 21
2.933240319327374
 31
0.0
  0
LINE
  5
332
330
1F
100
AcDbEntity
  8
Layer1
 62
    18
420
        0
370
   100
100
AcDbLine
 10
32.83202985578999
 20
2.933240319327374
 30
0.0
 11
32.78569684705268
 21
2.920804909382218
 31
0.0
  0
LINE
  5
333
330
1F
100
AcDbEntity
  8
Layer1
 62
    18
420
        0
370
   100
100
AcDbLine
 10
32.78569684705268
 20
2.920804909382218
 30
0.0
 11
32.66758688502295
 21
2.86431496937386
 31
0.0
  0
LINE
  5
334
330
1F
100
AcDbEntity
  8
Layer1
 62
    18
420
        0
370
   100
100
AcDbLine
 10
32.66758688502295
 20
2.86431496937386
 30
0.0
 11
32.46823528655741
 21
2.7254683029136
 31
0.0
  0
ARC
  5
335
330
1F
100
AcDbEntity
  8
Layer1
 62
    18
420
        0
370
   100
100
AcDbCircle
 10
32.9432283023136
 20
2.254981114762653
 30
0.0
 40
0.6685627500000223
100
AcDbArc
 50
135.2729841391227
 51
174.3156421391213
  0
ARC
  5
336
330
1F
100
AcDbEntity
  8
Layer1
 62
    18
420
        0
370
   100
100
AcDbCircle
 10
33.030792845577
 20
2.107080199663152
 30
0.0
 40
0.782697374999987
100
AcDbArc
 50
164.1233311391206
 51
185.1695431391208
  0
ARC
  5
337
330
1F
100
AcDbEntity
  8
Layer1
 62
    18
420
        0
370
   100
100
AcDbCircle
 10
31.53784186565754
 20
1.948447970515562
 30
0.0
 40
0.7188558750000975
100
AcDbArc
 50
340.8178801391234
 51
7.040373139119982
  0
ARC
  5
338
330
1F
100
AcDbEntity
  8
Layer1
 62
    18
420
        0
370
   100
100
AcDbCircle
 10
31.86803918959135
 20
1.833576256477055
 30
0.0
 40
0.3692486249999991
100
AcDbArc
 50
240.137881139122
 51
340.8178801391219
  0
ARC
  5
339
330
1F
100
AcDbEntity
  8
Layer1
 62
    18
420
        0
370
   100
100
AcDbCircle
 10
31.74945879876463
 20
1.720156507906994
 30
0.0
 40
0.2168594999999968
100
AcDbArc
 50
185.3218701391222
 51
252.4824471391227
  0
ARC
  5
33A
330
1F
100
AcDbEntity
  8
Layer1
 62
    18
420
        0
370
   100
100
AcDbCircle
 10
31.62338157310309
 20
1.750777907077316
 30
0.0
 40
0.1031827499999927
100
AcDbArc
 50
137.9225671391176
 51
209.4529651391248
  0
LINE
  5
33B
330
1F
100
AcDbEntity
  8
Layer1
 62
    18
420
        0
370
   100
100
AcDbLine
 10
31.54679539397853
 20
1.81992444892588
 30
0.0
 11
31.58296557375983
 21
1.930597478152367
 31
0.0
  0
LINE
  5
33C
330
1F
100
AcDbEntity
  8
Layer1
 62
    18
420
        0
370
   100
100
AcDbLine
 10
31.58296557375983
 20
1.930597478152367
 30
0.0
 11
31.85792214438967
 21
2.379551685924588
 31
0.0
  0
ARC
  5
33D
330
1F
100
AcDbEntity
  8
Layer1
 62
    18
420
        0
370
   100
100
AcDbCircle
 10
26.98201780263185
 20
5.876125286159214
 30
0.0
 40
6.000040124998476
100
AcDbArc
 50
324.3552001391211
 51
332.3026381391231
  0
ARC
  5
33E
330
1F
100
AcDbEntity
  8
Layer1
 62
    18
420
        0
370
   100
100
AcDbCircle
 10
29.19868547898699
 20
4.931486485998176
 30
0.0
 40
3.603520125000414
100
AcDbArc
 50
329.2179611391226
 51
338.2841721391216
  0
ARC
  5
33F
330
1F
100
AcDbEntity
  8
Layer1
 62
    18
420
        0
370
   100
100
AcDbCircle
 10
31.20306673175918
 20
4.184433496031234
 30
0.0
 40
1.465750124999923
100
AcDbArc
 50
336.4234341391214
 51
1.400043139122441
  0
ARC
  5
340
330
1F
100
AcDbEntity
  8
Layer1
 62
    18
420
        0
370
   100
100
AcDbCircle
 10
31.9409514872966
 20
4.243932250008893
 30
0.0
 40
0.727813125000033
100
AcDbArc
 50
358.1349881391228
 51
42.89541713912033
  0
LINE
  5
341
330
1F
100
AcDbEntity
  8
Layer1
 62
    18
420
        0
370
   100
100
AcDbLine
 10
32.47414606856869
 20
4.739327884423238
 30
0.0
 11
32.06642602120863
 21
5.037108161263189
 31
0.0
  0
ARC
  5
342
330
1F
100
AcDbEntity
  8
Layer1
 62
    18
420
        0
370
   100
100
AcDbCircle
 10
32.93891664601647
 20
6.096934026410045
 30
0.0
 40
1.372759874999921
100
AcDbArc
 50
207.1747321391211
 51
230.5374531391223
  0
ARC
  5
343
330
1F
100
AcDbEntity
  8
Layer1
 62
    18
420
        0
370
   100
100
AcDbCircle
 10
32.69688405858831
 20
5.847259550225995
 30
0.0
 40
1.049365125000343
100
AcDbArc
 50
184.1950841391248
 51
201.0710401391193
  0
LINE
  5
344
330
1F
100
AcDbEntity
  8
Layer1
 62
    18
420
        0
370
   100
100
AcDbLine
 10
31.65033073698595
 20
5.770495968672543
 30
0.0
 11
31.62848064153374
 21
5.95643134110338
 31
0.0
  0
LINE
  5
345
330
1F
100
AcDbEntity
  8
Layer1
 62
    18
420
        0
370
   100
100
AcDbLine
 10
31.62848064153374
 20
5.95643134110338
 30
0.0
 11
31.61764815320129
 21
6.060303259500193
 31
0.0
  0
LINE
  5
346
330
1F
100
AcDbEntity
  8
Layer1
 62
    18
420
        0
370
   100
100
AcDbLine
 10
31.61764815320129
 20
6.060303259500193
 30
0.0
 11
31.60548253944384
 21
6.071305425977107
 31
0.0
  0
LINE
  5
347
330
1F
100
AcDbEntity
  8
Layer1
 62
    18
420
        0
370
   100
100
AcDbLine
 10
31.60548253944384
 20
6.071305425977107
 30
0.0
 11
31.59370888118453
 21
6.053772079776062
 31
0.0
  0
LINE
  5
348
330
1F
100
AcDbEntity
  8
Layer1
 62
    18
420
        0
370
   100
100
AcDbLine
 10
31.59370888118453
 20
6.053772079776062
 30
0.0
 11
31.58144490434729
 21
6.033495570707041
 31
0.0
  0
ARC
  5
349
330
1F
100
AcDbEntity
  8
Layer1
 62
    18
420
        0
370
   100
100
AcDbCircle
 10
31.57393190111433
 20
6.023749373875884
 30
0.0
 40
0.0123052500000007
100
AcDbArc
 50
249.055077139143
 51
52.37558313910846
  0
ARC
  5
34A
330
1F
100
AcDbEntity
  8
Layer1
 62
    18
420
        0
370
   100
100
AcDbCircle
 10
32.58881840062687
 20
5.572208740677323
 30
0.0
 40
1.110218625000007
100
AcDbArc
 50
156.6490781391221
 51
228.9595301391213
  0
ARC
  5
34B
330
1F
100
AcDbEntity
  8
Layer1
 62
    18
420
        0
370
   100
100
AcDbCircle
 10
31.46514846816572
 20
4.367555957419041
 30
0.0
 40
0.5391540000000385
100
AcDbArc
 50
12.39104413912285
 51
42.93808613912051
  0
LINE
  5
34C
330
1F
100
AcDbEntity
  8
Layer1
 62
    18
420
        0
370
   100
100
AcDbLine
 10
31.99174327682891
 20
4.48324923137289
 30
0.0
 11
31.97768137373388
 21
4.260741701920159
 31
0.0
  0
ARC
  5
34D
330
1F
100
AcDbEntity
  8
Layer1
 62
    18
420
        0
370
   100
100
AcDbCircle
 10
31.76082076197526
 20
4.361131530044195
 30
0.0
 40
0.2389702500000752
100
AcDbArc
 50
300.5847201391279
 51
335.1593791391161
  0
ARC
  5
34E
330
1F
100
AcDbEntity
  8
Layer1
 62
    18
420
        0
370
   100
100
AcDbCircle
 10
31.71108613293855
 20
4.502493526816935
 30
0.0
 40
0.3870674999999996
100
AcDbArc
 50
204.2396121391221
 51
296.2714501391224
  0
ARC
  5
34F
330
1F
100
AcDbEntity
  8
Layer1
 62
    18
420
        0
370
   100
100
AcDbCircle
 10
32.07239064855925
 20
4.665171538169973
 30
0.0
 40
0.7833059999998961
100
AcDbArc
 50
180.9851911391214
 51
204.2396121391241
  0
LINE
  5
350
330
1F
100
AcDbEntity
  8
Layer1
 62
    18
420
        0
370
   100
100
AcDbLine
 10
31.31418625841005
 20
4.819320597492363
 30
0.0
 11
31.28920094538266
 21
4.651702601801309
 31
0.0
  0
LINE
  5
351
330
1F
100
AcDbEntity
  8
Layer1
 62
    18
420
        0
370
   100
100
AcDbLine
 10
31.31418625841005
 20
4.819320597492363
 30
0.0
 11
31.3040892340223
 21
4.891670460863095
 31
0.0
  0
LINE
  5
352
330
1F
100
AcDbEntity
  8
Layer1
 62
    18
420
        0
370
   100
100
AcDbLine
 10
31.3040892340223
 20
4.891670460863095
 30
0.0
 11
31.2517517344884
 21
4.844834197893784
 31
0.0
  0
ARC
  5
353
330
1F
100
AcDbEntity
  8
Layer1
 62
    18
420
        0
370
   100
100
AcDbCircle
 10
31.81962365342118
 20
4.365127268594523
 30
0.0
 40
0.7433685000000348
100
AcDbArc
 50
139.8106961391229
 51
176.2170191391209
  0
ARC
  5
354
330
1F
100
AcDbEntity
  8
Layer1
 62
    18
420
        0
370
   100
100
AcDbCircle
 10
32.20510716627226
 20
4.339638188093042
 30
0.0
 40
1.129693500000027
100
AcDbArc
 50
176.2170191391225
 51
213.2211561391215
  0
ARC
  5
355
330
1F
100
AcDbEntity
  8
Layer1
 62
    18
420
        0
370
   100
100
AcDbCircle
 10
32.09314579991619
 20
4.266314627306434
 30
0.0
 40
0.9958590000000992
100
AcDbArc
 50
213.2211561391233
 51
231.9234731391214
  0
ARC
  5
356
330
1F
100
AcDbEntity
  8
Layer1
 62
    18
420
        0
370
   100
100
AcDbCircle
 10
30.94691712143917
 20
2.843175771446686
 30
0.0
 40
0.831677625000038
100
AcDbArc
 50
32.91372313912351
 51
50.22652513912264
  0
ARC
  5
357
330
1F
100
AcDbEntity
  8
Layer1
 62
    18
420
        0
370
   100
100
AcDbCircle
 10
31.28589817863328
 20
3.062586736404352
 30
0.0
 40
0.4278836249999991
100
AcDbArc
 50
236.4636921391221
 51
32.91372313912184
  0
ARC
  5
358
330
1F
100
AcDbEntity
  8
Layer1
 62
    18
420
        0
370
   100
100
AcDbCircle
 10
31.2783136034905
 20
2.988207544020122
 30
0.0
 40
0.3633637500000075
100
AcDbArc
 50
192.4771771391232
 51
230.9725831391224
  0
ARC
  5
359
330
1F
100
AcDbEntity
  8
Layer1
 62
    18
420
        0
370
   100
100
AcDbCircle
 10
31.23413924933236
 20
3.09166667581759
 30
0.0
 40
0.3599831250000078
100
AcDbArc
 50
162.463234139122
 51
210.3632371391207
  0
ARC
  5
35A
330
1F
100
AcDbEntity
  8
Layer1
 62
    18
420
        0
370
   100
100
AcDbCircle
 10
31.63206233000862
 20
3.234010735346299
 30
0.0
 40
0.7419487500000022
100
AcDbArc
 50
158.9746501391216
 51
182.6168691391217
  0
ARC
  5
35B
330
1F
100
AcDbEntity
  8
Layer1
 62
    18
420
        0
370
   100
100
AcDbCircle
 10
30.09014594213826
 20
3.612182478327538
 30
0.0
 40
0.8567144999999151
100
AcDbArc
 50
352.4898461391209
 51
11.32313713912287
  0
ARC
  5
35C
330
1F
100
AcDbEntity
  8
Layer1
 62
    18
420
        0
370
   100
100
AcDbCircle
 10
30.09107518412338
 20
3.561985337540061
 30
0.0
 40
0.86706674999995
100
AcDbArc
 50
14.58941013912173
 51
46.60082213912349
  0
ARC
  5
35D
330
1F
100
AcDbEntity
  8
Layer1
 62
    18
420
        0
370
   100
100
AcDbCircle
 10
29.7339240469182
 20
3.820442213820988
 30
0.0
 40
1.022764500000013
100
AcDbArc
 50
344.6334811391224
 51
21.30121313912181
  0
LINE
  5
35E
330
1F
100
AcDbEntity
  8
Layer1
 62
    18
420
        0
370
   100
100
AcDbLine
 10
30.72012567140583
 20
3.549417497186143
 30
0.0
 11
30.66827958088525
 21
3.419954024859495
 31
0.0
  0
LINE
  5
35F
330
1F
100
AcDbEntity
  8
Layer1
 62
    18
420
        0
370
   100
100
AcDbLine
 10
30.66827958088525
 20
3.419954024859495
 30
0.0
 11
30.57388458229885
 21
3.302890733221366
 31
0.0
  0
LINE
  5
360
330
1F
100
AcDbEntity
  8
Layer1
 62
    18
420
        0
370
   100
100
AcDbLine
 10
30.57388458229885
 20
3.302890733221366
 30
0.0
 11
30.40903064537149
 21
3.078080958670844
 31
0.0
  0
ARC
  5
361
330
1F
100
AcDbEntity
  8
Layer1
 62
    18
420
        0
370
   100
100
AcDbCircle
 10
30.7560300665584
 20
2.745795582615758
 30
0.0
 40
0.4804391249999819
100
AcDbArc
 50
136.2409211391216
 51
175.4249221391231
  0
ARC
  5
362
330
1F
100
AcDbEntity
  8
Layer1
 62
    18
420
        0
370
   100
100
AcDbCircle
 10
31.54612013260334
 20
3.065744392546589
 30
0.0
 40
1.299873374999986
100
AcDbArc
 50
192.5127681391214
 51
206.2793211391215
  0
ARC
  5
363
330
1F
100
AcDbEntity
  8
Layer1
 62
    18
420
        0
370
   100
100
AcDbCircle
 10
28.84160815906496
 20
1.325222060149992
 30
0.0
 40
1.930212000000167
100
AcDbArc
 50
23.57296913912274
 51
37.12558913912154
  0
ARC
  5
364
330
1F
100
AcDbEntity
  8
Layer1
 62
    18
420
        0
370
   100
100
AcDbCircle
 10
30.10548317210125
 20
1.798094980272426
 30
0.0
 40
0.5871307499999915
100
AcDbArc
 50
330.9350911391214
 51
30.62009313912254
  0
ARC
  5
365
330
1F
100
AcDbEntity
  8
Layer1
 62
    18
420
        0
370
   100
100
AcDbCircle
 10
30.18424498685506
 20
1.955515370670666
 30
0.0
 40
0.620215874999991
100
AcDbArc
 50
231.3486561391209
 51
314.4632071391222
  0
ARC
  5
366
330
1F
100
AcDbEntity
  8
Layer1
 62
    18
420
        0
370
   100
100
AcDbCircle
 10
30.03809895682557
 20
1.746599041345811
 30
0.0
 40
0.366145874999991
100
AcDbArc
 50
154.6986721391214
 51
228.7891971391224
  0
ARC
  5
367
330
1F
100
AcDbEntity
  8
Layer1
 62
    18
420
        0
370
   100
100
AcDbCircle
 10
30.18716766177889
 20
1.79780353625282
 30
0.0
 40
0.4914989999999939
100
AcDbArc
 50
135.3454961391215
 51
167.6314981391216
  0
LINE
  5
368
330
1F
100
AcDbEntity
  8
Layer1
 62
    18
420
        0
370
   100
100
AcDbLine
 10
29.8375366096264
 20
2.143243990243539
 30
0.0
 11
29.95784144962477
 21
2.36163109008111
 31
0.0
  0
ARC
  5
369
330
1F
100
AcDbEntity
  8
Layer1
 62
    18
420
        0
370
   100
100
AcDbCircle
 10
28.75402885561422
 20
2.663361376705103
 30
0.0
 40
1.241050499999988
100
AcDbArc
 50
345.9289411391217
 51
10.7971421391219
  0
LINE
  5
36A
330
1F
100
AcDbEntity
  8
Layer1
 62
    18
420
        0
370
   100
100
AcDbLine
 10
29.97310843491001
 20
2.895850194666898
 30
0.0
 11
29.90550901910641
 21
3.08329005594703
 31
0.0
  0
LINE
  5
36B
330
1F
100
AcDbEntity
  8
Layer1
 62
    18
420
        0
370
   100
100
AcDbLine
 10
29.90550901910641
 20
3.08329005594703
 30
0.0
 11
29.77456192762252
 21
3.252814607065523
 31
0.0
  0
ARC
  5
36C
330
1F
100
AcDbEntity
  8
Layer1
 62
    18
420
        0
370
   100
100
AcDbCircle
 10
28.56732362477331
 20
2.023488945252399
 30
0.0
 40
1.722981374999823
100
AcDbArc
 50
45.51938313912109
 51
59.82656013912253
  0
LINE
  5
36D
330
1F
100
AcDbEntity
  8
Layer1
 62
    18
420
        0
370
   100
100
AcDbLine
 10
29.43332705255459
 20
3.513020002515232
 30
0.0
 11
29.40766149595974
 21
3.524481720773947
 31
0.0
  0
ARC
  5
36E
330
1F
100
AcDbEntity
  8
Layer1
 62
    18
420
        0
370
   100
100
AcDbCircle
 10
29.40025426198849
 20
3.529228524175795
 30
0.0
 40
0.0087975000000007
100
AcDbArc
 50
327.3463001391133
 51
180.8509071391319
  0
ARC
  5
36F
330
1F
100
AcDbEntity
  8
Layer1
 62
    18
420
        0
370
   100
100
AcDbCircle
 10
29.39441905003363
 20
3.515835241578796
 30
0.0
 40
0.0135888750000002
100
AcDbArc
 50
312.0787401391293
 51
102.5831071391295
  0
LINE
  5
370
330
1F
100
AcDbEntity
  8
Layer1
 62
    18
420
        0
370
   100
100
AcDbLine
 10
29.40352562485265
 20
3.505749106679526
 30
0.0
 11
29.42394614311966
 21
3.490060400173528
 31
0.0
  0
ARC
  5
371
330
1F
100
AcDbEntity
  8
Layer1
 62
    18
420
        0
370
   100
100
AcDbCircle
 10
29.44933246764376
 20
3.481602676000408
 30
0.0
 40
0.0267581249999991
100
AcDbArc
 50
161.5733761391167
 51
269.663816139128
  0
LINE
  5
372
330
1F
100
AcDbEntity
  8
Layer1
 62
    18
420
        0
370
   100
100
AcDbLine
 10
29.44917483456546
 20
3.45484492144974
 30
0.0
 11
29.47094481288314
 21
3.407733545218937
 31
0.0
  0
LINE
  5
373
330
1F
100
AcDbEntity
  8
Layer1
 62
    18
420
        0
370
   100
100
AcDbLine
 10
29.47094481288314
 20
3.407733545218937
 30
0.0
 11
29.53983814981365
 21
3.260356595121471
 31
0.0
  0
ARC
  5
374
330
1F
100
AcDbEntity
  8
Layer1
 62
    18
420
        0
370
   100
100
AcDbCircle
 10
28.91700069554835
 20
2.969201428396151
 30
0.0
 40
0.6875313750000049
100
AcDbArc
 50
307.6510901391223
 51
25.05449313912188
  0
ARC
  5
375
330
1F
100
AcDbEntity
  8
Layer1
 62
    18
420
        0
370
   100
100
AcDbCircle
 10
28.99023288806483
 20
2.968925914765913
 30
0.0
 40
0.6451740000000095
100
AcDbArc
 50
259.6983821391224
 51
302.5099761391218
  0
ARC
  5
376
330
1F
100
AcDbEntity
  8
Layer1
 62
    18
420
        0
370
   100
100
AcDbCircle
 10
28.9052224751885
 20
2.652746971406209
 30
0.0
 40
0.3200388749999926
100
AcDbArc
 50
171.317818139121
 51
264.5555501391227
  0
ARC
  5
377
330
1F
100
AcDbEntity
  8
Layer1
 62
    18
420
        0
370
   100
100
AcDbCircle
 10
29.71307350461757
 20
2.55731846244958
 30
0.0
 40
1.133374499999983
100
AcDbArc
 50
144.2585071391216
 51
172.7138611391221
  0
LINE
  5
378
330
1F
100
AcDbEntity
  8
Layer1
 62
    18
420
        0
370
   100
100
AcDbLine
 10
28.92356115461779
 20
3.400552507880809
 30
0.0
 11
28.7931582874155
 21
3.219355497924836
 31
0.0
  0
LINE
  5
379
330
1F
100
AcDbEntity
  8
Layer1
 62
    18
420
        0
370
   100
100
AcDbLine
 10
28.92356115461779
 20
3.400552507880809
 30
0.0
 11
29.05361179948175
 21
3.604266846761951
 31
0.0
  0
ARC
  5
37A
330
1F
100
AcDbEntity
  8
Layer1
 62
    18
420
        0
370
   100
100
AcDbCircle
 10
28.34781344271757
 20
3.96833303031693
 30
0.0
 40
0.7941633750000141
100
AcDbArc
 50
332.7143941391225
 51
13.36170613912186
  0
ARC
  5
37B
330
1F
100
AcDbEntity
  8
Layer1
 62
    18
420
        0
370
   100
100
AcDbCircle
 10
27.76469637812216
 20
3.829826230778726
 30
0.0
 40
1.393503749999845
100
AcDbArc
 50
13.36170613912106
 51
33.93077913912349
  0
LINE
  5
37C
330
1F
100
AcDbEntity
  8
Layer1
 62
    18
420
        0
370
   100
100
AcDbLine
 10
28.64373748093518
 20
4.987327343614334
 30
0.0
 11
28.92090492035565
 21
4.607667707036233
 31
0.0
  0
ARC
  5
37D
330
1F
100
AcDbEntity
  8
Layer1
 62
    18
420
        0
370
   100
100
AcDbCircle
 10
29.35574819838891
 20
5.650409937133146
 30
0.0
 40
0.9729528749999949
100
AcDbArc
 50
191.5882021391217
 51
222.9622061391221
  0
ARC
  5
37E
330
1F
100
AcDbEntity
  8
Layer1
 62
    18
420
        0
370
   100
100
AcDbCircle
 10
29.43949525399665
 20
5.690209716357422
 30
0.0
 40
1.063218374999999
100
AcDbArc
 50
157.8707841391222
 51
192.782759139122
  0
LINE
  5
37F
330
1F
100
AcDbEntity
  8
Layer1
 62
    18
420
        0
370
   100
100
AcDbLine
 10
28.45459632557833
 20
6.090721154956269
 30
0.0
 11
28.48981571754448
 21
6.199403105992753
 31
0.0
  0
LINE
  5
380
330
1F
100
AcDbEntity
  8
Layer1
 62
    18
420
        0
370
   100
100
AcDbLine
 10
28.48981571754448
 20
6.199403105992753
 30
0.0
 11
28.50252937181222
 21
6.238610215244309
 31
0.0
  0
LINE
  5
381
330
1F
100
AcDbEntity
  8
Layer1
 62
    18
420
        0
370
   100
100
AcDbLine
 10
28.50252937181222
 20
6.238610215244309
 30
0.0
 11
28.47244362474947
 21
6.229005037285052
 31
0.0
  0
LINE
  5
382
330
1F
100
AcDbEntity
  8
Layer1
 62
    18
420
        0
370
   100
100
AcDbLine
 10
28.47244362474947
 20
6.229005037285052
 30
0.0
 11
28.43064959465326
 21
6.190551417252619
 31
0.0
  0
ARC
  5
383
330
1F
100
AcDbEntity
  8
Layer1
 62
    18
420
        0
370
   100
100
AcDbCircle
 10
28.4049734002703
 20
6.194312320554864
 30
0.0
 40
0.0259503749999972
100
AcDbArc
 50
248.7540421391128
 51
351.6667301391233
  0
ARC
  5
384
330
1F
100
AcDbEntity
  8
Layer1
 62
    18
420
        0
370
   100
100
AcDbCircle
 10
28.37465725361416
 20
6.159309059025328
 30
0.0
 40
0.0235440000000017
100
AcDbArc
 50
273.1407051391224
 51
27.35208813911654
  0
LINE
  5
385
330
1F
100
AcDbEntity
  8
Layer1
 62
    18
420
        0
370
   100
100
AcDbLine
 10
28.37594829478413
 20
6.135800426752853
 30
0.0
 11
28.32819122101016
 21
6.089404314519433
 31
0.0
  0
LINE
  5
386
330
1F
100
AcDbEntity
  8
Layer1
 62
    18
420
        0
370
   100
100
AcDbLine
 10
28.32819122101016
 20
6.089404314519433
 30
0.0
 11
28.25359557273804
 21
5.983773359874769
 31
0.0
  0
ARC
  5
387
330
1F
100
AcDbEntity
  8
Layer1
 62
    18
420
        0
370
   100
100
AcDbCircle
 10
29.24889729097993
 20
5.248592631652433
 30
0.0
 40
1.237382999999996
100
AcDbArc
 50
143.5485471391219
 51
191.9466101391219
  0
LINE
  5
388
330
1F
100
AcDbEntity
  8
Layer1
 62
    18
420
        0
370
   100
100
AcDbLine
 10
28.08995543547268
 20
4.748386245563969
 30
0.0
 11
28.03831568292287
 21
4.992453756473862
 31
0.0
  0
LINE
  5
389
330
1F
100
AcDbEntity
  8
Layer1
 62
    18
420
        0
370
   100
100
AcDbLine
 10
28.08995543547268
 20
4.748386245563969
 30
0.0
 11
28.18990424345961
 21
4.566870222231129
 31
0.0
  0
ARC
  5
38A
330
1F
100
AcDbEntity
  8
Layer1
 62
    18
420
        0
370
   100
100
AcDbCircle
 10
28.27167588593073
 20
4.569011497661416
 30
0.0
 40
0.0817998750000188
100
AcDbArc
 50
181.4998881391315
 51
248.5227931391131
  0
LINE
  5
38B
330
1F
100
AcDbEntity
  8
Layer1
 62
    18
420
        0
370
   100
100
AcDbLine
 10
28.24172638028715
 20
4.492891605878031
 30
0.0
 11
28.28685733577567
 21
4.400140320470042
 31
0.0
  0
LINE
  5
38C
330
1F
100
AcDbEntity
  8
Layer1
 62
    18
420
        0
370
   100
100
AcDbLine
 10
28.28685733577567
 20
4.400140320470042
 30
0.0
 11
28.36692581152299
 21
4.159900427281675
 31
0.0
  0
LINE
  5
38D
330
1F
100
AcDbEntity
  8
Layer1
 62
    18
420
        0
370
   100
100
AcDbLine
 10
28.36692581152299
 20
4.159900427281675
 30
0.0
 11
28.36551848283697
 21
3.99510743645085
 31
0.0
  0
LINE
  5
38E
330
1F
100
AcDbEntity
  8
Layer1
 62
    18
420
        0
370
   100
100
AcDbLine
 10
28.36551848283697
 20
3.99510743645085
 30
0.0
 11
28.35327393911248
 21
3.933632884199449
 31
0.0
  0
LINE
  5
38F
330
1F
100
AcDbEntity
  8
Layer1
 62
    18
420
        0
370
   100
100
AcDbLine
 10
28.35327393911248
 20
3.933632884199449
 30
0.0
 11
28.34210570129388
 21
3.899649643086241
 31
0.0
  0
LINE
  5
390
330
1F
100
AcDbEntity
  8
Layer1
 62
    18
420
        0
370
   100
100
AcDbLine
 10
28.34210570129388
 20
3.899649643086241
 30
0.0
 11
28.31772415032215
 21
3.885856725488088
 31
0.0
  0
ARC
  5
391
330
1F
100
AcDbEntity
  8
Layer1
 62
    18
420
        0
370
   100
100
AcDbCircle
 10
28.08281207908877
 20
3.990836749451408
 30
0.0
 40
0.2573021249999627
100
AcDbArc
 50
288.2952881391179
 51
335.9205221391256
  0
ARC
  5
392
330
1F
100
AcDbEntity
  8
Layer1
 62
    18
420
        0
370
   100
100
AcDbCircle
 10
27.95556257724667
 20
4.172168529917778
 30
0.0
 40
0.4737420000000243
100
AcDbArc
 50
255.2057541391229
 51
296.0465171391206
  0
ARC
  5
393
330
1F
100
AcDbEntity
  8
Layer1
 62
    18
420
        0
370
   100
100
AcDbCircle
 10
27.83935031453919
 20
3.937935153017627
 30
0.0
 40
0.223853624999992
100
AcDbArc
 50
204.430494139121
 51
268.7824451391226
  0
ARC
  5
394
330
1F
100
AcDbEntity
  8
Layer1
 62
    18
420
        0
370
   100
100
AcDbCircle
 10
27.73381096595941
 20
3.949088955684644
 30
0.0
 40
0.1428941249999931
100
AcDbArc
 50
170.9285551391197
 51
226.549837139122
  0
ARC
  5
395
330
1F
100
AcDbEntity
  8
Layer1
 62
    18
420
        0
370
   100
100
AcDbCircle
 10
27.78780367465045
 20
4.041011727735524
 30
0.0
 40
0.2070731249999944
100
AcDbArc
 50
160.736612139122
 51
199.5794841391233
  0
LINE
  5
396
330
1F
100
AcDbEntity
  8
Layer1
 62
    18
420
        0
370
   100
100
AcDbLine
 10
27.59232394971251
 20
4.109328550694309
 30
0.0
 11
27.60492715903932
 21
4.130333439389984
 31
0.0
  0
LINE
  5
397
330
1F
100
AcDbEntity
  8
Layer1
 62
    18
420
        0
370
   100
100
AcDbLine
 10
27.60492715903932
 20
4.130333439389984
 30
0.0
 11
27.61647993955822
 21
4.149404352878795
 31
0.0
  0
ARC
  5
398
330
1F
100
AcDbEntity
  8
Layer1
 62
    18
420
        0
370
   100
100
AcDbCircle
 10
27.64111478584431
 20
4.166377848394558
 30
0.0
 40
0.0299160000000008
100
AcDbArc
 50
90.95983613912125
 51
214.5654011391172
  0
LINE
  5
399
330
1F
100
AcDbEntity
  8
Layer1
 62
    18
420
        0
370
   100
100
AcDbLine
 10
27.64061420925066
 20
4.196290213865611
 30
0.0
 11
27.65254097006759
 21
4.258625886276986
 31
0.0
  0
LINE
  5
39A
330
1F
100
AcDbEntity
  8
Layer1
 62
    18
420
        0
370
   100
100
AcDbLine
 10
27.65254097006759
 20
4.258625886276986
 30
0.0
 11
27.68461804842582
 21
4.301034880074921
 31
0.0
  0
ARC
  5
39B
330
1F
100
AcDbEntity
  8
Layer1
 62
    18
420
        0
370
   100
100
AcDbCircle
 10
27.34708620091036
 20
4.681709545646572
 30
0.0
 40
0.5087632500000056
100
AcDbArc
 50
311.5623611391218
 51
358.2135591391213
  0
ARC
  5
39C
330
1F
100
AcDbEntity
  8
Layer1
 62
    18
420
        0
370
   100
100
AcDbCircle
 10
27.5950333672636
 20
4.645935354798999
 30
0.0
 40
0.261328499999988
100
AcDbArc
 50
4.370131139120781
 51
53.26188713912303
  0
LINE
  5
39D
330
1F
100
AcDbEntity
  8
Layer1
 62
    18
420
        0
370
   100
100
AcDbLine
 10
27.75134959918465
 20
4.855358852473151
 30
0.0
 11
27.65605468950953
 21
4.910886789078694
 31
0.0
  0
LINE
  5
39E
330
1F
100
AcDbEntity
  8
Layer1
 62
    18
420
        0
370
   100
100
AcDbLine
 10
27.65605468950953
 20
4.910886789078694
 30
0.0
 11
27.60879080295224
 21
4.93515141673719
 31
0.0
  0
ARC
  5
39F
330
1F
100
AcDbEntity
  8
Layer1
 62
    18
420
        0
370
   100
100
AcDbCircle
 10
27.60530879780308
 20
4.929354565529636
 30
0.0
 40
0.006762374999999
100
AcDbArc
 50
59.00263113911362
 51
303.3946311391392
  0
LINE
  5
3A0
330
1F
100
AcDbEntity
  8
Layer1
 62
    18
420
        0
370
   100
100
AcDbLine
 10
27.6090305957806
 20
4.923708826747808
 30
0.0
 11
27.62268405760366
 21
4.901967812965614
 31
0.0
  0
ARC
  5
3A1
330
1F
100
AcDbEntity
  8
Layer1
 62
    18
420
        0
370
   100
100
AcDbCircle
 10
27.5389388550061
 20
4.800995037327963
 30
0.0
 40
0.1311817499999998
100
AcDbArc
 50
310.2992861391222
 51
50.32805713912177
  0
LINE
  5
3A2
330
1F
100
AcDbEntity
  8
Layer1
 62
    18
420
        0
370
   100
100
AcDbLine
 10
27.6237844400608
 20
4.700946211088565
 30
0.0
 11
27.48168945226811
 21
4.515584021078778
 31
0.0
  0
ARC
  5
3A3
330
1F
100
AcDbEntity
  8
Layer1
 62
    18
420
        0
370
   100
100
AcDbCircle
 10
28.36187455600533
 20
3.840851554646031
 30
0.0
 40
1.109048624999971
100
AcDbArc
 50
142.5269301391218
 51
171.8831311391226
  0
LINE
  5
3A4
330
1F
100
AcDbEntity
  8
Layer1
 62
    18
420
        0
370
   100
100
AcDbLine
 10
27.32010507083099
 20
3.713256017202097
 30
0.0
 11
27.26393536520531
 21
3.997440675222306
 31
0.0
  0
ARC
  5
3A5
330
1F
100
AcDbEntity
  8
Layer1
 62
    18
420
        0
370
   100
100
AcDbCircle
 10
27.77190916226513
 20
3.746453095912549
 30
0.0
 40
0.4530217500000081
100
AcDbArc
 50
184.2023231391225
 51
217.3526021391213
  0
ARC
  5
3A6
330
1F
100
AcDbEntity
  8
Layer1
 62
    18
420
        0
370
   100
100
AcDbCircle
 10
27.7787991601031
 20
3.574168475499012
 30
0.0
 40
0.3810701250000342
100
AcDbArc
 50
195.614801139124
 51
233.3278791391202
  0
LINE
  5
3A7
330
1F
100
AcDbEntity
  8
Layer1
 62
    18
420
        0
370
   100
100
AcDbLine
 10
27.55121114043253
 20
3.268524731664608
 30
0.0
 11
27.73737695183917
 21
3.080361451395275
 31
0.0
  0
ARC
  5
3A8
330
1F
100
AcDbEntity
  8
Layer1
 62
    18
420
        0
370
   100
100
AcDbCircle
 10
28.01796973464956
 20
3.185318859417984
 30
0.0
 40
0.2995796250000043
100
AcDbArc
 50
200.5086881391235
 51
238.7070951391226
  0
ARC
  5
3A9
330
1F
100
AcDbEntity
  8
Layer1
 62
    18
420
        0
370
   100
100
AcDbCircle
 10
27.40295178183098
 20
2.637197171818063
 30
0.0
 40
0.5444234999999408
100
AcDbArc
 50
6.090445139119841
 51
32.45087613912295
  0
ARC
  5
3AA
330
1F
100
AcDbEntity
  8
Layer1
 62
    18
420
        0
370
   100
100
AcDbCircle
 10
27.6908354211082
 20
2.600210017536272
 30
0.0
 40
0.2705962500000025
100
AcDbArc
 50
250.7482191391224
 51
20.49638813912126
  0
ARC
  5
3AB
330
1F
100
AcDbEntity
  8
Layer1
 62
    18
420
        0
370
   100
100
AcDbCircle
 10
27.60655476214167
 20
2.624395878255803
 30
0.0
 40
0.2796930000000004
100
AcDbArc
 50
143.4500611391225
 51
268.9880721391217
  0
LINE
  5
3AC
330
1F
100
AcDbEntity
  8
Layer1
 62
    18
420
        0
370
   100
100
AcDbLine
 10
27.38186647113287
 20
2.790959965112359
 30
0.0
 11
27.46580630302806
 21
2.880734670358239
 31
0.0
  0
ARC
  5
3AD
330
1F
100
AcDbEntity
  8
Layer1
 62
    18
420
        0
370
   100
100
AcDbCircle
 10
27.44869532128712
 20
2.883605647141382
 30
0.0
 40
0.0173497500000009
100
AcDbArc
 50
350.4745771391334
 51
126.4634021391107
  0
LINE
  5
3AE
330
1F
100
AcDbEntity
  8
Layer1
 62
    18
420
        0
370
   100
100
AcDbLine
 10
27.43838422482007
 20
2.897558709257373
 30
0.0
 11
27.41038340754396
 21
2.885740771005436
 31
0.0
  0
LINE
  5
3AF
330
1F
100
AcDbEntity
  8
Layer1
 62
    18
420
        0
370
   100
100
AcDbLine
 10
27.41038340754396
 20
2.885740771005436
 30
0.0
 11
27.37809090336225
 21
2.87356796939365
 31
0.0
  0
LINE
  5
3B0
330
1F
100
AcDbEntity
  8
Layer1
 62
    18
420
        0
370
   100
100
AcDbLine
 10
27.37809090336225
 20
2.87356796939365
 30
0.0
 11
27.34633983607243
 21
2.862088069356466
 31
0.0
  0
ARC
  5
3B1
330
1F
100
AcDbEntity
  8
Layer1
 62
    18
420
        0
370
   100
100
AcDbCircle
 10
27.47334477307129
 20
2.562668446481656
 30
0.0
 40
0.3252419999999989
100
AcDbArc
 50
112.985194139122
 51
165.4996041391221
  0
ARC
  5
3B2
330
1F
100
AcDbEntity
  8
Layer1
 62
    18
420
        0
370
   100
100
AcDbCircle
 10
27.45784522871137
 20
2.509990261601274
 30
0.0
 40
0.3280488749999901
100
AcDbArc
 50
155.8690161391209
 51
188.3465901391224
  0
LINE
  5
3B3
330
1F
100
AcDbEntity
  8
Layer1
 62
    18
420
        0
370
   100
100
AcDbLine
 10
27.13327036084385
 20
2.462370411702003
 30
0.0
 11
27.16896437673017
 21
2.416901938724485
 31
0.0
  0
ARC
  5
3B4
330
1F
100
AcDbEntity
  8
Layer1
 62
    18
420
        0
370
   100
100
AcDbCircle
 10
27.21462463666515
 20
2.417615666305767
 30
0.0
 40
0.0456660000000021
100
AcDbArc
 50
180.8954341391235
 51
277.1146791391195
  0
LINE
  5
3B5
330
1F
100
AcDbEntity
  8
Layer1
 62
    18
420
        0
370
   100
100
AcDbLine
 10
27.2202802486202
 20
2.372301341934821
 30
0.0
 11
27.37677057737602
 21
2.136153105718626
 31
0.0
  0
LINE
  5
3B6
330
1F
100
AcDbEntity
  8
Layer1
 62
    18
420
        0
370
   100
100
AcDbLine
 10
33.45043242396604
 20
4.169619699808502
 30
0.0
 11
33.32294437056007
 21
3.938210842405456
 31
0.0
  0
ARC
  5
3B7
330
1F
100
AcDbEntity
  8
Layer1
 62
    18
420
        0
370
   100
100
AcDbCircle
 10
33.51313643020097
 20
3.774518821625231
 30
0.0
 40
0.2509346250000996
100
AcDbArc
 50
139.2825201391314
 51
178.2782621391148
  0
ARC
  5
3B8
330
1F
100
AcDbEntity
  8
Layer1
 62
    18
420
        0
370
   100
100
AcDbCircle
 10
33.56606224585316
 20
2.933430558622236
 30
0.0
 40
0.3454233749999595
100
AcDbArc
 50
178.8987631391191
 51
215.948068139124
  0
ARC
  5
3B9
330
1F
100
AcDbEntity
  8
Layer1
 62
    18
420
        0
370
   100
100
AcDbCircle
 10
30.0997879878798
 20
1.469513508980874
 30
0.0
 40
3.427115624999635
100
AcDbArc
 50
9.658183139121101
 51
21.59155813912234
  0
ARC
  5
3BA
330
1F
100
AcDbEntity
  8
Layer1
 62
    18
420
        0
370
   100
100
AcDbCircle
 10
32.49299391511147
 20
1.876793676700204
 30
0.0
 40
0.9995017500001188
100
AcDbArc
 50
348.2937231391235
 51
9.658183139120835
  0
ARC
  5
3BB
330
1F
100
AcDbEntity
  8
Layer1
 62
    18
420
        0
370
   100
100
AcDbCircle
 10
33.23946133882144
 20
1.710461652935155
 30
0.0
 40
0.2350889999999895
100
AcDbArc
 50
294.2598091391197
 51
351.0776901391224
  0
ARC
  5
3BC
330
1F
100
AcDbEntity
  8
Layer1
 62
   150
420
  2657520
370
   100
100
AcDbCircle
 10
27.05641981517905
 20
1.79221310695313
 30
0.0
 40
0.4700205671999724
100
AcDbArc
 50
196.7813393544607
 51
47.03374200539621
  0
LINE
  5
3BD
330
1F
100
AcDbEntity
  8
Layer1
 62
    18
420
        0
370
   100
100
AcDbLine
 10
38.96424134140253
 20
1.656508772308932
 30
0.0
 11
39.0469997387259
 21
1.832028443185781
 31
0.0
  0
LINE
  5
3BE
330
1F
100
AcDbEntity
  8
Layer1
 62
    18
420
        0
370
   100
100
AcDbLine
 10
39.0469997387259
 20
1.832028443185781
 30
0.0
 11
39.08328188352907
 21
1.933416677710909
 31
0.0
  0
ARC
  5
3BF
330
1F
100
AcDbEntity
  8
Layer1
 62
    18
420
        0
370
   100
100
AcDbCircle
 10
38.99410882781268
 20
2.010740630480154
 30
0.0
 40
0.1180293750000069
100
AcDbArc
 50
319.0708431391207
 51
15.8957151391164
  0
LINE
  5
3C0
330
1F
100
AcDbEntity
  8
Layer1
 62
    18
420
        0
370
   100
100
AcDbLine
 10
39.1076247717231
 20
2.043066795777484
 30
0.0
 11
39.1096995348487
 21
2.198671501901849
 31
0.0
  0
LINE
  5
3C1
330
1F
100
AcDbEntity
  8
Layer1
 62
    18
420
        0
370
   100
100
AcDbLine
 10
39.1096995348487
 20
2.198671501901849
 30
0.0
 11
39.05193656137985
 21
2.285751328742961
 31
0.0
  0
ARC
  5
3C2
330
1F
100
AcDbEntity
  8
Layer1
 62
    18
420
        0
370
   100
100
AcDbCircle
 10
38.78349092842182
 20
1.97871719464754
 30
0.0
 40
0.4078395000000674
100
AcDbArc
 50
48.8360651391239
 51
80.14190313911851
  0
LINE
  5
3C3
330
1F
100
AcDbEntity
  8
Layer1
 62
    18
420
        0
370
   100
100
AcDbLine
 10
38.85331561128962
 20
2.380534566781979
 30
0.0
 11
38.90378387640723
 21
2.233784108518044
 31
0.0
  0
ARC
  5
3C4
330
1F
100
AcDbEntity
  8
Layer1
 62
    18
420
        0
370
   100
100
AcDbCircle
 10
38.55662291491203
 20
2.114393894343688
 30
0.0
 40
0.3671167500000799
100
AcDbArc
 50
352.148833139125
 51
18.97820413911906
  0
ARC
  5
3C5
330
1F
100
AcDbEntity
  8
Layer1
 62
    18
420
        0
370
   100
100
AcDbCircle
 10
38.68796550987469
 20
2.06679903675573
 30
0.0
 40
0.2323473749999745
100
AcDbArc
 50
294.5306701391164
 51
359.3705181391257
  0
ARC
  5
3C6
330
1F
100
AcDbEntity
  8
Layer1
 62
    18
420
        0
370
   100
100
AcDbCircle
 10
38.62142349985924
 20
2.158186240713669
 30
0.0
 40
0.3438551249999937
100
AcDbArc
 50
205.2611281391205
 51
298.2980921391232
  0
ARC
  5
3C7
330
1F
100
AcDbEntity
  8
Layer1
 62
    18
420
        0
370
   100
100
AcDbCircle
 10
38.51444058488029
 20
2.083693997992539
 30
0.0
 40
0.2164061250000626
100
AcDbArc
 50
151.8348711391294
 51
199.5025491391157
  0
ARC
  5
3C8
330
1F
100
AcDbEntity
  8
Layer1
 62
    18
420
        0
370
   100
100
AcDbCircle
 10
38.55739131479616
 20
2.175256551737242
 30
0.0
 40
0.2339718750000833
100
AcDbArc
 50
131.61161313913
 51
177.4070291391133
  0
LINE
  5
3C9
330
1F
100
AcDbEntity
  8
Layer1
 62
    18
420
        0
370
   100
100
AcDbLine
 10
38.40201626022527
 20
2.350188531715922
 30
0.0
 11
38.61401541930157
 21
2.582946866572208
 31
0.0
  0
ARC
  5
3CA
330
1F
100
AcDbEntity
  8
Layer1
 62
    18
420
        0
370
   100
100
AcDbCircle
 10
38.32695665420439
 20
2.91123272350971
 30
0.0
 40
0.4360893749999939
100
AcDbArc
 50
311.1670671391217
 51
32.34507113912311
  0
LINE
  5
3CB
330
1F
100
AcDbEntity
  8
Layer1
 62
    18
420
        0
370
   100
100
AcDbLine
 10
38.69538176899039
 20
3.144547502985283
 30
0.0
 11
38.55666891575288
 21
3.393029625207433
 31
0.0
  0
LINE
  5
3CC
330
1F
100
AcDbEntity
  8
Layer1
 62
    18
420
        0
370
   100
100
AcDbLine
 10
38.55666891575288
 20
3.393029625207433
 30
0.0
 11
38.47579928577959
 21
3.497959801103626
 31
0.0
  0
ARC
  5
3CD
330
1F
100
AcDbEntity
  8
Layer1
 62
    18
420
        0
370
   100
100
AcDbCircle
 10
38.3394184628254
 20
3.453698709083101
 30
0.0
 40
0.1433834999999215
100
AcDbArc
 50
17.98026413911001
 51
62.20346813913627
  0
LINE
  5
3CE
330
1F
100
AcDbEntity
  8
Layer1
 62
    18
420
        0
370
   100
100
AcDbLine
 10
38.40628280210851
 20
3.580536334808968
 30
0.0
 11
38.27812514411136
 21
3.761443855156944
 31
0.0
  0
LINE
  5
3CF
330
1F
100
AcDbEntity
  8
Layer1
 62
    18
420
        0
370
   100
100
AcDbLine
 10
38.27812514411136
 20
3.761443855156944
 30
0.0
 11
38.14008376147298
 21
3.962742772772607
 31
0.0
  0
ARC
  5
3D0
330
1F
100
AcDbEntity
  8
Layer1
 62
    18
420
        0
370
   100
100
AcDbCircle
 10
39.13383516935519
 20
4.4520676836016
 30
0.0
 40
1.10769187499979
100
AcDbArc
 50
181.2181051391199
 51
206.2157461391245
  0
ARC
  5
3D1
330
1F
100
AcDbEntity
  8
Layer1
 62
    18
420
        0
370
   100
100
AcDbCircle
 10
38.9520735052789
 20
4.491057914526256
 30
0.0
 40
0.9277908749999428
100
AcDbArc
 50
165.8841921391225
 51
183.8649441391235
  0
LINE
  5
3D2
330
1F
100
AcDbEntity
  8
Layer1
 62
    18
420
        0
370
   100
100
AcDbLine
 10
38.05229785597241
 20
4.717329575199589
 30
0.0
 11
38.10889232547359
 21
5.036315158611416
 31
0.0
  0
LINE
  5
3D3
330
1F
100
AcDbEntity
  8
Layer1
 62
    18
420
        0
370
   100
100
AcDbLine
 10
38.10889232547359
 20
5.036315158611416
 30
0.0
 11
38.13733996117161
 21
5.163292980329505
 31
0.0
  0
ARC
  5
3D4
330
1F
100
AcDbEntity
  8
Layer1
 62
    18
420
        0
370
   100
100
AcDbCircle
 10
38.02737141525148
 20
5.269308690878842
 30
0.0
 40
0.1527491249999676
100
AcDbArc
 50
316.0485131391154
 51
0.3735481391259064
  0
LINE
  5
3D5
330
1F
100
AcDbEntity
  8
Layer1
 62
    18
420
        0
370
   100
100
AcDbLine
 10
38.18011773304545
 20
5.270303824379123
 30
0.0
 11
38.23339189672671
 21
5.391514175496898
 31
0.0
  0
LINE
  5
3D6
330
1F
100
AcDbEntity
  8
Layer1
 62
    18
420
        0
370
   100
100
AcDbLine
 10
38.23339189672671
 20
5.391514175496898
 30
0.0
 11
38.25804249853436
 21
5.441818001810475
 31
0.0
  0
LINE
  5
3D7
330
1F
100
AcDbEntity
  8
Layer1
 62
    18
420
        0
370
   100
100
AcDbLine
 10
38.25804249853436
 20
5.441818001810475
 30
0.0
 11
38.27003265296192
 21
5.472450601852497
 31
0.0
  0
LINE
  5
3D8
330
1F
100
AcDbEntity
  8
Layer1
 62
    18
420
        0
370
   100
100
AcDbLine
 10
38.27003265296192
 20
5.472450601852497
 30
0.0
 11
38.24701864959709
 21
5.469401397607058
 31
0.0
  0
LINE
  5
3D9
330
1F
100
AcDbEntity
  8
Layer1
 62
    18
420
        0
370
   100
100
AcDbLine
 10
38.24701864959709
 20
5.469401397607058
 30
0.0
 11
38.08017224541316
 21
5.270805218907441
 31
0.0
  0
LINE
  5
3DA
330
1F
100
AcDbEntity
  8
Layer1
 62
    18
420
        0
370
   100
100
AcDbLine
 10
38.08017224541316
 20
5.270805218907441
 30
0.0
 11
37.96992394695645
 21
5.048969488798015
 31
0.0
  0
ARC
  5
3DB
330
1F
100
AcDbEntity
  8
Layer1
 62
    18
420
        0
370
   100
100
AcDbCircle
 10
39.64843685368712
 20
4.271591700446042
 30
0.0
 40
1.849789124999763
100
AcDbArc
 50
155.1494921391206
 51
175.8332691391233
  0
LINE
  5
3DC
330
1F
100
AcDbEntity
  8
Layer1
 62
    18
420
        0
370
   100
100
AcDbLine
 10
37.80353634197303
 20
4.405995063463337
 30
0.0
 11
37.81381166502814
 21
4.236881149113042
 31
0.0
  0
LINE
  5
3DD
330
1F
100
AcDbEntity
  8
Layer1
 62
    18
420
        0
370
   100
100
AcDbLine
 10
37.81381166502814
 20
4.236881149113042
 30
0.0
 11
37.84526978409997
 21
4.078367602253099
 31
0.0
  0
ARC
  5
3DE
330
1F
100
AcDbEntity
  8
Layer1
 62
    18
420
        0
370
   100
100
AcDbCircle
 10
38.49807313664788
 20
4.105174731078703
 30
0.0
 40
0.6533538750000085
100
AcDbArc
 50
182.3514421391219
 51
208.2323431391213
  0
ARC
  5
3DF
330
1F
100
AcDbEntity
  8
Layer1
 62
    18
420
        0
370
   100
100
AcDbCircle
 10
38.92466625107473
 20
4.125205873075678
 30
0.0
 40
1.054871999999975
100
AcDbArc
 50
198.1786041391232
 51
215.5152491391238
  0
ARC
  5
3E0
330
1F
100
AcDbEntity
  8
Layer1
 62
    18
420
        0
370
   100
100
AcDbCircle
 10
37.05563813407831
 20
2.965021322452867
 30
0.0
 40
1.149151499999817
100
AcDbArc
 50
11.88607913912126
 51
28.44670713912384
  0
ARC
  5
3E1
330
1F
100
AcDbEntity
  8
Layer1
 62
    18
420
        0
370
   100
100
AcDbCircle
 10
37.63513537018788
 20
3.086993931226672
 30
0.0
 40
0.5569571250000717
100
AcDbArc
 50
338.5494011391249
 51
11.88607913912058
  0
ARC
  5
3E2
330
1F
100
AcDbEntity
  8
Layer1
 62
    18
420
        0
370
   100
100
AcDbCircle
 10
37.91066116347788
 20
2.99792390971206
 30
0.0
 40
0.2685374999999945
100
AcDbArc
 50
271.5883421391212
 51
334.7361381391225
  0
ARC
  5
3E3
330
1F
100
AcDbEntity
  8
Layer1
 62
    18
420
        0
370
   100
100
AcDbCircle
 10
37.84097228380682
 20
3.110374004920339
 30
0.0
 40
0.3886166250000067
100
AcDbArc
 50
214.4071521391222
 51
281.4480351391209
  0
ARC
  5
3E4
330
1F
100
AcDbEntity
  8
Layer1
 62
    18
420
        0
370
   100
100
AcDbCircle
 10
37.90560366006439
 20
3.154640313558731
 30
0.0
 40
0.4669526250001664
100
AcDbArc
 50
185.6073101391277
 51
214.4071521391176
  0
LINE
  5
3E5
330
1F
100
AcDbEntity
  8
Layer1
 62
    18
420
        0
370
   100
100
AcDbLine
 10
37.42967066071395
 20
3.168060612540778
 30
0.0
 11
37.44088482963343
 21
3.109013819205227
 31
0.0
  0
LINE
  5
3E6
330
1F
100
AcDbEntity
  8
Layer1
 62
    18
420
        0
370
   100
100
AcDbLine
 10
37.42967066071395
 20
3.168060612540778
 30
0.0
 11
37.44230967179421
 21
3.221186241740057
 31
0.0
  0
LINE
  5
3E7
330
1F
100
AcDbEntity
  8
Layer1
 62
    18
420
        0
370
   100
100
AcDbLine
 10
37.44230967179421
 20
3.221186241740057
 30
0.0
 11
37.45500695084127
 21
3.33027316390195
 31
0.0
  0
ARC
  5
3E8
330
1F
100
AcDbEntity
  8
Layer1
 62
    18
420
        0
370
   100
100
AcDbCircle
 10
37.96510318882293
 20
3.270904696779871
 30
0.0
 40
0.5135400000000152
100
AcDbArc
 50
148.1381391391233
 51
173.3613621391223
  0
ARC
  5
3E9
330
1F
100
AcDbEntity
  8
Layer1
 62
    18
420
        0
370
   100
100
AcDbCircle
 10
37.42462029587202
 20
3.648371379850336
 30
0.0
 40
0.1489983750000005
100
AcDbArc
 50
314.4394331391214
 51
357.8143471391207
  0
LINE
  5
3EA
330
1F
100
AcDbEntity
  8
Layer1
 62
    18
420
        0
370
   100
100
AcDbLine
 10
37.57350920533695
 20
3.642689710875224
 30
0.0
 11
37.58726954264774
 21
3.658625408241406
 31
0.0
  0
ARC
  5
3EB
330
1F
100
AcDbEntity
  8
Layer1
 62
    18
420
        0
370
   100
100
AcDbCircle
 10
37.59185963054018
 20
3.664676056044971
 30
0.0
 40
0.0075948749999983
100
AcDbArc
 50
232.8137261391991
 51
136.8828801391309
  0
LINE
  5
3EC
330
1F
100
AcDbEntity
  8
Layer1
 62
    18
420
        0
370
   100
100
AcDbLine
 10
37.58631588307483
 20
3.669867087089571
 30
0.0
 11
37.56052707461933
 21
3.634357145121136
 31
0.0
  0
ARC
  5
3ED
330
1F
100
AcDbEntity
  8
Layer1
 62
    18
420
        0
370
   100
100
AcDbCircle
 10
38.54935461557955
 20
2.61058893127456
 30
0.0
 40
1.42333425000022
100
AcDbArc
 50
134.0053991391226
 51
146.7549571391208
  0
LINE
  5
3EE
330
1F
100
AcDbEntity
  8
Layer1
 62
    18
420
        0
370
   100
100
AcDbLine
 10
37.2896795948512
 20
3.285180360325363
 30
0.0
 11
37.35897247471283
 21
3.390890351731748
 31
0.0
  0
LINE
  5
3EF
330
1F
100
AcDbEntity
  8
Layer1
 62
    18
420
        0
370
   100
100
AcDbLine
 10
37.2896795948512
 20
3.285180360325363
 30
0.0
 11
37.24294112601491
 21
3.161110592281162
 31
0.0
  0
LINE
  5
3F0
330
1F
100
AcDbEntity
  8
Layer1
 62
    18
420
        0
370
   100
100
AcDbLine
 10
37.24294112601491
 20
3.161110592281162
 30
0.0
 11
37.21883142553384
 21
3.091939708888713
 31
0.0
  0
LINE
  5
3F1
330
1F
100
AcDbEntity
  8
Layer1
 62
    18
420
        0
370
   100
100
AcDbLine
 10
37.21883142553384
 20
3.091939708888713
 30
0.0
 11
37.19411882140039
 21
3.03134566183563
 31
0.0
  0
LINE
  5
3F2
330
1F
100
AcDbEntity
  8
Layer1
 62
    18
420
        0
370
   100
100
AcDbLine
 10
37.19411882140039
 20
3.03134566183563
 30
0.0
 11
37.16951148076165
 21
2.894417807459853
 31
0.0
  0
ARC
  5
3F3
330
1F
100
AcDbEntity
  8
Layer1
 62
    18
420
        0
370
   100
100
AcDbCircle
 10
37.96306675892051
 20
2.8160004997577
 30
0.0
 40
0.7974202499999946
100
AcDbArc
 50
174.3564991391227
 51
209.934041139123
  0
ARC
  5
3F4
330
1F
100
AcDbEntity
  8
Layer1
 62
    18
420
        0
370
   100
100
AcDbCircle
 10
36.9405151338014
 20
2.076338905028333
 30
0.0
 40
0.4761168749998287
100
AcDbArc
 50
20.64016313911885
 51
45.87133913912896
  0
LINE
  5
3F5
330
1F
100
AcDbEntity
  8
Layer1
 62
    18
420
        0
370
   100
100
AcDbLine
 10
37.38607071862988
 20
2.244169003116426
 30
0.0
 11
37.45450281656068
 21
2.1714908406354
 31
0.0
  0
ARC
  5
3F6
330
1F
100
AcDbEntity
  8
Layer1
 62
    18
420
        0
370
   100
100
AcDbCircle
 10
37.564218769093
 20
2.207288708186967
 30
0.0
 40
0.11540925
100
AcDbArc
 50
198.0703121391237
 51
250.9597971391231
  0
LINE
  5
3F7
330
1F
100
AcDbEntity
  8
Layer1
 62
    18
420
        0
370
   100
100
AcDbLine
 10
37.52656914186684
 20
2.098194370514754
 30
0.0
 11
37.70090626453396
 21
1.897119882526319
 31
0.0
  0
LINE
  5
3F8
330
1F
100
AcDbEntity
  8
Layer1
 62
    18
420
        0
370
   100
100
AcDbLine
 10
37.70090626453396
 20
1.897119882526319
 30
0.0
 11
37.73281620502439
 21
1.613929931107791
 31
0.0
  0
ARC
  5
3F9
330
1F
100
AcDbEntity
  8
Layer1
 62
    18
420
        0
370
   100
100
AcDbCircle
 10
42.54499326259483
 20
1.797803536252767
 30
0.0
 40
0.4914990000000817
100
AcDbArc
 50
135.3454961391229
 51
167.6314981391175
  0
LINE
  5
3FA
330
1F
100
AcDbEntity
  8
Layer1
 62
    18
420
        0
370
   100
100
AcDbLine
 10
42.19536221044227
 20
2.143243990243539
 30
0.0
 11
42.31566705044064
 21
2.36163109008111
 31
0.0
  0
ARC
  5
3FB
330
1F
100
AcDbEntity
  8
Layer1
 62
    18
420
        0
370
   100
100
AcDbCircle
 10
41.11185445643001
 20
2.663361376705113
 30
0.0
 40
1.241050500000062
100
AcDbArc
 50
345.9289411391221
 51
10.79714213912075
  0
LINE
  5
3FC
330
1F
100
AcDbEntity
  8
Layer1
 62
    18
420
        0
370
   100
100
AcDbLine
 10
42.33093403572588
 20
2.895850194666898
 30
0.0
 11
42.26333461992228
 21
3.08329005594703
 31
0.0
  0
LINE
  5
3FD
330
1F
100
AcDbEntity
  8
Layer1
 62
    18
420
        0
370
   100
100
AcDbLine
 10
42.26333461992228
 20
3.08329005594703
 30
0.0
 11
42.13238752843839
 21
3.252814607065523
 31
0.0
  0
ARC
  5
3FE
330
1F
100
AcDbEntity
  8
Layer1
 62
    18
420
        0
370
   100
100
AcDbCircle
 10
40.92514922558919
 20
2.023488945252446
 30
0.0
 40
1.722981374999778
100
AcDbArc
 50
45.51938313912052
 51
59.82656013912216
  0
LINE
  5
3FF
330
1F
100
AcDbEntity
  8
Layer1
 62
    18
420
        0
370
   100
100
AcDbLine
 10
41.79115265337046
 20
3.513020002515232
 30
0.0
 11
41.76548709677562
 21
3.524481720773947
 31
0.0
  0
ARC
  5
400
330
1F
100
AcDbEntity
  8
Layer1
 62
    18
420
        0
370
   100
100
AcDbCircle
 10
41.75807986280436
 20
3.529228524175798
 30
0.0
 40
0.0087974999999998
100
AcDbArc
 50
327.3463001391012
 51
180.8509071391465
  0
ARC
  5
401
330
1F
100
AcDbEntity
  8
Layer1
 62
    18
420
        0
370
   100
100
AcDbCircle
 10
41.7522446508495
 20
3.515835241578794
 30
0.0
 40
0.0135888750000013
100
AcDbArc
 50
312.0787401391454
 51
102.5831071391132
  0
LINE
  5
402
330
1F
100
AcDbEntity
  8
Layer1
 62
    18
420
        0
370
   100
100
AcDbLine
 10
41.76135122566852
 20
3.505749106679526
 30
0.0
 11
41.78177174393554
 21
3.490060400173528
 31
0.0
  0
ARC
  5
403
330
1F
100
AcDbEntity
  8
Layer1
 62
    18
420
        0
370
   100
100
AcDbCircle
 10
41.80715806845963
 20
3.481602676000404
 30
0.0
 40
0.026758124999995
100
AcDbArc
 50
161.5733761391062
 51
269.6638161391203
  0
LINE
  5
404
330
1F
100
AcDbEntity
  8
Layer1
 62
    18
420
        0
370
   100
100
AcDbLine
 10
41.80700043538133
 20
3.45484492144974
 30
0.0
 11
41.828770413699
 21
3.407733545218937
 31
0.0
  0
LINE
  5
405
330
1F
100
AcDbEntity
  8
Layer1
 62
    18
420
        0
370
   100
100
AcDbLine
 10
41.828770413699
 20
3.407733545218937
 30
0.0
 11
41.89766375062952
 21
3.260356595121471
 31
0.0
  0
ARC
  5
406
330
1F
100
AcDbEntity
  8
Layer1
 62
    18
420
        0
370
   100
100
AcDbCircle
 10
41.27482629636422
 20
2.969201428396147
 30
0.0
 40
0.6875313749999976
100
AcDbArc
 50
307.6510901391222
 51
25.05449313912245
  0
ARC
  5
407
330
1F
100
AcDbEntity
  8
Layer1
 62
    18
420
        0
370
   100
100
AcDbCircle
 10
41.3480584888807
 20
2.968925914765918
 30
0.0
 40
0.6451740000000138
100
AcDbArc
 50
259.6983821391227
 51
302.5099761391215
  0
ARC
  5
408
330
1F
100
AcDbEntity
  8
Layer1
 62
    18
420
        0
370
   100
100
AcDbCircle
 10
41.26304807600437
 20
2.652746971406209
 30
0.0
 40
0.3200388749999926
100
AcDbArc
 50
171.317818139121
 51
264.5555501391227
  0
ARC
  5
409
330
1F
100
AcDbEntity
  8
Layer1
 62
    18
420
        0
370
   100
100
AcDbCircle
 10
42.07089910543349
 20
2.557318462449552
 30
0.0
 40
1.13337450000004
100
AcDbArc
 50
144.258507139122
 51
172.7138611391211
  0
LINE
  5
40A
330
1F
100
AcDbEntity
  8
Layer1
 62
    18
420
        0
370
   100
100
AcDbLine
 10
41.28138675543366
 20
3.400552507880809
 30
0.0
 11
41.15098388823137
 21
3.219355497924836
 31
0.0
  0
LINE
  5
40B
330
1F
100
AcDbEntity
  8
Layer1
 62
    18
420
        0
370
   100
100
AcDbLine
 10
41.28138675543366
 20
3.400552507880809
 30
0.0
 11
41.41143740029761
 21
3.604266846761951
 31
0.0
  0
ARC
  5
40C
330
1F
100
AcDbEntity
  8
Layer1
 62
    18
420
        0
370
   100
100
AcDbCircle
 10
40.70563904353344
 20
3.96833303031693
 30
0.0
 40
0.7941633750000141
100
AcDbArc
 50
332.7143941391224
 51
13.36170613912191
  0
ARC
  5
40D
330
1F
100
AcDbEntity
  8
Layer1
 62
    18
420
        0
370
   100
100
AcDbCircle
 10
40.12252197893793
 20
3.829826230778674
 30
0.0
 40
1.393503749999953
100
AcDbArc
 50
13.36170613912224
 51
33.93077913912314
  0
LINE
  5
40E
330
1F
100
AcDbEntity
  8
Layer1
 62
    18
420
        0
370
   100
100
AcDbLine
 10
41.00156308175104
 20
4.987327343614334
 30
0.0
 11
41.27873052117152
 21
4.607667707036233
 31
0.0
  0
ARC
  5
40F
330
1F
100
AcDbEntity
  8
Layer1
 62
    18
420
        0
370
   100
100
AcDbCircle
 10
41.71357379920478
 20
5.650409937133146
 30
0.0
 40
0.9729528749999949
100
AcDbArc
 50
191.5882021391217
 51
222.9622061391221
  0
ARC
  5
410
330
1F
100
AcDbEntity
  8
Layer1
 62
    18
420
        0
370
   100
100
AcDbCircle
 10
41.7973208548126
 20
5.690209716357427
 30
0.0
 40
1.063218375000071
100
AcDbArc
 50
157.8707841391241
 51
192.7827591391215
  0
LINE
  5
411
330
1F
100
AcDbEntity
  8
Layer1
 62
    18
420
        0
370
   100
100
AcDbLine
 10
40.81242192639419
 20
6.090721154956269
 30
0.0
 11
40.84764131836035
 21
6.199403105992753
 31
0.0
  0
LINE
  5
412
330
1F
100
AcDbEntity
  8
Layer1
 62
    18
420
        0
370
   100
100
AcDbLine
 10
40.84764131836035
 20
6.199403105992753
 30
0.0
 11
40.86035497262809
 21
6.238610215244309
 31
0.0
  0
LINE
  5
413
330
1F
100
AcDbEntity
  8
Layer1
 62
    18
420
        0
370
   100
100
AcDbLine
 10
40.86035497262809
 20
6.238610215244309
 30
0.0
 11
40.83026922556533
 21
6.229005037285052
 31
0.0
  0
LINE
  5
414
330
1F
100
AcDbEntity
  8
Layer1
 62
    18
420
        0
370
   100
100
AcDbLine
 10
40.83026922556533
 20
6.229005037285052
 30
0.0
 11
40.78847519546913
 21
6.190551417252619
 31
0.0
  0
ARC
  5
415
330
1F
100
AcDbEntity
  8
Layer1
 62
    18
420
        0
370
   100
100
AcDbCircle
 10
40.76279900108617
 20
6.194312320554866
 30
0.0
 40
0.0259503749999989
100
AcDbArc
 50
248.7540421391069
 51
351.6667301391194
  0
ARC
  5
416
330
1F
100
AcDbEntity
  8
Layer1
 62
    18
420
        0
370
   100
100
AcDbCircle
 10
40.73248285443003
 20
6.159309059025325
 30
0.0
 40
0.023543999999998
100
AcDbArc
 50
273.1407051391142
 51
27.35208813912817
  0
LINE
  5
417
330
1F
100
AcDbEntity
  8
Layer1
 62
    18
420
        0
370
   100
100
AcDbLine
 10
40.7337738956
 20
6.135800426752853
 30
0.0
 11
40.68601682182603
 21
6.089404314519433
 31
0.0
  0
LINE
  5
418
330
1F
100
AcDbEntity
  8
Layer1
 62
    18
420
        0
370
   100
100
AcDbLine
 10
40.68601682182603
 20
6.089404314519433
 30
0.0
 11
40.61142117355391
 21
5.983773359874769
 31
0.0
  0
ARC
  5
419
330
1F
100
AcDbEntity
  8
Layer1
 62
    18
420
        0
370
   100
100
AcDbCircle
 10
41.60672289179581
 20
5.248592631652432
 30
0.0
 40
1.237383000000012
100
AcDbArc
 50
143.5485471391223
 51
191.9466101391217
  0
LINE
  5
41A
330
1F
100
AcDbEntity
  8
Layer1
 62
    18
420
        0
370
   100
100
AcDbLine
 10
40.44778103628855
 20
4.748386245563969
 30
0.0
 11
40.39614128373874
 21
4.992453756473862
 31
0.0
  0
LINE
  5
41B
330
1F
100
AcDbEntity
  8
Layer1
 62
    18
420
        0
370
   100
100
AcDbLine
 10
40.44778103628855
 20
4.748386245563969
 30
0.0
 11
40.54772984427548
 21
4.566870222231129
 31
0.0
  0
ARC
  5
41C
330
1F
100
AcDbEntity
  8
Layer1
 62
    18
420
        0
370
   100
100
AcDbCircle
 10
40.62950148674661
 20
4.569011497661424
 30
0.0
 40
0.0817998750000295
100
AcDbArc
 50
181.4998881391368
 51
248.5227931391105
  0
LINE
  5
41D
330
1F
100
AcDbEntity
  8
Layer1
 62
    18
420
        0
370
   100
100
AcDbLine
 10
40.59955198110302
 20
4.492891605878031
 30
0.0
 11
40.64468293659154
 21
4.400140320470042
 31
0.0
  0
LINE
  5
41E
330
1F
100
AcDbEntity
  8
Layer1
 62
    18
420
        0
370
   100
100
AcDbLine
 10
40.64468293659154
 20
4.400140320470042
 30
0.0
 11
40.72475141233885
 21
4.159900427281675
 31
0.0
  0
LINE
  5
41F
330
1F
100
AcDbEntity
  8
Layer1
 62
    18
420
        0
370
   100
100
AcDbLine
 10
40.72475141233885
 20
4.159900427281675
 30
0.0
 11
40.72334408365284
 21
3.99510743645085
 31
0.0
  0
LINE
  5
420
330
1F
100
AcDbEntity
  8
Layer1
 62
    18
420
        0
370
   100
100
AcDbLine
 10
40.72334408365284
 20
3.99510743645085
 30
0.0
 11
40.71109953992835
 21
3.933632884199449
 31
0.0
  0
LINE
  5
421
330
1F
100
AcDbEntity
  8
Layer1
 62
    18
420
        0
370
   100
100
AcDbLine
 10
40.71109953992835
 20
3.933632884199449
 30
0.0
 11
40.69993130210975
 21
3.899649643086241
 31
0.0
  0
LINE
  5
422
330
1F
100
AcDbEntity
  8
Layer1
 62
    18
420
        0
370
   100
100
AcDbLine
 10
40.69993130210975
 20
3.899649643086241
 30
0.0
 11
40.67554975113802
 21
3.885856725488088
 31
0.0
  0
ARC
  5
423
330
1F
100
AcDbEntity
  8
Layer1
 62
    18
420
        0
370
   100
100
AcDbCircle
 10
40.44063767990464
 20
3.990836749451408
 30
0.0
 40
0.2573021249999627
100
AcDbArc
 50
288.2952881391171
 51
335.9205221391253
  0
ARC
  5
424
330
1F
100
AcDbEntity
  8
Layer1
 62
    18
420
        0
370
   100
100
AcDbCircle
 10
40.31338817806253
 20
4.172168529917778
 30
0.0
 40
0.4737420000000243
100
AcDbArc
 50
255.2057541391234
 51
296.046517139121
  0
ARC
  5
425
330
1F
100
AcDbEntity
  8
Layer1
 62
    18
420
        0
370
   100
100
AcDbCircle
 10
40.19717591535507
 20
3.937935153017648
 30
0.0
 40
0.2238536250000133
100
AcDbArc
 50
204.430494139124
 51
268.7824451391191
  0
ARC
  5
426
330
1F
100
AcDbEntity
  8
Layer1
 62
    18
420
        0
370
   100
100
AcDbCircle
 10
40.09163656677527
 20
3.949088955684644
 30
0.0
 40
0.1428941249999931
100
AcDbArc
 50
170.9285551391197
 51
226.549837139122
  0
ARC
  5
427
330
1F
100
AcDbEntity
  8
Layer1
 62
    18
420
        0
370
   100
100
AcDbCircle
 10
40.14562927546638
 20
4.041011727735524
 30
0.0
 40
0.2070731250000533
100
AcDbArc
 50
160.7366121391275
 51
199.5794841391177
  0
LINE
  5
428
330
1F
100
AcDbEntity
  8
Layer1
 62
    18
420
        0
370
   100
100
AcDbLine
 10
39.95014955052838
 20
4.109328550694309
 30
0.0
 11
39.96275275985519
 21
4.130333439389984
 31
0.0
  0
LINE
  5
429
330
1F
100
AcDbEntity
  8
Layer1
 62
    18
420
        0
370
   100
100
AcDbLine
 10
39.96275275985519
 20
4.130333439389984
 30
0.0
 11
39.97430554037409
 21
4.149404352878795
 31
0.0
  0
ARC
  5
42A
330
1F
100
AcDbEntity
  8
Layer1
 62
    18
420
        0
370
   100
100
AcDbCircle
 10
39.99894038666017
 20
4.166377848394558
 30
0.0
 40
0.0299160000000008
100
AcDbArc
 50
90.95983613912125
 51
214.5654011391172
  0
LINE
  5
42B
330
1F
100
AcDbEntity
  8
Layer1
 62
    18
420
        0
370
   100
100
AcDbLine
 10
39.99843981006653
 20
4.196290213865611
 30
0.0
 11
40.01036657088346
 21
4.258625886276986
 31
0.0
  0
LINE
  5
42C
330
1F
100
AcDbEntity
  8
Layer1
 62
    18
420
        0
370
   100
100
AcDbLine
 10
40.01036657088346
 20
4.258625886276986
 30
0.0
 11
40.04244364924169
 21
4.301034880074921
 31
0.0
  0
ARC
  5
42D
330
1F
100
AcDbEntity
  8
Layer1
 62
    18
420
        0
370
   100
100
AcDbCircle
 10
39.70491180172621
 20
4.681709545646585
 30
0.0
 40
0.5087632500000273
100
AcDbArc
 50
311.5623611391223
 51
358.2135591391198
  0
ARC
  5
42E
330
1F
100
AcDbEntity
  8
Layer1
 62
    18
420
        0
370
   100
100
AcDbCircle
 10
39.95285896807946
 20
4.645935354798999
 30
0.0
 40
0.261328499999988
100
AcDbArc
 50
4.370131139120781
 51
53.26188713912239
  0
LINE
  5
42F
330
1F
100
AcDbEntity
  8
Layer1
 62
    18
420
        0
370
   100
100
AcDbLine
 10
40.10917520000051
 20
4.855358852473151
 30
0.0
 11
40.0138802903254
 21
4.910886789078694
 31
0.0
  0
LINE
  5
430
330
1F
100
AcDbEntity
  8
Layer1
 62
    18
420
        0
370
   100
100
AcDbLine
 10
40.0138802903254
 20
4.910886789078694
 30
0.0
 11
39.96661640376811
 21
4.93515141673719
 31
0.0
  0
ARC
  5
431
330
1F
100
AcDbEntity
  8
Layer1
 62
    18
420
        0
370
   100
100
AcDbCircle
 10
39.96313439861895
 20
4.929354565529636
 30
0.0
 40
0.0067623749999978
100
AcDbArc
 50
59.00263113913942
 51
303.3946311391141
  0
LINE
  5
432
330
1F
100
AcDbEntity
  8
Layer1
 62
    18
420
        0
370
   100
100
AcDbLine
 10
39.96685619659647
 20
4.923708826747808
 30
0.0
 11
39.98050965841953
 21
4.901967812965614
 31
0.0
  0
ARC
  5
433
330
1F
100
AcDbEntity
  8
Layer1
 62
    18
420
        0
370
   100
100
AcDbCircle
 10
39.89676445582198
 20
4.800995037327965
 30
0.0
 40
0.1311817499999902
100
AcDbArc
 50
310.2992861391157
 51
50.32805713912607
  0
LINE
  5
434
330
1F
100
AcDbEntity
  8
Layer1
 62
    18
420
        0
370
   100
100
AcDbLine
 10
39.98161004087667
 20
4.700946211088565
 30
0.0
 11
39.83951505308398
 21
4.515584021078778
 31
0.0
  0
ARC
  5
435
330
1F
100
AcDbEntity
  8
Layer1
 62
    18
420
        0
370
   100
100
AcDbCircle
 10
40.71970015682111
 20
3.84085155464607
 30
0.0
 40
1.109048624999874
100
AcDbArc
 50
142.5269301391206
 51
171.883131139124
  0
LINE
  5
436
330
1F
100
AcDbEntity
  8
Layer1
 62
    18
420
        0
370
   100
100
AcDbLine
 10
39.67793067164686
 20
3.713256017202097
 30
0.0
 11
39.62176096602117
 21
3.997440675222306
 31
0.0
  0
ARC
  5
437
330
1F
100
AcDbEntity
  8
Layer1
 62
    18
420
        0
370
   100
100
AcDbCircle
 10
40.12973476308107
 20
3.746453095912577
 30
0.0
 40
0.4530217500000847
100
AcDbArc
 50
184.2023231391252
 51
217.3526021391184
  0
ARC
  5
438
330
1F
100
AcDbEntity
  8
Layer1
 62
    18
420
        0
370
   100
100
AcDbCircle
 10
40.13662476091897
 20
3.574168475499012
 30
0.0
 40
0.3810701250000342
100
AcDbArc
 50
195.614801139124
 51
233.3278791391202
  0
LINE
  5
439
330
1F
100
AcDbEntity
  8
Layer1
 62
    18
420
        0
370
   100
100
AcDbLine
 10
39.9090367412484
 20
3.268524731664608
 30
0.0
 11
40.09520255265504
 21
3.080361451395275
 31
0.0
  0
ARC
  5
43A
330
1F
100
AcDbEntity
  8
Layer1
 62
    18
420
        0
370
   100
100
AcDbCircle
 10
40.3757953354655
 20
3.185318859418047
 30
0.0
 40
0.2995796250000983
100
AcDbArc
 50
200.5086881391299
 51
238.7070951391167
  0
ARC
  5
43B
330
1F
100
AcDbEntity
  8
Layer1
 62
    18
420
        0
370
   100
100
AcDbCircle
 10
39.76077738264703
 20
2.637197171818135
 30
0.0
 40
0.5444234999997499
100
AcDbArc
 50
6.090445139114385
 51
32.45087613912703
  0
ARC
  5
43C
330
1F
100
AcDbEntity
  8
Layer1
 62
    18
420
        0
370
   100
100
AcDbCircle
 10
40.04866102192407
 20
2.600210017536272
 30
0.0
 40
0.2705962500000014
100
AcDbArc
 50
250.7482191391231
 51
20.49638813912126
  0
ARC
  5
43D
330
1F
100
AcDbEntity
  8
Layer1
 62
    18
420
        0
370
   100
100
AcDbCircle
 10
39.96438036295753
 20
2.624395878255803
 30
0.0
 40
0.2796930000000004
100
AcDbArc
 50
143.4500611391221
 51
268.9880721391232
  0
LINE
  5
43E
330
1F
100
AcDbEntity
  8
Layer1
 62
    18
420
        0
370
   100
100
AcDbLine
 10
39.73969207194874
 20
2.790959965112359
 30
0.0
 11
39.82363190384393
 21
2.880734670358239
 31
0.0
  0
ARC
  5
43F
330
1F
100
AcDbEntity
  8
Layer1
 62
    18
420
        0
370
   100
100
AcDbCircle
 10
39.80652092210299
 20
2.883605647141378
 30
0.0
 40
0.0173497500000037
100
AcDbArc
 50
350.474577139147
 51
126.4634021391037
  0
LINE
  5
440
330
1F
100
AcDbEntity
  8
Layer1
 62
    18
420
        0
370
   100
100
AcDbLine
 10
39.79620982563593
 20
2.897558709257373
 30
0.0
 11
39.76820900835983
 21
2.885740771005436
 31
0.0
  0
LINE
  5
441
330
1F
100
AcDbEntity
  8
Layer1
 62
    18
420
        0
370
   100
100
AcDbLine
 10
39.76820900835983
 20
2.885740771005436
 30
0.0
 11
39.73591650417811
 21
2.87356796939365
 31
0.0
  0
LINE
  5
442
330
1F
100
AcDbEntity
  8
Layer1
 62
    18
420
        0
370
   100
100
AcDbLine
 10
39.73591650417811
 20
2.87356796939365
 30
0.0
 11
39.7041654368883
 21
2.862088069356466
 31
0.0
  0
ARC
  5
443
330
1F
100
AcDbEntity
  8
Layer1
 62
    18
420
        0
370
   100
100
AcDbCircle
 10
39.83117037388713
 20
2.562668446481676
 30
0.0
 40
0.3252419999999687
100
AcDbArc
 50
112.9851941391194
 51
165.4996041391247
  0
ARC
  5
444
330
1F
100
AcDbEntity
  8
Layer1
 62
    18
420
        0
370
   100
100
AcDbCircle
 10
39.81567082952715
 20
2.509990261601299
 30
0.0
 40
0.328048874999902
100
AcDbArc
 50
155.8690161391188
 51
188.3465901391291
  0
LINE
  5
445
330
1F
100
AcDbEntity
  8
Layer1
 62
    18
420
        0
370
   100
100
AcDbLine
 10
39.49109596165971
 20
2.462370411702003
 30
0.0
 11
39.52678997754603
 21
2.416901938724485
 31
0.0
  0
ARC
  5
446
330
1F
100
AcDbEntity
  8
Layer1
 62
    18
420
        0
370
   100
100
AcDbCircle
 10
39.57245023748102
 20
2.417615666305772
 30
0.0
 40
0.0456660000000067
100
AcDbArc
 50
180.8954341391296
 51
277.1146791391142
  0
LINE
  5
447
330
1F
100
AcDbEntity
  8
Layer1
 62
    18
420
        0
370
   100
100
AcDbLine
 10
39.57810584943606
 20
2.372301341934821
 30
0.0
 11
39.73459617819189
 21
2.136153105718626
 31
0.0
  0
ARC
  5
448
330
1F
100
AcDbEntity
  8
Layer1
 62
   150
420
  2657520
370
   100
100
AcDbCircle
 10
39.41424541599493
 20
1.79221310695313
 30
0.0
 40
0.4700205671999724
100
AcDbArc
 50
196.7813393544605
 51
47.03374200539653
  0
ARC
  5
449
330
1F
100
AcDbEntity
  8
Layer1
 62
   150
420
  2657520
370
   100
100
AcDbCircle
 10
37.10860613954528
 20
1.894882520581492
 30
0.0
 40
0.6845236032288531
100
AcDbArc
 50
178.0092391430202
 51
335.7678229983612
  0
ARC
  5
44A
330
1F
100
AcDbEntity
  8
Layer1
 62
    18
420
        0
370
   100
100
AcDbCircle
 10
47.98040844294155
 20
2.610768717367768
 30
0.0
 40
1.13337450000004
100
AcDbArc
 50
144.258507139122
 51
172.7138611391211
  0
LINE
  5
44B
330
1F
100
AcDbEntity
  8
Layer1
 62
    18
420
        0
370
   100
100
AcDbLine
 10
47.19089609294171
 20
3.454002762799025
 30
0.0
 11
47.06049322573942
 21
3.272805752843052
 31
0.0
  0
LINE
  5
44C
330
1F
100
AcDbEntity
  8
Layer1
 62
    18
420
        0
370
   100
100
AcDbLine
 10
47.19089609294171
 20
3.454002762799025
 30
0.0
 11
47.32094673780567
 21
3.657717101680166
 31
0.0
  0
ARC
  5
44D
330
1F
100
AcDbEntity
  8
Layer1
 62
    18
420
        0
370
   100
100
AcDbCircle
 10
46.6151483810415
 20
4.021783285235146
 30
0.0
 40
0.794163375000015
100
AcDbArc
 50
332.7143941391224
 51
13.36170613912191
  0
ARC
  5
44E
330
1F
100
AcDbEntity
  8
Layer1
 62
    18
420
        0
370
   100
100
AcDbCircle
 10
46.03203131644599
 20
3.88327648569689
 30
0.0
 40
1.393503749999953
100
AcDbArc
 50
13.36170613912224
 51
33.93077913912314
  0
LINE
  5
44F
330
1F
100
AcDbEntity
  8
Layer1
 62
    18
420
        0
370
   100
100
AcDbLine
 10
46.9110724192591
 20
5.04077759853255
 30
0.0
 11
47.18823985867958
 21
4.661117961954449
 31
0.0
  0
ARC
  5
450
330
1F
100
AcDbEntity
  8
Layer1
 62
    18
420
        0
370
   100
100
AcDbCircle
 10
47.62308313671284
 20
5.703860192051362
 30
0.0
 40
0.9729528749999949
100
AcDbArc
 50
191.5882021391217
 51
222.9622061391221
  0
ARC
  5
451
330
1F
100
AcDbEntity
  8
Layer1
 62
    18
420
        0
370
   100
100
AcDbCircle
 10
47.70683019232065
 20
5.743659971275643
 30
0.0
 40
1.063218375000071
100
AcDbArc
 50
157.8707841391241
 51
192.7827591391215
  0
LINE
  5
452
330
1F
100
AcDbEntity
  8
Layer1
 62
    18
420
        0
370
   100
100
AcDbLine
 10
46.72193126390225
 20
6.144171409874485
 30
0.0
 11
46.7571506558684
 21
6.252853360910969
 31
0.0
  0
LINE
  5
453
330
1F
100
AcDbEntity
  8
Layer1
 62
    18
420
        0
370
   100
100
AcDbLine
 10
46.7571506558684
 20
6.252853360910969
 30
0.0
 11
46.76986431013614
 21
6.292060470162525
 31
0.0
  0
LINE
  5
454
330
1F
100
AcDbEntity
  8
Layer1
 62
    18
420
        0
370
   100
100
AcDbLine
 10
46.76986431013614
 20
6.292060470162525
 30
0.0
 11
46.73977856307339
 21
6.282455292203268
 31
0.0
  0
LINE
  5
455
330
1F
100
AcDbEntity
  8
Layer1
 62
    18
420
        0
370
   100
100
AcDbLine
 10
46.73977856307339
 20
6.282455292203268
 30
0.0
 11
46.69798453297719
 21
6.244001672170835
 31
0.0
  0
ARC
  5
456
330
1F
100
AcDbEntity
  8
Layer1
 62
    18
420
        0
370
   100
100
AcDbCircle
 10
46.67230833859422
 20
6.247762575473082
 30
0.0
 40
0.0259503749999989
100
AcDbArc
 50
248.7540421391069
 51
351.6667301391194
  0
ARC
  5
457
330
1F
100
AcDbEntity
  8
Layer1
 62
    18
420
        0
370
   100
100
AcDbCircle
 10
46.64199219193809
 20
6.212759313943541
 30
0.0
 40
0.023543999999998
100
AcDbArc
 50
273.1407051391142
 51
27.35208813912817
  0
LINE
  5
458
330
1F
100
AcDbEntity
  8
Layer1
 62
    18
420
        0
370
   100
100
AcDbLine
 10
46.64328323310805
 20
6.189250681671069
 30
0.0
 11
46.59552615933409
 21
6.142854569437649
 31
0.0
  0
LINE
  5
459
330
1F
100
AcDbEntity
  8
Layer1
 62
    18
420
        0
370
   100
100
AcDbLine
 10
46.59552615933409
 20
6.142854569437649
 30
0.0
 11
46.52093051106196
 21
6.037223614792985
 31
0.0
  0
ARC
  5
45A
330
1F
100
AcDbEntity
  8
Layer1
 62
    18
420
        0
370
   100
100
AcDbCircle
 10
47.51623222930387
 20
5.302042886570648
 30
0.0
 40
1.237383000000012
100
AcDbArc
 50
143.5485471391223
 51
191.9466101391217
  0
LINE
  5
45B
330
1F
100
AcDbEntity
  8
Layer1
 62
    18
420
        0
370
   100
100
AcDbLine
 10
46.3572903737966
 20
4.801836500482185
 30
0.0
 11
46.30565062124679
 21
5.045904011392079
 31
0.0
  0
LINE
  5
45C
330
1F
100
AcDbEntity
  8
Layer1
 62
    18
420
        0
370
   100
100
AcDbLine
 10
46.3572903737966
 20
4.801836500482185
 30
0.0
 11
46.45723918178354
 21
4.620320477149345
 31
0.0
  0
ARC
  5
45D
330
1F
100
AcDbEntity
  8
Layer1
 62
    18
420
        0
370
   100
100
AcDbCircle
 10
46.53901082425467
 20
4.62246175257964
 30
0.0
 40
0.0817998750000295
100
AcDbArc
 50
181.4998881391368
 51
248.5227931391105
  0
LINE
  5
45E
330
1F
100
AcDbEntity
  8
Layer1
 62
    18
420
        0
370
   100
100
AcDbLine
 10
46.50906131861107
 20
4.546341860796247
 30
0.0
 11
46.55419227409959
 21
4.453590575388258
 31
0.0
  0
LINE
  5
45F
330
1F
100
AcDbEntity
  8
Layer1
 62
    18
420
        0
370
   100
100
AcDbLine
 10
46.55419227409959
 20
4.453590575388258
 30
0.0
 11
46.63426074984691
 21
4.213350682199891
 31
0.0
  0
LINE
  5
460
330
1F
100
AcDbEntity
  8
Layer1
 62
    18
420
        0
370
   100
100
AcDbLine
 10
46.63426074984691
 20
4.213350682199891
 30
0.0
 11
46.6328534211609
 21
4.048557691369066
 31
0.0
  0
LINE
  5
461
330
1F
100
AcDbEntity
  8
Layer1
 62
    18
420
        0
370
   100
100
AcDbLine
 10
46.6328534211609
 20
4.048557691369066
 30
0.0
 11
46.6206088774364
 21
3.987083139117665
 31
0.0
  0
LINE
  5
462
330
1F
100
AcDbEntity
  8
Layer1
 62
    18
420
        0
370
   100
100
AcDbLine
 10
46.6206088774364
 20
3.987083139117665
 30
0.0
 11
46.6094406396178
 21
3.953099898004456
 31
0.0
  0
LINE
  5
463
330
1F
100
AcDbEntity
  8
Layer1
 62
    18
420
        0
370
   100
100
AcDbLine
 10
46.6094406396178
 20
3.953099898004456
 30
0.0
 11
46.58505908864608
 21
3.939306980406304
 31
0.0
  0
ARC
  5
464
330
1F
100
AcDbEntity
  8
Layer1
 62
    18
420
        0
370
   100
100
AcDbCircle
 10
46.3501470174127
 20
4.044287004369624
 30
0.0
 40
0.2573021249999627
100
AcDbArc
 50
288.2952881391171
 51
335.9205221391254
  0
ARC
  5
465
330
1F
100
AcDbEntity
  8
Layer1
 62
    18
420
        0
370
   100
100
AcDbCircle
 10
46.22289751557059
 20
4.225618784835993
 30
0.0
 40
0.4737420000000243
100
AcDbArc
 50
255.2057541391234
 51
296.0465171391211
  0
ARC
  5
466
330
1F
100
AcDbEntity
  8
Layer1
 62
    18
420
        0
370
   100
100
AcDbCircle
 10
46.10668525286312
 20
3.991385407935863
 30
0.0
 40
0.2238536250000133
100
AcDbArc
 50
204.430494139124
 51
268.7824451391191
  0
ARC
  5
467
330
1F
100
AcDbEntity
  8
Layer1
 62
    18
420
        0
370
   100
100
AcDbCircle
 10
46.00114590428333
 20
4.00253921060286
 30
0.0
 40
0.1428941249999931
100
AcDbArc
 50
170.9285551391197
 51
226.549837139122
  0
ARC
  5
468
330
1F
100
AcDbEntity
  8
Layer1
 62
    18
420
        0
370
   100
100
AcDbCircle
 10
46.05513861297444
 20
4.094461982653741
 30
0.0
 40
0.2070731250000546
100
AcDbArc
 50
160.7366121391275
 51
199.5794841391179
  0
LINE
  5
469
330
1F
100
AcDbEntity
  8
Layer1
 62
    18
420
        0
370
   100
100
AcDbLine
 10
45.85965888803644
 20
4.162778805612525
 30
0.0
 11
45.87226209736325
 21
4.1837836943082
 31
0.0
  0
LINE
  5
46A
330
1F
100
AcDbEntity
  8
Layer1
 62
    18
420
        0
370
   100
100
AcDbLine
 10
45.87226209736325
 20
4.1837836943082
 30
0.0
 11
45.88381487788214
 21
4.202854607797011
 31
0.0
  0
ARC
  5
46B
330
1F
100
AcDbEntity
  8
Layer1
 62
    18
420
        0
370
   100
100
AcDbCircle
 10
45.90844972416823
 20
4.219828103312774
 30
0.0
 40
0.0299160000000008
100
AcDbArc
 50
90.95983613912125
 51
214.5654011391172
  0
LINE
  5
46C
330
1F
100
AcDbEntity
  8
Layer1
 62
    18
420
        0
370
   100
100
AcDbLine
 10
45.90794914757458
 20
4.249740468783827
 30
0.0
 11
45.91987590839152
 21
4.312076141195202
 31
0.0
  0
LINE
  5
46D
330
1F
100
AcDbEntity
  8
Layer1
 62
    18
420
        0
370
   100
100
AcDbLine
 10
45.91987590839152
 20
4.312076141195202
 30
0.0
 11
45.95195298674975
 21
4.354485134993137
 31
0.0
  0
ARC
  5
46E
330
1F
100
AcDbEntity
  8
Layer1
 62
    18
420
        0
370
   100
100
AcDbCircle
 10
45.61442113923427
 20
4.735159800564801
 30
0.0
 40
0.5087632500000273
100
AcDbArc
 50
311.5623611391223
 51
358.2135591391198
  0
ARC
  5
46F
330
1F
100
AcDbEntity
  8
Layer1
 62
    18
420
        0
370
   100
100
AcDbCircle
 10
45.86236830558752
 20
4.699385609717215
 30
0.0
 40
0.261328499999988
100
AcDbArc
 50
4.370131139120781
 51
53.26188713912239
  0
LINE
  5
470
330
1F
100
AcDbEntity
  8
Layer1
 62
    18
420
        0
370
   100
100
AcDbLine
 10
46.01868453750857
 20
4.908809107391367
 30
0.0
 11
45.92338962783346
 21
4.96433704399691
 31
0.0
  0
LINE
  5
471
330
1F
100
AcDbEntity
  8
Layer1
 62
    18
420
        0
370
   100
100
AcDbLine
 10
45.92338962783346
 20
4.96433704399691
 30
0.0
 11
45.87612574127617
 21
4.988601671655406
 31
0.0
  0
ARC
  5
472
330
1F
100
AcDbEntity
  8
Layer1
 62
    18
420
        0
370
   100
100
AcDbCircle
 10
45.87264373612701
 20
4.982804820447852
 30
0.0
 40
0.0067623749999978
100
AcDbArc
 50
59.00263113913942
 51
303.3946311391141
  0
LINE
  5
473
330
1F
100
AcDbEntity
  8
Layer1
 62
    18
420
        0
370
   100
100
AcDbLine
 10
45.87636553410452
 20
4.977159081666024
 30
0.0
 11
45.89001899592758
 21
4.95541806788383
 31
0.0
  0
ARC
  5
474
330
1F
100
AcDbEntity
  8
Layer1
 62
    18
420
        0
370
   100
100
AcDbCircle
 10
45.80627379333004
 20
4.854445292246181
 30
0.0
 40
0.1311817499999902
100
AcDbArc
 50
310.2992861391157
 51
50.32805713912607
  0
LINE
  5
475
330
1F
100
AcDbEntity
  8
Layer1
 62
    18
420
        0
370
   100
100
AcDbLine
 10
45.89111937838473
 20
4.754396466006781
 30
0.0
 11
45.74902439059203
 21
4.569034275996994
 31
0.0
  0
ARC
  5
476
330
1F
100
AcDbEntity
  8
Layer1
 62
    18
420
        0
370
   100
100
AcDbCircle
 10
46.62920949432917
 20
3.894301809564286
 30
0.0
 40
1.109048624999874
100
AcDbArc
 50
142.5269301391206
 51
171.883131139124
  0
LINE
  5
477
330
1F
100
AcDbEntity
  8
Layer1
 62
    18
420
        0
370
   100
100
AcDbLine
 10
45.58744000915491
 20
3.766706272120313
 30
0.0
 11
45.53127030352923
 21
4.050890930140522
 31
0.0
  0
ARC
  5
478
330
1F
100
AcDbEntity
  8
Layer1
 62
    18
420
        0
370
   100
100
AcDbCircle
 10
46.03924410058913
 20
3.799903350830792
 30
0.0
 40
0.4530217500000847
100
AcDbArc
 50
184.2023231391252
 51
217.3526021391184
  0
ARC
  5
479
330
1F
100
AcDbEntity
  8
Layer1
 62
    18
420
        0
370
   100
100
AcDbCircle
 10
46.04613409842703
 20
3.627618730417228
 30
0.0
 40
0.3810701250000342
100
AcDbArc
 50
195.614801139124
 51
233.3278791391202
  0
LINE
  5
47A
330
1F
100
AcDbEntity
  8
Layer1
 62
    18
420
        0
370
   100
100
AcDbLine
 10
45.81854607875646
 20
3.321974986582823
 30
0.0
 11
46.00471189016309
 21
3.133811706313491
 31
0.0
  0
ARC
  5
47B
330
1F
100
AcDbEntity
  8
Layer1
 62
    18
420
        0
370
   100
100
AcDbCircle
 10
46.28530467297355
 20
3.238769114336263
 30
0.0
 40
0.2995796250000983
100
AcDbArc
 50
200.5086881391299
 51
238.7070951391167
  0
ARC
  5
47C
330
1F
100
AcDbEntity
  8
Layer1
 62
    18
420
        0
370
   100
100
AcDbCircle
 10
45.67028672015509
 20
2.69064742673635
 30
0.0
 40
0.5444234999997499
100
AcDbArc
 50
6.090445139114385
 51
32.45087613912703
  0
ARC
  5
47D
330
1F
100
AcDbEntity
  8
Layer1
 62
    18
420
        0
370
   100
100
AcDbCircle
 10
45.95817035943212
 20
2.653660272454487
 30
0.0
 40
0.2705962500000014
100
AcDbArc
 50
250.7482191391231
 51
20.49638813912126
  0
ARC
  5
47E
330
1F
100
AcDbEntity
  8
Layer1
 62
    18
420
        0
370
   100
100
AcDbCircle
 10
45.87388970046559
 20
2.677846133174018
 30
0.0
 40
0.2796930000000004
100
AcDbArc
 50
143.4500611391221
 51
268.9880721391232
  0
LINE
  5
47F
330
1F
100
AcDbEntity
  8
Layer1
 62
    18
420
        0
370
   100
100
AcDbLine
 10
45.64920140945679
 20
2.844410220030575
 30
0.0
 11
45.73314124135199
 21
2.934184925276455
 31
0.0
  0
ARC
  5
480
330
1F
100
AcDbEntity
  8
Layer1
 62
    18
420
        0
370
   100
100
AcDbCircle
 10
45.71603025961105
 20
2.937055902059594
 30
0.0
 40
0.0173497500000037
100
AcDbArc
 50
350.474577139147
 51
126.4634021391037
  0
LINE
  5
481
330
1F
100
AcDbEntity
  8
Layer1
 62
    18
420
        0
370
   100
100
AcDbLine
 10
45.70571916314399
 20
2.951008964175589
 30
0.0
 11
45.67771834586789
 21
2.939191025923652
 31
0.0
  0
LINE
  5
482
330
1F
100
AcDbEntity
  8
Layer1
 62
    18
420
        0
370
   100
100
AcDbLine
 10
45.67771834586789
 20
2.939191025923652
 30
0.0
 11
45.64542584168617
 21
2.927018224311865
 31
0.0
  0
LINE
  5
483
330
1F
100
AcDbEntity
  8
Layer1
 62
    18
420
        0
370
   100
100
AcDbLine
 10
45.64542584168617
 20
2.927018224311865
 30
0.0
 11
45.61367477439636
 21
2.915538324274682
 31
0.0
  0
ARC
  5
484
330
1F
100
AcDbEntity
  8
Layer1
 62
    18
420
        0
370
   100
100
AcDbCircle
 10
45.74067971139519
 20
2.616118701399892
 30
0.0
 40
0.3252419999999687
100
AcDbArc
 50
112.9851941391194
 51
165.4996041391247
  0
ARC
  5
485
330
1F
100
AcDbEntity
  8
Layer1
 62
    18
420
        0
370
   100
100
AcDbCircle
 10
45.72518016703521
 20
2.563440516519515
 30
0.0
 40
0.328048874999902
100
AcDbArc
 50
155.8690161391188
 51
188.3465901391291
  0
LINE
  5
486
330
1F
100
AcDbEntity
  8
Layer1
 62
    18
420
        0
370
   100
100
AcDbLine
 10
45.40060529916776
 20
2.515820666620218
 30
0.0
 11
45.43629931505409
 21
2.4703521936427
 31
0.0
  0
ARC
  5
487
330
1F
100
AcDbEntity
  8
Layer1
 62
    18
420
        0
370
   100
100
AcDbCircle
 10
45.48195957498908
 20
2.471065921223988
 30
0.0
 40
0.0456660000000067
100
AcDbArc
 50
180.8954341391296
 51
277.1146791391142
  0
LINE
  5
488
330
1F
100
AcDbEntity
  8
Layer1
 62
    18
420
        0
370
   100
100
AcDbLine
 10
45.48761518694412
 20
2.425751596853036
 30
0.0
 11
45.64410551569994
 21
2.189603360636841
 31
0.0
  0
ARC
  5
489
330
1F
100
AcDbEntity
  8
Layer1
 62
    18
420
        0
370
   100
100
AcDbCircle
 10
44.98353080227567
 20
1.777116408365171
 30
0.0
 40
0.7787846249999397
100
AcDbArc
 50
340.7420101391201
 51
31.98211613912422
  0
ARC
  5
48A
330
1F
100
AcDbEntity
  8
Layer1
 62
    18
420
        0
370
   100
100
AcDbCircle
 10
45.3068034390806
 20
1.763149133194972
 30
0.0
 40
0.478210500000001
100
AcDbArc
 50
299.4252831391214
 51
329.4747111391214
  0
ARC
  5
48B
330
1F
100
AcDbEntity
  8
Layer1
 62
    18
420
        0
370
   100
100
AcDbCircle
 10
45.17446624663854
 20
2.041805534656675
 30
0.0
 40
0.7862332500000322
100
AcDbArc
 50
275.5108861391217
 51
297.8483811391209
  0
ARC
  5
48C
330
1F
100
AcDbEntity
  8
Layer1
 62
    18
420
        0
370
   100
100
AcDbCircle
 10
45.15492032110851
 20
1.904333812646721
 30
0.0
 40
0.652091625000018
100
AcDbArc
 50
220.295220139123
 51
278.3815371391216
  0
ARC
  5
48D
330
1F
100
AcDbEntity
  8
Layer1
 62
    18
420
        0
370
   100
100
AcDbCircle
 10
44.95783035121807
 20
1.725868637995604
 30
0.0
 40
0.3864453749999255
100
AcDbArc
 50
172.9767541391175
 51
219.0118291391274
  0
ARC
  5
48E
330
1F
100
AcDbEntity
  8
Layer1
 62
    18
420
        0
370
   100
100
AcDbCircle
 10
44.77191001457177
 20
1.81512184037197
 30
0.0
 40
0.2020387499999751
100
AcDbArc
 50
148.8651491391209
 51
191.9986171391265
  0
ARC
  5
48F
330
1F
100
AcDbEntity
  8
Layer1
 62
    18
420
        0
370
   100
100
AcDbCircle
 10
44.8098346053896
 20
1.917023692682404
 30
0.0
 40
0.2108767499999211
100
AcDbArc
 50
142.5078021391124
 51
179.3034201391266
  0
ARC
  5
490
330
1F
100
AcDbEntity
  8
Layer1
 62
    18
420
        0
370
   100
100
AcDbCircle
 10
45.65548375654522
 20
1.655750728038837
 30
0.0
 40
1.085314499999981
100
AcDbArc
 50
134.1563021391214
 51
158.9614771391222
  0
LINE
  5
491
330
1F
100
AcDbEntity
  8
Layer1
 62
    18
420
        0
370
   100
100
AcDbLine
 10
44.9907619580584
 20
2.523078357176018
 30
0.0
 11
44.89943434982897
 21
2.43440065608532
 31
0.0
  0
LINE
  5
492
330
1F
100
AcDbEntity
  8
Layer1
 62
    18
420
        0
370
   100
100
AcDbLine
 10
44.9907619580584
 20
2.523078357176018
 30
0.0
 11
45.05965011584433
 21
2.639229935512535
 31
0.0
  0
LINE
  5
493
330
1F
100
AcDbEntity
  8
Layer1
 62
    18
420
        0
370
   100
100
AcDbLine
 10
45.05965011584433
 20
2.639229935512535
 30
0.0
 11
45.10004472822224
 21
2.957774469237602
 31
0.0
  0
ARC
  5
494
330
1F
100
AcDbEntity
  8
Layer1
 62
    18
420
        0
370
   100
100
AcDbCircle
 10
43.91494540462849
 20
2.929554919584364
 30
0.0
 40
1.185436124999995
100
AcDbArc
 50
1.364078139122263
 51
46.64626213912221
  0
ARC
  5
495
330
1F
100
AcDbEntity
  8
Layer1
 62
    18
420
        0
370
   100
100
AcDbCircle
 10
45.05779402016805
 20
3.770491410848514
 30
0.0
 40
0.3297172499999486
100
AcDbArc
 50
176.3434301391178
 51
218.9331181391256
  0
LINE
  5
496
330
1F
100
AcDbEntity
  8
Layer1
 62
    18
420
        0
370
   100
100
AcDbLine
 10
44.80131301765728
 20
3.563293618180875
 30
0.0
 11
44.83307238459599
 21
3.258519915588597
 31
0.0
  0
ARC
  5
497
330
1F
100
AcDbEntity
  8
Layer1
 62
    18
420
        0
370
   100
100
AcDbCircle
 10
44.37494873025052
 20
3.265742152679809
 30
0.0
 40
0.4581809999999928
100
AcDbArc
 50
288.7463151391221
 51
359.0967521391229
  0
ARC
  5
498
330
1F
100
AcDbEntity
  8
Layer1
 62
    18
420
        0
370
   100
100
AcDbCircle
 10
44.42678817565971
 20
3.155981458772872
 30
0.0
 40
0.3378656249999982
100
AcDbArc
 50
192.7782281391214
 51
286.4028621391228
  0
ARC
  5
499
330
1F
100
AcDbEntity
  8
Layer1
 62
    18
420
        0
370
   100
100
AcDbCircle
 10
44.59121897627704
 20
3.202667101715067
 30
0.0
 40
0.5086327500001496
100
AcDbArc
 50
167.1877451391265
 51
193.8101651391188
  0
LINE
  5
49A
330
1F
100
AcDbEntity
  8
Layer1
 62
    18
420
        0
370
   100
100
AcDbLine
 10
44.09525048135992
 20
3.315460120659882
 30
0.0
 11
44.17969500314118
 21
3.545219370366013
 31
0.0
  0
LINE
  5
49B
330
1F
100
AcDbEntity
  8
Layer1
 62
    18
420
        0
370
   100
100
AcDbLine
 10
44.17969500314118
 20
3.545219370366013
 30
0.0
 11
44.2983157547071
 21
3.771258755789141
 31
0.0
  0
ARC
  5
49C
330
1F
100
AcDbEntity
  8
Layer1
 62
    18
420
        0
370
   100
100
AcDbCircle
 10
43.8325198122269
 20
4.186268131068799
 30
0.0
 40
0.6238586249998272
100
AcDbArc
 50
318.2999281391176
 51
347.0738011391256
  0
ARC
  5
49D
330
1F
100
AcDbEntity
  8
Layer1
 62
    18
420
        0
370
   100
100
AcDbCircle
 10
43.15989447535188
 20
4.410698936447446
 30
0.0
 40
1.331394750000079
100
AcDbArc
 50
344.1341361391209
 51
359.59724713912
  0
ARC
  5
49E
330
1F
100
AcDbEntity
  8
Layer1
 62
    18
420
        0
370
   100
100
AcDbCircle
 10
43.63309188303407
 20
4.494297411165237
 30
0.0
 40
0.863184374999978
100
AcDbArc
 50
353.8177721391214
 51
16.89174413912211
  0
ARC
  5
49F
330
1F
100
AcDbEntity
  8
Layer1
 62
    18
420
        0
370
   100
100
AcDbCircle
 10
42.9316790374892
 20
4.502945934095124
 30
0.0
 40
1.546435125000217
100
AcDbArc
 50
9.009264139123452
 51
30.45569113912061
  0
LINE
  5
4A0
330
1F
100
AcDbEntity
  8
Layer1
 62
    18
420
        0
370
   100
100
AcDbLine
 10
44.26473791461081
 20
5.286790136153442
 30
0.0
 11
44.09049100531582
 21
5.543219247179959
 31
0.0
  0
LINE
  5
4A1
330
1F
100
AcDbEntity
  8
Layer1
 62
    18
420
        0
370
   100
100
AcDbLine
 10
44.09049100531582
 20
5.543219247179959
 30
0.0
 11
44.1719907323321
 21
5.295361853819774
 31
0.0
  0
ARC
  5
4A2
330
1F
100
AcDbEntity
  8
Layer1
 62
    18
420
        0
370
   100
100
AcDbCircle
 10
42.84086191960467
 20
4.707089550913768
 30
0.0
 40
1.455324750000007
100
AcDbArc
 50
336.8723891391221
 51
23.84230013912206
  0
LINE
  5
4A3
330
1F
100
AcDbEntity
  8
Layer1
 62
    18
420
        0
370
   100
100
AcDbLine
 10
44.17922525590863
 20
4.135467154425946
 30
0.0
 11
44.01877499491436
 21
3.869586151340666
 31
0.0
  0
LINE
  5
4A4
330
1F
100
AcDbEntity
  8
Layer1
 62
    18
420
        0
370
   100
100
AcDbLine
 10
44.01877499491436
 20
3.869586151340666
 30
0.0
 11
43.81592309910459
 21
3.643494319981233
 31
0.0
  0
LINE
  5
4A5
330
1F
100
AcDbEntity
  8
Layer1
 62
    18
420
        0
370
   100
100
AcDbLine
 10
43.81592309910459
 20
3.643494319981233
 30
0.0
 11
43.70124855754977
 21
3.495656586752037
 31
0.0
  0
LINE
  5
4A6
330
1F
100
AcDbEntity
  8
Layer1
 62
    18
420
        0
370
   100
100
AcDbLine
 10
43.70124855754977
 20
3.495656586752037
 30
0.0
 11
43.60408218610071
 21
3.35575612899115
 31
0.0
  0
ARC
  5
4A7
330
1F
100
AcDbEntity
  8
Layer1
 62
    18
420
        0
370
   100
100
AcDbCircle
 10
44.00055322376621
 20
3.110966847199021
 30
0.0
 40
0.4659524999999584
100
AcDbArc
 50
148.3079881391192
 51
190.2278451391229
  0
ARC
  5
4A8
330
1F
100
AcDbEntity
  8
Layer1
 62
    18
420
        0
370
   100
100
AcDbCircle
 10
44.36959462296874
 20
3.19802440574184
 30
0.0
 40
0.844826625000001
100
AcDbArc
 50
191.594282139122
 51
215.250866139122
  0
ARC
  5
4A9
330
1F
100
AcDbEntity
  8
Layer1
 62
    18
420
        0
370
   100
100
AcDbCircle
 10
43.10079255141734
 20
2.042293661589018
 30
0.0
 40
0.8840317500000098
100
AcDbArc
 50
30.18336713912135
 51
49.09345613912118
  0
ARC
  5
4AA
330
1F
100
AcDbEntity
  8
Layer1
 62
    18
420
        0
370
   100
100
AcDbCircle
 10
43.40771341806079
 20
2.158565774101539
 30
0.0
 40
0.5628420000000665
100
AcDbArc
 50
4.801231139124146
 51
35.66870513912038
  0
LINE
  5
4AB
330
1F
100
AcDbEntity
  8
Layer1
 62
    18
420
        0
370
   100
100
AcDbLine
 10
43.96858079355086
 20
2.205675245911674
 30
0.0
 11
43.94379513751595
 21
2.074873637675267
 31
0.0
  0
ARC
  5
4AC
330
1F
100
AcDbEntity
  8
Layer1
 62
    18
420
        0
370
   100
100
AcDbCircle
 10
43.77619479697137
 20
2.166609733909219
 30
0.0
 40
0.1910643750000367
100
AcDbArc
 50
295.0152061391277
 51
331.3057541391202
  0
ARC
  5
4AD
330
1F
100
AcDbEntity
  8
Layer1
 62
    18
420
        0
370
   100
100
AcDbCircle
 10
43.6883173458961
 20
2.396039418971982
 30
0.0
 40
0.4364786249999681
100
AcDbArc
 50
242.5602341391201
 51
292.7329051391234
  0
ARC
  5
4AE
330
1F
100
AcDbEntity
  8
Layer1
 62
    18
420
        0
370
   100
100
AcDbCircle
 10
43.64310648545874
 20
2.270497426977193
 30
0.0
 40
0.3047422500000073
100
AcDbArc
 50
165.6905181391227
 51
239.2252271391214
  0
LINE
  5
4AF
330
1F
100
AcDbEntity
  8
Layer1
 62
    18
420
        0
370
   100
100
AcDbLine
 10
43.34782004904166
 20
2.345817196432236
 30
0.0
 11
43.42184975977784
 21
2.520737510536676
 31
0.0
  0
ARC
  5
4B0
330
1F
100
AcDbEntity
  8
Layer1
 62
    18
420
        0
370
   100
100
AcDbCircle
 10
43.43781414197376
 20
2.196008839233759
 30
0.0
 40
0.325120500000062
100
AcDbArc
 50
92.81451413912501
 51
124.1319151391197
  0
ARC
  5
4B1
330
1F
100
AcDbEntity
  8
Layer1
 62
    18
420
        0
370
   100
100
AcDbCircle
 10
43.32331739370581
 20
2.307831305861586
 30
0.0
 40
0.1713363749999778
100
AcDbArc
 50
113.3573151391185
 51
161.2881161391246
  0
ARC
  5
4B2
330
1F
100
AcDbEntity
  8
Layer1
 62
    18
420
        0
370
   100
100
AcDbCircle
 10
43.28671566800429
 20
2.255178077506158
 30
0.0
 40
0.1654593750000025
100
AcDbArc
 50
139.4260781391237
 51
192.0930331391234
  0
ARC
  5
4B3
330
1F
100
AcDbEntity
  8
Layer1
 62
    18
420
        0
370
   100
100
AcDbCircle
 10
43.37221692549853
 20
2.187378577969439
 30
0.0
 40
0.2495002499999595
100
AcDbArc
 50
172.3681371391178
 51
217.7763221391262
  0
ARC
  5
4B4
330
1F
100
AcDbEntity
  8
Layer1
 62
    18
420
        0
370
   100
100
AcDbCircle
 10
43.5221558277255
 20
2.11981856109622
 30
0.0
 40
0.3574665000000994
100
AcDbArc
 50
193.8017691391252
 51
220.7758431391179
  0
ARC
  5
4B5
330
1F
100
AcDbEntity
  8
Layer1
 62
    18
420
        0
370
   100
100
AcDbCircle
 10
41.60390361252434
 20
1.009146673322876
 30
0.0
 40
1.866527999999563
100
AcDbArc
 50
15.7702251391201
 51
28.03224913912297
  0
ARC
  5
4B6
330
1F
100
AcDbEntity
  8
Layer1
 62
   150
420
  2657520
370
   100
100
AcDbCircle
 10
42.74804955954396
 20
1.763324867007491
 30
0.0
 40
0.697296764886643
100
AcDbArc
 50
168.438082092579
 51
339.2634526545727
  0
ARC
  5
4B7
330
1F
100
AcDbEntity
  8
Layer1
 62
   150
420
  2657520
370
   100
100
AcDbCircle
 10
-0.7946562117326998
 20
1.218081953204702
 30
0.0
 40
1.545159762311872
100
AcDbArc
 50
322.9490694023741
 51
11.13298414804553
  0
ARC
  5
4B8
330
1F
100
AcDbEntity
  8
Layer1
 62
   150
420
  2657520
370
   100
100
AcDbCircle
 10
50.03560044800045
 20
3.052609426934109
 30
0.0
 40
3.193359022774304
100
AcDbArc
 50
185.3563746534798
 51
239.9997974430952
  0
LINE
  5
4B9
330
1F
100
AcDbEntity
  8
Layer1
 62
   150
420
  2657520
370
   100
100
AcDbLine
 10
0.4385361611384155
 20
0.2870850345416009
 30
0.0
 11
48.43891115968667
 21
0.2870850345416009
 31
0.0
  0
VIEWPORT
  5
45
330
1B
100
AcDbEntity
 67
     1
  8
0
100
AcDbViewport
 10
0.0
 20
0.0
 30
0.0
 40
1.0
 41
1.0
 68
     1
 69
     1
 12
0.0
 22
0.0
 13
0.0
 23
0.0
 14
0.5
 24
0.5
 15
0.0
 25
0.0
 16
0.0
 26
0.0
 36
1.0
 17
0.0
 27
0.0
 37
0.0
 42
50.0
 43
0.0
 44
0.0
 45
1.0
 50
0.0
 51
0.0
 72
   100
 90
   557152
  1

281
     0
 71
     1
 74
     0
110
0.0
120
0.0
130
0.0
111
1.0
121
0.0
131
0.0
112
0.0
122
1.0
132
0.0
 79
     0
146
0.0
170
     0
 61
     5
292
     1
282
     1
141
0.0
142
0.0
 63
   256
  0
ENDSEC
  0
SECTION
  2
OBJECTS
  0
DICTIONARY
  5
C
330
0
100
AcDbDictionary
281
     1
  3
ACAD_GROUP
350
D
  3
ACAD_LAYOUT
350
1A
  3
ACAD_MATERIAL
350
3B
  3
ACAD_MLEADERSTYLE
350
4BB
  3
ACAD_MLINESTYLE
350
17
  3
ACAD_PLOTSETTINGS
350
19
  3
ACAD_PLOTSTYLENAME
350
E
  3
ACAD_TABLESTYLE
350
4BA
  3
ACAD_VISUALSTYLE
350
2A
  0
DICTIONARY
  5
D
102
{ACAD_REACTORS
330
C
102
}
330
C
100
AcDbDictionary
281
     1
  0
DICTIONARY
  5
1A
102
{ACAD_REACTORS
330
C
102
}
330
C
100
AcDbDictionary
281
     1
  3
Layout1
350
1E
  3
Layout2
350
26
  3
Model
350
22
  0
DICTIONARY
  5
3B
102
{ACAD_REACTORS
330
C
102
}
330
C
100
AcDbDictionary
281
     1
  3
ByBlock
350
3D
  3
ByLayer
350
3C
  3
Global
350
3E
  0
DICTIONARY
  5
4BB
102
{ACAD_REACTORS
330
C
102
}
330
C
100
AcDbDictionary
281
     1
  0
DICTIONARY
  5
17
102
{ACAD_REACTORS
330
C
102
}
330
C
100
AcDbDictionary
281
     1
  3
Standard
350
18
  0
DICTIONARY
  5
19
102
{ACAD_REACTORS
330
C
102
}
330
C
100
AcDbDictionary
281
     1
  0
ACDBDICTIONARYWDFLT
  5
E
102
{ACAD_REACTORS
330
C
102
}
330
C
100
AcDbDictionary
281
     1
  3
Normal
350
F
100
AcDbDictionaryWithDefault
340
F
  0
DICTIONARY
  5
4BA
102
{ACAD_REACTORS
330
C
102
}
330
C
100
AcDbDictionary
281
     1
  0
DICTIONARY
  5
2A
102
{ACAD_REACTORS
330
C
102
}
330
C
100
AcDbDictionary
281
     1
  3
2dWireframe
350
2F
  3
3D Hidden
350
31
  3
3dWireframe
350
30
  3
Basic
350
32
  3
Brighten
350
36
  3
ColorChange
350
3A
  3
Conceptual
350
34
  3
Dim
350
35
  3
Facepattern
350
39
  3
Flat
350
2B
  3
FlatWithEdges
350
2C
  3
Gouraud
350
2D
  3
GouraudWithEdges
350
2E
  3
Linepattern
350
38
  3
Realistic
350
33
  3
Thicken
350
37
  0
LAYOUT
  5
1E
102
{ACAD_REACTORS
330
1A
102
}
330
1A
100
AcDbPlotSettings
  1

  2
none_device
  4

  6

 40
0.0
 41
0.0
 42
0.0
 43
0.0
 44
0.0
 45
0.0
 46
0.0
 47
0.0
 48
0.0
 49
0.0
140
0.0
141
0.0
142
1.0
143
1.0
 70
   688
 72
     0
 73
     0
 74
     5
  7

 75
    16
 76
     0
 77
     2
 78
   300
147
1.0
148
0.0
149
0.0
100
AcDbLayout
  1
Layout1
 70
     1
 71
     1
 10
0.0
 20
0.0
 11
12.0
 21
9.0
 12
0.0
 22
0.0
 32
0.0
 14
1.000000000000000E+20
 24
1.000000000000000E+20
 34
1.000000000000000E+20
 15
-1.000000000000000E+20
 25
-1.000000000000000E+20
 35
-1.000000000000000E+20
146
0.0
 13
0.0
 23
0.0
 33
0.0
 16
1.0
 26
0.0
 36
0.0
 17
0.0
 27
1.0
 37
0.0
 76
     0
330
1B
331
45
  0
LAYOUT
  5
26
102
{ACAD_REACTORS
330
1A
102
}
330
1A
100
AcDbPlotSettings
  1

  2
none_device
  4

  6

 40
0.0
 41
0.0
 42
0.0
 43
0.0
 44
0.0
 45
0.0
 46
0.0
 47
0.0
 48
0.0
 49
0.0
140
0.0
141
0.0
142
1.0
143
1.0
 70
   688
 72
     0
 73
     0
 74
     5
  7

 75
    16
 76
     0
 77
     2
 78
   300
147
1.0
148
0.0
149
0.0
100
AcDbLayout
  1
Layout2
 70
     1
 71
     2
 10
0.0
 20
0.0
 11
0.0
 21
0.0
 12
0.0
 22
0.0
 32
0.0
 14
0.0
 24
0.0
 34
0.0
 15
0.0
 25
0.0
 35
0.0
146
0.0
 13
0.0
 23
0.0
 33
0.0
 16
1.0
 26
0.0
 36
0.0
 17
0.0
 27
1.0
 37
0.0
 76
     0
330
23
  0
LAYOUT
  5
22
102
{ACAD_REACTORS
330
1A
102
}
330
1A
100
AcDbPlotSettings
  1

  2
none_device
  4

  6

 40
0.0
 41
0.0
 42
0.0
 43
0.0
 44
0.0
 45
0.0
 46
0.0
 47
0.0
 48
0.0
 49
0.0
140
0.0
141
0.0
142
1.0
143
1.0
 70
  1712
 72
     0
 73
     0
 74
     0
  7

 75
     0
 76
     0
 77
     2
 78
   300
147
1.0
148
0.0
149
0.0
100
AcDbLayout
  1
Model
 70
     1
 71
     0
 10
0.0
 20
0.0
 11
12.0
 21
9.0
 12
0.0
 22
0.0
 32
0.0
 14
-12.77994251251221
 24
-0.2529991567134857
 34
0.0
 15
48.43891143798828
 25
6.669440269470215
 35
2.745225132228258
146
0.0
 13
0.0
 23
0.0
 33
0.0
 16
1.0
 26
0.0
 36
0.0
 17
0.0
 27
1.0
 37
0.0
 76
     0
330
1F
331
29
  0
MATERIAL
  5
3D
102
{ACAD_REACTORS
330
3B
102
}
330
3B
100
AcDbMaterial
  1
ByBlock
 72
     1
 94
      127
  0
MATERIAL
  5
3C
102
{ACAD_REACTORS
330
3B
102
}
330
3B
100
AcDbMaterial
  1
ByLayer
 72
     1
 94
      127
  0
MATERIAL
  5
3E
102
{ACAD_REACTORS
330
3B
102
}
330
3B
100
AcDbMaterial
  1
Global
 72
     1
 94
      127
  0
MLINESTYLE
  5
18
102
{ACAD_REACTORS
330
17
102
}
330
17
100
AcDbMlineStyle
  2
Standard
 70
     0
  3

 62
   256
 51
90.0
 52
90.0
 71
     2
 49
0.5
 62
   256
  6
BYLAYER
 49
-0.5
 62
   256
  6
BYLAYER
  0
ACDBPLACEHOLDER
  5
F
102
{ACAD_REACTORS
330
E
102
}
330
E
  0
VISUALSTYLE
  5
2F
102
{ACAD_REACTORS
330
2A
102
}
330
2A
100
AcDbVisualStyle
  2
2dWireframe
 70
     4
177
     2
291
     0
 71
     0
176
     1
 72
     2
176
     1
 73
     0
176
     1
 90
        0
176
     1
 40
-0.6
176
     1
 41
-30.0
176
     1
 62
     5
 63
     7
421
 16777215
176
     1
 74
     1
176
     1
 91
        4
176
     1
 64
     7
176
     1
 65
   257
176
     1
 75
     1
176
     1
175
     1
176
     1
 42
1.0
176
     1
 92
        0
176
     1
 66
   257
176
     1
 43
1.0
176
     1
 76
     1
176
     1
 77
     6
176
     1
 78
     2
176
     1
 67
     7
176
     1
 79
     5
176
     1
170
     0
176
     1
171
     0
176
     1
290
     0
176
     1
 93
        1
176
     1
 44
0.0
176
     1
173
     0
176
     1
  0
VISUALSTYLE
  5
31
102
{ACAD_REACTORS
330
2A
102
}
330
2A
100
AcDbVisualStyle
  2
3D Hidden
 70
     6
177
     2
291
     0
 71
     1
176
     1
 72
     2
176
     1
 73
     2
176
     1
 90
        0
176
     1
 40
-0.6
176
     1
 41
-30.0
176
     1
 62
     5
 63
     7
421
 16777215
176
     1
 74
     2
176
     1
 91
        2
176
     1
 64
     7
176
     1
 65
   257
176
     1
 75
     2
176
     1
175
     1
176
     1
 42
40.0
176
     1
 92
        0
176
     1
 66
   257
176
     1
 43
1.0
176
     1
 76
     1
176
     1
 77
     6
176
     1
 78
     2
176
     1
 67
     7
176
     1
 79
     3
176
     1
170
     0
176
     1
171
     0
176
     1
290
     0
176
     1
 93
        1
176
     1
 44
0.0
176
     1
173
     0
176
     1
  0
VISUALSTYLE
  5
30
102
{ACAD_REACTORS
330
2A
102
}
330
2A
100
AcDbVisualStyle
  2
3dWireframe
 70
     5
177
     2
291
     0
 71
     0
176
     1
 72
     2
176
     1
 73
     0
176
     1
 90
        0
176
     1
 40
-0.6
176
     1
 41
-30.0
176
     1
 62
     5
 63
     7
421
 16777215
176
     1
 74
     1
176
     1
 91
        4
176
     1
 64
     7
176
     1
 65
   257
176
     1
 75
     1
176
     1
175
     1
176
     1
 42
1.0
176
     1
 92
        0
176
     1
 66
   257
176
     1
 43
1.0
176
     1
 76
     1
176
     1
 77
     6
176
     1
 78
     2
176
     1
 67
     7
176
     1
 79
     5
176
     1
170
     0
176
     1
171
     0
176
     1
290
     0
176
     1
 93
        1
176
     1
 44
0.0
176
     1
173
     0
176
     1
  0
VISUALSTYLE
  5
32
102
{ACAD_REACTORS
330
2A
102
}
330
2A
100
AcDbVisualStyle
  2
Basic
 70
     7
177
     2
291
     1
 71
     1
176
     1
 72
     0
176
     1
 73
     1
176
     1
 90
        0
176
     1
 40
-0.6
176
     1
 41
-30.0
176
     1
 62
     5
 63
     7
421
 16777215
176
     1
 74
     0
176
     1
 91
        4
176
     1
 64
     7
176
     1
 65
   257
176
     1
 75
     1
176
     1
175
     1
176
     1
 42
1.0
176
     1
 92
        8
176
     1
 66
     7
176
     1
 43
1.0
176
     1
 76
     1
176
     1
 77
     6
176
     1
 78
     2
176
     1
 67
     7
176
     1
 79
     5
176
     1
170
     0
176
     1
171
     0
176
     1
290
     0
176
     1
 93
        1
176
     1
 44
0.0
176
     1
173
     0
176
     1
  0
VISUALSTYLE
  5
36
102
{ACAD_REACTORS
330
2A
102
}
330
2A
100
AcDbVisualStyle
  2
Brighten
 70
    12
177
     2
291
     1
 71
     2
176
     1
 72
     2
176
     1
 73
     0
176
     1
 90
        0
176
     1
 40
-0.6
176
     1
 41
-30.0
176
     1
 62
     5
 63
     7
421
 16777215
176
     1
 74
     1
176
     1
 91
        4
176
     1
 64
     7
176
     1
 65
   257
176
     1
 75
     1
176
     1
175
     1
176
     1
 42
1.0
176
     1
 92
        8
176
     1
 66
     7
176
     1
 43
1.0
176
     1
 76
     1
176
     1
 77
     6
176
     1
 78
     2
176
     1
 67
     7
176
     1
 79
     5
176
     1
170
     0
176
     1
171
     0
176
     1
290
     0
176
     1
 93
        1
176
     1
 44
50.0
176
     1
173
     0
176
     1
  0
VISUALSTYLE
  5
3A
102
{ACAD_REACTORS
330
2A
102
}
330
2A
100
AcDbVisualStyle
  2
ColorChange
 70
    16
177
     2
291
     1
 71
     2
176
     1
 72
     2
176
     1
 73
     3
176
     1
 90
        0
176
     1
 40
-0.6
176
     1
 41
-30.0
176
     1
 62
     5
 63
     8
421
  8421504
176
     1
 74
     1
176
     1
 91
        4
176
     1
 64
     7
176
     1
 65
   257
176
     1
 75
     1
176
     1
175
     1
176
     1
 42
1.0
176
     1
 92
        8
176
     1
 66
     8
424
  8421504
176
     1
 43
1.0
176
     1
 76
     1
176
     1
 77
     6
176
     1
 78
     2
176
     1
 67
     7
176
     1
 79
     5
176
     1
170
     0
176
     1
171
     0
176
     1
290
     0
176
     1
 93
        1
176
     1
 44
0.0
176
     1
173
     0
176
     1
  0
VISUALSTYLE
  5
34
102
{ACAD_REACTORS
330
2A
102
}
330
2A
100
AcDbVisualStyle
  2
Conceptual
 70
     9
177
     2
291
     0
 71
     3
176
     1
 72
     2
176
     1
 73
     0
176
     1
 90
        0
176
     1
 40
-0.6
176
     1
 41
-30.0
176
     1
 62
     5
 63
     7
421
 16777215
176
     1
 74
     2
176
     1
 91
        2
176
     1
 64
     7
176
     1
 65
   257
176
     1
 75
     1
176
     1
175
     1
176
     1
 42
40.0
176
     1
 92
        8
176
     1
 66
     7
176
     1
 43
1.0
176
     1
 76
     1
176
     1
 77
     6
176
     1
 78
     2
176
     1
 67
     7
176
     1
 79
     3
176
     1
170
     0
176
     1
171
     0
176
     1
290
     0
176
     1
 93
        1
176
     1
 44
0.0
176
     1
173
     0
176
     1
  0
VISUALSTYLE
  5
35
102
{ACAD_REACTORS
330
2A
102
}
330
2A
100
AcDbVisualStyle
  2
Dim
 70
    11
177
     2
291
     1
 71
     2
176
     1
 72
     2
176
     1
 73
     0
176
     1
 90
        0
176
     1
 40
-0.6
176
     1
 41
-30.0
176
     1
 62
     5
 63
     7
421
 16777215
176
     1
 74
     1
176
     1
 91
        4
176
     1
 64
     7
176
     1
 65
   257
176
     1
 75
     1
176
     1
175
     1
176
     1
 42
1.0
176
     1
 92
        8
176
     1
 66
     7
176
     1
 43
1.0
176
     1
 76
     1
176
     1
 77
     6
176
     1
 78
     2
176
     1
 67
     7
176
     1
 79
     5
176
     1
170
     0
176
     1
171
     0
176
     1
290
     0
176
     1
 93
        1
176
     1
 44
-50.0
176
     1
173
     0
176
     1
  0
VISUALSTYLE
  5
39
102
{ACAD_REACTORS
330
2A
102
}
330
2A
100
AcDbVisualStyle
  2
Facepattern
 70
    15
177
     2
291
     1
 71
     2
176
     1
 72
     2
176
     1
 73
     0
176
     1
 90
        0
176
     1
 40
-0.6
176
     1
 41
-30.0
176
     1
 62
     5
 63
     7
421
 16777215
176
     1
 74
     1
176
     1
 91
        4
176
     1
 64
     7
176
     1
 65
   257
176
     1
 75
     1
176
     1
175
     1
176
     1
 42
1.0
176
     1
 92
        8
176
     1
 66
     7
176
     1
 43
1.0
176
     1
 76
     1
176
     1
 77
     6
176
     1
 78
     2
176
     1
 67
     7
176
     1
 79
     5
176
     1
170
     0
176
     1
171
     0
176
     1
290
     0
176
     1
 93
        1
176
     1
 44
0.0
176
     1
173
     0
176
     1
  0
VISUALSTYLE
  5
2B
102
{ACAD_REACTORS
330
2A
102
}
330
2A
100
AcDbVisualStyle
  2
Flat
 70
     0
177
     2
291
     1
 71
     2
176
     1
 72
     1
176
     1
 73
     1
176
     1
 90
        2
176
     1
 40
-0.6
176
     1
 41
30.0
176
     1
 62
     5
 63
     7
421
 16777215
176
     1
 74
     0
176
     1
 91
        4
176
     1
 64
     7
176
     1
 65
   257
176
     1
 75
     1
176
     1
175
     1
176
     1
 42
1.0
176
     1
 92
        8
176
     1
 66
     7
176
     1
 43
1.0
176
     1
 76
     1
176
     1
 77
     6
176
     1
 78
     2
176
     1
 67
     7
176
     1
 79
     5
176
     1
170
     0
176
     1
171
     0
176
     1
290
     0
176
     1
 93
       13
176
     1
 44
0.0
176
     1
173
     0
176
     1
  0
VISUALSTYLE
  5
2C
102
{ACAD_REACTORS
330
2A
102
}
330
2A
100
AcDbVisualStyle
  2
FlatWithEdges
 70
     1
177
     2
291
     1
 71
     2
176
     1
 72
     1
176
     1
 73
     1
176
     1
 90
        2
176
     1
 40
-0.6
176
     1
 41
30.0
176
     1
 62
     5
 63
     7
421
 16777215
176
     1
 74
     1
176
     1
 91
        4
176
     1
 64
     7
176
     1
 65
   257
176
     1
 75
     1
176
     1
175
     1
176
     1
 42
1.0
176
     1
 92
        0
176
     1
 66
   257
176
     1
 43
1.0
176
     1
 76
     1
176
     1
 77
     6
176
     1
 78
     2
176
     1
 67
     7
176
     1
 79
     5
176
     1
170
     0
176
     1
171
     0
176
     1
290
     0
176
     1
 93
       13
176
     1
 44
0.0
176
     1
173
     0
176
     1
  0
VISUALSTYLE
  5
2D
102
{ACAD_REACTORS
330
2A
102
}
330
2A
100
AcDbVisualStyle
  2
Gouraud
 70
     2
177
     2
291
     1
 71
     2
176
     1
 72
     2
176
     1
 73
     1
176
     1
 90
        2
176
     1
 40
-0.6
176
     1
 41
30.0
176
     1
 62
     5
 63
     7
421
 16777215
176
     1
 74
     0
176
     1
 91
        4
176
     1
 64
     7
176
     1
 65
   257
176
     1
 75
     1
176
     1
175
     1
176
     1
 42
1.0
176
     1
 92
        0
176
     1
 66
     7
176
     1
 43
1.0
176
     1
 76
     1
176
     1
 77
     6
176
     1
 78
     2
176
     1
 67
     7
176
     1
 79
     5
176
     1
170
     0
176
     1
171
     0
176
     1
290
     0
176
     1
 93
       13
176
     1
 44
0.0
176
     1
173
     0
176
     1
  0
VISUALSTYLE
  5
2E
102
{ACAD_REACTORS
330
2A
102
}
330
2A
100
AcDbVisualStyle
  2
GouraudWithEdges
 70
     3
177
     2
291
     1
 71
     2
176
     1
 72
     2
176
     1
 73
     1
176
     1
 90
        2
176
     1
 40
-0.6
176
     1
 41
30.0
176
     1
 62
     5
 63
     7
421
 16777215
176
     1
 74
     1
176
     1
 91
        4
176
     1
 64
     7
176
     1
 65
   257
176
     1
 75
     1
176
     1
175
     1
176
     1
 42
1.0
176
     1
 92
        0
176
     1
 66
   257
176
     1
 43
1.0
176
     1
 76
     1
176
     1
 77
     6
176
     1
 78
     2
176
     1
 67
     7
176
     1
 79
     5
176
     1
170
     0
176
     1
171
     0
176
     1
290
     0
176
     1
 93
       13
176
     1
 44
0.0
176
     1
173
     0
176
     1
  0
VISUALSTYLE
  5
38
102
{ACAD_REACTORS
330
2A
102
}
330
2A
100
AcDbVisualStyle
  2
Linepattern
 70
    14
177
     2
291
     1
 71
     2
176
     1
 72
     2
176
     1
 73
     0
176
     1
 90
        0
176
     1
 40
-0.6
176
     1
 41
-30.0
176
     1
 62
     5
 63
     7
421
 16777215
176
     1
 74
     1
176
     1
 91
        4
176
     1
 64
     7
176
     1
 65
   257
176
     1
 75
     7
176
     1
175
     7
176
     1
 42
1.0
176
     1
 92
        8
176
     1
 66
     7
176
     1
 43
1.0
176
     1
 76
     1
176
     1
 77
     6
176
     1
 78
     2
176
     1
 67
     7
176
     1
 79
     5
176
     1
170
     0
176
     1
171
     0
176
     1
290
     0
176
     1
 93
        1
176
     1
 44
0.0
176
     1
173
     0
176
     1
  0
VISUALSTYLE
  5
33
102
{ACAD_REACTORS
330
2A
102
}
330
2A
100
AcDbVisualStyle
  2
Realistic
 70
     8
177
     2
291
     0
 71
     2
176
     1
 72
     2
176
     1
 73
     0
176
     1
 90
        0
176
     1
 40
-0.6
176
     1
 41
-30.0
176
     1
 62
     5
 63
     7
421
 16777215
176
     1
 74
     1
176
     1
 91
        0
176
     1
 64
     7
176
     1
 65
   257
176
     1
 75
     1
176
     1
175
     1
176
     1
 42
1.0
176
     1
 92
        8
176
     1
 66
     8
424
  7895160
176
     1
 43
1.0
176
     1
 76
     1
176
     1
 77
     6
176
     1
 78
     2
176
     1
 67
     7
176
     1
 79
     5
176
     1
170
     0
176
     1
171
     0
176
     1
290
     0
176
     1
 93
       13
176
     1
 44
0.0
176
     1
173
     0
176
     1
  0
VISUALSTYLE
  5
37
102
{ACAD_REACTORS
330
2A
102
}
330
2A
100
AcDbVisualStyle
  2
Thicken
 70
    13
177
     2
291
     1
 71
     2
176
     1
 72
     2
176
     1
 73
     0
176
     1
 90
        0
176
     1
 40
-0.6
176
     1
 41
-30.0
176
     1
 62
     5
 63
     7
421
 16777215
176
     1
 74
     1
176
     1
 91
        4
176
     1
 64
     7
176
     1
 65
   257
176
     1
 75
     1
176
     1
175
     1
176
     1
 42
1.0
176
     1
 92
       12
176
     1
 66
     7
176
     1
 43
1.0
176
     1
 76
     1
176
     1
 77
     6
176
     1
 78
     2
176
     1
 67
     7
176
     1
 79
     5
176
     1
170
     0
176
     1
171
     0
176
     1
290
     0
176
     1
 93
        1
176
     1
 44
0.0
176
     1
173
     0
176
     1
  0
ENDSEC
  0
EOF
