  0
SECTION
  2
HEADER
  9
$ACADVER
  1
AC1009
  0
ENDSEC
  0
SECTION
  2
BLOCKS
  0
ENDSEC
  0
SECTION
  2
ENTITIES
  0
LINE
  8
CutLine
  6
CONTINUOUS
 62
8
 10
173.947489
 20
258.764636
 11
169.382247
 21
272.349006
  0
LINE
  8
CutLine
  6
CONTINUOUS
 62
8
 10
169.382247
 20
272.349006
 11
139.569119
 21
240.545367
  0
LINE
  8
MountainLine
  6
CONTINUOUS
 62
5
 10
139.569119
 20
240.545367
 11
173.947489
 21
258.764636
  0
LINE
  8
CutLine
  6
CONTINUOUS
 62
8
 10
159.327895
 20
234.411979
 11
173.947489
 21
258.764636
  0
LINE
  8
CutLine
  6
CONTINUOUS
 62
8
 10
152.457104
 20
196.601024
 11
159.327895
 21
234.411979
  0
LINE
  8
CutLine
  6
CONTINUOUS
 62
8
 10
176.665412
 20
157.631309
 11
152.457104
 21
196.601024
  0
LINE
  8
CutLine
  6
CONTINUOUS
 62
8
 10
139.569119
 20
240.545367
 11
97.457298
 21
226.125126
  0
LINE
  8
CutLine
  6
CONTINUOUS
 62
8
 10
97.457298
 20
226.125126
 11
69.681300
 21
185.297319
  0
LINE
  8
CutLine
  6
CONTINUOUS
 62
8
 10
58.370036
 20
143.873768
 11
127.986250
 21
163.977983
  0
LINE
  8
CutLine
  6
CONTINUOUS
 62
8
 10
52.133251
 20
98.362543
 11
71.259578
 21
66.364109
  0
LINE
  8
CutLine
  6
CONTINUOUS
 62
8
 10
93.916129
 20
102.363520
 11
52.133251
 21
98.362543
  0
LINE
  8
CutLine
  6
CONTINUOUS
 62
8
 10
87.479559
 20
34.010584
 11
136.484724
 21
62.374027
  0
LINE
  8
CutLine
  6
CONTINUOUS
 62
8
 10
177.353736
 20
123.591147
 11
176.665412
 21
157.631309
  0
LINE
  8
CutLine
  6
CONTINUOUS
 62
8
 10
168.846621
 20
82.406326
 11
177.353736
 21
123.591147
  0
LINE
  8
CutLine
  6
CONTINUOUS
 62
8
 10
175.545359
 20
5.817339
 11
233.510980
 21
6.079377
  0
LINE
  8
ValleyLine
  6
CONTINUOUS
 62
1
 10
233.510980
 20
6.079377
 11
180.580249
 21
44.358787
  0
LINE
  8
CutLine
  6
CONTINUOUS
 62
8
 10
180.580249
 20
44.358787
 11
168.846621
 21
82.406326
  0
LINE
  8
CutLine
  6
CONTINUOUS
 62
8
 10
136.484724
 20
62.374027
 11
88.029336
 21
33.081256
  0
LINE
  8
CutLine
  6
CONTINUOUS
 62
8
 10
88.029336
 20
33.081256
 11
120.219235
 21
8.704404
  0
LINE
  8
CutLine
  6
CONTINUOUS
 62
8
 10
120.219235
 20
8.704404
 11
175.545359
 21
5.817339
  0
LINE
  8
CutLine
  6
CONTINUOUS
 62
8
 10
217.605095
 20
30.671935
 11
180.580249
 21
44.358787
  0
LINE
  8
CutLine
  6
CONTINUOUS
 62
8
 10
233.510980
 20
6.079377
 11
217.605095
 21
30.671935
  0
LINE
  8
CutLine
  6
CONTINUOUS
 62
8
 10
135.969977
 20
115.955875
 11
93.916129
 21
102.363520
  0
LINE
  8
CutLine
  6
CONTINUOUS
 62
8
 10
91.836084
 20
113.615421
 11
135.969977
 21
115.955875
  0
LINE
  8
CutLine
  6
CONTINUOUS
 62
8
 10
127.986250
 20
163.977983
 11
57.998126
 21
145.209411
  0
LINE
  8
CutLine
  6
CONTINUOUS
 62
8
 10
50.101071
 20
109.142677
 11
91.836084
 21
113.615421
  0
LINE
  8
CutLine
  6
CONTINUOUS
 62
8
 10
71.259578
 20
66.364109
 11
87.479559
 21
34.010584
  0
LINE
  8
CutLine
  6
CONTINUOUS
 62
8
 10
57.998126
 20
145.209411
 11
50.101071
 21
109.142677
  0
LINE
  8
CutLine
  6
CONTINUOUS
 62
8
 10
69.681300
 20
185.297319
 11
58.370036
 21
143.873768
  0
ENDSEC
  0
EOF
