  0
SECTION
  2
HEADER
  9
$ACADVER
  1
AC1014
  9
$HANDSEED
  5
FFFF
  9
$MEASUREMENT
 70
     1
  0
ENDSEC
  0
SECTION
  2
TABLES
  0
TABLE
  2
VPORT
  5
8
330
0
100
AcDbSymbolTable
 70
     4
  0
VPORT
  5
2E
330
8
100
AcDbSymbolTableRecord
100
AcDbViewportTableRecord
  2
*ACTIVE
 70
     0
 10
0.0
 20
0.0
 11
1.0
 21
1.0
 12
210.0
 22
148.5
 13
0.0
 23
0.0
 14
10.0
 24
10.0
 15
10.0
 25
10.0
 16
0.0
 26
0.0
 36
1.0
 17
0.0
 27
0.0
 37
0.0
 40
341.0
 41
1.24
 42
50.0
 43
0.0
 44
0.0
 50
0.0
 51
0.0
 71
     0
 72
   100
 73
     1
 74
     3
 75
     0
 76
     0
 77
     0
 78
     0
  0
ENDTAB
  0
TABLE
  2
LTYPE
  5
5
330
0
100
AcDbSymbolTable
 70
     1
  0
LTYPE
  5
14
330
5
100
AcDbSymbolTableRecord
100
AcDbLinetypeTableRecord
  2
BYBLOCK
 70
     0
  3

 72
    65
 73
     0
 40
0.0
  0
LTYPE
  5
15
330
5
100
AcDbSymbolTableRecord
100
AcDbLinetypeTableRecord
  2
BYLAYER
 70
     0
  3

 72
    65
 73
     0
 40
0.0
  0
LTYPE
  5
16
330
5
100
AcDbSymbolTableRecord
100
AcDbLinetypeTableRecord
  2
CONTINUOUS
 70
     0
  3
Solid line
 72
    65
 73
     0
 40
0.0
  0
ENDTAB
  0
TABLE
  2
LAYER
  5
2
100
AcDbSymbolTable
 70
2
  0
LAYER
  5
50
100
AcDbSymbolTableRecord
100
AcDbLayerTableRecord
  2
0
 70
0
  6
CONTINUOUS
  0
LAYER
  5
51
100
AcDbSymbolTableRecord
100
AcDbLayerTableRecord
  2
Layer_1
 70
0
  6
CONTINUOUS
  0
ENDTAB
  0
TABLE
  2
STYLE
  5
3
330
0
100
AcDbSymbolTable
 70
     1
  0
STYLE
  5
11
330
3
100
AcDbSymbolTableRecord
100
AcDbTextStyleTableRecord
  2
STANDARD
 70
     0
 40
0.0
 41
1.0
 50
0.0
 71
     0
 42
2.5
  3
txt
  4

  0
ENDTAB
  0
TABLE
  2
VIEW
  5
6
330
0
100
AcDbSymbolTable
 70
     0
  0
ENDTAB
  0
TABLE
  2
UCS
  5
7
330
0
100
AcDbSymbolTable
 70
     0
  0
ENDTAB
  0
TABLE
  2
APPID
  5
9
330
0
100
AcDbSymbolTable
 70
     2
  0
APPID
  5
12
330
9
100
AcDbSymbolTableRecord
100
AcDbRegAppTableRecord
  2
ACAD
 70
     0
  0
ENDTAB
  0
TABLE
  2
DIMSTYLE
  5
A
330
0
100
AcDbSymbolTable
 70
     1
  0
DIMSTYLE
105
27
330
A
100
AcDbSymbolTableRecord
100
AcDbDimStyleTableRecord
  2
ISO-25
 70
     0
  3

  4

  5

  6

  7

 40
1.0
 41
2.5
 42
0.625
 43
3.75
 44
1.25
 45
0.0
 46
0.0
 47
0.0
 48
0.0
140
2.5
141
2.5
142
0.0
143
0.03937007874016
144
1.0
145
0.0
146
1.0
147
0.625
 71
     0
 72
     0
 73
     0
 74
     0
 75
     0
 76
     0
 77
     1
 78
     8
170
     0
171
     3
172
     1
173
     0
174
     0
175
     0
176
     0
177
     0
178
     0
270
     2
271
     2
272
     2
273
     2
274
     3
340
11
275
     0
280
     0
281
     0
282
     0
283
     0
284
     8
285
     0
286
     0
287
     3
288
     0
  0
ENDTAB
  0
TABLE
  2
BLOCK_RECORD
  5
1
330
0
100
AcDbSymbolTable
 70
     1
  0
BLOCK_RECORD
  5
1F
330
1
100
AcDbSymbolTableRecord
100
AcDbBlockTableRecord
  2
*MODEL_SPACE
  0
BLOCK_RECORD
  5
1B
330
1
100
AcDbSymbolTableRecord
100
AcDbBlockTableRecord
  2
*PAPER_SPACE
  0
ENDTAB
  0
ENDSEC
  0
SECTION
  2
BLOCKS
  0
BLOCK
  5
20
330
1F
100
AcDbEntity
  8
0
100
AcDbBlockBegin
  2
*MODEL_SPACE
 70
     0
 10
0.0
 20
0.0
 30
0.0
  3
*MODEL_SPACE
  1

  0
ENDBLK
  5
21
330
1F
100
AcDbEntity
  8
0
100
AcDbBlockEnd
  0
BLOCK
  5
1C
330
1B
100
AcDbEntity
 67
     1
  8
0
100
AcDbBlockBegin
  2
*PAPER_SPACE
  1

  0
ENDBLK
  5
1D
330
1B
100
AcDbEntity
 67
     1
  8
0
100
AcDbBlockEnd
  0
ENDSEC
  0
SECTION
  2
ENTITIES
  0
LINE
  5
100
100
AcDbEntity
  8
Layer_1
 62
6
100
AcDbLine
 10
198.407510
 20
250.372839
 30
0.0
 11
198.407510
 21
239.696880
 31
0.0
  0
LINE
  5
101
100
AcDbEntity
  8
Layer_1
 62
6
100
AcDbLine
 10
198.407510
 20
239.696880
 30
0.0
 11
198.407510
 21
239.587790
 31
0.0
  0
LINE
  5
102
100
AcDbEntity
  8
Layer_1
 62
6
100
AcDbLine
 10
198.407510
 20
239.587790
 30
0.0
 11
198.407510
 21
45.013630
 31
0.0
  0
LINE
  5
103
100
AcDbEntity
  8
Layer_1
 62
6
100
AcDbLine
 10
198.407510
 20
45.013630
 30
0.0
 11
38.898436
 21
44.912960
 31
0.0
  0
LINE
  5
104
100
AcDbEntity
  8
Layer_1
 62
6
100
AcDbLine
 10
38.898436
 20
44.912960
 30
0.0
 11
31.469528
 21
44.812310
 31
0.0
  0
SPLINE
  5
105
100
AcDbEntity
  8
Layer_1
 62
6
100
AcDbSpline
 70
8
 71
3
 72
8
 73
4
 74
0
 40
0
 40
0
 40
0
 40
0
 40
1
 40
1
 40
1
 40
1
 10
31.469528
 20
44.812310
 30
0.0
 10
29.807522
 20
44.812310
 30
0.0
 10
28.469534
 20
46.150310
 30
0.0
 10
28.469534
 20
47.812310
 30
0.0
  0
LINE
  5
106
100
AcDbEntity
  8
Layer_1
 62
6
100
AcDbLine
 10
28.469534
 20
47.812310
 30
0.0
 11
28.469534
 21
247.316479
 31
0.0
  0
SPLINE
  5
107
100
AcDbEntity
  8
Layer_1
 62
6
100
AcDbSpline
 70
8
 71
3
 72
8
 73
4
 74
0
 40
0
 40
0
 40
0
 40
0
 40
1
 40
1
 40
1
 40
1
 10
28.469534
 20
247.316479
 30
0.0
 10
28.469534
 20
248.978460
 30
0.0
 10
29.807550
 20
250.310160
 30
0.0
 10
31.469528
 20
250.316490
 30
0.0
  0
LINE
  5
108
100
AcDbEntity
  8
Layer_1
 62
6
100
AcDbLine
 10
31.469528
 20
250.316490
 30
0.0
 11
38.898436
 21
250.344680
 31
0.0
  0
LINE
  5
109
100
AcDbEntity
  8
Layer_1
 62
6
100
AcDbLine
 10
38.898436
 20
250.344680
 30
0.0
 11
198.407510
 21
250.372839
 31
0.0
  0
SPLINE
  5
10a
100
AcDbEntity
  8
Layer_1
 62
1
100
AcDbSpline
 70
8
 71
3
 72
8
 73
4
 74
0
 40
0
 40
0
 40
0
 40
0
 40
1
 40
1
 40
1
 40
1
 10
117.205090
 20
241.338993
 30
0.0
 10
117.205090
 20
241.750079
 30
0.0
 10
117.368393
 20
242.144327
 30
0.0
 10
117.659074
 20
242.435009
 30
0.0
  0
SPLINE
  5
10b
100
AcDbEntity
  8
Layer_1
 62
1
100
AcDbSpline
 70
8
 71
3
 72
8
 73
4
 74
0
 40
0
 40
0
 40
0
 40
0
 40
1
 40
1
 40
1
 40
1
 10
117.659074
 20
242.435009
 30
0.0
 10
117.949756
 20
242.725690
 30
0.0
 10
118.344004
 20
242.888993
 30
0.0
 10
118.755090
 20
242.888993
 30
0.0
  0
SPLINE
  5
10c
100
AcDbEntity
  8
Layer_1
 62
1
100
AcDbSpline
 70
8
 71
3
 72
8
 73
4
 74
0
 40
0
 40
0
 40
0
 40
0
 40
1
 40
1
 40
1
 40
1
 10
118.755090
 20
242.888993
 30
0.0
 10
119.166176
 20
242.888993
 30
0.0
 10
119.560424
 20
242.725690
 30
0.0
 10
119.851106
 20
242.435009
 30
0.0
  0
SPLINE
  5
10d
100
AcDbEntity
  8
Layer_1
 62
1
100
AcDbSpline
 70
8
 71
3
 72
8
 73
4
 74
0
 40
0
 40
0
 40
0
 40
0
 40
1
 40
1
 40
1
 40
1
 10
119.851106
 20
242.435009
 30
0.0
 10
120.141787
 20
242.144327
 30
0.0
 10
120.305090
 20
241.750079
 30
0.0
 10
120.305090
 20
241.338993
 30
0.0
  0
SPLINE
  5
10e
100
AcDbEntity
  8
Layer_1
 62
1
100
AcDbSpline
 70
8
 71
3
 72
8
 73
4
 74
0
 40
0
 40
0
 40
0
 40
0
 40
1
 40
1
 40
1
 40
1
 10
120.305090
 20
241.338993
 30
0.0
 10
120.305090
 20
240.927908
 30
0.0
 10
120.141787
 20
240.533659
 30
0.0
 10
119.851105
 20
240.242978
 30
0.0
  0
SPLINE
  5
10f
100
AcDbEntity
  8
Layer_1
 62
1
100
AcDbSpline
 70
8
 71
3
 72
8
 73
4
 74
0
 40
0
 40
0
 40
0
 40
0
 40
1
 40
1
 40
1
 40
1
 10
119.851105
 20
240.242978
 30
0.0
 10
119.560424
 20
239.952297
 30
0.0
 10
119.166175
 20
239.788994
 30
0.0
 10
118.755090
 20
239.788994
 30
0.0
  0
SPLINE
  5
110
100
AcDbEntity
  8
Layer_1
 62
1
100
AcDbSpline
 70
8
 71
3
 72
8
 73
4
 74
0
 40
0
 40
0
 40
0
 40
0
 40
1
 40
1
 40
1
 40
1
 10
118.755090
 20
239.788994
 30
0.0
 10
118.344005
 20
239.788994
 30
0.0
 10
117.949756
 20
239.952297
 30
0.0
 10
117.659075
 20
240.242978
 30
0.0
  0
SPLINE
  5
111
100
AcDbEntity
  8
Layer_1
 62
1
100
AcDbSpline
 70
8
 71
3
 72
8
 73
4
 74
0
 40
0
 40
0
 40
0
 40
0
 40
1
 40
1
 40
1
 40
1
 10
117.659075
 20
240.242978
 30
0.0
 10
117.368393
 20
240.533659
 30
0.0
 10
117.205090
 20
240.927908
 30
0.0
 10
117.205090
 20
241.338993
 30
0.0
  0
LINE
  5
112
100
AcDbEntity
  8
Layer_1
 62
1
100
AcDbLine
 10
117.205090
 20
241.338993
 30
0.0
 11
117.205090
 21
241.338993
 31
0.0
  0
SPLINE
  5
113
100
AcDbEntity
  8
Layer_1
 62
7
100
AcDbSpline
 70
8
 71
3
 72
8
 73
4
 74
0
 40
0
 40
0
 40
0
 40
0
 40
1
 40
1
 40
1
 40
1
 10
50.711512
 20
230.647984
 30
0.0
 10
50.702364
 20
226.970618
 30
0.0
 10
47.727618
 20
223.989645
 30
0.0
 10
44.050279
 20
223.972808
 30
0.0
  0
SPLINE
  5
114
100
AcDbEntity
  8
Layer_1
 62
7
100
AcDbSpline
 70
8
 71
3
 72
8
 73
4
 74
0
 40
0
 40
0
 40
0
 40
0
 40
1
 40
1
 40
1
 40
1
 10
44.050279
 20
223.972808
 30
0.0
 10
44.050279
 20
223.972808
 30
0.0
 10
44.050279
 20
183.656120
 30
0.0
 10
44.050279
 20
183.656120
 30
0.0
  0
SPLINE
  5
115
100
AcDbEntity
  8
Layer_1
 62
7
100
AcDbSpline
 70
8
 71
3
 72
8
 73
4
 74
0
 40
0
 40
0
 40
0
 40
0
 40
1
 40
1
 40
1
 40
1
 10
44.050279
 20
183.656120
 30
0.0
 10
47.709322
 20
183.607140
 30
0.0
 10
50.650455
 20
180.628120
 30
0.0
 10
50.652601
 20
176.968750
 30
0.0
  0
SPLINE
  5
116
100
AcDbEntity
  8
Layer_1
 62
7
100
AcDbSpline
 70
8
 71
3
 72
8
 73
4
 74
0
 40
0
 40
0
 40
0
 40
0
 40
1
 40
1
 40
1
 40
1
 10
50.652601
 20
176.968750
 30
0.0
 10
50.650966
 20
176.930270
 30
0.0
 10
50.649000
 20
176.891806
 30
0.0
 10
50.646701
 20
176.853360
 30
0.0
  0
SPLINE
  5
117
100
AcDbEntity
  8
Layer_1
 62
7
100
AcDbSpline
 70
8
 71
3
 72
8
 73
4
 74
0
 40
0
 40
0
 40
0
 40
0
 40
1
 40
1
 40
1
 40
1
 10
50.646701
 20
176.853360
 30
0.0
 10
50.646701
 20
176.853360
 30
0.0
 10
186.743370
 20
176.853360
 30
0.0
 10
186.743370
 20
176.853360
 30
0.0
  0
SPLINE
  5
118
100
AcDbEntity
  8
Layer_1
 62
7
100
AcDbSpline
 70
8
 71
3
 72
8
 73
4
 74
0
 40
0
 40
0
 40
0
 40
0
 40
1
 40
1
 40
1
 40
1
 10
186.743370
 20
176.853360
 30
0.0
 10
186.740601
 20
176.911895
 30
0.0
 10
186.738601
 20
176.970463
 30
0.0
 10
186.737370
 20
177.029050
 30
0.0
  0
SPLINE
  5
119
100
AcDbEntity
  8
Layer_1
 62
7
100
AcDbSpline
 70
8
 71
3
 72
8
 73
4
 74
0
 40
0
 40
0
 40
0
 40
0
 40
1
 40
1
 40
1
 40
1
 10
186.737370
 20
177.029050
 30
0.0
 10
186.737365
 20
178.803856
 30
0.0
 10
187.442403
 20
180.505972
 30
0.0
 10
188.697380
 20
181.760950
 30
0.0
  0
SPLINE
  5
11a
100
AcDbEntity
  8
Layer_1
 62
7
100
AcDbSpline
 70
8
 71
3
 72
8
 73
4
 74
0
 40
0
 40
0
 40
0
 40
0
 40
1
 40
1
 40
1
 40
1
 10
188.697380
 20
181.760950
 30
0.0
 10
189.952358
 20
183.015927
 30
0.0
 10
191.654474
 20
183.720965
 30
0.0
 10
193.429280
 20
183.720960
 30
0.0
  0
SPLINE
  5
11b
100
AcDbEntity
  8
Layer_1
 62
7
100
AcDbSpline
 70
8
 71
3
 72
8
 73
4
 74
0
 40
0
 40
0
 40
0
 40
0
 40
1
 40
1
 40
1
 40
1
 10
193.429280
 20
183.720960
 30
0.0
 10
193.439514
 20
183.720650
 30
0.0
 10
193.449747
 20
183.720317
 30
0.0
 10
193.459980
 20
183.719960
 30
0.0
  0
SPLINE
  5
11c
100
AcDbEntity
  8
Layer_1
 62
7
100
AcDbSpline
 70
8
 71
3
 72
8
 73
4
 74
0
 40
0
 40
0
 40
0
 40
0
 40
1
 40
1
 40
1
 40
1
 10
193.459980
 20
183.719960
 30
0.0
 10
193.459980
 20
183.719960
 30
0.0
 10
193.459980
 20
223.988146
 30
0.0
 10
193.459980
 20
223.988146
 30
0.0
  0
SPLINE
  5
11d
100
AcDbEntity
  8
Layer_1
 62
7
100
AcDbSpline
 70
8
 71
3
 72
8
 73
4
 74
0
 40
0
 40
0
 40
0
 40
0
 40
1
 40
1
 40
1
 40
1
 10
193.459980
 20
223.988146
 30
0.0
 10
193.442449
 20
223.987477
 30
0.0
 10
193.424916
 20
223.986877
 30
0.0
 10
193.407380
 20
223.986346
 30
0.0
  0
SPLINE
  5
11e
100
AcDbEntity
  8
Layer_1
 62
7
100
AcDbSpline
 70
8
 71
3
 72
8
 73
4
 74
0
 40
0
 40
0
 40
0
 40
0
 40
1
 40
1
 40
1
 40
1
 10
193.407380
 20
223.986346
 30
0.0
 10
189.723891
 20
223.987064
 30
0.0
 10
186.733545
 20
226.964475
 30
0.0
 10
186.716860
 20
230.647927
 30
0.0
  0
LINE
  5
11f
100
AcDbEntity
  8
Layer_1
 62
7
100
AcDbLine
 10
186.716860
 20
230.647927
 30
0.0
 11
50.711512
 21
230.647984
 31
0.0
  0
SPLINE
  5
120
100
AcDbEntity
  8
Layer_1
 62
7
100
AcDbSpline
 70
8
 71
3
 72
8
 73
4
 74
0
 40
0
 40
0
 40
0
 40
0
 40
1
 40
1
 40
1
 40
1
 10
51.889082
 20
229.302272
 30
0.0
 10
51.880092
 20
225.808890
 30
0.0
 10
48.956825
 20
222.977060
 30
0.0
 10
45.343124
 20
222.961065
 30
0.0
  0
LINE
  5
121
100
AcDbEntity
  8
Layer_1
 62
7
100
AcDbLine
 10
45.343124
 20
222.961065
 30
0.0
 11
45.343124
 21
184.661480
 31
0.0
  0
SPLINE
  5
122
100
AcDbEntity
  8
Layer_1
 62
7
100
AcDbSpline
 70
8
 71
3
 72
8
 73
4
 74
0
 40
0
 40
0
 40
0
 40
0
 40
1
 40
1
 40
1
 40
1
 10
45.343124
 20
184.661480
 30
0.0
 10
48.938845
 20
184.614950
 30
0.0
 10
51.829081
 20
181.784975
 30
0.0
 10
51.831190
 20
178.308690
 30
0.0
  0
SPLINE
  5
123
100
AcDbEntity
  8
Layer_1
 62
7
100
AcDbSpline
 70
8
 71
3
 72
8
 73
4
 74
0
 40
0
 40
0
 40
0
 40
0
 40
1
 40
1
 40
1
 40
1
 10
51.831190
 20
178.308690
 30
0.0
 10
51.829583
 20
178.272138
 30
0.0
 10
51.827650
 20
178.235600
 30
0.0
 10
51.825390
 20
178.199080
 30
0.0
  0
SPLINE
  5
124
100
AcDbEntity
  8
Layer_1
 62
7
100
AcDbSpline
 70
8
 71
3
 72
8
 73
4
 74
0
 40
0
 40
0
 40
0
 40
0
 40
1
 40
1
 40
1
 40
1
 10
51.825390
 20
178.199080
 30
0.0
 10
51.825390
 20
178.199080
 30
0.0
 10
185.566870
 20
178.199080
 30
0.0
 10
185.566870
 20
178.199080
 30
0.0
  0
SPLINE
  5
125
100
AcDbEntity
  8
Layer_1
 62
7
100
AcDbSpline
 70
8
 71
3
 72
8
 73
4
 74
0
 40
0
 40
0
 40
0
 40
0
 40
1
 40
1
 40
1
 40
1
 10
185.566870
 20
178.199080
 30
0.0
 10
185.564114
 20
178.254686
 30
0.0
 10
185.562114
 20
178.310324
 30
0.0
 10
185.560870
 20
178.365980
 30
0.0
  0
SPLINE
  5
126
100
AcDbEntity
  8
Layer_1
 62
7
100
AcDbSpline
 70
8
 71
3
 72
8
 73
4
 74
0
 40
0
 40
0
 40
0
 40
0
 40
1
 40
1
 40
1
 40
1
 10
185.560870
 20
178.365980
 30
0.0
 10
185.560867
 20
180.051990
 30
0.0
 10
186.253704
 20
181.668947
 30
0.0
 10
187.486965
 20
182.861135
 30
0.0
  0
SPLINE
  5
127
100
AcDbEntity
  8
Layer_1
 62
7
100
AcDbSpline
 70
8
 71
3
 72
8
 73
4
 74
0
 40
0
 40
0
 40
0
 40
0
 40
1
 40
1
 40
1
 40
1
 10
187.486965
 20
182.861135
 30
0.0
 10
188.720226
 20
184.053324
 30
0.0
 10
190.392887
 20
184.723086
 30
0.0
 10
192.136980
 20
184.723080
 30
0.0
  0
SPLINE
  5
128
100
AcDbEntity
  8
Layer_1
 62
7
100
AcDbSpline
 70
8
 71
3
 72
8
 73
4
 74
0
 40
0
 40
0
 40
0
 40
0
 40
1
 40
1
 40
1
 40
1
 10
192.136980
 20
184.723080
 30
0.0
 10
192.147014
 20
184.722769
 30
0.0
 10
192.157047
 20
184.722436
 30
0.0
 10
192.167080
 20
184.722080
 30
0.0
  0
SPLINE
  5
129
100
AcDbEntity
  8
Layer_1
 62
7
100
AcDbSpline
 70
8
 71
3
 72
8
 73
4
 74
0
 40
0
 40
0
 40
0
 40
0
 40
1
 40
1
 40
1
 40
1
 10
192.167080
 20
184.722080
 30
0.0
 10
192.167080
 20
184.722080
 30
0.0
 10
192.167080
 20
222.975635
 30
0.0
 10
192.167080
 20
222.975635
 30
0.0
  0
SPLINE
  5
12a
100
AcDbEntity
  8
Layer_1
 62
7
100
AcDbSpline
 70
8
 71
3
 72
8
 73
4
 74
0
 40
0
 40
0
 40
0
 40
0
 40
1
 40
1
 40
1
 40
1
 10
192.167080
 20
222.975635
 30
0.0
 10
192.149849
 20
222.975003
 30
0.0
 10
192.132616
 20
222.974436
 30
0.0
 10
192.115380
 20
222.973935
 30
0.0
  0
SPLINE
  5
12b
100
AcDbEntity
  8
Layer_1
 62
7
100
AcDbSpline
 70
8
 71
3
 72
8
 73
4
 74
0
 40
0
 40
0
 40
0
 40
0
 40
1
 40
1
 40
1
 40
1
 10
192.115380
 20
222.973935
 30
0.0
 10
188.495634
 20
222.974616
 30
0.0
 10
185.557036
 20
225.803064
 30
0.0
 10
185.540640
 20
229.302227
 30
0.0
  0
LINE
  5
12c
100
AcDbEntity
  8
Layer_1
 62
7
100
AcDbLine
 10
185.540640
 20
229.302227
 30
0.0
 11
51.889082
 21
229.302272
 31
0.0
  0
SPLINE
  5
12d
100
AcDbEntity
  8
Layer_1
 62
7
100
AcDbSpline
 70
8
 71
3
 72
8
 73
4
 74
0
 40
0
 40
0
 40
0
 40
0
 40
1
 40
1
 40
1
 40
1
 10
54.671058
 20
219.979012
 30
0.0
 10
54.562759
 20
220.011899
 30
0.0
 10
54.481534
 20
220.126993
 30
0.0
 10
54.427385
 20
220.324296
 30
0.0
  0
SPLINE
  5
12e
100
AcDbEntity
  8
Layer_1
 62
7
100
AcDbSpline
 70
8
 71
3
 72
8
 73
4
 74
0
 40
0
 40
0
 40
0
 40
0
 40
1
 40
1
 40
1
 40
1
 10
54.427385
 20
220.324296
 30
0.0
 10
54.373238
 20
220.521601
 30
0.0
 10
54.346165
 20
220.751790
 30
0.0
 10
54.346165
 20
221.014863
 30
0.0
  0
SPLINE
  5
12f
100
AcDbEntity
  8
Layer_1
 62
7
100
AcDbSpline
 70
8
 71
3
 72
8
 73
4
 74
0
 40
0
 40
0
 40
0
 40
0
 40
1
 40
1
 40
1
 40
1
 10
54.346165
 20
221.014863
 30
0.0
 10
54.346165
 20
221.343705
 30
0.0
 10
54.378655
 20
221.639663
 30
0.0
 10
54.443635
 20
221.902736
 30
0.0
  0
SPLINE
  5
130
100
AcDbEntity
  8
Layer_1
 62
7
100
AcDbSpline
 70
8
 71
3
 72
8
 73
4
 74
0
 40
0
 40
0
 40
0
 40
0
 40
1
 40
1
 40
1
 40
1
 10
54.443635
 20
221.902736
 30
0.0
 10
54.508615
 20
222.165809
 30
0.0
 10
54.589839
 20
222.280904
 30
0.0
 10
54.687308
 20
222.248020
 30
0.0
  0
SPLINE
  5
131
100
AcDbEntity
  8
Layer_1
 62
7
100
AcDbSpline
 70
8
 71
3
 72
8
 73
4
 74
0
 40
0
 40
0
 40
0
 40
0
 40
1
 40
1
 40
1
 40
1
 10
54.687308
 20
222.248020
 30
0.0
 10
54.947225
 20
222.182253
 30
0.0
 10
55.147578
 20
222.149370
 30
0.0
 10
55.288367
 20
222.149370
 30
0.0
  0
LINE
  5
132
100
AcDbEntity
  8
Layer_1
 62
7
100
AcDbLine
 10
55.288367
 20
222.149370
 30
0.0
 11
56.214324
 21
222.198700
 31
0.0
  0
SPLINE
  5
133
100
AcDbEntity
  8
Layer_1
 62
7
100
AcDbSpline
 70
8
 71
3
 72
8
 73
4
 74
0
 40
0
 40
0
 40
0
 40
0
 40
1
 40
1
 40
1
 40
1
 10
56.214324
 20
222.198700
 30
0.0
 10
56.560881
 20
222.297353
 30
0.0
 10
56.809968
 20
222.346679
 30
0.0
 10
56.961587
 20
222.346679
 30
0.0
  0
LINE
  5
134
100
AcDbEntity
  8
Layer_1
 62
7
100
AcDbLine
 10
56.961587
 20
222.346679
 30
0.0
 11
57.400198
 21
222.297349
 31
0.0
  0
SPLINE
  5
135
100
AcDbEntity
  8
Layer_1
 62
7
100
AcDbSpline
 70
8
 71
3
 72
8
 73
4
 74
0
 40
0
 40
0
 40
0
 40
0
 40
1
 40
1
 40
1
 40
1
 10
57.400198
 20
222.297349
 30
0.0
 10
57.660115
 20
222.231582
 30
0.0
 10
57.930863
 20
222.198699
 30
0.0
 10
58.212441
 20
222.198699
 30
0.0
  0
LINE
  5
136
100
AcDbEntity
  8
Layer_1
 62
7
100
AcDbLine
 10
58.212441
 20
222.198699
 30
0.0
 11
58.748521
 21
222.248029
 31
0.0
  0
SPLINE
  5
137
100
AcDbEntity
  8
Layer_1
 62
7
100
AcDbSpline
 70
8
 71
3
 72
8
 73
4
 74
0
 40
0
 40
0
 40
0
 40
0
 40
1
 40
1
 40
1
 40
1
 10
58.748521
 20
222.248029
 30
0.0
 10
58.867650
 20
222.280916
 30
0.0
 10
59.035513
 20
222.297359
 30
0.0
 10
59.252111
 20
222.297359
 30
0.0
  0
SPLINE
  5
138
100
AcDbEntity
  8
Layer_1
 62
7
100
AcDbSpline
 70
8
 71
3
 72
8
 73
4
 74
0
 40
0
 40
0
 40
0
 40
0
 40
1
 40
1
 40
1
 40
1
 10
59.252111
 20
222.297359
 30
0.0
 10
59.566178
 20
222.297359
 30
0.0
 10
59.728627
 20
222.165822
 30
0.0
 10
59.739457
 20
221.902749
 30
0.0
  0
SPLINE
  5
139
100
AcDbEntity
  8
Layer_1
 62
7
100
AcDbSpline
 70
8
 71
3
 72
8
 73
4
 74
0
 40
0
 40
0
 40
0
 40
0
 40
1
 40
1
 40
1
 40
1
 10
59.739457
 20
221.902749
 30
0.0
 10
60.064354
 20
220.850456
 30
0.0
 10
60.373006
 20
219.715952
 30
0.0
 10
60.665413
 20
218.499237
 30
0.0
  0
SPLINE
  5
13a
100
AcDbEntity
  8
Layer_1
 62
7
100
AcDbSpline
 70
8
 71
3
 72
8
 73
4
 74
0
 40
0
 40
0
 40
0
 40
0
 40
1
 40
1
 40
1
 40
1
 10
60.665413
 20
218.499237
 30
0.0
 10
60.957820
 20
217.282523
 30
0.0
 10
61.298962
 20
215.802736
 30
0.0
 10
61.688839
 20
214.059875
 30
0.0
  0
LINE
  5
13b
100
AcDbEntity
  8
Layer_1
 62
7
100
AcDbLine
 10
61.688839
 20
214.059875
 30
0.0
 11
62.452347
 21
210.705688
 31
0.0
  0
LINE
  5
13c
100
AcDbEntity
  8
Layer_1
 62
7
100
AcDbLine
 10
62.452347
 20
210.705688
 30
0.0
 11
64.044342
 21
203.010793
 31
0.0
  0
LINE
  5
13d
100
AcDbEntity
  8
Layer_1
 62
7
100
AcDbLine
 10
64.044342
 20
203.010793
 30
0.0
 11
64.158056
 21
219.831046
 31
0.0
  0
SPLINE
  5
13e
100
AcDbEntity
  8
Layer_1
 62
7
100
AcDbSpline
 70
8
 71
3
 72
8
 73
4
 74
0
 40
0
 40
0
 40
0
 40
0
 40
1
 40
1
 40
1
 40
1
 10
64.158056
 20
219.831046
 30
0.0
 10
63.984777
 20
220.028351
 30
0.0
 10
63.746520
 20
220.127004
 30
0.0
 10
63.443283
 20
220.127004
 30
0.0
  0
SPLINE
  5
13f
100
AcDbEntity
  8
Layer_1
 62
7
100
AcDbSpline
 70
8
 71
3
 72
8
 73
4
 74
0
 40
0
 40
0
 40
0
 40
0
 40
1
 40
1
 40
1
 40
1
 10
63.443283
 20
220.127004
 30
0.0
 10
63.140046
 20
220.127004
 30
0.0
 10
62.907203
 20
220.209214
 30
0.0
 10
62.744754
 20
220.373635
 30
0.0
  0
SPLINE
  5
140
100
AcDbEntity
  8
Layer_1
 62
7
100
AcDbSpline
 70
8
 71
3
 72
8
 73
4
 74
0
 40
0
 40
0
 40
0
 40
0
 40
1
 40
1
 40
1
 40
1
 10
62.744754
 20
220.373635
 30
0.0
 10
62.723094
 20
220.702477
 30
0.0
 10
62.712264
 20
220.932666
 30
0.0
 10
62.712264
 20
221.064203
 30
0.0
  0
SPLINE
  5
141
100
AcDbEntity
  8
Layer_1
 62
7
100
AcDbSpline
 70
8
 71
3
 72
8
 73
4
 74
0
 40
0
 40
0
 40
0
 40
0
 40
1
 40
1
 40
1
 40
1
 10
62.712264
 20
221.064203
 30
0.0
 10
62.712264
 20
221.656118
 30
0.0
 10
62.788073
 20
222.034285
 30
0.0
 10
62.939692
 20
222.198706
 30
0.0
  0
SPLINE
  5
142
100
AcDbEntity
  8
Layer_1
 62
7
100
AcDbSpline
 70
8
 71
3
 72
8
 73
4
 74
0
 40
0
 40
0
 40
0
 40
0
 40
1
 40
1
 40
1
 40
1
 10
62.939692
 20
222.198706
 30
0.0
 10
63.091311
 20
222.363127
 30
0.0
 10
63.329569
 20
222.445338
 30
0.0
 10
63.654466
 20
222.445338
 30
0.0
  0
SPLINE
  5
143
100
AcDbEntity
  8
Layer_1
 62
7
100
AcDbSpline
 70
8
 71
3
 72
8
 73
4
 74
0
 40
0
 40
0
 40
0
 40
0
 40
1
 40
1
 40
1
 40
1
 10
63.654466
 20
222.445338
 30
0.0
 10
63.925213
 20
222.445338
 30
0.0
 10
64.125566
 20
222.478221
 30
0.0
 10
64.255525
 20
222.543988
 30
0.0
  0
SPLINE
  5
144
100
AcDbEntity
  8
Layer_1
 62
7
100
AcDbSpline
 70
8
 71
3
 72
8
 73
4
 74
0
 40
0
 40
0
 40
0
 40
0
 40
1
 40
1
 40
1
 40
1
 10
64.255525
 20
222.543988
 30
0.0
 10
65.316856
 20
222.543988
 30
0.0
 10
65.982895
 20
222.428893
 30
0.0
 10
66.253642
 20
222.198704
 30
0.0
  0
SPLINE
  5
145
100
AcDbEntity
  8
Layer_1
 62
7
100
AcDbSpline
 70
8
 71
3
 72
8
 73
4
 74
0
 40
0
 40
0
 40
0
 40
0
 40
1
 40
1
 40
1
 40
1
 10
66.253642
 20
222.198704
 30
0.0
 10
66.307789
 20
221.771210
 30
0.0
 10
66.340279
 20
221.475253
 30
0.0
 10
66.351112
 20
221.310832
 30
0.0
  0
SPLINE
  5
146
100
AcDbEntity
  8
Layer_1
 62
7
100
AcDbSpline
 70
8
 71
3
 72
8
 73
4
 74
0
 40
0
 40
0
 40
0
 40
0
 40
1
 40
1
 40
1
 40
1
 10
66.351112
 20
221.310832
 30
0.0
 10
66.361939
 20
221.179295
 30
0.0
 10
66.367352
 20
220.866896
 30
0.0
 10
66.367352
 20
220.373633
 30
0.0
  0
SPLINE
  5
147
100
AcDbEntity
  8
Layer_1
 62
7
100
AcDbSpline
 70
8
 71
3
 72
8
 73
4
 74
0
 40
0
 40
0
 40
0
 40
0
 40
1
 40
1
 40
1
 40
1
 10
66.367352
 20
220.373633
 30
0.0
 10
66.139924
 20
220.143444
 30
0.0
 10
65.907081
 20
220.028349
 30
0.0
 10
65.668823
 20
220.028349
 30
0.0
  0
SPLINE
  5
148
100
AcDbEntity
  8
Layer_1
 62
7
100
AcDbSpline
 70
8
 71
3
 72
8
 73
4
 74
0
 40
0
 40
0
 40
0
 40
0
 40
1
 40
1
 40
1
 40
1
 10
65.668823
 20
220.028349
 30
0.0
 10
65.506374
 20
220.028349
 30
0.0
 10
65.381831
 20
220.044792
 30
0.0
 10
65.295192
 20
220.077679
 30
0.0
  0
LINE
  5
149
100
AcDbEntity
  8
Layer_1
 62
7
100
AcDbLine
 10
65.295192
 20
220.077679
 30
0.0
 11
64.840336
 21
220.127009
 31
0.0
  0
SPLINE
  5
14a
100
AcDbEntity
  8
Layer_1
 62
7
100
AcDbSpline
 70
8
 71
3
 72
8
 73
4
 74
0
 40
0
 40
0
 40
0
 40
0
 40
1
 40
1
 40
1
 40
1
 10
64.840336
 20
220.127009
 30
0.0
 10
64.840336
 20
217.956654
 30
0.0
 10
64.829506
 20
214.668236
 30
0.0
 10
64.807846
 20
210.261757
 30
0.0
  0
SPLINE
  5
14b
100
AcDbEntity
  8
Layer_1
 62
7
100
AcDbSpline
 70
8
 71
3
 72
8
 73
4
 74
0
 40
0
 40
0
 40
0
 40
0
 40
1
 40
1
 40
1
 40
1
 10
64.807846
 20
210.261757
 30
0.0
 10
64.775359
 20
206.973340
 30
0.0
 10
64.759116
 20
203.684924
 30
0.0
 10
64.759116
 20
200.396507
 30
0.0
  0
SPLINE
  5
14c
100
AcDbEntity
  8
Layer_1
 62
7
100
AcDbSpline
 70
8
 71
3
 72
8
 73
4
 74
0
 40
0
 40
0
 40
0
 40
0
 40
1
 40
1
 40
1
 40
1
 10
64.759116
 20
200.396507
 30
0.0
 10
64.759116
 20
196.549062
 30
0.0
 10
64.786189
 20
193.260647
 30
0.0
 10
64.840336
 20
190.531260
 30
0.0
  0
SPLINE
  5
14d
100
AcDbEntity
  8
Layer_1
 62
7
100
AcDbSpline
 70
8
 71
3
 72
8
 73
4
 74
0
 40
0
 40
0
 40
0
 40
0
 40
1
 40
1
 40
1
 40
1
 10
64.840336
 20
190.531260
 30
0.0
 10
64.840336
 20
190.169533
 30
0.0
 10
64.883656
 20
189.692713
 30
0.0
 10
64.970295
 20
189.100800
 30
0.0
  0
SPLINE
  5
14e
100
AcDbEntity
  8
Layer_1
 62
7
100
AcDbSpline
 70
8
 71
3
 72
8
 73
4
 74
0
 40
0
 40
0
 40
0
 40
0
 40
1
 40
1
 40
1
 40
1
 10
64.970295
 20
189.100800
 30
0.0
 10
65.056934
 20
188.508880
 30
0.0
 10
65.100253
 20
188.032060
 30
0.0
 10
65.100253
 20
187.670340
 30
0.0
  0
SPLINE
  5
14f
100
AcDbEntity
  8
Layer_1
 62
7
100
AcDbSpline
 70
8
 71
3
 72
8
 73
4
 74
0
 40
0
 40
0
 40
0
 40
0
 40
1
 40
1
 40
1
 40
1
 10
65.100253
 20
187.670340
 30
0.0
 10
65.100253
 20
187.242840
 30
0.0
 10
65.051519
 20
186.815343
 30
0.0
 10
64.954050
 20
186.387850
 30
0.0
  0
SPLINE
  5
150
100
AcDbEntity
  8
Layer_1
 62
7
100
AcDbSpline
 70
8
 71
3
 72
8
 73
4
 74
0
 40
0
 40
0
 40
0
 40
0
 40
1
 40
1
 40
1
 40
1
 10
64.954050
 20
186.387850
 30
0.0
 10
64.824091
 20
185.960357
 30
0.0
 10
64.656228
 20
185.680843
 30
0.0
 10
64.450459
 20
185.549310
 30
0.0
  0
SPLINE
  5
151
100
AcDbEntity
  8
Layer_1
 62
7
100
AcDbSpline
 70
8
 71
3
 72
8
 73
4
 74
0
 40
0
 40
0
 40
0
 40
0
 40
1
 40
1
 40
1
 40
1
 10
64.450459
 20
185.549310
 30
0.0
 10
64.255521
 20
185.450657
 30
0.0
 10
63.984774
 20
185.401330
 30
0.0
 10
63.638217
 20
185.401330
 30
0.0
  0
SPLINE
  5
152
100
AcDbEntity
  8
Layer_1
 62
7
100
AcDbSpline
 70
8
 71
3
 72
8
 73
4
 74
0
 40
0
 40
0
 40
0
 40
0
 40
1
 40
1
 40
1
 40
1
 10
63.638217
 20
185.401330
 30
0.0
 10
63.345810
 20
185.401330
 30
0.0
 10
63.058817
 20
185.417763
 30
0.0
 10
62.777240
 20
185.450630
 30
0.0
  0
SPLINE
  5
153
100
AcDbEntity
  8
Layer_1
 62
7
100
AcDbSpline
 70
8
 71
3
 72
8
 73
4
 74
0
 40
0
 40
0
 40
0
 40
0
 40
1
 40
1
 40
1
 40
1
 10
62.777240
 20
185.450630
 30
0.0
 10
62.495663
 20
185.483497
 30
0.0
 10
62.219500
 20
185.582150
 30
0.0
 10
61.948752
 20
185.746590
 30
0.0
  0
SPLINE
  5
154
100
AcDbEntity
  8
Layer_1
 62
7
100
AcDbSpline
 70
8
 71
3
 72
8
 73
4
 74
0
 40
0
 40
0
 40
0
 40
0
 40
1
 40
1
 40
1
 40
1
 10
61.948752
 20
185.746590
 30
0.0
 10
61.548046
 20
185.812390
 30
0.0
 10
61.217734
 20
186.157673
 30
0.0
 10
60.957816
 20
186.782440
 30
0.0
  0
SPLINE
  5
155
100
AcDbEntity
  8
Layer_1
 62
7
100
AcDbSpline
 70
8
 71
3
 72
8
 73
4
 74
0
 40
0
 40
0
 40
0
 40
0
 40
1
 40
1
 40
1
 40
1
 10
60.957816
 20
186.782440
 30
0.0
 10
60.708729
 20
187.440127
 30
0.0
 10
60.421736
 20
188.410210
 30
0.0
 10
60.096839
 20
189.692690
 30
0.0
  0
SPLINE
  5
156
100
AcDbEntity
  8
Layer_1
 62
7
100
AcDbSpline
 70
8
 71
3
 72
8
 73
4
 74
0
 40
0
 40
0
 40
0
 40
0
 40
1
 40
1
 40
1
 40
1
 10
60.096839
 20
189.692690
 30
0.0
 10
59.858582
 20
190.712103
 30
0.0
 10
59.641984
 20
191.501323
 30
0.0
 10
59.447045
 20
192.060350
 30
0.0
  0
LINE
  5
157
100
AcDbEntity
  8
Layer_1
 62
7
100
AcDbLine
 10
59.447045
 20
192.060350
 30
0.0
 11
56.912847
 21
205.181135
 31
0.0
  0
LINE
  5
158
100
AcDbEntity
  8
Layer_1
 62
7
100
AcDbLine
 10
56.912847
 20
205.181135
 30
0.0
 11
56.912847
 21
188.360880
 31
0.0
  0
LINE
  5
159
100
AcDbEntity
  8
Layer_1
 62
7
100
AcDbLine
 10
56.912847
 20
188.360880
 30
0.0
 11
57.416438
 21
188.410180
 31
0.0
  0
SPLINE
  5
15a
100
AcDbEntity
  8
Layer_1
 62
7
100
AcDbSpline
 70
8
 71
3
 72
8
 73
4
 74
0
 40
0
 40
0
 40
0
 40
0
 40
1
 40
1
 40
1
 40
1
 10
57.416438
 20
188.410180
 30
0.0
 10
58.098721
 20
188.410180
 30
0.0
 10
58.439863
 20
187.916917
 30
0.0
 10
58.439863
 20
186.930390
 30
0.0
  0
SPLINE
  5
15b
100
AcDbEntity
  8
Layer_1
 62
7
100
AcDbSpline
 70
8
 71
3
 72
8
 73
4
 74
0
 40
0
 40
0
 40
0
 40
0
 40
1
 40
1
 40
1
 40
1
 10
58.439863
 20
186.930390
 30
0.0
 10
58.439863
 20
186.206937
 30
0.0
 10
58.212435
 20
185.845210
 30
0.0
 10
57.757580
 20
185.845210
 30
0.0
  0
SPLINE
  5
15c
100
AcDbEntity
  8
Layer_1
 62
7
100
AcDbSpline
 70
8
 71
3
 72
8
 73
4
 74
0
 40
0
 40
0
 40
0
 40
0
 40
1
 40
1
 40
1
 40
1
 10
57.757580
 20
185.845210
 30
0.0
 10
57.616791
 20
185.845210
 30
0.0
 10
57.481417
 20
185.861643
 30
0.0
 10
57.351458
 20
185.894510
 30
0.0
  0
SPLINE
  5
15d
100
AcDbEntity
  8
Layer_1
 62
7
100
AcDbSpline
 70
8
 71
3
 72
8
 73
4
 74
0
 40
0
 40
0
 40
0
 40
0
 40
1
 40
1
 40
1
 40
1
 10
57.351458
 20
185.894510
 30
0.0
 10
57.221499
 20
185.927377
 30
0.0
 10
57.107786
 20
185.943810
 30
0.0
 10
57.010317
 20
185.943810
 30
0.0
  0
SPLINE
  5
15e
100
AcDbEntity
  8
Layer_1
 62
7
100
AcDbSpline
 70
8
 71
3
 72
8
 73
4
 74
0
 40
0
 40
0
 40
0
 40
0
 40
1
 40
1
 40
1
 40
1
 10
57.010317
 20
185.943810
 30
0.0
 10
56.934508
 20
185.943810
 30
0.0
 10
56.858698
 20
185.910910
 30
0.0
 10
56.782889
 20
185.845110
 30
0.0
  0
SPLINE
  5
15f
100
AcDbEntity
  8
Layer_1
 62
7
100
AcDbSpline
 70
8
 71
3
 72
8
 73
4
 74
0
 40
0
 40
0
 40
0
 40
0
 40
1
 40
1
 40
1
 40
1
 10
56.782889
 20
185.845110
 30
0.0
 10
56.707080
 20
185.812243
 30
0.0
 10
56.642100
 20
185.795810
 30
0.0
 10
56.587950
 20
185.795810
 30
0.0
  0
SPLINE
  5
160
100
AcDbEntity
  8
Layer_1
 62
7
100
AcDbSpline
 70
8
 71
3
 72
8
 73
4
 74
0
 40
0
 40
0
 40
0
 40
0
 40
1
 40
1
 40
1
 40
1
 10
56.587950
 20
185.795810
 30
0.0
 10
56.533803
 20
185.795810
 30
0.0
 10
56.474239
 20
185.845137
 30
0.0
 10
56.409257
 20
185.943790
 30
0.0
  0
SPLINE
  5
161
100
AcDbEntity
  8
Layer_1
 62
7
100
AcDbSpline
 70
8
 71
3
 72
8
 73
4
 74
0
 40
0
 40
0
 40
0
 40
0
 40
1
 40
1
 40
1
 40
1
 10
56.409257
 20
185.943790
 30
0.0
 10
56.246808
 20
186.009590
 30
0.0
 10
56.100605
 20
186.042490
 30
0.0
 10
55.970646
 20
186.042490
 30
0.0
  0
SPLINE
  5
162
100
AcDbEntity
  8
Layer_1
 62
7
100
AcDbSpline
 70
8
 71
3
 72
8
 73
4
 74
0
 40
0
 40
0
 40
0
 40
0
 40
1
 40
1
 40
1
 40
1
 10
55.970646
 20
186.042490
 30
0.0
 10
55.851517
 20
186.042490
 30
0.0
 10
55.748633
 20
186.058923
 30
0.0
 10
55.661994
 20
186.091790
 30
0.0
  0
SPLINE
  5
163
100
AcDbEntity
  8
Layer_1
 62
7
100
AcDbSpline
 70
8
 71
3
 72
8
 73
4
 74
0
 40
0
 40
0
 40
0
 40
0
 40
1
 40
1
 40
1
 40
1
 10
55.661994
 20
186.091790
 30
0.0
 10
55.293777
 20
186.124657
 30
0.0
 10
55.033860
 20
186.190423
 30
0.0
 10
54.882241
 20
186.289090
 30
0.0
  0
SPLINE
  5
164
100
AcDbEntity
  8
Layer_1
 62
7
100
AcDbSpline
 70
8
 71
3
 72
8
 73
4
 74
0
 40
0
 40
0
 40
0
 40
0
 40
1
 40
1
 40
1
 40
1
 10
54.882241
 20
186.289090
 30
0.0
 10
54.730622
 20
186.420630
 30
0.0
 10
54.654813
 20
186.700147
 30
0.0
 10
54.654813
 20
187.127640
 30
0.0
  0
SPLINE
  5
165
100
AcDbEntity
  8
Layer_1
 62
7
100
AcDbSpline
 70
8
 71
3
 72
8
 73
4
 74
0
 40
0
 40
0
 40
0
 40
0
 40
1
 40
1
 40
1
 40
1
 10
54.654813
 20
187.127640
 30
0.0
 10
54.654813
 20
187.423593
 30
0.0
 10
54.703548
 20
187.834643
 30
0.0
 10
54.801017
 20
188.360790
 30
0.0
  0
LINE
  5
166
100
AcDbEntity
  8
Layer_1
 62
7
100
AcDbLine
 10
54.801017
 20
188.360790
 30
0.0
 11
56.116850
 21
188.360790
 31
0.0
  0
LINE
  5
167
100
AcDbEntity
  8
Layer_1
 62
7
100
AcDbLine
 10
56.116850
 20
188.360790
 30
0.0
 11
56.116850
 21
204.539894
 31
0.0
  0
LINE
  5
168
100
AcDbEntity
  8
Layer_1
 62
7
100
AcDbLine
 10
56.116850
 20
204.539894
 30
0.0
 11
56.328033
 21
219.831033
 31
0.0
  0
SPLINE
  5
169
100
AcDbEntity
  8
Layer_1
 62
7
100
AcDbSpline
 70
8
 71
3
 72
8
 73
4
 74
0
 40
0
 40
0
 40
0
 40
0
 40
1
 40
1
 40
1
 40
1
 10
56.328033
 20
219.831033
 30
0.0
 10
56.154754
 20
219.896800
 30
0.0
 10
55.916496
 20
219.929683
 30
0.0
 10
55.613259
 20
219.929683
 30
0.0
  0
LINE
  5
16a
100
AcDbEntity
  8
Layer_1
 62
7
100
AcDbLine
 10
55.613259
 20
219.929683
 30
0.0
 11
55.109669
 21
219.929683
 31
0.0
  0
SPLINE
  5
16b
100
AcDbEntity
  8
Layer_1
 62
7
100
AcDbSpline
 70
8
 71
3
 72
8
 73
4
 74
0
 40
0
 40
0
 40
0
 40
0
 40
1
 40
1
 40
1
 40
1
 10
55.109669
 20
219.929683
 30
0.0
 10
54.914731
 20
219.929683
 30
0.0
 10
54.768527
 20
219.946126
 30
0.0
 10
54.671058
 20
219.979013
 30
0.0
  0
LINE
  5
16c
100
AcDbEntity
  8
Layer_1
 62
7
100
AcDbLine
 10
54.671058
 20
219.979013
 30
0.0
 11
54.671058
 21
219.979012
 31
0.0
  0
SPLINE
  5
16d
100
AcDbEntity
  8
Layer_1
 62
7
100
AcDbSpline
 70
8
 71
3
 72
8
 73
4
 74
0
 40
0
 40
0
 40
0
 40
0
 40
1
 40
1
 40
1
 40
1
 10
68.790372
 20
217.956636
 30
0.0
 10
69.927511
 20
220.949095
 30
0.0
 10
71.178365
 20
222.445325
 30
0.0
 10
72.542933
 20
222.445325
 30
0.0
  0
SPLINE
  5
16e
100
AcDbEntity
  8
Layer_1
 62
7
100
AcDbSpline
 70
8
 71
3
 72
8
 73
4
 74
0
 40
0
 40
0
 40
0
 40
0
 40
1
 40
1
 40
1
 40
1
 10
72.542933
 20
222.445325
 30
0.0
 10
73.420154
 20
222.445325
 30
0.0
 10
74.411090
 20
221.869852
 30
0.0
 10
75.515740
 20
220.718906
 30
0.0
  0
SPLINE
  5
16f
100
AcDbEntity
  8
Layer_1
 62
7
100
AcDbSpline
 70
8
 71
3
 72
8
 73
4
 74
0
 40
0
 40
0
 40
0
 40
0
 40
1
 40
1
 40
1
 40
1
 10
75.515740
 20
220.718906
 30
0.0
 10
75.873127
 20
220.357180
 30
0.0
 10
76.149289
 20
219.831033
 30
0.0
 10
76.344228
 20
219.140466
 30
0.0
  0
SPLINE
  5
170
100
AcDbEntity
  8
Layer_1
 62
7
100
AcDbSpline
 70
8
 71
3
 72
8
 73
4
 74
0
 40
0
 40
0
 40
0
 40
0
 40
1
 40
1
 40
1
 40
1
 10
76.344228
 20
219.140466
 30
0.0
 10
76.549996
 20
218.482783
 30
0.0
 10
76.723274
 20
217.578468
 30
0.0
 10
76.864063
 20
216.427522
 30
0.0
  0
SPLINE
  5
171
100
AcDbEntity
  8
Layer_1
 62
7
100
AcDbSpline
 70
8
 71
3
 72
8
 73
4
 74
0
 40
0
 40
0
 40
0
 40
0
 40
1
 40
1
 40
1
 40
1
 10
76.864063
 20
216.427522
 30
0.0
 10
77.048171
 20
215.145039
 30
0.0
 10
77.199790
 20
213.352852
 30
0.0
 10
77.318919
 20
211.050959
 30
0.0
  0
SPLINE
  5
172
100
AcDbEntity
  8
Layer_1
 62
7
100
AcDbSpline
 70
8
 71
3
 72
8
 73
4
 74
0
 40
0
 40
0
 40
0
 40
0
 40
1
 40
1
 40
1
 40
1
 10
77.318919
 20
211.050959
 30
0.0
 10
77.438048
 20
208.781952
 30
0.0
 10
77.497612
 20
206.364965
 30
0.0
 10
77.497612
 20
203.800000
 30
0.0
  0
SPLINE
  5
173
100
AcDbEntity
  8
Layer_1
 62
7
100
AcDbSpline
 70
8
 71
3
 72
8
 73
4
 74
0
 40
0
 40
0
 40
0
 40
0
 40
1
 40
1
 40
1
 40
1
 10
77.497612
 20
203.800000
 30
0.0
 10
77.497612
 20
200.478699
 30
0.0
 10
77.394728
 20
197.387586
 30
0.0
 10
77.188960
 20
194.526660
 30
0.0
  0
SPLINE
  5
174
100
AcDbEntity
  8
Layer_1
 62
7
100
AcDbSpline
 70
8
 71
3
 72
8
 73
4
 74
0
 40
0
 40
0
 40
0
 40
0
 40
1
 40
1
 40
1
 40
1
 10
77.188960
 20
194.526660
 30
0.0
 10
76.983192
 20
191.665740
 30
0.0
 10
76.663710
 20
189.429617
 30
0.0
 10
76.230514
 20
187.818290
 30
0.0
  0
SPLINE
  5
175
100
AcDbEntity
  8
Layer_1
 62
7
100
AcDbSpline
 70
8
 71
3
 72
8
 73
4
 74
0
 40
0
 40
0
 40
0
 40
0
 40
1
 40
1
 40
1
 40
1
 10
76.230514
 20
187.818290
 30
0.0
 10
75.699849
 20
185.713703
 30
0.0
 10
74.535634
 20
184.661410
 30
0.0
 10
72.737871
 20
184.661410
 30
0.0
  0
SPLINE
  5
176
100
AcDbEntity
  8
Layer_1
 62
7
100
AcDbSpline
 70
8
 71
3
 72
8
 73
4
 74
0
 40
0
 40
0
 40
0
 40
0
 40
1
 40
1
 40
1
 40
1
 10
72.737871
 20
184.661410
 30
0.0
 10
72.445464
 20
184.661410
 30
0.0
 10
72.082662
 20
184.694310
 30
0.0
 10
71.649466
 20
184.760110
 30
0.0
  0
SPLINE
  5
177
100
AcDbEntity
  8
Layer_1
 62
7
100
AcDbSpline
 70
8
 71
3
 72
8
 73
4
 74
0
 40
0
 40
0
 40
0
 40
0
 40
1
 40
1
 40
1
 40
1
 10
71.649466
 20
184.760110
 30
0.0
 10
70.696435
 20
185.056063
 30
0.0
 10
69.960001
 20
185.631537
 30
0.0
 10
69.440166
 20
186.486530
 30
0.0
  0
SPLINE
  5
178
100
AcDbEntity
  8
Layer_1
 62
7
100
AcDbSpline
 70
8
 71
3
 72
8
 73
4
 74
0
 40
0
 40
0
 40
0
 40
0
 40
1
 40
1
 40
1
 40
1
 10
69.440166
 20
186.486530
 30
0.0
 10
68.931161
 20
187.374397
 30
0.0
 10
68.492550
 20
188.821300
 30
0.0
 10
68.124333
 20
190.827240
 30
0.0
  0
SPLINE
  5
179
100
AcDbEntity
  8
Layer_1
 62
7
100
AcDbSpline
 70
8
 71
3
 72
8
 73
4
 74
0
 40
0
 40
0
 40
0
 40
0
 40
1
 40
1
 40
1
 40
1
 10
68.124333
 20
190.827240
 30
0.0
 10
67.853586
 20
192.372793
 30
0.0
 10
67.642403
 20
194.280073
 30
0.0
 10
67.490784
 20
196.549080
 30
0.0
  0
SPLINE
  5
17a
100
AcDbEntity
  8
Layer_1
 62
7
100
AcDbSpline
 70
8
 71
3
 72
8
 73
4
 74
0
 40
0
 40
0
 40
0
 40
0
 40
1
 40
1
 40
1
 40
1
 10
67.490784
 20
196.549080
 30
0.0
 10
67.339165
 20
198.818089
 30
0.0
 10
67.263356
 20
201.169307
 30
0.0
 10
67.263356
 20
203.602735
 30
0.0
  0
SPLINE
  5
17b
100
AcDbEntity
  8
Layer_1
 62
7
100
AcDbSpline
 70
8
 71
3
 72
8
 73
4
 74
0
 40
0
 40
0
 40
0
 40
0
 40
1
 40
1
 40
1
 40
1
 10
67.263356
 20
203.602735
 30
0.0
 10
67.263356
 20
206.660963
 30
0.0
 10
67.387900
 20
209.456118
 30
0.0
 10
67.636987
 20
211.988199
 30
0.0
  0
SPLINE
  5
17c
100
AcDbEntity
  8
Layer_1
 62
7
100
AcDbSpline
 70
8
 71
3
 72
8
 73
4
 74
0
 40
0
 40
0
 40
0
 40
0
 40
1
 40
1
 40
1
 40
1
 10
67.636987
 20
211.988199
 30
0.0
 10
67.886075
 20
214.553164
 30
0.0
 10
68.270537
 20
216.542657
 30
0.0
 10
68.790372
 20
217.956676
 30
0.0
  0
LINE
  5
17d
100
AcDbEntity
  8
Layer_1
 62
7
100
AcDbLine
 10
68.790372
 20
217.956676
 30
0.0
 11
68.790372
 21
217.956636
 31
0.0
  0
SPLINE
  5
17e
100
AcDbEntity
  8
Layer_1
 62
7
100
AcDbSpline
 70
8
 71
3
 72
8
 73
4
 74
0
 40
0
 40
0
 40
0
 40
0
 40
1
 40
1
 40
1
 40
1
 10
73.030278
 20
202.418865
 30
0.0
 10
73.019451
 20
201.794066
 30
0.0
 10
73.014038
 20
200.856867
 30
0.0
 10
73.014038
 20
199.607269
 30
0.0
  0
SPLINE
  5
17f
100
AcDbEntity
  8
Layer_1
 62
7
100
AcDbSpline
 70
8
 71
3
 72
8
 73
4
 74
0
 40
0
 40
0
 40
0
 40
0
 40
1
 40
1
 40
1
 40
1
 10
73.014038
 20
199.607269
 30
0.0
 10
73.014038
 20
196.154430
 30
0.0
 10
73.111507
 20
192.520730
 30
0.0
 10
73.306446
 20
188.706170
 30
0.0
  0
SPLINE
  5
180
100
AcDbEntity
  8
Layer_1
 62
7
100
AcDbSpline
 70
8
 71
3
 72
8
 73
4
 74
0
 40
0
 40
0
 40
0
 40
0
 40
1
 40
1
 40
1
 40
1
 10
73.306446
 20
188.706170
 30
0.0
 10
73.317273
 20
188.245790
 30
0.0
 10
73.382252
 20
187.900507
 30
0.0
 10
73.501384
 20
187.670320
 30
0.0
  0
SPLINE
  5
181
100
AcDbEntity
  8
Layer_1
 62
7
100
AcDbSpline
 70
8
 71
3
 72
8
 73
4
 74
0
 40
0
 40
0
 40
0
 40
0
 40
1
 40
1
 40
1
 40
1
 10
73.501384
 20
187.670320
 30
0.0
 10
73.620513
 20
187.440127
 30
0.0
 10
73.782961
 20
187.325030
 30
0.0
 10
73.988729
 20
187.325030
 30
0.0
  0
SPLINE
  5
182
100
AcDbEntity
  8
Layer_1
 62
7
100
AcDbSpline
 70
8
 71
3
 72
8
 73
4
 74
0
 40
0
 40
0
 40
0
 40
0
 40
1
 40
1
 40
1
 40
1
 10
73.988729
 20
187.325030
 30
0.0
 10
74.346116
 20
187.325030
 30
0.0
 10
74.725162
 20
187.637430
 30
0.0
 10
75.125869
 20
188.262230
 30
0.0
  0
SPLINE
  5
183
100
AcDbEntity
  8
Layer_1
 62
7
100
AcDbSpline
 70
8
 71
3
 72
8
 73
4
 74
0
 40
0
 40
0
 40
0
 40
0
 40
1
 40
1
 40
1
 40
1
 10
75.125869
 20
188.262230
 30
0.0
 10
75.526575
 20
188.887030
 30
0.0
 10
75.802737
 20
189.659807
 30
0.0
 10
75.954356
 20
190.580560
 30
0.0
  0
SPLINE
  5
184
100
AcDbEntity
  8
Layer_1
 62
7
100
AcDbSpline
 70
8
 71
3
 72
8
 73
4
 74
0
 40
0
 40
0
 40
0
 40
0
 40
1
 40
1
 40
1
 40
1
 10
75.954356
 20
190.580560
 30
0.0
 10
76.225104
 20
192.060353
 30
0.0
 10
76.425457
 20
194.000520
 30
0.0
 10
76.555416
 20
196.401060
 30
0.0
  0
SPLINE
  5
185
100
AcDbEntity
  8
Layer_1
 62
7
100
AcDbSpline
 70
8
 71
3
 72
8
 73
4
 74
0
 40
0
 40
0
 40
0
 40
0
 40
1
 40
1
 40
1
 40
1
 10
76.555416
 20
196.401060
 30
0.0
 10
76.696205
 20
198.801606
 30
0.0
 10
76.766599
 20
201.350130
 30
0.0
 10
76.766599
 20
204.046631
 30
0.0
  0
SPLINE
  5
186
100
AcDbEntity
  8
Layer_1
 62
7
100
AcDbSpline
 70
8
 71
3
 72
8
 73
4
 74
0
 40
0
 40
0
 40
0
 40
0
 40
1
 40
1
 40
1
 40
1
 10
76.766599
 20
204.046631
 30
0.0
 10
76.766599
 20
207.795426
 30
0.0
 10
76.652885
 20
210.919423
 30
0.0
 10
76.425457
 20
213.418621
 30
0.0
  0
SPLINE
  5
187
100
AcDbEntity
  8
Layer_1
 62
7
100
AcDbSpline
 70
8
 71
3
 72
8
 73
4
 74
0
 40
0
 40
0
 40
0
 40
0
 40
1
 40
1
 40
1
 40
1
 10
76.425457
 20
213.418621
 30
0.0
 10
76.273838
 20
214.898408
 30
0.0
 10
76.013921
 20
216.180891
 30
0.0
 10
75.645704
 20
217.266068
 30
0.0
  0
SPLINE
  5
188
100
AcDbEntity
  8
Layer_1
 62
7
100
AcDbSpline
 70
8
 71
3
 72
8
 73
4
 74
0
 40
0
 40
0
 40
0
 40
0
 40
1
 40
1
 40
1
 40
1
 10
75.645704
 20
217.266068
 30
0.0
 10
75.288317
 20
218.384130
 30
0.0
 10
74.947175
 20
218.943161
 30
0.0
 10
74.622278
 20
218.943161
 30
0.0
  0
SPLINE
  5
189
100
AcDbEntity
  8
Layer_1
 62
7
100
AcDbSpline
 70
8
 71
3
 72
8
 73
4
 74
0
 40
0
 40
0
 40
0
 40
0
 40
1
 40
1
 40
1
 40
1
 10
74.622278
 20
218.943161
 30
0.0
 10
74.427340
 20
218.943161
 30
0.0
 10
74.259477
 20
218.712972
 30
0.0
 10
74.118688
 20
218.252593
 30
0.0
  0
SPLINE
  5
18a
100
AcDbEntity
  8
Layer_1
 62
7
100
AcDbSpline
 70
8
 71
3
 72
8
 73
4
 74
0
 40
0
 40
0
 40
0
 40
0
 40
1
 40
1
 40
1
 40
1
 10
74.118688
 20
218.252593
 30
0.0
 10
73.717982
 20
216.970110
 30
0.0
 10
73.452649
 20
215.112155
 30
0.0
 10
73.322690
 20
212.678727
 30
0.0
  0
SPLINE
  5
18b
100
AcDbEntity
  8
Layer_1
 62
7
100
AcDbSpline
 70
8
 71
3
 72
8
 73
4
 74
0
 40
0
 40
0
 40
0
 40
0
 40
1
 40
1
 40
1
 40
1
 10
73.322690
 20
212.678727
 30
0.0
 10
73.192731
 20
210.278182
 30
0.0
 10
73.100677
 20
207.335048
 30
0.0
 10
73.046528
 20
203.849326
 30
0.0
  0
LINE
  5
18c
100
AcDbEntity
  8
Layer_1
 62
7
100
AcDbLine
 10
73.046528
 20
203.849326
 30
0.0
 11
73.030278
 21
202.418865
 31
0.0
  0
SPLINE
  5
18d
100
AcDbEntity
  8
Layer_1
 62
7
100
AcDbSpline
 70
8
 71
3
 72
8
 73
4
 74
0
 40
0
 40
0
 40
0
 40
0
 40
1
 40
1
 40
1
 40
1
 10
89.698767
 20
219.436423
 30
0.0
 10
89.438849
 20
219.436423
 30
0.0
 10
89.270985
 20
219.567960
 30
0.0
 10
89.195176
 20
219.831033
 30
0.0
  0
SPLINE
  5
18e
100
AcDbEntity
  8
Layer_1
 62
7
100
AcDbSpline
 70
8
 71
3
 72
8
 73
4
 74
0
 40
0
 40
0
 40
0
 40
0
 40
1
 40
1
 40
1
 40
1
 10
89.195176
 20
219.831033
 30
0.0
 10
89.151856
 20
219.995454
 30
0.0
 10
89.130196
 20
220.192759
 30
0.0
 10
89.130196
 20
220.422948
 30
0.0
  0
SPLINE
  5
18f
100
AcDbEntity
  8
Layer_1
 62
7
100
AcDbSpline
 70
8
 71
3
 72
8
 73
4
 74
0
 40
0
 40
0
 40
0
 40
0
 40
1
 40
1
 40
1
 40
1
 10
89.130196
 20
220.422948
 30
0.0
 10
89.130196
 20
220.751790
 30
0.0
 10
89.184345
 20
221.031306
 30
0.0
 10
89.292644
 20
221.261495
 30
0.0
  0
SPLINE
  5
190
100
AcDbEntity
  8
Layer_1
 62
7
100
AcDbSpline
 70
8
 71
3
 72
8
 73
4
 74
0
 40
0
 40
0
 40
0
 40
0
 40
1
 40
1
 40
1
 40
1
 10
89.292644
 20
221.261495
 30
0.0
 10
89.400943
 20
221.524568
 30
0.0
 10
89.530902
 20
221.656105
 30
0.0
 10
89.682521
 20
221.656105
 30
0.0
  0
LINE
  5
191
100
AcDbEntity
  8
Layer_1
 62
7
100
AcDbLine
 10
89.682521
 20
221.656105
 30
0.0
 11
91.030843
 21
221.705435
 31
0.0
  0
SPLINE
  5
192
100
AcDbEntity
  8
Layer_1
 62
7
100
AcDbSpline
 70
8
 71
3
 72
8
 73
4
 74
0
 40
0
 40
0
 40
0
 40
0
 40
1
 40
1
 40
1
 40
1
 10
91.030843
 20
221.705435
 30
0.0
 10
91.713127
 20
221.705435
 30
0.0
 10
92.173398
 20
221.590340
 30
0.0
 10
92.411656
 20
221.360151
 30
0.0
  0
LINE
  5
193
100
AcDbEntity
  8
Layer_1
 62
7
100
AcDbLine
 10
92.411656
 20
221.360151
 30
0.0
 11
92.411656
 21
219.831037
 31
0.0
  0
SPLINE
  5
194
100
AcDbEntity
  8
Layer_1
 62
7
100
AcDbSpline
 70
8
 71
3
 72
8
 73
4
 74
0
 40
0
 40
0
 40
0
 40
0
 40
1
 40
1
 40
1
 40
1
 10
92.411656
 20
219.831037
 30
0.0
 10
92.238377
 20
219.567964
 30
0.0
 10
92.000119
 20
219.436427
 30
0.0
 10
91.696882
 20
219.436427
 30
0.0
  0
LINE
  5
195
100
AcDbEntity
  8
Layer_1
 62
7
100
AcDbLine
 10
91.696882
 20
219.436427
 30
0.0
 11
91.014600
 21
219.485750
 31
0.0
  0
SPLINE
  5
196
100
AcDbEntity
  8
Layer_1
 62
7
100
AcDbSpline
 70
8
 71
3
 72
8
 73
4
 74
0
 40
0
 40
0
 40
0
 40
0
 40
1
 40
1
 40
1
 40
1
 10
91.014600
 20
219.485750
 30
0.0
 10
90.960447
 20
218.334804
 30
0.0
 10
90.922542
 20
216.822132
 30
0.0
 10
90.900886
 20
214.947734
 30
0.0
  0
SPLINE
  5
197
100
AcDbEntity
  8
Layer_1
 62
7
100
AcDbSpline
 70
8
 71
3
 72
8
 73
4
 74
0
 40
0
 40
0
 40
0
 40
0
 40
1
 40
1
 40
1
 40
1
 10
90.900886
 20
214.947734
 30
0.0
 10
90.890059
 20
214.520240
 30
0.0
 10
90.873816
 20
213.878999
 30
0.0
 10
90.852156
 20
213.024011
 30
0.0
  0
SPLINE
  5
198
100
AcDbEntity
  8
Layer_1
 62
7
100
AcDbSpline
 70
8
 71
3
 72
8
 73
4
 74
0
 40
0
 40
0
 40
0
 40
0
 40
1
 40
1
 40
1
 40
1
 10
90.852156
 20
213.024011
 30
0.0
 10
90.841323
 20
212.201906
 30
0.0
 10
90.825076
 20
211.511338
 30
0.0
 10
90.803416
 20
210.952307
 30
0.0
  0
SPLINE
  5
199
100
AcDbEntity
  8
Layer_1
 62
7
100
AcDbSpline
 70
8
 71
3
 72
8
 73
4
 74
0
 40
0
 40
0
 40
0
 40
0
 40
1
 40
1
 40
1
 40
1
 10
90.803416
 20
210.952307
 30
0.0
 10
90.705947
 20
208.913488
 30
0.0
 10
90.511009
 20
205.575745
 30
0.0
 10
90.218602
 20
200.939078
 30
0.0
  0
SPLINE
  5
19a
100
AcDbEntity
  8
Layer_1
 62
7
100
AcDbSpline
 70
8
 71
3
 72
8
 73
4
 74
0
 40
0
 40
0
 40
0
 40
0
 40
1
 40
1
 40
1
 40
1
 10
90.218602
 20
200.939078
 30
0.0
 10
89.807065
 20
193.934753
 30
0.0
 10
89.563392
 20
189.561157
 30
0.0
 10
89.487583
 20
187.818290
 30
0.0
  0
SPLINE
  5
19b
100
AcDbEntity
  8
Layer_1
 62
7
100
AcDbSpline
 70
8
 71
3
 72
8
 73
4
 74
0
 40
0
 40
0
 40
0
 40
0
 40
1
 40
1
 40
1
 40
1
 10
89.487583
 20
187.818290
 30
0.0
 10
89.574222
 20
187.686757
 30
0.0
 10
89.666277
 20
187.555220
 30
0.0
 10
89.763746
 20
187.423680
 30
0.0
  0
SPLINE
  5
19c
100
AcDbEntity
  8
Layer_1
 62
7
100
AcDbSpline
 70
8
 71
3
 72
8
 73
4
 74
0
 40
0
 40
0
 40
0
 40
0
 40
1
 40
1
 40
1
 40
1
 10
89.763746
 20
187.423680
 30
0.0
 10
89.872045
 20
187.292147
 30
0.0
 10
89.937024
 20
187.127727
 30
0.0
 10
89.958684
 20
186.930420
 30
0.0
  0
SPLINE
  5
19d
100
AcDbEntity
  8
Layer_1
 62
7
100
AcDbSpline
 70
8
 71
3
 72
8
 73
4
 74
0
 40
0
 40
0
 40
0
 40
0
 40
1
 40
1
 40
1
 40
1
 10
89.958684
 20
186.930420
 30
0.0
 10
89.991171
 20
186.766000
 30
0.0
 10
90.007414
 20
186.437160
 30
0.0
 10
90.007414
 20
185.943900
 30
0.0
  0
SPLINE
  5
19e
100
AcDbEntity
  8
Layer_1
 62
7
100
AcDbSpline
 70
8
 71
3
 72
8
 73
4
 74
0
 40
0
 40
0
 40
0
 40
0
 40
1
 40
1
 40
1
 40
1
 10
90.007414
 20
185.943900
 30
0.0
 10
89.888285
 20
185.516407
 30
0.0
 10
89.433429
 20
185.302660
 30
0.0
 10
88.642846
 20
185.302660
 30
0.0
  0
LINE
  5
19f
100
AcDbEntity
  8
Layer_1
 62
7
100
AcDbLine
 10
88.642846
 20
185.302660
 30
0.0
 11
87.798114
 21
185.351960
 31
0.0
  0
SPLINE
  5
1a0
100
AcDbEntity
  8
Layer_1
 62
7
100
AcDbSpline
 70
8
 71
3
 72
8
 73
4
 74
0
 40
0
 40
0
 40
0
 40
0
 40
1
 40
1
 40
1
 40
1
 10
87.798114
 20
185.351960
 30
0.0
 10
87.635665
 20
185.351960
 30
0.0
 10
87.500292
 20
185.467057
 30
0.0
 10
87.391993
 20
185.697250
 30
0.0
  0
SPLINE
  5
1a1
100
AcDbEntity
  8
Layer_1
 62
7
100
AcDbSpline
 70
8
 71
3
 72
8
 73
4
 74
0
 40
0
 40
0
 40
0
 40
0
 40
1
 40
1
 40
1
 40
1
 10
87.391993
 20
185.697250
 30
0.0
 10
87.294524
 20
185.927437
 30
0.0
 10
87.245789
 20
186.190510
 30
0.0
 10
87.245789
 20
186.486470
 30
0.0
  0
SPLINE
  5
1a2
100
AcDbEntity
  8
Layer_1
 62
7
100
AcDbSpline
 70
8
 71
3
 72
8
 73
4
 74
0
 40
0
 40
0
 40
0
 40
0
 40
1
 40
1
 40
1
 40
1
 10
87.245789
 20
186.486470
 30
0.0
 10
87.245789
 20
186.848190
 30
0.0
 10
87.299939
 20
187.177030
 30
0.0
 10
87.408238
 20
187.472990
 30
0.0
  0
SPLINE
  5
1a3
100
AcDbEntity
  8
Layer_1
 62
7
100
AcDbSpline
 70
8
 71
3
 72
8
 73
4
 74
0
 40
0
 40
0
 40
0
 40
0
 40
1
 40
1
 40
1
 40
1
 10
87.408238
 20
187.472990
 30
0.0
 10
87.516537
 20
187.703177
 30
0.0
 10
87.879338
 20
187.818270
 30
0.0
 10
88.496643
 20
187.818270
 30
0.0
  0
SPLINE
  5
1a4
100
AcDbEntity
  8
Layer_1
 62
7
100
AcDbSpline
 70
8
 71
3
 72
8
 73
4
 74
0
 40
0
 40
0
 40
0
 40
0
 40
1
 40
1
 40
1
 40
1
 10
88.496643
 20
187.818270
 30
0.0
 10
88.399174
 20
189.002103
 30
0.0
 10
88.220480
 20
190.465450
 30
0.0
 10
87.960562
 20
192.208310
 30
0.0
  0
SPLINE
  5
1a5
100
AcDbEntity
  8
Layer_1
 62
7
100
AcDbSpline
 70
8
 71
3
 72
8
 73
4
 74
0
 40
0
 40
0
 40
0
 40
0
 40
1
 40
1
 40
1
 40
1
 10
87.960562
 20
192.208310
 30
0.0
 10
87.722305
 20
193.918290
 30
0.0
 10
87.559856
 20
195.167890
 30
0.0
 10
87.473217
 20
195.957110
 30
0.0
  0
SPLINE
  5
1a6
100
AcDbEntity
  8
Layer_1
 62
7
100
AcDbSpline
 70
8
 71
3
 72
8
 73
4
 74
0
 40
0
 40
0
 40
0
 40
0
 40
1
 40
1
 40
1
 40
1
 10
87.473217
 20
195.957110
 30
0.0
 10
87.429897
 20
196.746327
 30
0.0
 10
87.191639
 20
198.966007
 30
0.0
 10
86.758443
 20
202.616150
 30
0.0
  0
LINE
  5
1a7
100
AcDbEntity
  8
Layer_1
 62
7
100
AcDbLine
 10
86.758443
 20
202.616150
 30
0.0
 11
86.579750
 21
204.243916
 31
0.0
  0
SPLINE
  5
1a8
100
AcDbEntity
  8
Layer_1
 62
7
100
AcDbSpline
 70
8
 71
3
 72
8
 73
4
 74
0
 40
0
 40
0
 40
0
 40
0
 40
1
 40
1
 40
1
 40
1
 10
86.579750
 20
204.243916
 30
0.0
 10
86.460621
 20
201.876256
 30
0.0
 10
86.135724
 20
197.897271
 30
0.0
 10
85.605059
 20
192.306960
 30
0.0
  0
SPLINE
  5
1a9
100
AcDbEntity
  8
Layer_1
 62
7
100
AcDbSpline
 70
8
 71
3
 72
8
 73
4
 74
0
 40
0
 40
0
 40
0
 40
0
 40
1
 40
1
 40
1
 40
1
 10
85.605059
 20
192.306960
 30
0.0
 10
85.355971
 20
189.610460
 30
0.0
 10
85.220597
 20
187.999137
 30
0.0
 10
85.198938
 20
187.472990
 30
0.0
  0
SPLINE
  5
1aa
100
AcDbEntity
  8
Layer_1
 62
7
100
AcDbSpline
 70
8
 71
3
 72
8
 73
4
 74
0
 40
0
 40
0
 40
0
 40
0
 40
1
 40
1
 40
1
 40
1
 10
85.198938
 20
187.472990
 30
0.0
 10
85.458855
 20
187.472990
 30
0.0
 10
85.659208
 20
187.423663
 30
0.0
 10
85.799997
 20
187.325010
 30
0.0
  0
SPLINE
  5
1ab
100
AcDbEntity
  8
Layer_1
 62
7
100
AcDbSpline
 70
8
 71
3
 72
8
 73
4
 74
0
 40
0
 40
0
 40
0
 40
0
 40
1
 40
1
 40
1
 40
1
 10
85.799997
 20
187.325010
 30
0.0
 10
85.951616
 20
187.226357
 30
0.0
 10
86.049085
 20
186.963283
 30
0.0
 10
86.092405
 20
186.535790
 30
0.0
  0
SPLINE
  5
1ac
100
AcDbEntity
  8
Layer_1
 62
7
100
AcDbSpline
 70
8
 71
3
 72
8
 73
4
 74
0
 40
0
 40
0
 40
0
 40
0
 40
1
 40
1
 40
1
 40
1
 10
86.092405
 20
186.535790
 30
0.0
 10
86.157385
 20
185.582150
 30
0.0
 10
85.989521
 20
185.105330
 30
0.0
 10
85.588814
 20
185.105330
 30
0.0
  0
SPLINE
  5
1ad
100
AcDbEntity
  8
Layer_1
 62
7
100
AcDbSpline
 70
8
 71
3
 72
8
 73
4
 74
0
 40
0
 40
0
 40
0
 40
0
 40
1
 40
1
 40
1
 40
1
 10
85.588814
 20
185.105330
 30
0.0
 10
85.177278
 20
185.105330
 30
0.0
 10
84.814476
 20
185.088897
 30
0.0
 10
84.500409
 20
185.056030
 30
0.0
  0
SPLINE
  5
1ae
100
AcDbEntity
  8
Layer_1
 62
7
100
AcDbSpline
 70
8
 71
3
 72
8
 73
4
 74
0
 40
0
 40
0
 40
0
 40
0
 40
1
 40
1
 40
1
 40
1
 10
84.500409
 20
185.056030
 30
0.0
 10
83.569038
 20
184.990230
 30
0.0
 10
82.805530
 20
184.957330
 30
0.0
 10
82.209885
 20
184.957330
 30
0.0
  0
SPLINE
  5
1af
100
AcDbEntity
  8
Layer_1
 62
7
100
AcDbSpline
 70
8
 71
3
 72
8
 73
4
 74
0
 40
0
 40
0
 40
0
 40
0
 40
1
 40
1
 40
1
 40
1
 10
82.209885
 20
184.957330
 30
0.0
 10
81.549261
 20
184.957330
 30
0.0
 10
81.137725
 20
185.006657
 30
0.0
 10
80.975276
 20
185.105310
 30
0.0
  0
SPLINE
  5
1b0
100
AcDbEntity
  8
Layer_1
 62
7
100
AcDbSpline
 70
8
 71
3
 72
8
 73
4
 74
0
 40
0
 40
0
 40
0
 40
0
 40
1
 40
1
 40
1
 40
1
 10
80.975276
 20
185.105310
 30
0.0
 10
80.910296
 20
185.565690
 30
0.0
 10
80.877806
 20
185.943857
 30
0.0
 10
80.877806
 20
186.239810
 30
0.0
  0
SPLINE
  5
1b1
100
AcDbEntity
  8
Layer_1
 62
7
100
AcDbSpline
 70
8
 71
3
 72
8
 73
4
 74
0
 40
0
 40
0
 40
0
 40
0
 40
1
 40
1
 40
1
 40
1
 10
80.877806
 20
186.239810
 30
0.0
 10
80.877806
 20
186.601537
 30
0.0
 10
80.921126
 20
186.864610
 30
0.0
 10
81.007765
 20
187.029030
 30
0.0
  0
SPLINE
  5
1b2
100
AcDbEntity
  8
Layer_1
 62
7
100
AcDbSpline
 70
8
 71
3
 72
8
 73
4
 74
0
 40
0
 40
0
 40
0
 40
0
 40
1
 40
1
 40
1
 40
1
 10
81.007765
 20
187.029030
 30
0.0
 10
81.105234
 20
187.226337
 30
0.0
 10
81.256853
 20
187.374317
 30
0.0
 10
81.462621
 20
187.472970
 30
0.0
  0
SPLINE
  5
1b3
100
AcDbEntity
  8
Layer_1
 62
7
100
AcDbSpline
 70
8
 71
3
 72
8
 73
4
 74
0
 40
0
 40
0
 40
0
 40
0
 40
1
 40
1
 40
1
 40
1
 10
81.462621
 20
187.472970
 30
0.0
 10
81.386812
 20
188.064883
 30
0.0
 10
81.202703
 20
189.446020
 30
0.0
 10
80.910296
 20
191.616380
 30
0.0
  0
SPLINE
  5
1b4
100
AcDbEntity
  8
Layer_1
 62
7
100
AcDbSpline
 70
8
 71
3
 72
8
 73
4
 74
0
 40
0
 40
0
 40
0
 40
0
 40
1
 40
1
 40
1
 40
1
 10
80.910296
 20
191.616380
 30
0.0
 10
80.661208
 20
193.392120
 30
0.0
 10
80.477100
 20
194.871907
 30
0.0
 10
80.357971
 20
196.055740
 30
0.0
  0
SPLINE
  5
1b5
100
AcDbEntity
  8
Layer_1
 62
7
100
AcDbSpline
 70
8
 71
3
 72
8
 73
4
 74
0
 40
0
 40
0
 40
0
 40
0
 40
1
 40
1
 40
1
 40
1
 10
80.357971
 20
196.055740
 30
0.0
 10
80.238846
 20
197.239596
 30
0.0
 10
80.076400
 20
199.261985
 30
0.0
 10
79.870632
 20
202.122908
 30
0.0
  0
SPLINE
  5
1b6
100
AcDbEntity
  8
Layer_1
 62
7
100
AcDbSpline
 70
8
 71
3
 72
8
 73
4
 74
0
 40
0
 40
0
 40
0
 40
0
 40
1
 40
1
 40
1
 40
1
 10
79.870632
 20
202.122908
 30
0.0
 10
79.621544
 20
204.687873
 30
0.0
 10
79.399531
 20
207.417258
 30
0.0
 10
79.204593
 20
210.311065
 30
0.0
  0
SPLINE
  5
1b7
100
AcDbEntity
  8
Layer_1
 62
7
100
AcDbSpline
 70
8
 71
3
 72
8
 73
4
 74
0
 40
0
 40
0
 40
0
 40
0
 40
1
 40
1
 40
1
 40
1
 10
79.204593
 20
210.311065
 30
0.0
 10
79.009654
 20
213.237757
 30
0.0
 10
78.863451
 20
216.000028
 30
0.0
 10
78.765982
 20
218.597877
 30
0.0
  0
LINE
  5
1b8
100
AcDbEntity
  8
Layer_1
 62
7
100
AcDbLine
 10
78.765982
 20
218.597877
 30
0.0
 11
78.246146
 21
219.189792
 31
0.0
  0
LINE
  5
1b9
100
AcDbEntity
  8
Layer_1
 62
7
100
AcDbLine
 10
78.246146
 20
219.189792
 30
0.0
 11
78.246146
 21
221.014863
 31
0.0
  0
SPLINE
  5
1ba
100
AcDbEntity
  8
Layer_1
 62
7
100
AcDbSpline
 70
8
 71
3
 72
8
 73
4
 74
0
 40
0
 40
0
 40
0
 40
0
 40
1
 40
1
 40
1
 40
1
 10
78.246146
 20
221.014863
 30
0.0
 10
78.451915
 20
221.277936
 30
0.0
 10
79.475340
 20
221.409473
 30
0.0
 10
81.316423
 20
221.409473
 30
0.0
  0
LINE
  5
1bb
100
AcDbEntity
  8
Layer_1
 62
7
100
AcDbLine
 10
81.316423
 20
221.409473
 30
0.0
 11
84.370455
 21
221.360143
 31
0.0
  0
SPLINE
  5
1bc
100
AcDbEntity
  8
Layer_1
 62
7
100
AcDbSpline
 70
8
 71
3
 72
8
 73
4
 74
0
 40
0
 40
0
 40
0
 40
0
 40
1
 40
1
 40
1
 40
1
 10
84.370455
 20
221.360143
 30
0.0
 10
84.706182
 20
221.360143
 30
0.0
 10
84.874046
 20
220.949091
 30
0.0
 10
84.874046
 20
220.126987
 30
0.0
  0
SPLINE
  5
1bd
100
AcDbEntity
  8
Layer_1
 62
7
100
AcDbSpline
 70
8
 71
3
 72
8
 73
4
 74
0
 40
0
 40
0
 40
0
 40
0
 40
1
 40
1
 40
1
 40
1
 10
84.874046
 20
220.126987
 30
0.0
 10
84.874046
 20
219.765261
 30
0.0
 10
84.841556
 20
219.485746
 30
0.0
 10
84.776576
 20
219.288441
 30
0.0
  0
SPLINE
  5
1be
100
AcDbEntity
  8
Layer_1
 62
7
100
AcDbSpline
 70
8
 71
3
 72
8
 73
4
 74
0
 40
0
 40
0
 40
0
 40
0
 40
1
 40
1
 40
1
 40
1
 10
84.776576
 20
219.288441
 30
0.0
 10
84.711596
 20
219.124020
 30
0.0
 10
84.635787
 20
218.976041
 30
0.0
 10
84.549148
 20
218.844504
 30
0.0
  0
SPLINE
  5
1bf
100
AcDbEntity
  8
Layer_1
 62
7
100
AcDbSpline
 70
8
 71
3
 72
8
 73
4
 74
0
 40
0
 40
0
 40
0
 40
0
 40
1
 40
1
 40
1
 40
1
 10
84.549148
 20
218.844504
 30
0.0
 10
84.462509
 20
218.745852
 30
0.0
 10
84.402944
 20
218.663642
 30
0.0
 10
84.370454
 20
218.597873
 30
0.0
  0
SPLINE
  5
1c0
100
AcDbEntity
  8
Layer_1
 62
7
100
AcDbSpline
 70
8
 71
3
 72
8
 73
4
 74
0
 40
0
 40
0
 40
0
 40
0
 40
1
 40
1
 40
1
 40
1
 10
84.370454
 20
218.597873
 30
0.0
 10
84.370454
 20
217.315390
 30
0.0
 10
84.430019
 20
215.227246
 30
0.0
 10
84.549148
 20
212.333439
 30
0.0
  0
SPLINE
  5
1c1
100
AcDbEntity
  8
Layer_1
 62
7
100
AcDbSpline
 70
8
 71
3
 72
8
 73
4
 74
0
 40
0
 40
0
 40
0
 40
0
 40
1
 40
1
 40
1
 40
1
 10
84.549148
 20
212.333439
 30
0.0
 10
84.668277
 20
209.439632
 30
0.0
 10
84.814480
 20
206.693803
 30
0.0
 10
84.987759
 20
204.095954
 30
0.0
  0
SPLINE
  5
1c2
100
AcDbEntity
  8
Layer_1
 62
7
100
AcDbSpline
 70
8
 71
3
 72
8
 73
4
 74
0
 40
0
 40
0
 40
0
 40
0
 40
1
 40
1
 40
1
 40
1
 10
84.987759
 20
204.095954
 30
0.0
 10
85.161037
 20
201.498105
 30
0.0
 10
85.328900
 20
199.821012
 30
0.0
 10
85.491349
 20
199.064676
 30
0.0
  0
SPLINE
  5
1c3
100
AcDbEntity
  8
Layer_1
 62
7
100
AcDbSpline
 70
8
 71
3
 72
8
 73
4
 74
0
 40
0
 40
0
 40
0
 40
0
 40
1
 40
1
 40
1
 40
1
 10
85.491349
 20
199.064676
 30
0.0
 10
85.577988
 20
199.886780
 30
0.0
 10
85.686287
 20
201.711851
 30
0.0
 10
85.816246
 20
204.539890
 30
0.0
  0
SPLINE
  5
1c4
100
AcDbEntity
  8
Layer_1
 62
7
100
AcDbSpline
 70
8
 71
3
 72
8
 73
4
 74
0
 40
0
 40
0
 40
0
 40
0
 40
1
 40
1
 40
1
 40
1
 10
85.816246
 20
204.539890
 30
0.0
 10
85.881226
 20
206.052562
 30
0.0
 10
85.935376
 20
207.252834
 30
0.0
 10
85.978695
 20
208.140706
 30
0.0
  0
SPLINE
  5
1c5
100
AcDbEntity
  8
Layer_1
 62
7
100
AcDbSpline
 70
8
 71
3
 72
8
 73
4
 74
0
 40
0
 40
0
 40
0
 40
0
 40
1
 40
1
 40
1
 40
1
 10
85.978695
 20
208.140706
 30
0.0
 10
86.032842
 20
209.028579
 30
0.0
 10
86.097821
 20
209.653378
 30
0.0
 10
86.173633
 20
210.015104
 30
0.0
  0
LINE
  5
1c6
100
AcDbEntity
  8
Layer_1
 62
7
100
AcDbLine
 10
86.173633
 20
210.015104
 30
0.0
 11
86.677223
 21
210.015104
 31
0.0
  0
SPLINE
  5
1c7
100
AcDbEntity
  8
Layer_1
 62
7
100
AcDbSpline
 70
8
 71
3
 72
8
 73
4
 74
0
 40
0
 40
0
 40
0
 40
0
 40
1
 40
1
 40
1
 40
1
 10
86.677223
 20
210.015104
 30
0.0
 10
86.818012
 20
209.324537
 30
0.0
 10
87.191643
 20
206.364962
 30
0.0
 10
87.798118
 20
201.136379
 30
0.0
  0
SPLINE
  5
1c8
100
AcDbEntity
  8
Layer_1
 62
7
100
AcDbSpline
 70
8
 71
3
 72
8
 73
4
 74
0
 40
0
 40
0
 40
0
 40
0
 40
1
 40
1
 40
1
 40
1
 10
87.798118
 20
201.136379
 30
0.0
 10
88.415422
 20
195.907800
 30
0.0
 10
88.778224
 20
192.685153
 30
0.0
 10
88.886523
 20
191.468440
 30
0.0
  0
LINE
  5
1c9
100
AcDbEntity
  8
Layer_1
 62
7
100
AcDbLine
 10
88.886523
 20
191.468440
 30
0.0
 11
89.000237
 21
192.060350
 31
0.0
  0
LINE
  5
1ca
100
AcDbEntity
  8
Layer_1
 62
7
100
AcDbLine
 10
89.000237
 20
192.060350
 30
0.0
 11
89.097707
 21
192.997550
 31
0.0
  0
LINE
  5
1cb
100
AcDbEntity
  8
Layer_1
 62
7
100
AcDbLine
 10
89.097707
 20
192.997550
 30
0.0
 11
89.097707
 21
194.773300
 31
0.0
  0
SPLINE
  5
1cc
100
AcDbEntity
  8
Layer_1
 62
7
100
AcDbSpline
 70
8
 71
3
 72
8
 73
4
 74
0
 40
0
 40
0
 40
0
 40
0
 40
1
 40
1
 40
1
 40
1
 10
89.097707
 20
194.773300
 30
0.0
 10
89.433434
 20
200.034761
 30
0.0
 10
89.698766
 20
204.539890
 30
0.0
 10
89.893705
 20
208.288685
 30
0.0
  0
SPLINE
  5
1cd
100
AcDbEntity
  8
Layer_1
 62
7
100
AcDbSpline
 70
8
 71
3
 72
8
 73
4
 74
0
 40
0
 40
0
 40
0
 40
0
 40
1
 40
1
 40
1
 40
1
 10
89.893705
 20
208.288685
 30
0.0
 10
90.088643
 20
212.070365
 30
0.0
 10
90.224017
 20
215.802719
 30
0.0
 10
90.299826
 20
219.485746
 30
0.0
  0
LINE
  5
1ce
100
AcDbEntity
  8
Layer_1
 62
7
100
AcDbLine
 10
90.299826
 20
219.485746
 30
0.0
 11
89.698767
 21
219.436423
 31
0.0
  0
SPLINE
  5
1cf
100
AcDbEntity
  8
Layer_1
 62
7
100
AcDbSpline
 70
8
 71
3
 72
8
 73
4
 74
0
 40
0
 40
0
 40
0
 40
0
 40
1
 40
1
 40
1
 40
1
 10
101.108740
 20
211.494895
 30
0.0
 10
101.108740
 20
213.895440
 30
0.0
 10
101.303680
 20
215.917817
 30
0.0
 10
101.693560
 20
217.562026
 30
0.0
  0
SPLINE
  5
1d0
100
AcDbEntity
  8
Layer_1
 62
7
100
AcDbSpline
 70
8
 71
3
 72
8
 73
4
 74
0
 40
0
 40
0
 40
0
 40
0
 40
1
 40
1
 40
1
 40
1
 10
101.693560
 20
217.562026
 30
0.0
 10
102.083433
 20
219.239119
 30
0.0
 10
102.608683
 20
220.488717
 30
0.0
 10
103.269310
 20
221.310821
 30
0.0
  0
SPLINE
  5
1d1
100
AcDbEntity
  8
Layer_1
 62
7
100
AcDbSpline
 70
8
 71
3
 72
8
 73
4
 74
0
 40
0
 40
0
 40
0
 40
0
 40
1
 40
1
 40
1
 40
1
 10
103.269310
 20
221.310821
 30
0.0
 10
103.929937
 20
222.132925
 30
0.0
 10
104.671783
 20
222.543977
 30
0.0
 10
105.494850
 20
222.543977
 30
0.0
  0
SPLINE
  5
1d2
100
AcDbEntity
  8
Layer_1
 62
7
100
AcDbSpline
 70
8
 71
3
 72
8
 73
4
 74
0
 40
0
 40
0
 40
0
 40
0
 40
1
 40
1
 40
1
 40
1
 10
105.494850
 20
222.543977
 30
0.0
 10
106.361243
 20
222.543977
 30
0.0
 10
107.027283
 20
222.461767
 30
0.0
 10
107.492970
 20
222.297346
 30
0.0
  0
SPLINE
  5
1d3
100
AcDbEntity
  8
Layer_1
 62
7
100
AcDbSpline
 70
8
 71
3
 72
8
 73
4
 74
0
 40
0
 40
0
 40
0
 40
0
 40
1
 40
1
 40
1
 40
1
 10
107.492970
 20
222.297346
 30
0.0
 10
107.958657
 20
222.165809
 30
0.0
 10
108.321460
 20
221.820526
 30
0.0
 10
108.581380
 20
221.261495
 30
0.0
  0
SPLINE
  5
1d4
100
AcDbEntity
  8
Layer_1
 62
7
100
AcDbSpline
 70
8
 71
3
 72
8
 73
4
 74
0
 40
0
 40
0
 40
0
 40
0
 40
1
 40
1
 40
1
 40
1
 10
108.581380
 20
221.261495
 30
0.0
 10
108.841293
 20
220.702464
 30
0.0
 10
108.971250
 20
219.831033
 30
0.0
 10
108.971250
 20
218.647203
 30
0.0
  0
SPLINE
  5
1d5
100
AcDbEntity
  8
Layer_1
 62
7
100
AcDbSpline
 70
8
 71
3
 72
8
 73
4
 74
0
 40
0
 40
0
 40
0
 40
0
 40
1
 40
1
 40
1
 40
1
 10
108.971250
 20
218.647203
 30
0.0
 10
108.971250
 20
217.529142
 30
0.0
 10
108.841293
 20
215.983586
 30
0.0
 10
108.581380
 20
214.010536
 30
0.0
  0
SPLINE
  5
1d6
100
AcDbEntity
  8
Layer_1
 62
7
100
AcDbSpline
 70
8
 71
3
 72
8
 73
4
 74
0
 40
0
 40
0
 40
0
 40
0
 40
1
 40
1
 40
1
 40
1
 10
108.581380
 20
214.010536
 30
0.0
 10
108.603047
 20
213.944769
 30
0.0
 10
108.646363
 20
213.813233
 30
0.0
 10
108.711330
 20
213.615926
 30
0.0
  0
SPLINE
  5
1d7
100
AcDbEntity
  8
Layer_1
 62
7
100
AcDbSpline
 70
8
 71
3
 72
8
 73
4
 74
0
 40
0
 40
0
 40
0
 40
0
 40
1
 40
1
 40
1
 40
1
 10
108.711330
 20
213.615926
 30
0.0
 10
108.776330
 20
213.451505
 30
0.0
 10
108.808830
 20
213.237757
 30
0.0
 10
108.808830
 20
212.974684
 30
0.0
  0
SPLINE
  5
1d8
100
AcDbEntity
  8
Layer_1
 62
7
100
AcDbSpline
 70
8
 71
3
 72
8
 73
4
 74
0
 40
0
 40
0
 40
0
 40
0
 40
1
 40
1
 40
1
 40
1
 10
108.808830
 20
212.974684
 30
0.0
 10
108.808830
 20
212.744495
 30
0.0
 10
108.781763
 20
212.497864
 30
0.0
 10
108.727630
 20
212.234790
 30
0.0
  0
SPLINE
  5
1d9
100
AcDbEntity
  8
Layer_1
 62
7
100
AcDbSpline
 70
8
 71
3
 72
8
 73
4
 74
0
 40
0
 40
0
 40
0
 40
0
 40
1
 40
1
 40
1
 40
1
 10
108.727630
 20
212.234790
 30
0.0
 10
108.532690
 20
211.774411
 30
0.0
 10
108.337750
 20
211.544222
 30
0.0
 10
108.142810
 20
211.544222
 30
0.0
  0
SPLINE
  5
1da
100
AcDbEntity
  8
Layer_1
 62
7
100
AcDbSpline
 70
8
 71
3
 72
8
 73
4
 74
0
 40
0
 40
0
 40
0
 40
0
 40
1
 40
1
 40
1
 40
1
 10
108.142810
 20
211.544222
 30
0.0
 10
107.980363
 20
211.544222
 30
0.0
 10
107.828747
 20
211.642875
 30
0.0
 10
107.687960
 20
211.840180
 30
0.0
  0
SPLINE
  5
1db
100
AcDbEntity
  8
Layer_1
 62
7
100
AcDbSpline
 70
8
 71
3
 72
8
 73
4
 74
0
 40
0
 40
0
 40
0
 40
0
 40
1
 40
1
 40
1
 40
1
 10
107.687960
 20
211.840180
 30
0.0
 10
107.547173
 20
212.037485
 30
0.0
 10
107.363063
 20
212.349885
 30
0.0
 10
107.135630
 20
212.777379
 30
0.0
  0
SPLINE
  5
1dc
100
AcDbEntity
  8
Layer_1
 62
7
100
AcDbSpline
 70
8
 71
3
 72
8
 73
4
 74
0
 40
0
 40
0
 40
0
 40
0
 40
1
 40
1
 40
1
 40
1
 10
107.135630
 20
212.777379
 30
0.0
 10
107.092297
 20
212.843146
 30
0.0
 10
106.994830
 20
212.941798
 30
0.0
 10
106.843230
 20
213.073337
 30
0.0
  0
SPLINE
  5
1dd
100
AcDbEntity
  8
Layer_1
 62
7
100
AcDbSpline
 70
8
 71
3
 72
8
 73
4
 74
0
 40
0
 40
0
 40
0
 40
0
 40
1
 40
1
 40
1
 40
1
 10
106.843230
 20
213.073337
 30
0.0
 10
106.702437
 20
213.237758
 30
0.0
 10
106.583307
 20
213.418621
 30
0.0
 10
106.485840
 20
213.615926
 30
0.0
  0
SPLINE
  5
1de
100
AcDbEntity
  8
Layer_1
 62
7
100
AcDbSpline
 70
8
 71
3
 72
8
 73
4
 74
0
 40
0
 40
0
 40
0
 40
0
 40
1
 40
1
 40
1
 40
1
 10
106.485840
 20
213.615926
 30
0.0
 10
106.388373
 20
213.846115
 30
0.0
 10
106.339640
 20
214.092746
 30
0.0
 10
106.339640
 20
214.355819
 30
0.0
  0
SPLINE
  5
1df
100
AcDbEntity
  8
Layer_1
 62
7
100
AcDbSpline
 70
8
 71
3
 72
8
 73
4
 74
0
 40
0
 40
0
 40
0
 40
0
 40
1
 40
1
 40
1
 40
1
 10
106.339640
 20
214.355819
 30
0.0
 10
106.339640
 20
214.586008
 30
0.0
 10
106.382957
 20
214.865524
 30
0.0
 10
106.469590
 20
215.194366
 30
0.0
  0
SPLINE
  5
1e0
100
AcDbEntity
  8
Layer_1
 62
7
100
AcDbSpline
 70
8
 71
3
 72
8
 73
4
 74
0
 40
0
 40
0
 40
0
 40
0
 40
1
 40
1
 40
1
 40
1
 10
106.469590
 20
215.194366
 30
0.0
 10
106.556230
 20
215.424555
 30
0.0
 10
106.664530
 20
215.539649
 30
0.0
 10
106.794490
 20
215.539649
 30
0.0
  0
SPLINE
  5
1e1
100
AcDbEntity
  8
Layer_1
 62
7
100
AcDbSpline
 70
8
 71
3
 72
8
 73
4
 74
0
 40
0
 40
0
 40
0
 40
0
 40
1
 40
1
 40
1
 40
1
 10
106.794490
 20
215.539649
 30
0.0
 10
106.902790
 20
215.539649
 30
0.0
 10
107.065240
 20
215.440997
 30
0.0
 10
107.281840
 20
215.243692
 30
0.0
  0
SPLINE
  5
1e2
100
AcDbEntity
  8
Layer_1
 62
7
100
AcDbSpline
 70
8
 71
3
 72
8
 73
4
 74
0
 40
0
 40
0
 40
0
 40
0
 40
1
 40
1
 40
1
 40
1
 10
107.281840
 20
215.243692
 30
0.0
 10
107.498433
 20
215.046387
 30
0.0
 10
107.660880
 20
214.947734
 30
0.0
 10
107.769180
 20
214.947734
 30
0.0
  0
SPLINE
  5
1e3
100
AcDbEntity
  8
Layer_1
 62
7
100
AcDbSpline
 70
8
 71
3
 72
8
 73
4
 74
0
 40
0
 40
0
 40
0
 40
0
 40
1
 40
1
 40
1
 40
1
 10
107.769180
 20
214.947734
 30
0.0
 10
107.888313
 20
215.276576
 30
0.0
 10
107.985783
 20
215.736954
 30
0.0
 10
108.061590
 20
216.328869
 30
0.0
  0
SPLINE
  5
1e4
100
AcDbEntity
  8
Layer_1
 62
7
100
AcDbSpline
 70
8
 71
3
 72
8
 73
4
 74
0
 40
0
 40
0
 40
0
 40
0
 40
1
 40
1
 40
1
 40
1
 10
108.061590
 20
216.328869
 30
0.0
 10
108.137397
 20
216.920784
 30
0.0
 10
108.186130
 20
217.282510
 30
0.0
 10
108.207790
 20
217.414047
 30
0.0
  0
SPLINE
  5
1e5
100
AcDbEntity
  8
Layer_1
 62
7
100
AcDbSpline
 70
8
 71
3
 72
8
 73
4
 74
0
 40
0
 40
0
 40
0
 40
0
 40
1
 40
1
 40
1
 40
1
 10
108.207790
 20
217.414047
 30
0.0
 10
108.218590
 20
218.236151
 30
0.0
 10
108.186090
 20
218.795182
 30
0.0
 10
108.110290
 20
219.091140
 30
0.0
  0
SPLINE
  5
1e6
100
AcDbEntity
  8
Layer_1
 62
7
100
AcDbSpline
 70
8
 71
3
 72
8
 73
4
 74
0
 40
0
 40
0
 40
0
 40
0
 40
1
 40
1
 40
1
 40
1
 10
108.110290
 20
219.091140
 30
0.0
 10
108.034483
 20
219.387097
 30
0.0
 10
107.882867
 20
219.633728
 30
0.0
 10
107.655440
 20
219.831033
 30
0.0
  0
SPLINE
  5
1e7
100
AcDbEntity
  8
Layer_1
 62
7
100
AcDbSpline
 70
8
 71
3
 72
8
 73
4
 74
0
 40
0
 40
0
 40
0
 40
0
 40
1
 40
1
 40
1
 40
1
 10
107.655440
 20
219.831033
 30
0.0
 10
107.579627
 20
219.863920
 30
0.0
 10
107.460497
 20
219.880363
 30
0.0
 10
107.298050
 20
219.880363
 30
0.0
  0
SPLINE
  5
1e8
100
AcDbEntity
  8
Layer_1
 62
7
100
AcDbSpline
 70
8
 71
3
 72
8
 73
4
 74
0
 40
0
 40
0
 40
0
 40
0
 40
1
 40
1
 40
1
 40
1
 10
107.298050
 20
219.880363
 30
0.0
 10
106.713237
 20
219.880363
 30
0.0
 10
106.193403
 20
219.502195
 30
0.0
 10
105.738550
 20
218.745859
 30
0.0
  0
SPLINE
  5
1e9
100
AcDbEntity
  8
Layer_1
 62
7
100
AcDbSpline
 70
8
 71
3
 72
8
 73
4
 74
0
 40
0
 40
0
 40
0
 40
0
 40
1
 40
1
 40
1
 40
1
 10
105.738550
 20
218.745859
 30
0.0
 10
105.283690
 20
217.989523
 30
0.0
 10
105.056260
 20
216.739925
 30
0.0
 10
105.056260
 20
214.997064
 30
0.0
  0
SPLINE
  5
1ea
100
AcDbEntity
  8
Layer_1
 62
7
100
AcDbSpline
 70
8
 71
3
 72
8
 73
4
 74
0
 40
0
 40
0
 40
0
 40
0
 40
1
 40
1
 40
1
 40
1
 10
105.056260
 20
214.997064
 30
0.0
 10
105.056260
 20
213.879002
 30
0.0
 10
105.197050
 20
212.876035
 30
0.0
 10
105.478630
 20
211.988162
 30
0.0
  0
SPLINE
  5
1eb
100
AcDbEntity
  8
Layer_1
 62
7
100
AcDbSpline
 70
8
 71
3
 72
8
 73
4
 74
0
 40
0
 40
0
 40
0
 40
0
 40
1
 40
1
 40
1
 40
1
 10
105.478630
 20
211.988162
 30
0.0
 10
105.760210
 20
211.133173
 30
0.0
 10
106.025543
 20
210.426163
 30
0.0
 10
106.274630
 20
209.867132
 30
0.0
  0
SPLINE
  5
1ec
100
AcDbEntity
  8
Layer_1
 62
7
100
AcDbSpline
 70
8
 71
3
 72
8
 73
4
 74
0
 40
0
 40
0
 40
0
 40
0
 40
1
 40
1
 40
1
 40
1
 10
106.274630
 20
209.867132
 30
0.0
 10
106.534543
 20
209.308101
 30
0.0
 10
106.696990
 20
208.962818
 30
0.0
 10
106.761970
 20
208.831281
 30
0.0
  0
SPLINE
  5
1ed
100
AcDbEntity
  8
Layer_1
 62
7
100
AcDbSpline
 70
8
 71
3
 72
8
 73
4
 74
0
 40
0
 40
0
 40
0
 40
0
 40
1
 40
1
 40
1
 40
1
 10
106.761970
 20
208.831281
 30
0.0
 10
107.173510
 20
207.976292
 30
0.0
 10
107.606707
 20
207.154188
 30
0.0
 10
108.061560
 20
206.364968
 30
0.0
  0
SPLINE
  5
1ee
100
AcDbEntity
  8
Layer_1
 62
7
100
AcDbSpline
 70
8
 71
3
 72
8
 73
4
 74
0
 40
0
 40
0
 40
0
 40
0
 40
1
 40
1
 40
1
 40
1
 10
108.061560
 20
206.364968
 30
0.0
 10
108.603053
 20
205.378443
 30
0.0
 10
109.014590
 20
204.589223
 30
0.0
 10
109.296170
 20
203.997308
 30
0.0
  0
SPLINE
  5
1ef
100
AcDbEntity
  8
Layer_1
 62
7
100
AcDbSpline
 70
8
 71
3
 72
8
 73
4
 74
0
 40
0
 40
0
 40
0
 40
0
 40
1
 40
1
 40
1
 40
1
 10
109.296170
 20
203.997308
 30
0.0
 10
109.599403
 20
203.306741
 30
0.0
 10
109.848490
 20
202.649057
 30
0.0
 10
110.043430
 20
202.024258
 30
0.0
  0
SPLINE
  5
1f0
100
AcDbEntity
  8
Layer_1
 62
7
100
AcDbSpline
 70
8
 71
3
 72
8
 73
4
 74
0
 40
0
 40
0
 40
0
 40
0
 40
1
 40
1
 40
1
 40
1
 10
110.043430
 20
202.024258
 30
0.0
 10
110.238370
 20
201.432343
 30
0.0
 10
110.395403
 20
200.659565
 30
0.0
 10
110.514530
 20
199.705924
 30
0.0
  0
SPLINE
  5
1f1
100
AcDbEntity
  8
Layer_1
 62
7
100
AcDbSpline
 70
8
 71
3
 72
8
 73
4
 74
0
 40
0
 40
0
 40
0
 40
0
 40
1
 40
1
 40
1
 40
1
 10
110.514530
 20
199.705924
 30
0.0
 10
110.644490
 20
198.785167
 30
0.0
 10
110.698640
 20
197.650663
 30
0.0
 10
110.676980
 20
196.302410
 30
0.0
  0
SPLINE
  5
1f2
100
AcDbEntity
  8
Layer_1
 62
7
100
AcDbSpline
 70
8
 71
3
 72
8
 73
4
 74
0
 40
0
 40
0
 40
0
 40
0
 40
1
 40
1
 40
1
 40
1
 10
110.676980
 20
196.302410
 30
0.0
 10
110.622847
 20
192.718037
 30
0.0
 10
110.254630
 20
190.087303
 30
0.0
 10
109.572330
 20
188.410210
 30
0.0
  0
SPLINE
  5
1f3
100
AcDbEntity
  8
Layer_1
 62
7
100
AcDbSpline
 70
8
 71
3
 72
8
 73
4
 74
0
 40
0
 40
0
 40
0
 40
0
 40
1
 40
1
 40
1
 40
1
 10
109.572330
 20
188.410210
 30
0.0
 10
108.900877
 20
186.733117
 30
0.0
 10
108.088633
 20
185.713707
 30
0.0
 10
107.135600
 20
185.351980
 30
0.0
  0
SPLINE
  5
1f4
100
AcDbEntity
  8
Layer_1
 62
7
100
AcDbSpline
 70
8
 71
3
 72
8
 73
4
 74
0
 40
0
 40
0
 40
0
 40
0
 40
1
 40
1
 40
1
 40
1
 10
107.135600
 20
185.351980
 30
0.0
 10
106.193400
 20
184.957373
 30
0.0
 10
104.942547
 20
184.760070
 30
0.0
 10
103.383040
 20
184.760070
 30
0.0
  0
SPLINE
  5
1f5
100
AcDbEntity
  8
Layer_1
 62
7
100
AcDbSpline
 70
8
 71
3
 72
8
 73
4
 74
0
 40
0
 40
0
 40
0
 40
0
 40
1
 40
1
 40
1
 40
1
 10
103.383040
 20
184.760070
 30
0.0
 10
102.549140
 20
184.760070
 30
0.0
 10
101.926423
 20
185.647940
 30
0.0
 10
101.514890
 20
187.423680
 30
0.0
  0
SPLINE
  5
1f6
100
AcDbEntity
  8
Layer_1
 62
7
100
AcDbSpline
 70
8
 71
3
 72
8
 73
4
 74
0
 40
0
 40
0
 40
0
 40
0
 40
1
 40
1
 40
1
 40
1
 10
101.514890
 20
187.423680
 30
0.0
 10
101.114183
 20
189.199427
 30
0.0
 10
100.913830
 20
191.320457
 30
0.0
 10
100.913830
 20
193.786770
 30
0.0
  0
SPLINE
  5
1f7
100
AcDbEntity
  8
Layer_1
 62
7
100
AcDbSpline
 70
8
 71
3
 72
8
 73
4
 74
0
 40
0
 40
0
 40
0
 40
0
 40
1
 40
1
 40
1
 40
1
 10
100.913830
 20
193.786770
 30
0.0
 10
100.913830
 20
195.102137
 30
0.0
 10
100.973393
 20
196.351736
 30
0.0
 10
101.092520
 20
197.535569
 30
0.0
  0
SPLINE
  5
1f8
100
AcDbEntity
  8
Layer_1
 62
7
100
AcDbSpline
 70
8
 71
3
 72
8
 73
4
 74
0
 40
0
 40
0
 40
0
 40
0
 40
1
 40
1
 40
1
 40
1
 10
101.092520
 20
197.535569
 30
0.0
 10
100.908413
 20
197.699990
 30
0.0
 10
100.756793
 20
197.897295
 30
0.0
 10
100.637660
 20
198.127484
 30
0.0
  0
SPLINE
  5
1f9
100
AcDbEntity
  8
Layer_1
 62
7
100
AcDbSpline
 70
8
 71
3
 72
8
 73
4
 74
0
 40
0
 40
0
 40
0
 40
0
 40
1
 40
1
 40
1
 40
1
 10
100.637660
 20
198.127484
 30
0.0
 10
100.529360
 20
198.357673
 30
0.0
 10
100.475210
 20
198.653631
 30
0.0
 10
100.475210
 20
199.015357
 30
0.0
  0
SPLINE
  5
1fa
100
AcDbEntity
  8
Layer_1
 62
7
100
AcDbSpline
 70
8
 71
3
 72
8
 73
4
 74
0
 40
0
 40
0
 40
0
 40
0
 40
1
 40
1
 40
1
 40
1
 10
100.475210
 20
199.015357
 30
0.0
 10
100.475210
 20
199.344198
 30
0.0
 10
100.523947
 20
199.673040
 30
0.0
 10
100.621420
 20
200.001882
 30
0.0
  0
SPLINE
  5
1fb
100
AcDbEntity
  8
Layer_1
 62
7
100
AcDbSpline
 70
8
 71
3
 72
8
 73
4
 74
0
 40
0
 40
0
 40
0
 40
0
 40
1
 40
1
 40
1
 40
1
 10
100.621420
 20
200.001882
 30
0.0
 10
100.729720
 20
200.166303
 30
0.0
 10
100.816360
 20
200.248513
 30
0.0
 10
100.881340
 20
200.248513
 30
0.0
  0
SPLINE
  5
1fc
100
AcDbEntity
  8
Layer_1
 62
7
100
AcDbSpline
 70
8
 71
3
 72
8
 73
4
 74
0
 40
0
 40
0
 40
0
 40
0
 40
1
 40
1
 40
1
 40
1
 10
100.881340
 20
200.248513
 30
0.0
 10
101.000467
 20
200.248513
 30
0.0
 10
101.135840
 20
200.116976
 30
0.0
 10
101.287460
 20
199.853903
 30
0.0
  0
SPLINE
  5
1fd
100
AcDbEntity
  8
Layer_1
 62
7
100
AcDbSpline
 70
8
 71
3
 72
8
 73
4
 74
0
 40
0
 40
0
 40
0
 40
0
 40
1
 40
1
 40
1
 40
1
 10
101.287460
 20
199.853903
 30
0.0
 10
101.439080
 20
199.623714
 30
0.0
 10
101.547377
 20
199.459293
 30
0.0
 10
101.612350
 20
199.360640
 30
0.0
  0
SPLINE
  5
1fe
100
AcDbEntity
  8
Layer_1
 62
7
100
AcDbSpline
 70
8
 71
3
 72
8
 73
4
 74
0
 40
0
 40
0
 40
0
 40
0
 40
1
 40
1
 40
1
 40
1
 10
101.612350
 20
199.360640
 30
0.0
 10
101.839783
 20
199.130451
 30
0.0
 10
102.110533
 20
198.702957
 30
0.0
 10
102.424600
 20
198.078158
 30
0.0
  0
SPLINE
  5
1ff
100
AcDbEntity
  8
Layer_1
 62
7
100
AcDbSpline
 70
8
 71
3
 72
8
 73
4
 74
0
 40
0
 40
0
 40
0
 40
0
 40
1
 40
1
 40
1
 40
1
 10
102.424600
 20
198.078158
 30
0.0
 10
102.749493
 20
197.453359
 30
0.0
 10
102.911940
 20
196.844999
 30
0.0
 10
102.911940
 20
196.253080
 30
0.0
  0
SPLINE
  5
200
100
AcDbEntity
  8
Layer_1
 62
7
100
AcDbSpline
 70
8
 71
3
 72
8
 73
4
 74
0
 40
0
 40
0
 40
0
 40
0
 40
1
 40
1
 40
1
 40
1
 10
102.911940
 20
196.253080
 30
0.0
 10
102.911940
 20
195.990007
 30
0.0
 10
102.857790
 20
195.710493
 30
0.0
 10
102.749490
 20
195.414540
 30
0.0
  0
SPLINE
  5
201
100
AcDbEntity
  8
Layer_1
 62
7
100
AcDbSpline
 70
8
 71
3
 72
8
 73
4
 74
0
 40
0
 40
0
 40
0
 40
0
 40
1
 40
1
 40
1
 40
1
 10
102.749490
 20
195.414540
 30
0.0
 10
102.695357
 20
195.283000
 30
0.0
 10
102.624963
 20
195.217230
 30
0.0
 10
102.538310
 20
195.217230
 30
0.0
  0
SPLINE
  5
202
100
AcDbEntity
  8
Layer_1
 62
7
100
AcDbSpline
 70
8
 71
3
 72
8
 73
4
 74
0
 40
0
 40
0
 40
0
 40
0
 40
1
 40
1
 40
1
 40
1
 10
102.538310
 20
195.217230
 30
0.0
 10
102.440843
 20
195.217230
 30
0.0
 10
102.310883
 20
195.332327
 30
0.0
 10
102.148430
 20
195.562520
 30
0.0
  0
SPLINE
  5
203
100
AcDbEntity
  8
Layer_1
 62
7
100
AcDbSpline
 70
8
 71
3
 72
8
 73
4
 74
0
 40
0
 40
0
 40
0
 40
0
 40
1
 40
1
 40
1
 40
1
 10
102.148430
 20
195.562520
 30
0.0
 10
101.996817
 20
195.825593
 30
0.0
 10
101.899350
 20
195.957130
 30
0.0
 10
101.856030
 20
195.957130
 30
0.0
  0
SPLINE
  5
204
100
AcDbEntity
  8
Layer_1
 62
7
100
AcDbSpline
 70
8
 71
3
 72
8
 73
4
 74
0
 40
0
 40
0
 40
0
 40
0
 40
1
 40
1
 40
1
 40
1
 10
101.856030
 20
195.957130
 30
0.0
 10
101.726070
 20
194.773297
 30
0.0
 10
101.661090
 20
193.688117
 30
0.0
 10
101.661090
 20
192.701590
 30
0.0
  0
SPLINE
  5
205
100
AcDbEntity
  8
Layer_1
 62
7
100
AcDbSpline
 70
8
 71
3
 72
8
 73
4
 74
0
 40
0
 40
0
 40
0
 40
0
 40
1
 40
1
 40
1
 40
1
 10
101.661090
 20
192.701590
 30
0.0
 10
101.661090
 20
190.958730
 30
0.0
 10
101.866857
 20
189.594037
 30
0.0
 10
102.278390
 20
188.607510
 30
0.0
  0
SPLINE
  5
206
100
AcDbEntity
  8
Layer_1
 62
7
100
AcDbSpline
 70
8
 71
3
 72
8
 73
4
 74
0
 40
0
 40
0
 40
0
 40
0
 40
1
 40
1
 40
1
 40
1
 10
102.278390
 20
188.607510
 30
0.0
 10
102.700757
 20
187.653870
 30
0.0
 10
103.345137
 20
187.177050
 30
0.0
 10
104.211530
 20
187.177050
 30
0.0
  0
SPLINE
  5
207
100
AcDbEntity
  8
Layer_1
 62
7
100
AcDbSpline
 70
8
 71
3
 72
8
 73
4
 74
0
 40
0
 40
0
 40
0
 40
0
 40
1
 40
1
 40
1
 40
1
 10
104.211530
 20
187.177050
 30
0.0
 10
104.655557
 20
187.177050
 30
0.0
 10
104.980453
 20
187.423683
 30
0.0
 10
105.186220
 20
187.916950
 30
0.0
  0
SPLINE
  5
208
100
AcDbEntity
  8
Layer_1
 62
7
100
AcDbSpline
 70
8
 71
3
 72
8
 73
4
 74
0
 40
0
 40
0
 40
0
 40
0
 40
1
 40
1
 40
1
 40
1
 10
105.186220
 20
187.916950
 30
0.0
 10
105.402820
 20
188.410210
 30
0.0
 10
105.511120
 20
189.067893
 30
0.0
 10
105.511120
 20
189.890000
 30
0.0
  0
SPLINE
  5
209
100
AcDbEntity
  8
Layer_1
 62
7
100
AcDbSpline
 70
8
 71
3
 72
8
 73
4
 74
0
 40
0
 40
0
 40
0
 40
0
 40
1
 40
1
 40
1
 40
1
 10
105.511120
 20
189.890000
 30
0.0
 10
105.511120
 20
190.810753
 30
0.0
 10
105.413650
 20
191.731510
 30
0.0
 10
105.218710
 20
192.652270
 30
0.0
  0
SPLINE
  5
20a
100
AcDbEntity
  8
Layer_1
 62
7
100
AcDbSpline
 70
8
 71
3
 72
8
 73
4
 74
0
 40
0
 40
0
 40
0
 40
0
 40
1
 40
1
 40
1
 40
1
 10
105.218710
 20
192.652270
 30
0.0
 10
105.132070
 20
193.211297
 30
0.0
 10
105.007527
 20
193.770327
 30
0.0
 10
104.845080
 20
194.329360
 30
0.0
  0
SPLINE
  5
20b
100
AcDbEntity
  8
Layer_1
 62
7
100
AcDbSpline
 70
8
 71
3
 72
8
 73
4
 74
0
 40
0
 40
0
 40
0
 40
0
 40
1
 40
1
 40
1
 40
1
 10
104.845080
 20
194.329360
 30
0.0
 10
104.682633
 20
194.888393
 30
0.0
 10
104.520183
 20
195.348770
 30
0.0
 10
104.357730
 20
195.710490
 30
0.0
  0
LINE
  5
20c
100
AcDbEntity
  8
Layer_1
 62
7
100
AcDbLine
 10
104.357730
 20
195.710490
 30
0.0
 11
103.480510
 21
198.176810
 31
0.0
  0
SPLINE
  5
20d
100
AcDbEntity
  8
Layer_1
 62
7
100
AcDbSpline
 70
8
 71
3
 72
8
 73
4
 74
0
 40
0
 40
0
 40
0
 40
0
 40
1
 40
1
 40
1
 40
1
 10
103.480510
 20
198.176810
 30
0.0
 10
102.733250
 20
200.149861
 30
0.0
 10
102.148437
 20
202.188679
 30
0.0
 10
101.726070
 20
204.293266
 30
0.0
  0
SPLINE
  5
20e
100
AcDbEntity
  8
Layer_1
 62
7
100
AcDbSpline
 70
8
 71
3
 72
8
 73
4
 74
0
 40
0
 40
0
 40
0
 40
0
 40
1
 40
1
 40
1
 40
1
 10
101.726070
 20
204.293266
 30
0.0
 10
101.314530
 20
206.430737
 30
0.0
 10
101.108760
 20
208.831281
 30
0.0
 10
101.108760
 20
211.494898
 30
0.0
  0
LINE
  5
20f
100
AcDbEntity
  8
Layer_1
 62
7
100
AcDbLine
 10
101.108760
 20
211.494898
 30
0.0
 11
101.108740
 21
211.494895
 31
0.0
  0
SPLINE
  5
210
100
AcDbEntity
  8
Layer_1
 62
7
100
AcDbSpline
 70
8
 71
3
 72
8
 73
4
 74
0
 40
0
 40
0
 40
0
 40
0
 40
1
 40
1
 40
1
 40
1
 10
111.674500
 20
218.301919
 30
0.0
 10
111.652833
 20
218.696530
 30
0.0
 10
111.642000
 20
218.976045
 30
0.0
 10
111.642000
 20
219.140466
 30
0.0
  0
SPLINE
  5
211
100
AcDbEntity
  8
Layer_1
 62
7
100
AcDbSpline
 70
8
 71
3
 72
8
 73
4
 74
0
 40
0
 40
0
 40
0
 40
0
 40
1
 40
1
 40
1
 40
1
 10
111.642000
 20
219.140466
 30
0.0
 10
111.642000
 20
219.995454
 30
0.0
 10
111.728637
 20
220.603811
 30
0.0
 10
111.901910
 20
220.965537
 30
0.0
  0
SPLINE
  5
212
100
AcDbEntity
  8
Layer_1
 62
7
100
AcDbSpline
 70
8
 71
3
 72
8
 73
4
 74
0
 40
0
 40
0
 40
0
 40
0
 40
1
 40
1
 40
1
 40
1
 10
111.901910
 20
220.965537
 30
0.0
 10
112.086023
 20
221.360147
 30
0.0
 10
112.280963
 20
221.590336
 30
0.0
 10
112.486730
 20
221.656105
 30
0.0
  0
SPLINE
  5
213
100
AcDbEntity
  8
Layer_1
 62
7
100
AcDbSpline
 70
8
 71
3
 72
8
 73
4
 74
0
 40
0
 40
0
 40
0
 40
0
 40
1
 40
1
 40
1
 40
1
 10
112.486730
 20
221.656105
 30
0.0
 10
112.703330
 20
221.721872
 30
0.0
 10
112.979493
 20
221.754755
 30
0.0
 10
113.315220
 20
221.754755
 30
0.0
  0
SPLINE
  5
214
100
AcDbEntity
  8
Layer_1
 62
7
100
AcDbSpline
 70
8
 71
3
 72
8
 73
4
 74
0
 40
0
 40
0
 40
0
 40
0
 40
1
 40
1
 40
1
 40
1
 10
113.315220
 20
221.754755
 30
0.0
 10
113.640113
 20
221.754755
 30
0.0
 10
113.927103
 20
221.771198
 30
0.0
 10
114.176190
 20
221.804085
 30
0.0
  0
SPLINE
  5
215
100
AcDbEntity
  8
Layer_1
 62
7
100
AcDbSpline
 70
8
 71
3
 72
8
 73
4
 74
0
 40
0
 40
0
 40
0
 40
0
 40
1
 40
1
 40
1
 40
1
 10
114.176190
 20
221.804085
 30
0.0
 10
115.020923
 20
221.869852
 30
0.0
 10
115.789847
 20
221.902735
 30
0.0
 10
116.482960
 20
221.902735
 30
0.0
  0
SPLINE
  5
216
100
AcDbEntity
  8
Layer_1
 62
7
100
AcDbSpline
 70
8
 71
3
 72
8
 73
4
 74
0
 40
0
 40
0
 40
0
 40
0
 40
1
 40
1
 40
1
 40
1
 10
116.482960
 20
221.902735
 30
0.0
 10
118.085787
 20
221.902735
 30
0.0
 10
118.979253
 20
221.656104
 30
0.0
 10
119.163360
 20
221.162841
 30
0.0
  0
SPLINE
  5
217
100
AcDbEntity
  8
Layer_1
 62
7
100
AcDbSpline
 70
8
 71
3
 72
8
 73
4
 74
0
 40
0
 40
0
 40
0
 40
0
 40
1
 40
1
 40
1
 40
1
 10
119.163360
 20
221.162841
 30
0.0
 10
119.185027
 20
220.768231
 30
0.0
 10
119.195860
 20
220.521600
 30
0.0
 10
119.195860
 20
220.422947
 30
0.0
  0
SPLINE
  5
218
100
AcDbEntity
  8
Layer_1
 62
7
100
AcDbSpline
 70
8
 71
3
 72
8
 73
4
 74
0
 40
0
 40
0
 40
0
 40
0
 40
1
 40
1
 40
1
 40
1
 10
119.195860
 20
220.422947
 30
0.0
 10
119.195860
 20
220.094106
 30
0.0
 10
119.174193
 20
219.781706
 30
0.0
 10
119.130860
 20
219.485749
 30
0.0
  0
SPLINE
  5
219
100
AcDbEntity
  8
Layer_1
 62
7
100
AcDbSpline
 70
8
 71
3
 72
8
 73
4
 74
0
 40
0
 40
0
 40
0
 40
0
 40
1
 40
1
 40
1
 40
1
 10
119.130860
 20
219.485749
 30
0.0
 10
119.098393
 20
219.222676
 30
0.0
 10
119.060490
 20
218.976044
 30
0.0
 10
119.017150
 20
218.745855
 30
0.0
  0
SPLINE
  5
21a
100
AcDbEntity
  8
Layer_1
 62
7
100
AcDbSpline
 70
8
 71
3
 72
8
 73
4
 74
0
 40
0
 40
0
 40
0
 40
0
 40
1
 40
1
 40
1
 40
1
 10
119.017150
 20
218.745855
 30
0.0
 10
118.952150
 20
218.548550
 30
0.0
 10
118.908830
 20
218.400571
 30
0.0
 10
118.887190
 20
218.301918
 30
0.0
  0
SPLINE
  5
21b
100
AcDbEntity
  8
Layer_1
 62
7
100
AcDbSpline
 70
8
 71
3
 72
8
 73
4
 74
0
 40
0
 40
0
 40
0
 40
0
 40
1
 40
1
 40
1
 40
1
 10
118.887190
 20
218.301918
 30
0.0
 10
118.876390
 20
218.203266
 30
0.0
 10
118.865557
 20
218.022403
 30
0.0
 10
118.854690
 20
217.759330
 30
0.0
  0
SPLINE
  5
21c
100
AcDbEntity
  8
Layer_1
 62
7
100
AcDbSpline
 70
8
 71
3
 72
8
 73
4
 74
0
 40
0
 40
0
 40
0
 40
0
 40
1
 40
1
 40
1
 40
1
 10
118.854690
 20
217.759330
 30
0.0
 10
118.854690
 20
217.496257
 30
0.0
 10
118.838457
 20
217.216741
 30
0.0
 10
118.805990
 20
216.920783
 30
0.0
  0
SPLINE
  5
21d
100
AcDbEntity
  8
Layer_1
 62
7
100
AcDbSpline
 70
8
 71
3
 72
8
 73
4
 74
0
 40
0
 40
0
 40
0
 40
0
 40
1
 40
1
 40
1
 40
1
 10
118.805990
 20
216.920783
 30
0.0
 10
118.805990
 20
215.408112
 30
0.0
 10
118.773490
 20
213.204872
 30
0.0
 10
118.708490
 20
210.311064
 30
0.0
  0
SPLINE
  5
21e
100
AcDbEntity
  8
Layer_1
 62
7
100
AcDbSpline
 70
8
 71
3
 72
8
 73
4
 74
0
 40
0
 40
0
 40
0
 40
0
 40
1
 40
1
 40
1
 40
1
 10
118.708490
 20
210.311064
 30
0.0
 10
118.697690
 20
209.752033
 30
0.0
 10
118.681457
 20
208.814835
 30
0.0
 10
118.659790
 20
207.499468
 30
0.0
  0
SPLINE
  5
21f
100
AcDbEntity
  8
Layer_1
 62
7
100
AcDbSpline
 70
8
 71
3
 72
8
 73
4
 74
0
 40
0
 40
0
 40
0
 40
0
 40
1
 40
1
 40
1
 40
1
 10
118.659790
 20
207.499468
 30
0.0
 10
118.638123
 20
206.216985
 30
0.0
 10
118.627290
 20
205.098924
 30
0.0
 10
118.627290
 20
204.145283
 30
0.0
  0
LINE
  5
220
100
AcDbEntity
  8
Layer_1
 62
7
100
AcDbLine
 10
118.627290
 20
204.145283
 30
0.0
 11
122.119940
 21
204.145283
 31
0.0
  0
LINE
  5
221
100
AcDbEntity
  8
Layer_1
 62
7
100
AcDbLine
 10
122.119940
 20
204.145283
 30
0.0
 11
121.925000
 21
219.337771
 31
0.0
  0
SPLINE
  5
222
100
AcDbEntity
  8
Layer_1
 62
7
100
AcDbSpline
 70
8
 71
3
 72
8
 73
4
 74
0
 40
0
 40
0
 40
0
 40
0
 40
1
 40
1
 40
1
 40
1
 10
121.925000
 20
219.337771
 30
0.0
 10
121.773380
 20
219.337771
 30
0.0
 10
121.638007
 20
219.304888
 30
0.0
 10
121.518880
 20
219.239121
 30
0.0
  0
SPLINE
  5
223
100
AcDbEntity
  8
Layer_1
 62
7
100
AcDbSpline
 70
8
 71
3
 72
8
 73
4
 74
0
 40
0
 40
0
 40
0
 40
0
 40
1
 40
1
 40
1
 40
1
 10
121.518880
 20
219.239121
 30
0.0
 10
121.399747
 20
219.206234
 30
0.0
 10
121.291447
 20
219.189791
 30
0.0
 10
121.193980
 20
219.189791
 30
0.0
  0
SPLINE
  5
224
100
AcDbEntity
  8
Layer_1
 62
7
100
AcDbSpline
 70
8
 71
3
 72
8
 73
4
 74
0
 40
0
 40
0
 40
0
 40
0
 40
1
 40
1
 40
1
 40
1
 10
121.193980
 20
219.189791
 30
0.0
 10
121.064020
 20
219.189791
 30
0.0
 10
120.961137
 20
219.255559
 30
0.0
 10
120.885330
 20
219.387096
 30
0.0
  0
SPLINE
  5
225
100
AcDbEntity
  8
Layer_1
 62
7
100
AcDbSpline
 70
8
 71
3
 72
8
 73
4
 74
0
 40
0
 40
0
 40
0
 40
0
 40
1
 40
1
 40
1
 40
1
 10
120.885330
 20
219.387096
 30
0.0
 10
120.820330
 20
219.551517
 30
0.0
 10
120.787830
 20
219.831032
 30
0.0
 10
120.787830
 20
220.225642
 30
0.0
  0
SPLINE
  5
226
100
AcDbEntity
  8
Layer_1
 62
7
100
AcDbSpline
 70
8
 71
3
 72
8
 73
4
 74
0
 40
0
 40
0
 40
0
 40
0
 40
1
 40
1
 40
1
 40
1
 10
120.787830
 20
220.225642
 30
0.0
 10
120.787830
 20
220.521600
 30
0.0
 10
120.804063
 20
220.834000
 30
0.0
 10
120.836530
 20
221.162841
 30
0.0
  0
SPLINE
  5
227
100
AcDbEntity
  8
Layer_1
 62
7
100
AcDbSpline
 70
8
 71
3
 72
8
 73
4
 74
0
 40
0
 40
0
 40
0
 40
0
 40
1
 40
1
 40
1
 40
1
 10
120.836530
 20
221.162841
 30
0.0
 10
120.944830
 20
221.425914
 30
0.0
 10
121.134353
 20
221.606777
 30
0.0
 10
121.405100
 20
221.705430
 30
0.0
  0
SPLINE
  5
228
100
AcDbEntity
  8
Layer_1
 62
7
100
AcDbSpline
 70
8
 71
3
 72
8
 73
4
 74
0
 40
0
 40
0
 40
0
 40
0
 40
1
 40
1
 40
1
 40
1
 10
121.405100
 20
221.705430
 30
0.0
 10
121.686680
 20
221.836967
 30
0.0
 10
121.968257
 20
221.902735
 30
0.0
 10
122.249830
 20
221.902735
 30
0.0
  0
SPLINE
  5
229
100
AcDbEntity
  8
Layer_1
 62
7
100
AcDbSpline
 70
8
 71
3
 72
8
 73
4
 74
0
 40
0
 40
0
 40
0
 40
0
 40
1
 40
1
 40
1
 40
1
 10
122.249830
 20
221.902735
 30
0.0
 10
122.444770
 20
221.902735
 30
0.0
 10
122.574730
 20
221.886292
 30
0.0
 10
122.639710
 20
221.853405
 30
0.0
  0
SPLINE
  5
22a
100
AcDbEntity
  8
Layer_1
 62
7
100
AcDbSpline
 70
8
 71
3
 72
8
 73
4
 74
0
 40
0
 40
0
 40
0
 40
0
 40
1
 40
1
 40
1
 40
1
 10
122.639710
 20
221.853405
 30
0.0
 10
122.791330
 20
221.787638
 30
0.0
 10
122.910460
 20
221.754755
 30
0.0
 10
122.997100
 20
221.754755
 30
0.0
  0
SPLINE
  5
22b
100
AcDbEntity
  8
Layer_1
 62
7
100
AcDbSpline
 70
8
 71
3
 72
8
 73
4
 74
0
 40
0
 40
0
 40
0
 40
0
 40
1
 40
1
 40
1
 40
1
 10
122.997100
 20
221.754755
 30
0.0
 10
123.072907
 20
221.754755
 30
0.0
 10
123.208280
 20
221.754755
 30
0.0
 10
123.403220
 20
221.754755
 30
0.0
  0
SPLINE
  5
22c
100
AcDbEntity
  8
Layer_1
 62
7
100
AcDbSpline
 70
8
 71
3
 72
8
 73
4
 74
0
 40
0
 40
0
 40
0
 40
0
 40
1
 40
1
 40
1
 40
1
 10
123.403220
 20
221.754755
 30
0.0
 10
123.598160
 20
221.787642
 30
0.0
 10
123.738950
 20
221.705431
 30
0.0
 10
123.825590
 20
221.508124
 30
0.0
  0
SPLINE
  5
22d
100
AcDbEntity
  8
Layer_1
 62
7
100
AcDbSpline
 70
8
 71
3
 72
8
 73
4
 74
0
 40
0
 40
0
 40
0
 40
0
 40
1
 40
1
 40
1
 40
1
 10
123.825590
 20
221.508124
 30
0.0
 10
123.923057
 20
221.310819
 30
0.0
 10
123.971790
 20
220.949093
 30
0.0
 10
123.971790
 20
220.422946
 30
0.0
  0
SPLINE
  5
22e
100
AcDbEntity
  8
Layer_1
 62
7
100
AcDbSpline
 70
8
 71
3
 72
8
 73
4
 74
0
 40
0
 40
0
 40
0
 40
0
 40
1
 40
1
 40
1
 40
1
 10
123.971790
 20
220.422946
 30
0.0
 10
123.971790
 20
220.291409
 30
0.0
 10
123.960957
 20
220.028336
 30
0.0
 10
123.939290
 20
219.633726
 30
0.0
  0
SPLINE
  5
22f
100
AcDbEntity
  8
Layer_1
 62
7
100
AcDbSpline
 70
8
 71
3
 72
8
 73
4
 74
0
 40
0
 40
0
 40
0
 40
0
 40
1
 40
1
 40
1
 40
1
 10
123.939290
 20
219.633726
 30
0.0
 10
123.679370
 20
219.436421
 30
0.0
 10
123.284080
 20
219.337769
 30
0.0
 10
122.753420
 20
219.337769
 30
0.0
  0
SPLINE
  5
230
100
AcDbEntity
  8
Layer_1
 62
7
100
AcDbSpline
 70
8
 71
3
 72
8
 73
4
 74
0
 40
0
 40
0
 40
0
 40
0
 40
1
 40
1
 40
1
 40
1
 10
122.753420
 20
219.337769
 30
0.0
 10
122.753420
 20
217.693560
 30
0.0
 10
122.769653
 20
216.032910
 30
0.0
 10
122.802120
 20
214.355817
 30
0.0
  0
SPLINE
  5
231
100
AcDbEntity
  8
Layer_1
 62
7
100
AcDbSpline
 70
8
 71
3
 72
8
 73
4
 74
0
 40
0
 40
0
 40
0
 40
0
 40
1
 40
1
 40
1
 40
1
 10
122.802120
 20
214.355817
 30
0.0
 10
122.823787
 20
212.119693
 30
0.0
 10
122.834620
 20
210.442600
 30
0.0
 10
122.834620
 20
209.324538
 30
0.0
  0
LINE
  5
232
100
AcDbEntity
  8
Layer_1
 62
7
100
AcDbLine
 10
122.834620
 20
209.324538
 30
0.0
 11
122.932120
 21
187.620990
 31
0.0
  0
SPLINE
  5
233
100
AcDbEntity
  8
Layer_1
 62
7
100
AcDbSpline
 70
8
 71
3
 72
8
 73
4
 74
0
 40
0
 40
0
 40
0
 40
0
 40
1
 40
1
 40
1
 40
1
 10
122.932120
 20
187.620990
 30
0.0
 10
123.105400
 20
187.555190
 30
0.0
 10
123.240773
 20
187.522290
 30
0.0
 10
123.338240
 20
187.522290
 30
0.0
  0
SPLINE
  5
234
100
AcDbEntity
  8
Layer_1
 62
7
100
AcDbSpline
 70
8
 71
3
 72
8
 73
4
 74
0
 40
0
 40
0
 40
0
 40
0
 40
1
 40
1
 40
1
 40
1
 10
123.338240
 20
187.522290
 30
0.0
 10
123.565667
 20
187.489423
 30
0.0
 10
123.728117
 20
187.407213
 30
0.0
 10
123.825590
 20
187.275660
 30
0.0
  0
SPLINE
  5
235
100
AcDbEntity
  8
Layer_1
 62
7
100
AcDbSpline
 70
8
 71
3
 72
8
 73
4
 74
0
 40
0
 40
0
 40
0
 40
0
 40
1
 40
1
 40
1
 40
1
 10
123.825590
 20
187.275660
 30
0.0
 10
123.923057
 20
187.144120
 30
0.0
 10
123.971790
 20
186.815277
 30
0.0
 10
123.971790
 20
186.289130
 30
0.0
  0
LINE
  5
236
100
AcDbEntity
  8
Layer_1
 62
7
100
AcDbLine
 10
123.971790
 20
186.289130
 30
0.0
 11
123.939290
 21
185.499910
 31
0.0
  0
SPLINE
  5
237
100
AcDbEntity
  8
Layer_1
 62
7
100
AcDbSpline
 70
8
 71
3
 72
8
 73
4
 74
0
 40
0
 40
0
 40
0
 40
0
 40
1
 40
1
 40
1
 40
1
 10
123.939290
 20
185.499910
 30
0.0
 10
123.809330
 20
185.401257
 30
0.0
 10
123.538583
 20
185.351930
 30
0.0
 10
123.127050
 20
185.351930
 30
0.0
  0
SPLINE
  5
238
100
AcDbEntity
  8
Layer_1
 62
7
100
AcDbSpline
 70
8
 71
3
 72
8
 73
4
 74
0
 40
0
 40
0
 40
0
 40
0
 40
1
 40
1
 40
1
 40
1
 10
123.127050
 20
185.351930
 30
0.0
 10
122.672190
 20
185.351930
 30
0.0
 10
122.336463
 20
185.302603
 30
0.0
 10
122.119870
 20
185.203950
 30
0.0
  0
SPLINE
  5
239
100
AcDbEntity
  8
Layer_1
 62
7
100
AcDbSpline
 70
8
 71
3
 72
8
 73
4
 74
0
 40
0
 40
0
 40
0
 40
0
 40
1
 40
1
 40
1
 40
1
 10
122.119870
 20
185.203950
 30
0.0
 10
121.914097
 20
185.203950
 30
0.0
 10
121.702913
 20
185.154623
 30
0.0
 10
121.486320
 20
185.055970
 30
0.0
  0
SPLINE
  5
23a
100
AcDbEntity
  8
Layer_1
 62
7
100
AcDbSpline
 70
8
 71
3
 72
8
 73
4
 74
0
 40
0
 40
0
 40
0
 40
0
 40
1
 40
1
 40
1
 40
1
 10
121.486320
 20
185.055970
 30
0.0
 10
121.204740
 20
184.990170
 30
0.0
 10
121.015217
 20
184.957270
 30
0.0
 10
120.917750
 20
184.957270
 30
0.0
  0
SPLINE
  5
23b
100
AcDbEntity
  8
Layer_1
 62
7
100
AcDbSpline
 70
8
 71
3
 72
8
 73
4
 74
0
 40
0
 40
0
 40
0
 40
0
 40
1
 40
1
 40
1
 40
1
 10
120.917750
 20
184.957270
 30
0.0
 10
120.701150
 20
184.957270
 30
0.0
 10
120.538700
 20
185.039480
 30
0.0
 10
120.430400
 20
185.203900
 30
0.0
  0
SPLINE
  5
23c
100
AcDbEntity
  8
Layer_1
 62
7
100
AcDbSpline
 70
8
 71
3
 72
8
 73
4
 74
0
 40
0
 40
0
 40
0
 40
0
 40
1
 40
1
 40
1
 40
1
 10
120.430400
 20
185.203900
 30
0.0
 10
120.419600
 20
185.368320
 30
0.0
 10
120.414200
 20
185.582067
 30
0.0
 10
120.414200
 20
185.845140
 30
0.0
  0
SPLINE
  5
23d
100
AcDbEntity
  8
Layer_1
 62
7
100
AcDbSpline
 70
8
 71
3
 72
8
 73
4
 74
0
 40
0
 40
0
 40
0
 40
0
 40
1
 40
1
 40
1
 40
1
 10
120.414200
 20
185.845140
 30
0.0
 10
120.414200
 20
186.272640
 30
0.0
 10
120.457520
 20
186.585040
 30
0.0
 10
120.544160
 20
186.782340
 30
0.0
  0
SPLINE
  5
23e
100
AcDbEntity
  8
Layer_1
 62
7
100
AcDbSpline
 70
8
 71
3
 72
8
 73
4
 74
0
 40
0
 40
0
 40
0
 40
0
 40
1
 40
1
 40
1
 40
1
 10
120.544160
 20
186.782340
 30
0.0
 10
120.641627
 20
186.979647
 30
0.0
 10
120.798660
 20
187.160510
 30
0.0
 10
121.015260
 20
187.324930
 30
0.0
  0
SPLINE
  5
23f
100
AcDbEntity
  8
Layer_1
 62
7
100
AcDbSpline
 70
8
 71
3
 72
8
 73
4
 74
0
 40
0
 40
0
 40
0
 40
0
 40
1
 40
1
 40
1
 40
1
 10
121.015260
 20
187.324930
 30
0.0
 10
121.112727
 20
187.324930
 30
0.0
 10
121.215610
 20
187.341363
 30
0.0
 10
121.323910
 20
187.374230
 30
0.0
  0
SPLINE
  5
240
100
AcDbEntity
  8
Layer_1
 62
7
100
AcDbSpline
 70
8
 71
3
 72
8
 73
4
 74
0
 40
0
 40
0
 40
0
 40
0
 40
1
 40
1
 40
1
 40
1
 10
121.323910
 20
187.374230
 30
0.0
 10
121.443037
 20
187.440030
 30
0.0
 10
121.529677
 20
187.472930
 30
0.0
 10
121.583830
 20
187.472930
 30
0.0
  0
SPLINE
  5
241
100
AcDbEntity
  8
Layer_1
 62
7
100
AcDbSpline
 70
8
 71
3
 72
8
 73
4
 74
0
 40
0
 40
0
 40
0
 40
0
 40
1
 40
1
 40
1
 40
1
 10
121.583830
 20
187.472930
 30
0.0
 10
121.767937
 20
187.571583
 30
0.0
 10
121.946630
 20
187.620910
 30
0.0
 10
122.119910
 20
187.620910
 30
0.0
  0
LINE
  5
242
100
AcDbEntity
  8
Layer_1
 62
7
100
AcDbLine
 10
122.119910
 20
187.620910
 30
0.0
 11
122.119910
 21
201.629645
 31
0.0
  0
LINE
  5
243
100
AcDbEntity
  8
Layer_1
 62
7
100
AcDbLine
 10
122.119910
 20
201.629645
 30
0.0
 11
118.627260
 21
201.629645
 31
0.0
  0
SPLINE
  5
244
100
AcDbEntity
  8
Layer_1
 62
7
100
AcDbSpline
 70
8
 71
3
 72
8
 73
4
 74
0
 40
0
 40
0
 40
0
 40
0
 40
1
 40
1
 40
1
 40
1
 10
118.627260
 20
201.629645
 30
0.0
 10
118.583927
 20
202.057139
 30
0.0
 10
118.551427
 20
200.643120
 30
0.0
 10
118.529760
 20
197.387587
 30
0.0
  0
SPLINE
  5
245
100
AcDbEntity
  8
Layer_1
 62
7
100
AcDbSpline
 70
8
 71
3
 72
8
 73
4
 74
0
 40
0
 40
0
 40
0
 40
0
 40
1
 40
1
 40
1
 40
1
 10
118.529760
 20
197.387587
 30
0.0
 10
118.518960
 20
194.164936
 30
0.0
 10
118.513560
 20
191.846603
 30
0.0
 10
118.513560
 20
190.432590
 30
0.0
  0
LINE
  5
246
100
AcDbEntity
  8
Layer_1
 62
7
100
AcDbLine
 10
118.513560
 20
190.432590
 30
0.0
 11
118.497360
 21
188.706170
 31
0.0
  0
SPLINE
  5
247
100
AcDbEntity
  8
Layer_1
 62
7
100
AcDbSpline
 70
8
 71
3
 72
8
 73
4
 74
0
 40
0
 40
0
 40
0
 40
0
 40
1
 40
1
 40
1
 40
1
 10
118.497360
 20
188.706170
 30
0.0
 10
118.497360
 20
188.410210
 30
0.0
 10
118.508193
 20
188.196463
 30
0.0
 10
118.529860
 20
188.064930
 30
0.0
  0
SPLINE
  5
248
100
AcDbEntity
  8
Layer_1
 62
7
100
AcDbSpline
 70
8
 71
3
 72
8
 73
4
 74
0
 40
0
 40
0
 40
0
 40
0
 40
1
 40
1
 40
1
 40
1
 10
118.529860
 20
188.064930
 30
0.0
 10
118.562327
 20
187.933390
 30
0.0
 10
118.627307
 20
187.785410
 30
0.0
 10
118.724800
 20
187.620990
 30
0.0
  0
SPLINE
  5
249
100
AcDbEntity
  8
Layer_1
 62
7
100
AcDbSpline
 70
8
 71
3
 72
8
 73
4
 74
0
 40
0
 40
0
 40
0
 40
0
 40
1
 40
1
 40
1
 40
1
 10
118.724800
 20
187.620990
 30
0.0
 10
118.735600
 20
187.555190
 30
0.0
 10
118.768100
 20
187.440097
 30
0.0
 10
118.822300
 20
187.275710
 30
0.0
  0
SPLINE
  5
24a
100
AcDbEntity
  8
Layer_1
 62
7
100
AcDbSpline
 70
8
 71
3
 72
8
 73
4
 74
0
 40
0
 40
0
 40
0
 40
0
 40
1
 40
1
 40
1
 40
1
 10
118.822300
 20
187.275710
 30
0.0
 10
118.876433
 20
187.144170
 30
0.0
 10
118.903500
 20
186.979747
 30
0.0
 10
118.903500
 20
186.782440
 30
0.0
  0
SPLINE
  5
24b
100
AcDbEntity
  8
Layer_1
 62
7
100
AcDbSpline
 70
8
 71
3
 72
8
 73
4
 74
0
 40
0
 40
0
 40
0
 40
0
 40
1
 40
1
 40
1
 40
1
 10
118.903500
 20
186.782440
 30
0.0
 10
118.903500
 20
186.618020
 30
0.0
 10
118.871000
 20
186.387833
 30
0.0
 10
118.806000
 20
186.091880
 30
0.0
  0
SPLINE
  5
24c
100
AcDbEntity
  8
Layer_1
 62
7
100
AcDbSpline
 70
8
 71
3
 72
8
 73
4
 74
0
 40
0
 40
0
 40
0
 40
0
 40
1
 40
1
 40
1
 40
1
 10
118.806000
 20
186.091880
 30
0.0
 10
118.708527
 20
185.795920
 30
0.0
 10
118.204937
 20
185.565730
 30
0.0
 10
117.295230
 20
185.401310
 30
0.0
  0
SPLINE
  5
24d
100
AcDbEntity
  8
Layer_1
 62
7
100
AcDbSpline
 70
8
 71
3
 72
8
 73
4
 74
0
 40
0
 40
0
 40
0
 40
0
 40
1
 40
1
 40
1
 40
1
 10
117.295230
 20
185.401310
 30
0.0
 10
116.385517
 20
185.204003
 30
0.0
 10
115.481220
 20
185.105350
 30
0.0
 10
114.582340
 20
185.105350
 30
0.0
  0
SPLINE
  5
24e
100
AcDbEntity
  8
Layer_1
 62
7
100
AcDbSpline
 70
8
 71
3
 72
8
 73
4
 74
0
 40
0
 40
0
 40
0
 40
0
 40
1
 40
1
 40
1
 40
1
 10
114.582340
 20
185.105350
 30
0.0
 10
114.019180
 20
185.105350
 30
0.0
 10
113.694280
 20
185.138217
 30
0.0
 10
113.607640
 20
185.203950
 30
0.0
  0
LINE
  5
24f
100
AcDbEntity
  8
Layer_1
 62
7
100
AcDbLine
 10
113.607640
 20
185.203950
 30
0.0
 11
113.217770
 21
185.105350
 31
0.0
  0
SPLINE
  5
250
100
AcDbEntity
  8
Layer_1
 62
7
100
AcDbSpline
 70
8
 71
3
 72
8
 73
4
 74
0
 40
0
 40
0
 40
0
 40
0
 40
1
 40
1
 40
1
 40
1
 10
113.217770
 20
185.105350
 30
0.0
 10
112.936190
 20
184.973817
 30
0.0
 10
112.719590
 20
184.908050
 30
0.0
 10
112.567970
 20
184.908050
 30
0.0
  0
SPLINE
  5
251
100
AcDbEntity
  8
Layer_1
 62
7
100
AcDbSpline
 70
8
 71
3
 72
8
 73
4
 74
0
 40
0
 40
0
 40
0
 40
0
 40
1
 40
1
 40
1
 40
1
 10
112.567970
 20
184.908050
 30
0.0
 10
112.221417
 20
184.908050
 30
0.0
 10
112.031893
 20
185.204007
 30
0.0
 10
111.999400
 20
185.795920
 30
0.0
  0
SPLINE
  5
252
100
AcDbEntity
  8
Layer_1
 62
7
100
AcDbSpline
 70
8
 71
3
 72
8
 73
4
 74
0
 40
0
 40
0
 40
0
 40
0
 40
1
 40
1
 40
1
 40
1
 10
111.999400
 20
185.795920
 30
0.0
 10
111.977733
 20
186.058993
 30
0.0
 10
111.966900
 20
186.223413
 30
0.0
 10
111.966900
 20
186.289180
 30
0.0
  0
SPLINE
  5
253
100
AcDbEntity
  8
Layer_1
 62
7
100
AcDbSpline
 70
8
 71
3
 72
8
 73
4
 74
0
 40
0
 40
0
 40
0
 40
0
 40
1
 40
1
 40
1
 40
1
 10
111.966900
 20
186.289180
 30
0.0
 10
111.966900
 20
186.716673
 30
0.0
 10
112.037297
 20
186.996190
 30
0.0
 10
112.178090
 20
187.127730
 30
0.0
  0
SPLINE
  5
254
100
AcDbEntity
  8
Layer_1
 62
7
100
AcDbSpline
 70
8
 71
3
 72
8
 73
4
 74
0
 40
0
 40
0
 40
0
 40
0
 40
1
 40
1
 40
1
 40
1
 10
112.178090
 20
187.127730
 30
0.0
 10
112.329703
 20
187.259263
 30
0.0
 10
112.540887
 20
187.325030
 30
0.0
 10
112.811640
 20
187.325030
 30
0.0
  0
LINE
  5
255
100
AcDbEntity
  8
Layer_1
 62
7
100
AcDbLine
 10
112.811640
 20
187.325030
 30
0.0
 11
113.315230
 21
187.325030
 31
0.0
  0
SPLINE
  5
256
100
AcDbEntity
  8
Layer_1
 62
7
100
AcDbSpline
 70
8
 71
3
 72
8
 73
4
 74
0
 40
0
 40
0
 40
0
 40
0
 40
1
 40
1
 40
1
 40
1
 10
113.315230
 20
187.325030
 30
0.0
 10
113.315230
 20
187.884063
 30
0.0
 10
113.293563
 20
188.722610
 30
0.0
 10
113.250230
 20
189.840670
 30
0.0
  0
SPLINE
  5
257
100
AcDbEntity
  8
Layer_1
 62
7
100
AcDbSpline
 70
8
 71
3
 72
8
 73
4
 74
0
 40
0
 40
0
 40
0
 40
0
 40
1
 40
1
 40
1
 40
1
 10
113.250230
 20
189.840670
 30
0.0
 10
113.206897
 20
190.958730
 30
0.0
 10
113.185230
 20
191.731507
 30
0.0
 10
113.185230
 20
192.159000
 30
0.0
  0
SPLINE
  5
258
100
AcDbEntity
  8
Layer_1
 62
7
100
AcDbSpline
 70
8
 71
3
 72
8
 73
4
 74
0
 40
0
 40
0
 40
0
 40
0
 40
1
 40
1
 40
1
 40
1
 10
113.185230
 20
192.159000
 30
0.0
 10
113.120230
 20
193.408600
 30
0.0
 10
113.087730
 20
195.250115
 30
0.0
 10
113.087730
 20
197.683545
 30
0.0
  0
LINE
  5
259
100
AcDbEntity
  8
Layer_1
 62
7
100
AcDbLine
 10
113.087730
 20
197.683545
 30
0.0
 11
113.185230
 21
217.562026
 31
0.0
  0
SPLINE
  5
25a
100
AcDbEntity
  8
Layer_1
 62
7
100
AcDbSpline
 70
8
 71
3
 72
8
 73
4
 74
0
 40
0
 40
0
 40
0
 40
0
 40
1
 40
1
 40
1
 40
1
 10
113.185230
 20
217.562026
 30
0.0
 10
113.185230
 20
218.384130
 30
0.0
 10
113.174397
 20
218.893835
 30
0.0
 10
113.152730
 20
219.091140
 30
0.0
  0
SPLINE
  5
25b
100
AcDbEntity
  8
Layer_1
 62
7
100
AcDbSpline
 70
8
 71
3
 72
8
 73
4
 74
0
 40
0
 40
0
 40
0
 40
0
 40
1
 40
1
 40
1
 40
1
 10
113.152730
 20
219.091140
 30
0.0
 10
113.131063
 20
219.321329
 30
0.0
 10
113.098563
 20
219.436423
 30
0.0
 10
113.055230
 20
219.436423
 30
0.0
  0
SPLINE
  5
25c
100
AcDbEntity
  8
Layer_1
 62
7
100
AcDbSpline
 70
8
 71
3
 72
8
 73
4
 74
0
 40
0
 40
0
 40
0
 40
0
 40
1
 40
1
 40
1
 40
1
 10
113.055230
 20
219.436423
 30
0.0
 10
113.022763
 20
219.469310
 30
0.0
 10
112.995697
 20
219.502193
 30
0.0
 10
112.974030
 20
219.535073
 30
0.0
  0
LINE
  5
25d
100
AcDbEntity
  8
Layer_1
 62
7
100
AcDbLine
 10
112.974030
 20
219.535073
 30
0.0
 11
112.470440
 21
219.535073
 31
0.0
  0
LINE
  5
25e
100
AcDbEntity
  8
Layer_1
 62
7
100
AcDbLine
 10
112.470440
 20
219.535073
 30
0.0
 11
112.389240
 21
218.647200
 31
0.0
  0
SPLINE
  5
25f
100
AcDbEntity
  8
Layer_1
 62
7
100
AcDbSpline
 70
8
 71
3
 72
8
 73
4
 74
0
 40
0
 40
0
 40
0
 40
0
 40
1
 40
1
 40
1
 40
1
 10
112.389240
 20
218.647200
 30
0.0
 10
112.378440
 20
218.581433
 30
0.0
 10
112.367607
 20
218.482781
 30
0.0
 10
112.356740
 20
218.351243
 30
0.0
  0
SPLINE
  5
260
100
AcDbEntity
  8
Layer_1
 62
7
100
AcDbSpline
 70
8
 71
3
 72
8
 73
4
 74
0
 40
0
 40
0
 40
0
 40
0
 40
1
 40
1
 40
1
 40
1
 10
112.356740
 20
218.351243
 30
0.0
 10
112.356740
 20
218.219706
 30
0.0
 10
112.340507
 20
218.104612
 30
0.0
 10
112.308040
 20
218.005959
 30
0.0
  0
SPLINE
  5
261
100
AcDbEntity
  8
Layer_1
 62
7
100
AcDbSpline
 70
8
 71
3
 72
8
 73
4
 74
0
 40
0
 40
0
 40
0
 40
0
 40
1
 40
1
 40
1
 40
1
 10
112.308040
 20
218.005959
 30
0.0
 10
112.286373
 20
217.907306
 30
0.0
 10
112.243053
 20
217.825096
 30
0.0
 10
112.178080
 20
217.759328
 30
0.0
  0
SPLINE
  5
262
100
AcDbEntity
  8
Layer_1
 62
7
100
AcDbSpline
 70
8
 71
3
 72
8
 73
4
 74
0
 40
0
 40
0
 40
0
 40
0
 40
1
 40
1
 40
1
 40
1
 10
112.178080
 20
217.759328
 30
0.0
 10
112.123947
 20
217.660675
 30
0.0
 10
112.069797
 20
217.611349
 30
0.0
 10
112.015630
 20
217.611349
 30
0.0
  0
SPLINE
  5
263
100
AcDbEntity
  8
Layer_1
 62
7
100
AcDbSpline
 70
8
 71
3
 72
8
 73
4
 74
0
 40
0
 40
0
 40
0
 40
0
 40
1
 40
1
 40
1
 40
1
 10
112.015630
 20
217.611349
 30
0.0
 10
111.885670
 20
217.611349
 30
0.0
 10
111.771957
 20
217.841538
 30
0.0
 10
111.674490
 20
218.301916
 30
0.0
  0
LINE
  5
264
100
AcDbEntity
  8
Layer_1
 62
7
100
AcDbLine
 10
111.674490
 20
218.301916
 30
0.0
 11
111.674500
 21
218.301919
 31
0.0
  0
SPLINE
  5
265
100
AcDbEntity
  8
Layer_1
 62
7
100
AcDbSpline
 70
8
 71
3
 72
8
 73
4
 74
0
 40
0
 40
0
 40
0
 40
0
 40
1
 40
1
 40
1
 40
1
 10
126.599200
 20
217.956636
 30
0.0
 10
127.736340
 20
220.949095
 30
0.0
 10
128.987193
 20
222.445325
 30
0.0
 10
130.351760
 20
222.445325
 30
0.0
  0
SPLINE
  5
266
100
AcDbEntity
  8
Layer_1
 62
7
100
AcDbSpline
 70
8
 71
3
 72
8
 73
4
 74
0
 40
0
 40
0
 40
0
 40
0
 40
1
 40
1
 40
1
 40
1
 10
130.351760
 20
222.445325
 30
0.0
 10
131.228980
 20
222.445325
 30
0.0
 10
132.219917
 20
221.869852
 30
0.0
 10
133.324570
 20
220.718906
 30
0.0
  0
SPLINE
  5
267
100
AcDbEntity
  8
Layer_1
 62
7
100
AcDbSpline
 70
8
 71
3
 72
8
 73
4
 74
0
 40
0
 40
0
 40
0
 40
0
 40
1
 40
1
 40
1
 40
1
 10
133.324570
 20
220.718906
 30
0.0
 10
133.681957
 20
220.357180
 30
0.0
 10
133.958117
 20
219.831033
 30
0.0
 10
134.153050
 20
219.140466
 30
0.0
  0
SPLINE
  5
268
100
AcDbEntity
  8
Layer_1
 62
7
100
AcDbSpline
 70
8
 71
3
 72
8
 73
4
 74
0
 40
0
 40
0
 40
0
 40
0
 40
1
 40
1
 40
1
 40
1
 10
134.153050
 20
219.140466
 30
0.0
 10
134.358823
 20
218.482783
 30
0.0
 10
134.532103
 20
217.578468
 30
0.0
 10
134.672890
 20
216.427522
 30
0.0
  0
SPLINE
  5
269
100
AcDbEntity
  8
Layer_1
 62
7
100
AcDbSpline
 70
8
 71
3
 72
8
 73
4
 74
0
 40
0
 40
0
 40
0
 40
0
 40
1
 40
1
 40
1
 40
1
 10
134.672890
 20
216.427522
 30
0.0
 10
134.856997
 20
215.145039
 30
0.0
 10
135.008613
 20
213.352852
 30
0.0
 10
135.127740
 20
211.050959
 30
0.0
  0
SPLINE
  5
26a
100
AcDbEntity
  8
Layer_1
 62
7
100
AcDbSpline
 70
8
 71
3
 72
8
 73
4
 74
0
 40
0
 40
0
 40
0
 40
0
 40
1
 40
1
 40
1
 40
1
 10
135.127740
 20
211.050959
 30
0.0
 10
135.246873
 20
208.781952
 30
0.0
 10
135.306440
 20
206.364965
 30
0.0
 10
135.306440
 20
203.800000
 30
0.0
  0
SPLINE
  5
26b
100
AcDbEntity
  8
Layer_1
 62
7
100
AcDbSpline
 70
8
 71
3
 72
8
 73
4
 74
0
 40
0
 40
0
 40
0
 40
0
 40
1
 40
1
 40
1
 40
1
 10
135.306440
 20
203.800000
 30
0.0
 10
135.306440
 20
200.478699
 30
0.0
 10
135.203557
 20
197.387586
 30
0.0
 10
134.997790
 20
194.526660
 30
0.0
  0
SPLINE
  5
26c
100
AcDbEntity
  8
Layer_1
 62
7
100
AcDbSpline
 70
8
 71
3
 72
8
 73
4
 74
0
 40
0
 40
0
 40
0
 40
0
 40
1
 40
1
 40
1
 40
1
 10
134.997790
 20
194.526660
 30
0.0
 10
134.792017
 20
191.665740
 30
0.0
 10
134.472533
 20
189.429617
 30
0.0
 10
134.039340
 20
187.818290
 30
0.0
  0
SPLINE
  5
26d
100
AcDbEntity
  8
Layer_1
 62
7
100
AcDbSpline
 70
8
 71
3
 72
8
 73
4
 74
0
 40
0
 40
0
 40
0
 40
0
 40
1
 40
1
 40
1
 40
1
 10
134.039340
 20
187.818290
 30
0.0
 10
133.508673
 20
185.713703
 30
0.0
 10
132.344460
 20
184.661410
 30
0.0
 10
130.546700
 20
184.661410
 30
0.0
  0
SPLINE
  5
26e
100
AcDbEntity
  8
Layer_1
 62
7
100
AcDbSpline
 70
8
 71
3
 72
8
 73
4
 74
0
 40
0
 40
0
 40
0
 40
0
 40
1
 40
1
 40
1
 40
1
 10
130.546700
 20
184.661410
 30
0.0
 10
130.254293
 20
184.661410
 30
0.0
 10
129.891490
 20
184.694310
 30
0.0
 10
129.458290
 20
184.760110
 30
0.0
  0
SPLINE
  5
26f
100
AcDbEntity
  8
Layer_1
 62
7
100
AcDbSpline
 70
8
 71
3
 72
8
 73
4
 74
0
 40
0
 40
0
 40
0
 40
0
 40
1
 40
1
 40
1
 40
1
 10
129.458290
 20
184.760110
 30
0.0
 10
128.505257
 20
185.056063
 30
0.0
 10
127.768823
 20
185.631537
 30
0.0
 10
127.248990
 20
186.486530
 30
0.0
  0
SPLINE
  5
270
100
AcDbEntity
  8
Layer_1
 62
7
100
AcDbSpline
 70
8
 71
3
 72
8
 73
4
 74
0
 40
0
 40
0
 40
0
 40
0
 40
1
 40
1
 40
1
 40
1
 10
127.248990
 20
186.486530
 30
0.0
 10
126.739983
 20
187.374397
 30
0.0
 10
126.301373
 20
188.821300
 30
0.0
 10
125.933160
 20
190.827240
 30
0.0
  0
SPLINE
  5
271
100
AcDbEntity
  8
Layer_1
 62
7
100
AcDbSpline
 70
8
 71
3
 72
8
 73
4
 74
0
 40
0
 40
0
 40
0
 40
0
 40
1
 40
1
 40
1
 40
1
 10
125.933160
 20
190.827240
 30
0.0
 10
125.662413
 20
192.372793
 30
0.0
 10
125.451230
 20
194.280073
 30
0.0
 10
125.299610
 20
196.549080
 30
0.0
  0
SPLINE
  5
272
100
AcDbEntity
  8
Layer_1
 62
7
100
AcDbSpline
 70
8
 71
3
 72
8
 73
4
 74
0
 40
0
 40
0
 40
0
 40
0
 40
1
 40
1
 40
1
 40
1
 10
125.299610
 20
196.549080
 30
0.0
 10
125.147990
 20
198.818089
 30
0.0
 10
125.072180
 20
201.169307
 30
0.0
 10
125.072180
 20
203.602735
 30
0.0
  0
SPLINE
  5
273
100
AcDbEntity
  8
Layer_1
 62
7
100
AcDbSpline
 70
8
 71
3
 72
8
 73
4
 74
0
 40
0
 40
0
 40
0
 40
0
 40
1
 40
1
 40
1
 40
1
 10
125.072180
 20
203.602735
 30
0.0
 10
125.072180
 20
206.660963
 30
0.0
 10
125.196723
 20
209.456118
 30
0.0
 10
125.445810
 20
211.988199
 30
0.0
  0
SPLINE
  5
274
100
AcDbEntity
  8
Layer_1
 62
7
100
AcDbSpline
 70
8
 71
3
 72
8
 73
4
 74
0
 40
0
 40
0
 40
0
 40
0
 40
1
 40
1
 40
1
 40
1
 10
125.445810
 20
211.988199
 30
0.0
 10
125.694897
 20
214.553164
 30
0.0
 10
126.079360
 20
216.542657
 30
0.0
 10
126.599200
 20
217.956676
 30
0.0
  0
LINE
  5
275
100
AcDbEntity
  8
Layer_1
 62
7
100
AcDbLine
 10
126.599200
 20
217.956676
 30
0.0
 11
126.599200
 21
217.956636
 31
0.0
  0
SPLINE
  5
276
100
AcDbEntity
  8
Layer_1
 62
7
100
AcDbSpline
 70
8
 71
3
 72
8
 73
4
 74
0
 40
0
 40
0
 40
0
 40
0
 40
1
 40
1
 40
1
 40
1
 10
130.839100
 20
202.418865
 30
0.0
 10
130.828300
 20
201.794066
 30
0.0
 10
130.822900
 20
200.856867
 30
0.0
 10
130.822900
 20
199.607269
 30
0.0
  0
SPLINE
  5
277
100
AcDbEntity
  8
Layer_1
 62
7
100
AcDbSpline
 70
8
 71
3
 72
8
 73
4
 74
0
 40
0
 40
0
 40
0
 40
0
 40
1
 40
1
 40
1
 40
1
 10
130.822900
 20
199.607269
 30
0.0
 10
130.822900
 20
196.154430
 30
0.0
 10
130.920370
 20
192.520730
 30
0.0
 10
131.115310
 20
188.706170
 30
0.0
  0
SPLINE
  5
278
100
AcDbEntity
  8
Layer_1
 62
7
100
AcDbSpline
 70
8
 71
3
 72
8
 73
4
 74
0
 40
0
 40
0
 40
0
 40
0
 40
1
 40
1
 40
1
 40
1
 10
131.115310
 20
188.706170
 30
0.0
 10
131.126110
 20
188.245790
 30
0.0
 10
131.191087
 20
187.900507
 30
0.0
 10
131.310240
 20
187.670320
 30
0.0
  0
SPLINE
  5
279
100
AcDbEntity
  8
Layer_1
 62
7
100
AcDbSpline
 70
8
 71
3
 72
8
 73
4
 74
0
 40
0
 40
0
 40
0
 40
0
 40
1
 40
1
 40
1
 40
1
 10
131.310240
 20
187.670320
 30
0.0
 10
131.429373
 20
187.440127
 30
0.0
 10
131.591823
 20
187.325030
 30
0.0
 10
131.797590
 20
187.325030
 30
0.0
  0
SPLINE
  5
27a
100
AcDbEntity
  8
Layer_1
 62
7
100
AcDbSpline
 70
8
 71
3
 72
8
 73
4
 74
0
 40
0
 40
0
 40
0
 40
0
 40
1
 40
1
 40
1
 40
1
 10
131.797590
 20
187.325030
 30
0.0
 10
132.154977
 20
187.325030
 30
0.0
 10
132.534023
 20
187.637430
 30
0.0
 10
132.934730
 20
188.262230
 30
0.0
  0
SPLINE
  5
27b
100
AcDbEntity
  8
Layer_1
 62
7
100
AcDbSpline
 70
8
 71
3
 72
8
 73
4
 74
0
 40
0
 40
0
 40
0
 40
0
 40
1
 40
1
 40
1
 40
1
 10
132.934730
 20
188.262230
 30
0.0
 10
133.335437
 20
188.887030
 30
0.0
 10
133.611600
 20
189.659807
 30
0.0
 10
133.763220
 20
190.580560
 30
0.0
  0
SPLINE
  5
27c
100
AcDbEntity
  8
Layer_1
 62
7
100
AcDbSpline
 70
8
 71
3
 72
8
 73
4
 74
0
 40
0
 40
0
 40
0
 40
0
 40
1
 40
1
 40
1
 40
1
 10
133.763220
 20
190.580560
 30
0.0
 10
134.033967
 20
192.060353
 30
0.0
 10
134.234320
 20
194.000520
 30
0.0
 10
134.364280
 20
196.401060
 30
0.0
  0
SPLINE
  5
27d
100
AcDbEntity
  8
Layer_1
 62
7
100
AcDbSpline
 70
8
 71
3
 72
8
 73
4
 74
0
 40
0
 40
0
 40
0
 40
0
 40
1
 40
1
 40
1
 40
1
 10
134.364280
 20
196.401060
 30
0.0
 10
134.505067
 20
198.801606
 30
0.0
 10
134.575460
 20
201.350130
 30
0.0
 10
134.575460
 20
204.046631
 30
0.0
  0
SPLINE
  5
27e
100
AcDbEntity
  8
Layer_1
 62
7
100
AcDbSpline
 70
8
 71
3
 72
8
 73
4
 74
0
 40
0
 40
0
 40
0
 40
0
 40
1
 40
1
 40
1
 40
1
 10
134.575460
 20
204.046631
 30
0.0
 10
134.575460
 20
207.795426
 30
0.0
 10
134.461747
 20
210.919423
 30
0.0
 10
134.234320
 20
213.418621
 30
0.0
  0
SPLINE
  5
27f
100
AcDbEntity
  8
Layer_1
 62
7
100
AcDbSpline
 70
8
 71
3
 72
8
 73
4
 74
0
 40
0
 40
0
 40
0
 40
0
 40
1
 40
1
 40
1
 40
1
 10
134.234320
 20
213.418621
 30
0.0
 10
134.082700
 20
214.898408
 30
0.0
 10
133.822783
 20
216.180891
 30
0.0
 10
133.454570
 20
217.266068
 30
0.0
  0
SPLINE
  5
280
100
AcDbEntity
  8
Layer_1
 62
7
100
AcDbSpline
 70
8
 71
3
 72
8
 73
4
 74
0
 40
0
 40
0
 40
0
 40
0
 40
1
 40
1
 40
1
 40
1
 10
133.454570
 20
217.266068
 30
0.0
 10
133.097177
 20
218.384130
 30
0.0
 10
132.756033
 20
218.943161
 30
0.0
 10
132.431140
 20
218.943161
 30
0.0
  0
SPLINE
  5
281
100
AcDbEntity
  8
Layer_1
 62
7
100
AcDbSpline
 70
8
 71
3
 72
8
 73
4
 74
0
 40
0
 40
0
 40
0
 40
0
 40
1
 40
1
 40
1
 40
1
 10
132.431140
 20
218.943161
 30
0.0
 10
132.236200
 20
218.943161
 30
0.0
 10
132.068337
 20
218.712972
 30
0.0
 10
131.927550
 20
218.252593
 30
0.0
  0
SPLINE
  5
282
100
AcDbEntity
  8
Layer_1
 62
7
100
AcDbSpline
 70
8
 71
3
 72
8
 73
4
 74
0
 40
0
 40
0
 40
0
 40
0
 40
1
 40
1
 40
1
 40
1
 10
131.927550
 20
218.252593
 30
0.0
 10
131.526843
 20
216.970110
 30
0.0
 10
131.261510
 20
215.112155
 30
0.0
 10
131.131550
 20
212.678727
 30
0.0
  0
SPLINE
  5
283
100
AcDbEntity
  8
Layer_1
 62
7
100
AcDbSpline
 70
8
 71
3
 72
8
 73
4
 74
0
 40
0
 40
0
 40
0
 40
0
 40
1
 40
1
 40
1
 40
1
 10
131.131550
 20
212.678727
 30
0.0
 10
131.001590
 20
210.278182
 30
0.0
 10
130.909537
 20
207.335048
 30
0.0
 10
130.855390
 20
203.849326
 30
0.0
  0
LINE
  5
284
100
AcDbEntity
  8
Layer_1
 62
7
100
AcDbLine
 10
130.855390
 20
203.849326
 30
0.0
 11
130.839100
 21
202.418865
 31
0.0
  0
SPLINE
  5
285
100
AcDbEntity
  8
Layer_1
 62
7
100
AcDbSpline
 70
8
 71
3
 72
8
 73
4
 74
0
 40
0
 40
0
 40
0
 40
0
 40
1
 40
1
 40
1
 40
1
 10
147.507590
 20
219.436423
 30
0.0
 10
147.247677
 20
219.436423
 30
0.0
 10
147.079813
 20
219.567960
 30
0.0
 10
147.004000
 20
219.831033
 30
0.0
  0
SPLINE
  5
286
100
AcDbEntity
  8
Layer_1
 62
7
100
AcDbSpline
 70
8
 71
3
 72
8
 73
4
 74
0
 40
0
 40
0
 40
0
 40
0
 40
1
 40
1
 40
1
 40
1
 10
147.004000
 20
219.831033
 30
0.0
 10
146.960667
 20
219.995454
 30
0.0
 10
146.939000
 20
220.192759
 30
0.0
 10
146.939000
 20
220.422948
 30
0.0
  0
SPLINE
  5
287
100
AcDbEntity
  8
Layer_1
 62
7
100
AcDbSpline
 70
8
 71
3
 72
8
 73
4
 74
0
 40
0
 40
0
 40
0
 40
0
 40
1
 40
1
 40
1
 40
1
 10
146.939000
 20
220.422948
 30
0.0
 10
146.939000
 20
220.751790
 30
0.0
 10
146.993150
 20
221.031306
 30
0.0
 10
147.101450
 20
221.261495
 30
0.0
  0
SPLINE
  5
288
100
AcDbEntity
  8
Layer_1
 62
7
100
AcDbSpline
 70
8
 71
3
 72
8
 73
4
 74
0
 40
0
 40
0
 40
0
 40
0
 40
1
 40
1
 40
1
 40
1
 10
147.101450
 20
221.261495
 30
0.0
 10
147.209750
 20
221.524568
 30
0.0
 10
147.339710
 20
221.656105
 30
0.0
 10
147.491330
 20
221.656105
 30
0.0
  0
LINE
  5
289
100
AcDbEntity
  8
Layer_1
 62
7
100
AcDbLine
 10
147.491330
 20
221.656105
 30
0.0
 11
148.839650
 21
221.705435
 31
0.0
  0
SPLINE
  5
28a
100
AcDbEntity
  8
Layer_1
 62
7
100
AcDbSpline
 70
8
 71
3
 72
8
 73
4
 74
0
 40
0
 40
0
 40
0
 40
0
 40
1
 40
1
 40
1
 40
1
 10
148.839650
 20
221.705435
 30
0.0
 10
149.521937
 20
221.705435
 30
0.0
 10
149.982207
 20
221.590340
 30
0.0
 10
150.220460
 20
221.360151
 30
0.0
  0
LINE
  5
28b
100
AcDbEntity
  8
Layer_1
 62
7
100
AcDbLine
 10
150.220460
 20
221.360151
 30
0.0
 11
150.220460
 21
219.831037
 31
0.0
  0
SPLINE
  5
28c
100
AcDbEntity
  8
Layer_1
 62
7
100
AcDbSpline
 70
8
 71
3
 72
8
 73
4
 74
0
 40
0
 40
0
 40
0
 40
0
 40
1
 40
1
 40
1
 40
1
 10
150.220460
 20
219.831037
 30
0.0
 10
150.047187
 20
219.567964
 30
0.0
 10
149.808930
 20
219.436427
 30
0.0
 10
149.505690
 20
219.436427
 30
0.0
  0
LINE
  5
28d
100
AcDbEntity
  8
Layer_1
 62
7
100
AcDbLine
 10
149.505690
 20
219.436427
 30
0.0
 11
148.823410
 21
219.485757
 31
0.0
  0
SPLINE
  5
28e
100
AcDbEntity
  8
Layer_1
 62
7
100
AcDbSpline
 70
8
 71
3
 72
8
 73
4
 74
0
 40
0
 40
0
 40
0
 40
0
 40
1
 40
1
 40
1
 40
1
 10
148.823410
 20
219.485757
 30
0.0
 10
148.769277
 20
218.334811
 30
0.0
 10
148.731370
 20
216.822139
 30
0.0
 10
148.709690
 20
214.947741
 30
0.0
  0
SPLINE
  5
28f
100
AcDbEntity
  8
Layer_1
 62
7
100
AcDbSpline
 70
8
 71
3
 72
8
 73
4
 74
0
 40
0
 40
0
 40
0
 40
0
 40
1
 40
1
 40
1
 40
1
 10
148.709690
 20
214.947741
 30
0.0
 10
148.698890
 20
214.520247
 30
0.0
 10
148.682657
 20
213.879006
 30
0.0
 10
148.660990
 20
213.024018
 30
0.0
  0
SPLINE
  5
290
100
AcDbEntity
  8
Layer_1
 62
7
100
AcDbSpline
 70
8
 71
3
 72
8
 73
4
 74
0
 40
0
 40
0
 40
0
 40
0
 40
1
 40
1
 40
1
 40
1
 10
148.660990
 20
213.024018
 30
0.0
 10
148.650190
 20
212.201913
 30
0.0
 10
148.633957
 20
211.511345
 30
0.0
 10
148.612290
 20
210.952314
 30
0.0
  0
SPLINE
  5
291
100
AcDbEntity
  8
Layer_1
 62
7
100
AcDbSpline
 70
8
 71
3
 72
8
 73
4
 74
0
 40
0
 40
0
 40
0
 40
0
 40
1
 40
1
 40
1
 40
1
 10
148.612290
 20
210.952314
 30
0.0
 10
148.514823
 20
208.913495
 30
0.0
 10
148.319887
 20
205.575752
 30
0.0
 10
148.027480
 20
200.939085
 30
0.0
  0
SPLINE
  5
292
100
AcDbEntity
  8
Layer_1
 62
7
100
AcDbSpline
 70
8
 71
3
 72
8
 73
4
 74
0
 40
0
 40
0
 40
0
 40
0
 40
1
 40
1
 40
1
 40
1
 10
148.027480
 20
200.939085
 30
0.0
 10
147.615940
 20
193.934762
 30
0.0
 10
147.372267
 20
189.561167
 30
0.0
 10
147.296460
 20
187.818300
 30
0.0
  0
SPLINE
  5
293
100
AcDbEntity
  8
Layer_1
 62
7
100
AcDbSpline
 70
8
 71
3
 72
8
 73
4
 74
0
 40
0
 40
0
 40
0
 40
0
 40
1
 40
1
 40
1
 40
1
 10
147.296460
 20
187.818300
 30
0.0
 10
147.383100
 20
187.686767
 30
0.0
 10
147.475153
 20
187.555230
 30
0.0
 10
147.572620
 20
187.423690
 30
0.0
  0
SPLINE
  5
294
100
AcDbEntity
  8
Layer_1
 62
7
100
AcDbSpline
 70
8
 71
3
 72
8
 73
4
 74
0
 40
0
 40
0
 40
0
 40
0
 40
1
 40
1
 40
1
 40
1
 10
147.572620
 20
187.423690
 30
0.0
 10
147.680920
 20
187.292157
 30
0.0
 10
147.745900
 20
187.127737
 30
0.0
 10
147.767560
 20
186.930430
 30
0.0
  0
SPLINE
  5
295
100
AcDbEntity
  8
Layer_1
 62
7
100
AcDbSpline
 70
8
 71
3
 72
8
 73
4
 74
0
 40
0
 40
0
 40
0
 40
0
 40
1
 40
1
 40
1
 40
1
 10
147.767560
 20
186.930430
 30
0.0
 10
147.800027
 20
186.766010
 30
0.0
 10
147.816260
 20
186.437170
 30
0.0
 10
147.816260
 20
185.943910
 30
0.0
  0
SPLINE
  5
296
100
AcDbEntity
  8
Layer_1
 62
7
100
AcDbSpline
 70
8
 71
3
 72
8
 73
4
 74
0
 40
0
 40
0
 40
0
 40
0
 40
1
 40
1
 40
1
 40
1
 10
147.816260
 20
185.943910
 30
0.0
 10
147.697133
 20
185.516417
 30
0.0
 10
147.242280
 20
185.302670
 30
0.0
 10
146.451700
 20
185.302670
 30
0.0
  0
LINE
  5
297
100
AcDbEntity
  8
Layer_1
 62
7
100
AcDbLine
 10
146.451700
 20
185.302670
 30
0.0
 11
145.606960
 21
185.351970
 31
0.0
  0
SPLINE
  5
298
100
AcDbEntity
  8
Layer_1
 62
7
100
AcDbSpline
 70
8
 71
3
 72
8
 73
4
 74
0
 40
0
 40
0
 40
0
 40
0
 40
1
 40
1
 40
1
 40
1
 10
145.606960
 20
185.351970
 30
0.0
 10
145.444513
 20
185.351970
 30
0.0
 10
145.309140
 20
185.467067
 30
0.0
 10
145.200840
 20
185.697260
 30
0.0
  0
SPLINE
  5
299
100
AcDbEntity
  8
Layer_1
 62
7
100
AcDbSpline
 70
8
 71
3
 72
8
 73
4
 74
0
 40
0
 40
0
 40
0
 40
0
 40
1
 40
1
 40
1
 40
1
 10
145.200840
 20
185.697260
 30
0.0
 10
145.103373
 20
185.927447
 30
0.0
 10
145.054640
 20
186.190520
 30
0.0
 10
145.054640
 20
186.486480
 30
0.0
  0
SPLINE
  5
29a
100
AcDbEntity
  8
Layer_1
 62
7
100
AcDbSpline
 70
8
 71
3
 72
8
 73
4
 74
0
 40
0
 40
0
 40
0
 40
0
 40
1
 40
1
 40
1
 40
1
 10
145.054640
 20
186.486480
 30
0.0
 10
145.054640
 20
186.848200
 30
0.0
 10
145.108790
 20
187.177040
 30
0.0
 10
145.217090
 20
187.473000
 30
0.0
  0
SPLINE
  5
29b
100
AcDbEntity
  8
Layer_1
 62
7
100
AcDbSpline
 70
8
 71
3
 72
8
 73
4
 74
0
 40
0
 40
0
 40
0
 40
0
 40
1
 40
1
 40
1
 40
1
 10
145.217090
 20
187.473000
 30
0.0
 10
145.325390
 20
187.703187
 30
0.0
 10
145.688190
 20
187.818280
 30
0.0
 10
146.305490
 20
187.818280
 30
0.0
  0
SPLINE
  5
29c
100
AcDbEntity
  8
Layer_1
 62
7
100
AcDbSpline
 70
8
 71
3
 72
8
 73
4
 74
0
 40
0
 40
0
 40
0
 40
0
 40
1
 40
1
 40
1
 40
1
 10
146.305490
 20
187.818280
 30
0.0
 10
146.208023
 20
189.002113
 30
0.0
 10
146.029330
 20
190.465460
 30
0.0
 10
145.769410
 20
192.208320
 30
0.0
  0
SPLINE
  5
29d
100
AcDbEntity
  8
Layer_1
 62
7
100
AcDbSpline
 70
8
 71
3
 72
8
 73
4
 74
0
 40
0
 40
0
 40
0
 40
0
 40
1
 40
1
 40
1
 40
1
 10
145.769410
 20
192.208320
 30
0.0
 10
145.531157
 20
193.918300
 30
0.0
 10
145.368710
 20
195.167900
 30
0.0
 10
145.282070
 20
195.957120
 30
0.0
  0
SPLINE
  5
29e
100
AcDbEntity
  8
Layer_1
 62
7
100
AcDbSpline
 70
8
 71
3
 72
8
 73
4
 74
0
 40
0
 40
0
 40
0
 40
0
 40
1
 40
1
 40
1
 40
1
 10
145.282070
 20
195.957120
 30
0.0
 10
145.238737
 20
196.746335
 30
0.0
 10
145.000477
 20
198.966014
 30
0.0
 10
144.567290
 20
202.616157
 30
0.0
  0
LINE
  5
29f
100
AcDbEntity
  8
Layer_1
 62
7
100
AcDbLine
 10
144.567290
 20
202.616157
 30
0.0
 11
144.388600
 21
204.243923
 31
0.0
  0
SPLINE
  5
2a0
100
AcDbEntity
  8
Layer_1
 62
7
100
AcDbSpline
 70
8
 71
3
 72
8
 73
4
 74
0
 40
0
 40
0
 40
0
 40
0
 40
1
 40
1
 40
1
 40
1
 10
144.388600
 20
204.243923
 30
0.0
 10
144.269473
 20
201.876263
 30
0.0
 10
143.944577
 20
197.897279
 30
0.0
 10
143.413910
 20
192.306970
 30
0.0
  0
SPLINE
  5
2a1
100
AcDbEntity
  8
Layer_1
 62
7
100
AcDbSpline
 70
8
 71
3
 72
8
 73
4
 74
0
 40
0
 40
0
 40
0
 40
0
 40
1
 40
1
 40
1
 40
1
 10
143.413910
 20
192.306970
 30
0.0
 10
143.164823
 20
189.610470
 30
0.0
 10
143.029450
 20
187.999147
 30
0.0
 10
143.007790
 20
187.473000
 30
0.0
  0
SPLINE
  5
2a2
100
AcDbEntity
  8
Layer_1
 62
7
100
AcDbSpline
 70
8
 71
3
 72
8
 73
4
 74
0
 40
0
 40
0
 40
0
 40
0
 40
1
 40
1
 40
1
 40
1
 10
143.007790
 20
187.473000
 30
0.0
 10
143.267710
 20
187.473000
 30
0.0
 10
143.468063
 20
187.423673
 30
0.0
 10
143.608850
 20
187.325020
 30
0.0
  0
SPLINE
  5
2a3
100
AcDbEntity
  8
Layer_1
 62
7
100
AcDbSpline
 70
8
 71
3
 72
8
 73
4
 74
0
 40
0
 40
0
 40
0
 40
0
 40
1
 40
1
 40
1
 40
1
 10
143.608850
 20
187.325020
 30
0.0
 10
143.760470
 20
187.226367
 30
0.0
 10
143.857940
 20
186.963293
 30
0.0
 10
143.901260
 20
186.535800
 30
0.0
  0
SPLINE
  5
2a4
100
AcDbEntity
  8
Layer_1
 62
7
100
AcDbSpline
 70
8
 71
3
 72
8
 73
4
 74
0
 40
0
 40
0
 40
0
 40
0
 40
1
 40
1
 40
1
 40
1
 10
143.901260
 20
186.535800
 30
0.0
 10
143.966260
 20
185.582160
 30
0.0
 10
143.798397
 20
185.105340
 30
0.0
 10
143.397670
 20
185.105340
 30
0.0
  0
SPLINE
  5
2a5
100
AcDbEntity
  8
Layer_1
 62
7
100
AcDbSpline
 70
8
 71
3
 72
8
 73
4
 74
0
 40
0
 40
0
 40
0
 40
0
 40
1
 40
1
 40
1
 40
1
 10
143.397670
 20
185.105340
 30
0.0
 10
142.986130
 20
185.105340
 30
0.0
 10
142.623327
 20
185.088907
 30
0.0
 10
142.309260
 20
185.056040
 30
0.0
  0
SPLINE
  5
2a6
100
AcDbEntity
  8
Layer_1
 62
7
100
AcDbSpline
 70
8
 71
3
 72
8
 73
4
 74
0
 40
0
 40
0
 40
0
 40
0
 40
1
 40
1
 40
1
 40
1
 10
142.309260
 20
185.056040
 30
0.0
 10
141.377887
 20
184.990240
 30
0.0
 10
140.614380
 20
184.957340
 30
0.0
 10
140.018740
 20
184.957340
 30
0.0
  0
SPLINE
  5
2a7
100
AcDbEntity
  8
Layer_1
 62
7
100
AcDbSpline
 70
8
 71
3
 72
8
 73
4
 74
0
 40
0
 40
0
 40
0
 40
0
 40
1
 40
1
 40
1
 40
1
 10
140.018740
 20
184.957340
 30
0.0
 10
139.358113
 20
184.957340
 30
0.0
 10
138.946577
 20
185.006667
 30
0.0
 10
138.784130
 20
185.105320
 30
0.0
  0
SPLINE
  5
2a8
100
AcDbEntity
  8
Layer_1
 62
7
100
AcDbSpline
 70
8
 71
3
 72
8
 73
4
 74
0
 40
0
 40
0
 40
0
 40
0
 40
1
 40
1
 40
1
 40
1
 10
138.784130
 20
185.105320
 30
0.0
 10
138.719130
 20
185.565700
 30
0.0
 10
138.686630
 20
185.943867
 30
0.0
 10
138.686630
 20
186.239820
 30
0.0
  0
SPLINE
  5
2a9
100
AcDbEntity
  8
Layer_1
 62
7
100
AcDbSpline
 70
8
 71
3
 72
8
 73
4
 74
0
 40
0
 40
0
 40
0
 40
0
 40
1
 40
1
 40
1
 40
1
 10
138.686630
 20
186.239820
 30
0.0
 10
138.686630
 20
186.601547
 30
0.0
 10
138.729950
 20
186.864620
 30
0.0
 10
138.816590
 20
187.029040
 30
0.0
  0
SPLINE
  5
2aa
100
AcDbEntity
  8
Layer_1
 62
7
100
AcDbSpline
 70
8
 71
3
 72
8
 73
4
 74
0
 40
0
 40
0
 40
0
 40
0
 40
1
 40
1
 40
1
 40
1
 10
138.816590
 20
187.029040
 30
0.0
 10
138.914057
 20
187.226347
 30
0.0
 10
139.065673
 20
187.374327
 30
0.0
 10
139.271440
 20
187.472980
 30
0.0
  0
SPLINE
  5
2ab
100
AcDbEntity
  8
Layer_1
 62
7
100
AcDbSpline
 70
8
 71
3
 72
8
 73
4
 74
0
 40
0
 40
0
 40
0
 40
0
 40
1
 40
1
 40
1
 40
1
 10
139.271440
 20
187.472980
 30
0.0
 10
139.195633
 20
188.064893
 30
0.0
 10
139.011527
 20
189.446030
 30
0.0
 10
138.719120
 20
191.616390
 30
0.0
  0
SPLINE
  5
2ac
100
AcDbEntity
  8
Layer_1
 62
7
100
AcDbSpline
 70
8
 71
3
 72
8
 73
4
 74
0
 40
0
 40
0
 40
0
 40
0
 40
1
 40
1
 40
1
 40
1
 10
138.719120
 20
191.616390
 30
0.0
 10
138.470033
 20
193.392130
 30
0.0
 10
138.285923
 20
194.871917
 30
0.0
 10
138.166790
 20
196.055750
 30
0.0
  0
SPLINE
  5
2ad
100
AcDbEntity
  8
Layer_1
 62
7
100
AcDbSpline
 70
8
 71
3
 72
8
 73
4
 74
0
 40
0
 40
0
 40
0
 40
0
 40
1
 40
1
 40
1
 40
1
 10
138.166790
 20
196.055750
 30
0.0
 10
138.047663
 20
197.239577
 30
0.0
 10
137.885217
 20
199.261952
 30
0.0
 10
137.679450
 20
202.122875
 30
0.0
  0
SPLINE
  5
2ae
100
AcDbEntity
  8
Layer_1
 62
7
100
AcDbSpline
 70
8
 71
3
 72
8
 73
4
 74
0
 40
0
 40
0
 40
0
 40
0
 40
1
 40
1
 40
1
 40
1
 10
137.679450
 20
202.122875
 30
0.0
 10
137.430363
 20
204.687840
 30
0.0
 10
137.208350
 20
207.417225
 30
0.0
 10
137.013410
 20
210.311032
 30
0.0
  0
SPLINE
  5
2af
100
AcDbEntity
  8
Layer_1
 62
7
100
AcDbSpline
 70
8
 71
3
 72
8
 73
4
 74
0
 40
0
 40
0
 40
0
 40
0
 40
1
 40
1
 40
1
 40
1
 10
137.013410
 20
210.311032
 30
0.0
 10
136.818470
 20
213.237724
 30
0.0
 10
136.672267
 20
215.999995
 30
0.0
 10
136.574800
 20
218.597844
 30
0.0
  0
LINE
  5
2b0
100
AcDbEntity
  8
Layer_1
 62
7
100
AcDbLine
 10
136.574800
 20
218.597844
 30
0.0
 11
136.054960
 21
219.189759
 31
0.0
  0
LINE
  5
2b1
100
AcDbEntity
  8
Layer_1
 62
7
100
AcDbLine
 10
136.054960
 20
219.189759
 30
0.0
 11
136.054960
 21
221.014830
 31
0.0
  0
SPLINE
  5
2b2
100
AcDbEntity
  8
Layer_1
 62
7
100
AcDbSpline
 70
8
 71
3
 72
8
 73
4
 74
0
 40
0
 40
0
 40
0
 40
0
 40
1
 40
1
 40
1
 40
1
 10
136.054960
 20
221.014830
 30
0.0
 10
136.260727
 20
221.277903
 30
0.0
 10
137.284153
 20
221.409440
 30
0.0
 10
139.125240
 20
221.409440
 30
0.0
  0
LINE
  5
2b3
100
AcDbEntity
  8
Layer_1
 62
7
100
AcDbLine
 10
139.125240
 20
221.409440
 30
0.0
 11
142.179270
 21
221.360110
 31
0.0
  0
SPLINE
  5
2b4
100
AcDbEntity
  8
Layer_1
 62
7
100
AcDbSpline
 70
8
 71
3
 72
8
 73
4
 74
0
 40
0
 40
0
 40
0
 40
0
 40
1
 40
1
 40
1
 40
1
 10
142.179270
 20
221.360110
 30
0.0
 10
142.514997
 20
221.360110
 30
0.0
 10
142.682860
 20
220.949058
 30
0.0
 10
142.682860
 20
220.126954
 30
0.0
  0
SPLINE
  5
2b5
100
AcDbEntity
  8
Layer_1
 62
7
100
AcDbSpline
 70
8
 71
3
 72
8
 73
4
 74
0
 40
0
 40
0
 40
0
 40
0
 40
1
 40
1
 40
1
 40
1
 10
142.682860
 20
220.126954
 30
0.0
 10
142.682860
 20
219.765228
 30
0.0
 10
142.650360
 20
219.485713
 30
0.0
 10
142.585360
 20
219.288408
 30
0.0
  0
SPLINE
  5
2b6
100
AcDbEntity
  8
Layer_1
 62
7
100
AcDbSpline
 70
8
 71
3
 72
8
 73
4
 74
0
 40
0
 40
0
 40
0
 40
0
 40
1
 40
1
 40
1
 40
1
 10
142.585360
 20
219.288408
 30
0.0
 10
142.520360
 20
219.123987
 30
0.0
 10
142.444550
 20
218.976008
 30
0.0
 10
142.357930
 20
218.844471
 30
0.0
  0
SPLINE
  5
2b7
100
AcDbEntity
  8
Layer_1
 62
7
100
AcDbSpline
 70
8
 71
3
 72
8
 73
4
 74
0
 40
0
 40
0
 40
0
 40
0
 40
1
 40
1
 40
1
 40
1
 10
142.357930
 20
218.844471
 30
0.0
 10
142.271297
 20
218.745819
 30
0.0
 10
142.211733
 20
218.663609
 30
0.0
 10
142.179240
 20
218.597840
 30
0.0
  0
SPLINE
  5
2b8
100
AcDbEntity
  8
Layer_1
 62
7
100
AcDbSpline
 70
8
 71
3
 72
8
 73
4
 74
0
 40
0
 40
0
 40
0
 40
0
 40
1
 40
1
 40
1
 40
1
 10
142.179240
 20
218.597840
 30
0.0
 10
142.179240
 20
217.315357
 30
0.0
 10
142.238803
 20
215.227213
 30
0.0
 10
142.357930
 20
212.333406
 30
0.0
  0
SPLINE
  5
2b9
100
AcDbEntity
  8
Layer_1
 62
7
100
AcDbSpline
 70
8
 71
3
 72
8
 73
4
 74
0
 40
0
 40
0
 40
0
 40
0
 40
1
 40
1
 40
1
 40
1
 10
142.357930
 20
212.333406
 30
0.0
 10
142.477063
 20
209.439599
 30
0.0
 10
142.623270
 20
206.693770
 30
0.0
 10
142.796550
 20
204.095921
 30
0.0
  0
SPLINE
  5
2ba
100
AcDbEntity
  8
Layer_1
 62
7
100
AcDbSpline
 70
8
 71
3
 72
8
 73
4
 74
0
 40
0
 40
0
 40
0
 40
0
 40
1
 40
1
 40
1
 40
1
 10
142.796550
 20
204.095921
 30
0.0
 10
142.969823
 20
201.498072
 30
0.0
 10
143.137687
 20
199.820979
 30
0.0
 10
143.300140
 20
199.064643
 30
0.0
  0
SPLINE
  5
2bb
100
AcDbEntity
  8
Layer_1
 62
7
100
AcDbSpline
 70
8
 71
3
 72
8
 73
4
 74
0
 40
0
 40
0
 40
0
 40
0
 40
1
 40
1
 40
1
 40
1
 10
143.300140
 20
199.064643
 30
0.0
 10
143.386773
 20
199.886747
 30
0.0
 10
143.495070
 20
201.711818
 30
0.0
 10
143.625030
 20
204.539857
 30
0.0
  0
SPLINE
  5
2bc
100
AcDbEntity
  8
Layer_1
 62
7
100
AcDbSpline
 70
8
 71
3
 72
8
 73
4
 74
0
 40
0
 40
0
 40
0
 40
0
 40
1
 40
1
 40
1
 40
1
 10
143.625030
 20
204.539857
 30
0.0
 10
143.690030
 20
206.052529
 30
0.0
 10
143.744180
 20
207.252801
 30
0.0
 10
143.787480
 20
208.140673
 30
0.0
  0
SPLINE
  5
2bd
100
AcDbEntity
  8
Layer_1
 62
7
100
AcDbSpline
 70
8
 71
3
 72
8
 73
4
 74
0
 40
0
 40
0
 40
0
 40
0
 40
1
 40
1
 40
1
 40
1
 10
143.787480
 20
208.140673
 30
0.0
 10
143.841613
 20
209.028546
 30
0.0
 10
143.906593
 20
209.653345
 30
0.0
 10
143.982420
 20
210.015071
 30
0.0
  0
LINE
  5
2be
100
AcDbEntity
  8
Layer_1
 62
7
100
AcDbLine
 10
143.982420
 20
210.015071
 30
0.0
 11
144.486010
 21
210.015071
 31
0.0
  0
SPLINE
  5
2bf
100
AcDbEntity
  8
Layer_1
 62
7
100
AcDbSpline
 70
8
 71
3
 72
8
 73
4
 74
0
 40
0
 40
0
 40
0
 40
0
 40
1
 40
1
 40
1
 40
1
 10
144.486010
 20
210.015071
 30
0.0
 10
144.626797
 20
209.324504
 30
0.0
 10
145.000427
 20
206.364929
 30
0.0
 10
145.606900
 20
201.136346
 30
0.0
  0
SPLINE
  5
2c0
100
AcDbEntity
  8
Layer_1
 62
7
100
AcDbSpline
 70
8
 71
3
 72
8
 73
4
 74
0
 40
0
 40
0
 40
0
 40
0
 40
1
 40
1
 40
1
 40
1
 10
145.606900
 20
201.136346
 30
0.0
 10
146.224207
 20
195.907762
 30
0.0
 10
146.587010
 20
192.685113
 30
0.0
 10
146.695310
 20
191.468400
 30
0.0
  0
LINE
  5
2c1
100
AcDbEntity
  8
Layer_1
 62
7
100
AcDbLine
 10
146.695310
 20
191.468400
 30
0.0
 11
146.809020
 21
192.060310
 31
0.0
  0
LINE
  5
2c2
100
AcDbEntity
  8
Layer_1
 62
7
100
AcDbLine
 10
146.809020
 20
192.060310
 30
0.0
 11
146.906520
 21
192.997510
 31
0.0
  0
LINE
  5
2c3
100
AcDbEntity
  8
Layer_1
 62
7
100
AcDbLine
 10
146.906520
 20
192.997510
 30
0.0
 11
146.906520
 21
194.773260
 31
0.0
  0
SPLINE
  5
2c4
100
AcDbEntity
  8
Layer_1
 62
7
100
AcDbSpline
 70
8
 71
3
 72
8
 73
4
 74
0
 40
0
 40
0
 40
0
 40
0
 40
1
 40
1
 40
1
 40
1
 10
146.906520
 20
194.773260
 30
0.0
 10
147.242247
 20
200.034726
 30
0.0
 10
147.507580
 20
204.539857
 30
0.0
 10
147.702520
 20
208.288652
 30
0.0
  0
SPLINE
  5
2c5
100
AcDbEntity
  8
Layer_1
 62
7
100
AcDbSpline
 70
8
 71
3
 72
8
 73
4
 74
0
 40
0
 40
0
 40
0
 40
0
 40
1
 40
1
 40
1
 40
1
 10
147.702520
 20
208.288652
 30
0.0
 10
147.897460
 20
212.070332
 30
0.0
 10
148.032833
 20
215.802686
 30
0.0
 10
148.108640
 20
219.485713
 30
0.0
  0
LINE
  5
2c6
100
AcDbEntity
  8
Layer_1
 62
7
100
AcDbLine
 10
148.108640
 20
219.485713
 30
0.0
 11
147.507590
 21
219.436423
 31
0.0
  0
SPLINE
  5
2c7
100
AcDbEntity
  8
Layer_1
 62
7
100
AcDbSpline
 70
8
 71
3
 72
8
 73
4
 74
0
 40
0
 40
0
 40
0
 40
0
 40
1
 40
1
 40
1
 40
1
 10
151.372340
 20
218.449898
 30
0.0
 10
151.361540
 20
218.384131
 30
0.0
 10
151.350707
 20
218.285479
 30
0.0
 10
151.339840
 20
218.153941
 30
0.0
  0
SPLINE
  5
2c8
100
AcDbEntity
  8
Layer_1
 62
7
100
AcDbSpline
 70
8
 71
3
 72
8
 73
4
 74
0
 40
0
 40
0
 40
0
 40
0
 40
1
 40
1
 40
1
 40
1
 10
151.339840
 20
218.153941
 30
0.0
 10
151.339840
 20
218.022404
 30
0.0
 10
151.323607
 20
217.907310
 30
0.0
 10
151.291140
 20
217.808657
 30
0.0
  0
SPLINE
  5
2c9
100
AcDbEntity
  8
Layer_1
 62
7
100
AcDbSpline
 70
8
 71
3
 72
8
 73
4
 74
0
 40
0
 40
0
 40
0
 40
0
 40
1
 40
1
 40
1
 40
1
 10
151.291140
 20
217.808657
 30
0.0
 10
151.269473
 20
217.710004
 30
0.0
 10
151.226153
 20
217.627794
 30
0.0
 10
151.161180
 20
217.562026
 30
0.0
  0
SPLINE
  5
2ca
100
AcDbEntity
  8
Layer_1
 62
7
100
AcDbSpline
 70
8
 71
3
 72
8
 73
4
 74
0
 40
0
 40
0
 40
0
 40
0
 40
1
 40
1
 40
1
 40
1
 10
151.161180
 20
217.562026
 30
0.0
 10
151.117847
 20
217.463373
 30
0.0
 10
151.063697
 20
217.414047
 30
0.0
 10
150.998730
 20
217.414047
 30
0.0
  0
SPLINE
  5
2cb
100
AcDbEntity
  8
Layer_1
 62
7
100
AcDbSpline
 70
8
 71
3
 72
8
 73
4
 74
0
 40
0
 40
0
 40
0
 40
0
 40
1
 40
1
 40
1
 40
1
 10
150.998730
 20
217.414047
 30
0.0
 10
150.868770
 20
217.414047
 30
0.0
 10
150.755057
 20
217.644236
 30
0.0
 10
150.657590
 20
218.104614
 30
0.0
  0
SPLINE
  5
2cc
100
AcDbEntity
  8
Layer_1
 62
7
100
AcDbSpline
 70
8
 71
3
 72
8
 73
4
 74
0
 40
0
 40
0
 40
0
 40
0
 40
1
 40
1
 40
1
 40
1
 10
150.657590
 20
218.104614
 30
0.0
 10
150.625123
 20
218.400572
 30
0.0
 10
150.608890
 20
218.696530
 30
0.0
 10
150.608890
 20
218.992487
 30
0.0
  0
SPLINE
  5
2cd
100
AcDbEntity
  8
Layer_1
 62
7
100
AcDbSpline
 70
8
 71
3
 72
8
 73
4
 74
0
 40
0
 40
0
 40
0
 40
0
 40
1
 40
1
 40
1
 40
1
 10
150.608890
 20
218.992487
 30
0.0
 10
150.608890
 20
219.485750
 30
0.0
 10
150.652207
 20
219.946128
 30
0.0
 10
150.738840
 20
220.373622
 30
0.0
  0
SPLINE
  5
2ce
100
AcDbEntity
  8
Layer_1
 62
7
100
AcDbSpline
 70
8
 71
3
 72
8
 73
4
 74
0
 40
0
 40
0
 40
0
 40
0
 40
1
 40
1
 40
1
 40
1
 10
150.738840
 20
220.373622
 30
0.0
 10
150.836313
 20
220.801116
 30
0.0
 10
150.950030
 20
221.162842
 30
0.0
 10
151.079990
 20
221.458800
 30
0.0
  0
SPLINE
  5
2cf
100
AcDbEntity
  8
Layer_1
 62
7
100
AcDbSpline
 70
8
 71
3
 72
8
 73
4
 74
0
 40
0
 40
0
 40
0
 40
0
 40
1
 40
1
 40
1
 40
1
 10
151.079990
 20
221.458800
 30
0.0
 10
151.296583
 20
221.787641
 30
0.0
 10
151.664800
 20
221.952062
 30
0.0
 10
152.184640
 20
221.952062
 30
0.0
  0
SPLINE
  5
2d0
100
AcDbEntity
  8
Layer_1
 62
7
100
AcDbSpline
 70
8
 71
3
 72
8
 73
4
 74
0
 40
0
 40
0
 40
0
 40
0
 40
1
 40
1
 40
1
 40
1
 10
152.184640
 20
221.952062
 30
0.0
 10
152.412067
 20
221.952062
 30
0.0
 10
152.731547
 20
221.919179
 30
0.0
 10
153.143080
 20
221.853412
 30
0.0
  0
SPLINE
  5
2d1
100
AcDbEntity
  8
Layer_1
 62
7
100
AcDbSpline
 70
8
 71
3
 72
8
 73
4
 74
0
 40
0
 40
0
 40
0
 40
0
 40
1
 40
1
 40
1
 40
1
 10
153.143080
 20
221.853412
 30
0.0
 10
153.489640
 20
221.787645
 30
0.0
 10
153.727900
 20
221.754762
 30
0.0
 10
153.857860
 20
221.754762
 30
0.0
  0
LINE
  5
2d2
100
AcDbEntity
  8
Layer_1
 62
7
100
AcDbLine
 10
153.857860
 20
221.754762
 30
0.0
 11
155.579810
 21
221.804092
 31
0.0
  0
SPLINE
  5
2d3
100
AcDbEntity
  8
Layer_1
 62
7
100
AcDbSpline
 70
8
 71
3
 72
8
 73
4
 74
0
 40
0
 40
0
 40
0
 40
0
 40
1
 40
1
 40
1
 40
1
 10
155.579810
 20
221.804092
 30
0.0
 10
157.063510
 20
221.804092
 30
0.0
 10
157.875753
 20
221.590345
 30
0.0
 10
158.016540
 20
221.162851
 30
0.0
  0
SPLINE
  5
2d4
100
AcDbEntity
  8
Layer_1
 62
7
100
AcDbSpline
 70
8
 71
3
 72
8
 73
4
 74
0
 40
0
 40
0
 40
0
 40
0
 40
1
 40
1
 40
1
 40
1
 10
158.016540
 20
221.162851
 30
0.0
 10
158.092347
 20
220.932662
 30
0.0
 10
158.146497
 20
220.620262
 30
0.0
 10
158.178990
 20
220.225652
 30
0.0
  0
SPLINE
  5
2d5
100
AcDbEntity
  8
Layer_1
 62
7
100
AcDbSpline
 70
8
 71
3
 72
8
 73
4
 74
0
 40
0
 40
0
 40
0
 40
0
 40
1
 40
1
 40
1
 40
1
 10
158.178990
 20
220.225652
 30
0.0
 10
158.222323
 20
219.831042
 30
0.0
 10
158.243990
 20
219.419990
 30
0.0
 10
158.243990
 20
218.992496
 30
0.0
  0
SPLINE
  5
2d6
100
AcDbEntity
  8
Layer_1
 62
7
100
AcDbSpline
 70
8
 71
3
 72
8
 73
4
 74
0
 40
0
 40
0
 40
0
 40
0
 40
1
 40
1
 40
1
 40
1
 10
158.243990
 20
218.992496
 30
0.0
 10
158.243990
 20
218.565002
 30
0.0
 10
158.222323
 20
218.203276
 30
0.0
 10
158.178990
 20
217.907318
 30
0.0
  0
SPLINE
  5
2d7
100
AcDbEntity
  8
Layer_1
 62
7
100
AcDbSpline
 70
8
 71
3
 72
8
 73
4
 74
0
 40
0
 40
0
 40
0
 40
0
 40
1
 40
1
 40
1
 40
1
 10
158.178990
 20
217.907318
 30
0.0
 10
158.135657
 20
217.611361
 30
0.0
 10
158.070677
 20
217.446940
 30
0.0
 10
157.984050
 20
217.414056
 30
0.0
  0
SPLINE
  5
2d8
100
AcDbEntity
  8
Layer_1
 62
7
100
AcDbSpline
 70
8
 71
3
 72
8
 73
4
 74
0
 40
0
 40
0
 40
0
 40
0
 40
1
 40
1
 40
1
 40
1
 10
157.984050
 20
217.414056
 30
0.0
 10
157.940717
 20
217.381169
 30
0.0
 10
157.881153
 20
217.364726
 30
0.0
 10
157.805360
 20
217.364726
 30
0.0
  0
SPLINE
  5
2d9
100
AcDbEntity
  8
Layer_1
 62
7
100
AcDbSpline
 70
8
 71
3
 72
8
 73
4
 74
0
 40
0
 40
0
 40
0
 40
0
 40
1
 40
1
 40
1
 40
1
 10
157.805360
 20
217.364726
 30
0.0
 10
157.686227
 20
217.364726
 30
0.0
 10
157.599587
 20
217.446936
 30
0.0
 10
157.545440
 20
217.611357
 30
0.0
  0
SPLINE
  5
2da
100
AcDbEntity
  8
Layer_1
 62
7
100
AcDbSpline
 70
8
 71
3
 72
8
 73
4
 74
0
 40
0
 40
0
 40
0
 40
0
 40
1
 40
1
 40
1
 40
1
 10
157.545440
 20
217.611357
 30
0.0
 10
157.502107
 20
217.808662
 30
0.0
 10
157.458787
 20
218.071735
 30
0.0
 10
157.415480
 20
218.400577
 30
0.0
  0
SPLINE
  5
2db
100
AcDbEntity
  8
Layer_1
 62
7
100
AcDbSpline
 70
8
 71
3
 72
8
 73
4
 74
0
 40
0
 40
0
 40
0
 40
0
 40
1
 40
1
 40
1
 40
1
 10
157.415480
 20
218.400577
 30
0.0
 10
157.372147
 20
218.762303
 30
0.0
 10
157.328827
 20
219.074703
 30
0.0
 10
157.285520
 20
219.337776
 30
0.0
  0
LINE
  5
2dc
100
AcDbEntity
  8
Layer_1
 62
7
100
AcDbLine
 10
157.285520
 20
219.337776
 30
0.0
 11
156.863100
 21
219.485750
 31
0.0
  0
SPLINE
  5
2dd
100
AcDbEntity
  8
Layer_1
 62
7
100
AcDbSpline
 70
8
 71
3
 72
8
 73
4
 74
0
 40
0
 40
0
 40
0
 40
0
 40
1
 40
1
 40
1
 40
1
 10
156.863100
 20
219.485750
 30
0.0
 10
157.025553
 20
218.301919
 30
0.0
 10
157.106780
 20
216.082238
 30
0.0
 10
157.106780
 20
212.826706
 30
0.0
  0
SPLINE
  5
2de
100
AcDbEntity
  8
Layer_1
 62
7
100
AcDbSpline
 70
8
 71
3
 72
8
 73
4
 74
0
 40
0
 40
0
 40
0
 40
0
 40
1
 40
1
 40
1
 40
1
 10
157.106780
 20
212.826706
 30
0.0
 10
157.106780
 20
211.116728
 30
0.0
 10
157.085113
 20
208.913488
 30
0.0
 10
157.041780
 20
206.216987
 30
0.0
  0
SPLINE
  5
2df
100
AcDbEntity
  8
Layer_1
 62
7
100
AcDbSpline
 70
8
 71
3
 72
8
 73
4
 74
0
 40
0
 40
0
 40
0
 40
0
 40
1
 40
1
 40
1
 40
1
 10
157.041780
 20
206.216987
 30
0.0
 10
157.009313
 20
204.934504
 30
0.0
 10
156.993080
 20
203.832885
 30
0.0
 10
156.993080
 20
202.912128
 30
0.0
  0
SPLINE
  5
2e0
100
AcDbEntity
  8
Layer_1
 62
7
100
AcDbSpline
 70
8
 71
3
 72
8
 73
4
 74
0
 40
0
 40
0
 40
0
 40
0
 40
1
 40
1
 40
1
 40
1
 10
156.993080
 20
202.912128
 30
0.0
 10
156.917273
 20
201.169267
 30
0.0
 10
156.868540
 20
198.883817
 30
0.0
 10
156.846880
 20
196.055780
 30
0.0
  0
LINE
  5
2e1
100
AcDbEntity
  8
Layer_1
 62
7
100
AcDbLine
 10
156.846880
 20
196.055780
 30
0.0
 11
156.830680
 21
194.921270
 31
0.0
  0
LINE
  5
2e2
100
AcDbEntity
  8
Layer_1
 62
7
100
AcDbLine
 10
156.830680
 20
194.921270
 30
0.0
 11
156.830680
 21
191.517760
 31
0.0
  0
SPLINE
  5
2e3
100
AcDbEntity
  8
Layer_1
 62
7
100
AcDbSpline
 70
8
 71
3
 72
8
 73
4
 74
0
 40
0
 40
0
 40
0
 40
0
 40
1
 40
1
 40
1
 40
1
 10
156.830680
 20
191.517760
 30
0.0
 10
156.830680
 20
189.577593
 30
0.0
 10
156.787363
 20
188.064923
 30
0.0
 10
156.700730
 20
186.979750
 30
0.0
  0
LINE
  5
2e4
100
AcDbEntity
  8
Layer_1
 62
7
100
AcDbLine
 10
156.700730
 20
186.979750
 30
0.0
 11
157.772890
 21
186.979750
 31
0.0
  0
SPLINE
  5
2e5
100
AcDbEntity
  8
Layer_1
 62
7
100
AcDbSpline
 70
8
 71
3
 72
8
 73
4
 74
0
 40
0
 40
0
 40
0
 40
0
 40
1
 40
1
 40
1
 40
1
 10
157.772890
 20
186.979750
 30
0.0
 10
157.816223
 20
186.749557
 30
0.0
 10
157.837890
 20
186.470040
 30
0.0
 10
157.837890
 20
186.141200
 30
0.0
  0
SPLINE
  5
2e6
100
AcDbEntity
  8
Layer_1
 62
7
100
AcDbSpline
 70
8
 71
3
 72
8
 73
4
 74
0
 40
0
 40
0
 40
0
 40
0
 40
1
 40
1
 40
1
 40
1
 10
157.837890
 20
186.141200
 30
0.0
 10
157.837890
 20
185.779473
 30
0.0
 10
157.810823
 20
185.467073
 30
0.0
 10
157.756690
 20
185.204000
 30
0.0
  0
SPLINE
  5
2e7
100
AcDbEntity
  8
Layer_1
 62
7
100
AcDbSpline
 70
8
 71
3
 72
8
 73
4
 74
0
 40
0
 40
0
 40
0
 40
0
 40
1
 40
1
 40
1
 40
1
 10
157.756690
 20
185.204000
 30
0.0
 10
157.475110
 20
184.776507
 30
0.0
 10
156.776580
 20
184.562760
 30
0.0
 10
155.661100
 20
184.562760
 30
0.0
  0
LINE
  5
2e8
100
AcDbEntity
  8
Layer_1
 62
7
100
AcDbLine
 10
155.661100
 20
184.562760
 30
0.0
 11
154.020370
 21
184.612060
 31
0.0
  0
LINE
  5
2e9
100
AcDbEntity
  8
Layer_1
 62
7
100
AcDbLine
 10
154.020370
 20
184.612060
 30
0.0
 11
151.908540
 21
184.612060
 31
0.0
  0
SPLINE
  5
2ea
100
AcDbEntity
  8
Layer_1
 62
7
100
AcDbSpline
 70
8
 71
3
 72
8
 73
4
 74
0
 40
0
 40
0
 40
0
 40
0
 40
1
 40
1
 40
1
 40
1
 10
151.908540
 20
184.612060
 30
0.0
 10
151.800247
 20
184.612060
 30
0.0
 10
151.691950
 20
184.595627
 30
0.0
 10
151.583650
 20
184.562760
 30
0.0
  0
SPLINE
  5
2eb
100
AcDbEntity
  8
Layer_1
 62
7
100
AcDbSpline
 70
8
 71
3
 72
8
 73
4
 74
0
 40
0
 40
0
 40
0
 40
0
 40
1
 40
1
 40
1
 40
1
 10
151.583650
 20
184.562760
 30
0.0
 10
151.475350
 20
184.529893
 30
0.0
 10
151.372467
 20
184.513460
 30
0.0
 10
151.275000
 20
184.513460
 30
0.0
  0
SPLINE
  5
2ec
100
AcDbEntity
  8
Layer_1
 62
7
100
AcDbSpline
 70
8
 71
3
 72
8
 73
4
 74
0
 40
0
 40
0
 40
0
 40
0
 40
1
 40
1
 40
1
 40
1
 10
151.275000
 20
184.513460
 30
0.0
 10
151.090887
 20
184.513460
 30
0.0
 10
150.950097
 20
184.595670
 30
0.0
 10
150.852630
 20
184.760090
 30
0.0
  0
SPLINE
  5
2ed
100
AcDbEntity
  8
Layer_1
 62
7
100
AcDbSpline
 70
8
 71
3
 72
8
 73
4
 74
0
 40
0
 40
0
 40
0
 40
0
 40
1
 40
1
 40
1
 40
1
 10
150.852630
 20
184.760090
 30
0.0
 10
150.755163
 20
184.924510
 30
0.0
 10
150.706430
 20
185.236910
 30
0.0
 10
150.706430
 20
185.697290
 30
0.0
  0
SPLINE
  5
2ee
100
AcDbEntity
  8
Layer_1
 62
7
100
AcDbSpline
 70
8
 71
3
 72
8
 73
4
 74
0
 40
0
 40
0
 40
0
 40
0
 40
1
 40
1
 40
1
 40
1
 10
150.706430
 20
185.697290
 30
0.0
 10
150.706430
 20
185.993243
 30
0.0
 10
150.717263
 20
186.239873
 30
0.0
 10
150.738930
 20
186.437180
 30
0.0
  0
SPLINE
  5
2ef
100
AcDbEntity
  8
Layer_1
 62
7
100
AcDbSpline
 70
8
 71
3
 72
8
 73
4
 74
0
 40
0
 40
0
 40
0
 40
0
 40
1
 40
1
 40
1
 40
1
 10
150.738930
 20
186.437180
 30
0.0
 10
150.847230
 20
186.634487
 30
0.0
 10
150.971777
 20
186.749580
 30
0.0
 10
151.112570
 20
186.782460
 30
0.0
  0
SPLINE
  5
2f0
100
AcDbEntity
  8
Layer_1
 62
7
100
AcDbSpline
 70
8
 71
3
 72
8
 73
4
 74
0
 40
0
 40
0
 40
0
 40
0
 40
1
 40
1
 40
1
 40
1
 10
151.112570
 20
186.782460
 30
0.0
 10
151.253357
 20
186.815327
 30
0.0
 10
151.334580
 20
186.831760
 30
0.0
 10
151.356240
 20
186.831760
 30
0.0
  0
SPLINE
  5
2f1
100
AcDbEntity
  8
Layer_1
 62
7
100
AcDbSpline
 70
8
 71
3
 72
8
 73
4
 74
0
 40
0
 40
0
 40
0
 40
0
 40
1
 40
1
 40
1
 40
1
 10
151.356240
 20
186.831760
 30
0.0
 10
151.507860
 20
186.831760
 30
0.0
 10
151.670307
 20
186.881087
 30
0.0
 10
151.843580
 20
186.979740
 30
0.0
  0
SPLINE
  5
2f2
100
AcDbEntity
  8
Layer_1
 62
7
100
AcDbSpline
 70
8
 71
3
 72
8
 73
4
 74
0
 40
0
 40
0
 40
0
 40
0
 40
1
 40
1
 40
1
 40
1
 10
151.843580
 20
186.979740
 30
0.0
 10
151.713627
 20
189.577587
 30
0.0
 10
151.648650
 20
192.800233
 30
0.0
 10
151.648650
 20
196.647680
 30
0.0
  0
SPLINE
  5
2f3
100
AcDbEntity
  8
Layer_1
 62
7
100
AcDbSpline
 70
8
 71
3
 72
8
 73
4
 74
0
 40
0
 40
0
 40
0
 40
0
 40
1
 40
1
 40
1
 40
1
 10
151.648650
 20
196.647680
 30
0.0
 10
151.648650
 20
199.015343
 30
0.0
 10
151.670317
 20
201.415888
 30
0.0
 10
151.713650
 20
203.849316
 30
0.0
  0
SPLINE
  5
2f4
100
AcDbEntity
  8
Layer_1
 62
7
100
AcDbSpline
 70
8
 71
3
 72
8
 73
4
 74
0
 40
0
 40
0
 40
0
 40
0
 40
1
 40
1
 40
1
 40
1
 10
151.713650
 20
203.849316
 30
0.0
 10
151.756983
 20
206.282745
 30
0.0
 10
151.800300
 20
208.518868
 30
0.0
 10
151.843600
 20
210.557687
 30
0.0
  0
SPLINE
  5
2f5
100
AcDbEntity
  8
Layer_1
 62
7
100
AcDbSpline
 70
8
 71
3
 72
8
 73
4
 74
0
 40
0
 40
0
 40
0
 40
0
 40
1
 40
1
 40
1
 40
1
 10
151.843600
 20
210.557687
 30
0.0
 10
151.897733
 20
212.629390
 30
0.0
 10
151.930233
 20
213.961199
 30
0.0
 10
151.941100
 20
214.553114
 30
0.0
  0
SPLINE
  5
2f6
100
AcDbEntity
  8
Layer_1
 62
7
100
AcDbSpline
 70
8
 71
3
 72
8
 73
4
 74
0
 40
0
 40
0
 40
0
 40
0
 40
1
 40
1
 40
1
 40
1
 10
151.941100
 20
214.553114
 30
0.0
 10
151.973567
 20
215.572523
 30
0.0
 10
152.011473
 20
217.167406
 30
0.0
 10
152.054820
 20
219.337761
 30
0.0
  0
LINE
  5
2f7
100
AcDbEntity
  8
Layer_1
 62
7
100
AcDbLine
 10
152.054820
 20
219.337761
 30
0.0
 11
151.453760
 21
219.337761
 31
0.0
  0
LINE
  5
2f8
100
AcDbEntity
  8
Layer_1
 62
7
100
AcDbLine
 10
151.453760
 20
219.337761
 30
0.0
 11
151.372340
 21
218.449898
 31
0.0
  0
SPLINE
  5
2f9
100
AcDbEntity
  8
Layer_1
 62
7
100
AcDbSpline
 70
8
 71
3
 72
8
 73
4
 74
0
 40
0
 40
0
 40
0
 40
0
 40
1
 40
1
 40
1
 40
1
 10
159.850130
 20
219.979012
 30
0.0
 10
159.741830
 20
220.011899
 30
0.0
 10
159.660603
 20
220.126993
 30
0.0
 10
159.606450
 20
220.324296
 30
0.0
  0
SPLINE
  5
2fa
100
AcDbEntity
  8
Layer_1
 62
7
100
AcDbSpline
 70
8
 71
3
 72
8
 73
4
 74
0
 40
0
 40
0
 40
0
 40
0
 40
1
 40
1
 40
1
 40
1
 10
159.606450
 20
220.324296
 30
0.0
 10
159.552317
 20
220.521601
 30
0.0
 10
159.525250
 20
220.751790
 30
0.0
 10
159.525250
 20
221.014863
 30
0.0
  0
SPLINE
  5
2fb
100
AcDbEntity
  8
Layer_1
 62
7
100
AcDbSpline
 70
8
 71
3
 72
8
 73
4
 74
0
 40
0
 40
0
 40
0
 40
0
 40
1
 40
1
 40
1
 40
1
 10
159.525250
 20
221.014863
 30
0.0
 10
159.525250
 20
221.343705
 30
0.0
 10
159.557750
 20
221.639663
 30
0.0
 10
159.622750
 20
221.902736
 30
0.0
  0
SPLINE
  5
2fc
100
AcDbEntity
  8
Layer_1
 62
7
100
AcDbSpline
 70
8
 71
3
 72
8
 73
4
 74
0
 40
0
 40
0
 40
0
 40
0
 40
1
 40
1
 40
1
 40
1
 10
159.622750
 20
221.902736
 30
0.0
 10
159.687750
 20
222.165809
 30
0.0
 10
159.768973
 20
222.280904
 30
0.0
 10
159.866420
 20
222.248020
 30
0.0
  0
SPLINE
  5
2fd
100
AcDbEntity
  8
Layer_1
 62
7
100
AcDbSpline
 70
8
 71
3
 72
8
 73
4
 74
0
 40
0
 40
0
 40
0
 40
0
 40
1
 40
1
 40
1
 40
1
 10
159.866420
 20
222.248020
 30
0.0
 10
160.126340
 20
222.182253
 30
0.0
 10
160.326693
 20
222.149370
 30
0.0
 10
160.467480
 20
222.149370
 30
0.0
  0
LINE
  5
2fe
100
AcDbEntity
  8
Layer_1
 62
7
100
AcDbLine
 10
160.467480
 20
222.149370
 30
0.0
 11
161.393440
 21
222.198700
 31
0.0
  0
SPLINE
  5
2ff
100
AcDbEntity
  8
Layer_1
 62
7
100
AcDbSpline
 70
8
 71
3
 72
8
 73
4
 74
0
 40
0
 40
0
 40
0
 40
0
 40
1
 40
1
 40
1
 40
1
 10
161.393440
 20
222.198700
 30
0.0
 10
161.739993
 20
222.297353
 30
0.0
 10
161.989080
 20
222.346679
 30
0.0
 10
162.140700
 20
222.346679
 30
0.0
  0
LINE
  5
300
100
AcDbEntity
  8
Layer_1
 62
7
100
AcDbLine
 10
162.140700
 20
222.346679
 30
0.0
 11
162.579310
 21
222.297349
 31
0.0
  0
SPLINE
  5
301
100
AcDbEntity
  8
Layer_1
 62
7
100
AcDbSpline
 70
8
 71
3
 72
8
 73
4
 74
0
 40
0
 40
0
 40
0
 40
0
 40
1
 40
1
 40
1
 40
1
 10
162.579310
 20
222.297349
 30
0.0
 10
162.839230
 20
222.231582
 30
0.0
 10
163.109977
 20
222.198699
 30
0.0
 10
163.391550
 20
222.198699
 30
0.0
  0
LINE
  5
302
100
AcDbEntity
  8
Layer_1
 62
7
100
AcDbLine
 10
163.391550
 20
222.198699
 30
0.0
 11
163.927630
 21
222.248029
 31
0.0
  0
SPLINE
  5
303
100
AcDbEntity
  8
Layer_1
 62
7
100
AcDbSpline
 70
8
 71
3
 72
8
 73
4
 74
0
 40
0
 40
0
 40
0
 40
0
 40
1
 40
1
 40
1
 40
1
 10
163.927630
 20
222.248029
 30
0.0
 10
164.046763
 20
222.280916
 30
0.0
 10
164.214627
 20
222.297359
 30
0.0
 10
164.431220
 20
222.297359
 30
0.0
  0
SPLINE
  5
304
100
AcDbEntity
  8
Layer_1
 62
7
100
AcDbSpline
 70
8
 71
3
 72
8
 73
4
 74
0
 40
0
 40
0
 40
0
 40
0
 40
1
 40
1
 40
1
 40
1
 10
164.431220
 20
222.297359
 30
0.0
 10
164.745287
 20
222.297359
 30
0.0
 10
164.907737
 20
222.165822
 30
0.0
 10
164.918570
 20
221.902749
 30
0.0
  0
SPLINE
  5
305
100
AcDbEntity
  8
Layer_1
 62
7
100
AcDbSpline
 70
8
 71
3
 72
8
 73
4
 74
0
 40
0
 40
0
 40
0
 40
0
 40
1
 40
1
 40
1
 40
1
 10
164.918570
 20
221.902749
 30
0.0
 10
165.243463
 20
220.850456
 30
0.0
 10
165.552117
 20
219.715952
 30
0.0
 10
165.844530
 20
218.499237
 30
0.0
  0
SPLINE
  5
306
100
AcDbEntity
  8
Layer_1
 62
7
100
AcDbSpline
 70
8
 71
3
 72
8
 73
4
 74
0
 40
0
 40
0
 40
0
 40
0
 40
1
 40
1
 40
1
 40
1
 10
165.844530
 20
218.499237
 30
0.0
 10
166.136937
 20
217.282523
 30
0.0
 10
166.478077
 20
215.802736
 30
0.0
 10
166.867950
 20
214.059875
 30
0.0
  0
LINE
  5
307
100
AcDbEntity
  8
Layer_1
 62
7
100
AcDbLine
 10
166.867950
 20
214.059875
 30
0.0
 11
167.631460
 21
210.705688
 31
0.0
  0
LINE
  5
308
100
AcDbEntity
  8
Layer_1
 62
7
100
AcDbLine
 10
167.631460
 20
210.705688
 30
0.0
 11
169.223460
 21
203.010793
 31
0.0
  0
LINE
  5
309
100
AcDbEntity
  8
Layer_1
 62
7
100
AcDbLine
 10
169.223460
 20
203.010793
 30
0.0
 11
169.337170
 21
219.831046
 31
0.0
  0
SPLINE
  5
30a
100
AcDbEntity
  8
Layer_1
 62
7
100
AcDbSpline
 70
8
 71
3
 72
8
 73
4
 74
0
 40
0
 40
0
 40
0
 40
0
 40
1
 40
1
 40
1
 40
1
 10
169.337170
 20
219.831046
 30
0.0
 10
169.163890
 20
220.028351
 30
0.0
 10
168.925633
 20
220.127004
 30
0.0
 10
168.622400
 20
220.127004
 30
0.0
  0
SPLINE
  5
30b
100
AcDbEntity
  8
Layer_1
 62
7
100
AcDbSpline
 70
8
 71
3
 72
8
 73
4
 74
0
 40
0
 40
0
 40
0
 40
0
 40
1
 40
1
 40
1
 40
1
 10
168.622400
 20
220.127004
 30
0.0
 10
168.319160
 20
220.127004
 30
0.0
 10
168.086317
 20
220.209214
 30
0.0
 10
167.923870
 20
220.373635
 30
0.0
  0
SPLINE
  5
30c
100
AcDbEntity
  8
Layer_1
 62
7
100
AcDbSpline
 70
8
 71
3
 72
8
 73
4
 74
0
 40
0
 40
0
 40
0
 40
0
 40
1
 40
1
 40
1
 40
1
 10
167.923870
 20
220.373635
 30
0.0
 10
167.902203
 20
220.702477
 30
0.0
 10
167.891370
 20
220.932666
 30
0.0
 10
167.891370
 20
221.064203
 30
0.0
  0
SPLINE
  5
30d
100
AcDbEntity
  8
Layer_1
 62
7
100
AcDbSpline
 70
8
 71
3
 72
8
 73
4
 74
0
 40
0
 40
0
 40
0
 40
0
 40
1
 40
1
 40
1
 40
1
 10
167.891370
 20
221.064203
 30
0.0
 10
167.891370
 20
221.656118
 30
0.0
 10
167.967180
 20
222.034285
 30
0.0
 10
168.118800
 20
222.198706
 30
0.0
  0
SPLINE
  5
30e
100
AcDbEntity
  8
Layer_1
 62
7
100
AcDbSpline
 70
8
 71
3
 72
8
 73
4
 74
0
 40
0
 40
0
 40
0
 40
0
 40
1
 40
1
 40
1
 40
1
 10
168.118800
 20
222.198706
 30
0.0
 10
168.270413
 20
222.363127
 30
0.0
 10
168.508670
 20
222.445338
 30
0.0
 10
168.833570
 20
222.445338
 30
0.0
  0
SPLINE
  5
30f
100
AcDbEntity
  8
Layer_1
 62
7
100
AcDbSpline
 70
8
 71
3
 72
8
 73
4
 74
0
 40
0
 40
0
 40
0
 40
0
 40
1
 40
1
 40
1
 40
1
 10
168.833570
 20
222.445338
 30
0.0
 10
169.104317
 20
222.445338
 30
0.0
 10
169.304670
 20
222.478221
 30
0.0
 10
169.434630
 20
222.543988
 30
0.0
  0
SPLINE
  5
310
100
AcDbEntity
  8
Layer_1
 62
7
100
AcDbSpline
 70
8
 71
3
 72
8
 73
4
 74
0
 40
0
 40
0
 40
0
 40
0
 40
1
 40
1
 40
1
 40
1
 10
169.434630
 20
222.543988
 30
0.0
 10
170.495957
 20
222.543988
 30
0.0
 10
171.161993
 20
222.428893
 30
0.0
 10
171.432740
 20
222.198704
 30
0.0
  0
SPLINE
  5
311
100
AcDbEntity
  8
Layer_1
 62
7
100
AcDbSpline
 70
8
 71
3
 72
8
 73
4
 74
0
 40
0
 40
0
 40
0
 40
0
 40
1
 40
1
 40
1
 40
1
 10
171.432740
 20
222.198704
 30
0.0
 10
171.486873
 20
221.771210
 30
0.0
 10
171.519373
 20
221.475253
 30
0.0
 10
171.530240
 20
221.310832
 30
0.0
  0
SPLINE
  5
312
100
AcDbEntity
  8
Layer_1
 62
7
100
AcDbSpline
 70
8
 71
3
 72
8
 73
4
 74
0
 40
0
 40
0
 40
0
 40
0
 40
1
 40
1
 40
1
 40
1
 10
171.530240
 20
221.310832
 30
0.0
 10
171.541107
 20
221.179295
 30
0.0
 10
171.546540
 20
220.866896
 30
0.0
 10
171.546540
 20
220.373633
 30
0.0
  0
SPLINE
  5
313
100
AcDbEntity
  8
Layer_1
 62
7
100
AcDbSpline
 70
8
 71
3
 72
8
 73
4
 74
0
 40
0
 40
0
 40
0
 40
0
 40
1
 40
1
 40
1
 40
1
 10
171.546540
 20
220.373633
 30
0.0
 10
171.319113
 20
220.143444
 30
0.0
 10
171.086270
 20
220.028349
 30
0.0
 10
170.848010
 20
220.028349
 30
0.0
  0
SPLINE
  5
314
100
AcDbEntity
  8
Layer_1
 62
7
100
AcDbSpline
 70
8
 71
3
 72
8
 73
4
 74
0
 40
0
 40
0
 40
0
 40
0
 40
1
 40
1
 40
1
 40
1
 10
170.848010
 20
220.028349
 30
0.0
 10
170.685563
 20
220.028349
 30
0.0
 10
170.561020
 20
220.044792
 30
0.0
 10
170.474380
 20
220.077679
 30
0.0
  0
LINE
  5
315
100
AcDbEntity
  8
Layer_1
 62
7
100
AcDbLine
 10
170.474380
 20
220.077679
 30
0.0
 11
170.019520
 21
220.127009
 31
0.0
  0
SPLINE
  5
316
100
AcDbEntity
  8
Layer_1
 62
7
100
AcDbSpline
 70
8
 71
3
 72
8
 73
4
 74
0
 40
0
 40
0
 40
0
 40
0
 40
1
 40
1
 40
1
 40
1
 10
170.019520
 20
220.127009
 30
0.0
 10
170.019520
 20
217.956654
 30
0.0
 10
170.008687
 20
214.668236
 30
0.0
 10
169.987020
 20
210.261757
 30
0.0
  0
SPLINE
  5
317
100
AcDbEntity
  8
Layer_1
 62
7
100
AcDbSpline
 70
8
 71
3
 72
8
 73
4
 74
0
 40
0
 40
0
 40
0
 40
0
 40
1
 40
1
 40
1
 40
1
 10
169.987020
 20
210.261757
 30
0.0
 10
169.954553
 20
206.973340
 30
0.0
 10
169.938320
 20
203.684924
 30
0.0
 10
169.938320
 20
200.396507
 30
0.0
  0
SPLINE
  5
318
100
AcDbEntity
  8
Layer_1
 62
7
100
AcDbSpline
 70
8
 71
3
 72
8
 73
4
 74
0
 40
0
 40
0
 40
0
 40
0
 40
1
 40
1
 40
1
 40
1
 10
169.938320
 20
200.396507
 30
0.0
 10
169.938320
 20
196.549062
 30
0.0
 10
169.965387
 20
193.260647
 30
0.0
 10
170.019520
 20
190.531260
 30
0.0
  0
SPLINE
  5
319
100
AcDbEntity
  8
Layer_1
 62
7
100
AcDbSpline
 70
8
 71
3
 72
8
 73
4
 74
0
 40
0
 40
0
 40
0
 40
0
 40
1
 40
1
 40
1
 40
1
 10
170.019520
 20
190.531260
 30
0.0
 10
170.019520
 20
190.169533
 30
0.0
 10
170.062840
 20
189.692713
 30
0.0
 10
170.149480
 20
189.100800
 30
0.0
  0
SPLINE
  5
31a
100
AcDbEntity
  8
Layer_1
 62
7
100
AcDbSpline
 70
8
 71
3
 72
8
 73
4
 74
0
 40
0
 40
0
 40
0
 40
0
 40
1
 40
1
 40
1
 40
1
 10
170.149480
 20
189.100800
 30
0.0
 10
170.236120
 20
188.508880
 30
0.0
 10
170.279440
 20
188.032060
 30
0.0
 10
170.279440
 20
187.670340
 30
0.0
  0
SPLINE
  5
31b
100
AcDbEntity
  8
Layer_1
 62
7
100
AcDbSpline
 70
8
 71
3
 72
8
 73
4
 74
0
 40
0
 40
0
 40
0
 40
0
 40
1
 40
1
 40
1
 40
1
 10
170.279440
 20
187.670340
 30
0.0
 10
170.279440
 20
187.242840
 30
0.0
 10
170.230707
 20
186.815343
 30
0.0
 10
170.133240
 20
186.387850
 30
0.0
  0
SPLINE
  5
31c
100
AcDbEntity
  8
Layer_1
 62
7
100
AcDbSpline
 70
8
 71
3
 72
8
 73
4
 74
0
 40
0
 40
0
 40
0
 40
0
 40
1
 40
1
 40
1
 40
1
 10
170.133240
 20
186.387850
 30
0.0
 10
170.003280
 20
185.960357
 30
0.0
 10
169.835417
 20
185.680843
 30
0.0
 10
169.629650
 20
185.549310
 30
0.0
  0
SPLINE
  5
31d
100
AcDbEntity
  8
Layer_1
 62
7
100
AcDbSpline
 70
8
 71
3
 72
8
 73
4
 74
0
 40
0
 40
0
 40
0
 40
0
 40
1
 40
1
 40
1
 40
1
 10
169.629650
 20
185.549310
 30
0.0
 10
169.434710
 20
185.450657
 30
0.0
 10
169.163960
 20
185.401330
 30
0.0
 10
168.817400
 20
185.401330
 30
0.0
  0
SPLINE
  5
31e
100
AcDbEntity
  8
Layer_1
 62
7
100
AcDbSpline
 70
8
 71
3
 72
8
 73
4
 74
0
 40
0
 40
0
 40
0
 40
0
 40
1
 40
1
 40
1
 40
1
 10
168.817400
 20
185.401330
 30
0.0
 10
168.524993
 20
185.401330
 30
0.0
 10
168.238003
 20
185.417763
 30
0.0
 10
167.956430
 20
185.450630
 30
0.0
  0
SPLINE
  5
31f
100
AcDbEntity
  8
Layer_1
 62
7
100
AcDbSpline
 70
8
 71
3
 72
8
 73
4
 74
0
 40
0
 40
0
 40
0
 40
0
 40
1
 40
1
 40
1
 40
1
 10
167.956430
 20
185.450630
 30
0.0
 10
167.674850
 20
185.483497
 30
0.0
 10
167.398687
 20
185.582150
 30
0.0
 10
167.127940
 20
185.746590
 30
0.0
  0
SPLINE
  5
320
100
AcDbEntity
  8
Layer_1
 62
7
100
AcDbSpline
 70
8
 71
3
 72
8
 73
4
 74
0
 40
0
 40
0
 40
0
 40
0
 40
1
 40
1
 40
1
 40
1
 10
167.127940
 20
185.746590
 30
0.0
 10
166.727233
 20
185.812390
 30
0.0
 10
166.396920
 20
186.157673
 30
0.0
 10
166.137000
 20
186.782440
 30
0.0
  0
SPLINE
  5
321
100
AcDbEntity
  8
Layer_1
 62
7
100
AcDbSpline
 70
8
 71
3
 72
8
 73
4
 74
0
 40
0
 40
0
 40
0
 40
0
 40
1
 40
1
 40
1
 40
1
 10
166.137000
 20
186.782440
 30
0.0
 10
165.887913
 20
187.440127
 30
0.0
 10
165.600923
 20
188.410210
 30
0.0
 10
165.276030
 20
189.692690
 30
0.0
  0
SPLINE
  5
322
100
AcDbEntity
  8
Layer_1
 62
7
100
AcDbSpline
 70
8
 71
3
 72
8
 73
4
 74
0
 40
0
 40
0
 40
0
 40
0
 40
1
 40
1
 40
1
 40
1
 10
165.276030
 20
189.692690
 30
0.0
 10
165.037770
 20
190.712103
 30
0.0
 10
164.821170
 20
191.501323
 30
0.0
 10
164.626230
 20
192.060350
 30
0.0
  0
LINE
  5
323
100
AcDbEntity
  8
Layer_1
 62
7
100
AcDbLine
 10
164.626230
 20
192.060350
 30
0.0
 11
162.092040
 21
205.181133
 31
0.0
  0
LINE
  5
324
100
AcDbEntity
  8
Layer_1
 62
7
100
AcDbLine
 10
162.092040
 20
205.181133
 30
0.0
 11
162.092040
 21
188.360880
 31
0.0
  0
LINE
  5
325
100
AcDbEntity
  8
Layer_1
 62
7
100
AcDbLine
 10
162.092040
 20
188.360880
 30
0.0
 11
162.595630
 21
188.410180
 31
0.0
  0
SPLINE
  5
326
100
AcDbEntity
  8
Layer_1
 62
7
100
AcDbSpline
 70
8
 71
3
 72
8
 73
4
 74
0
 40
0
 40
0
 40
0
 40
0
 40
1
 40
1
 40
1
 40
1
 10
162.595630
 20
188.410180
 30
0.0
 10
163.277910
 20
188.410180
 30
0.0
 10
163.619050
 20
187.916917
 30
0.0
 10
163.619050
 20
186.930390
 30
0.0
  0
SPLINE
  5
327
100
AcDbEntity
  8
Layer_1
 62
7
100
AcDbSpline
 70
8
 71
3
 72
8
 73
4
 74
0
 40
0
 40
0
 40
0
 40
0
 40
1
 40
1
 40
1
 40
1
 10
163.619050
 20
186.930390
 30
0.0
 10
163.619050
 20
186.206937
 30
0.0
 10
163.391623
 20
185.845210
 30
0.0
 10
162.936770
 20
185.845210
 30
0.0
  0
SPLINE
  5
328
100
AcDbEntity
  8
Layer_1
 62
7
100
AcDbSpline
 70
8
 71
3
 72
8
 73
4
 74
0
 40
0
 40
0
 40
0
 40
0
 40
1
 40
1
 40
1
 40
1
 10
162.936770
 20
185.845210
 30
0.0
 10
162.795977
 20
185.845210
 30
0.0
 10
162.660603
 20
185.861643
 30
0.0
 10
162.530650
 20
185.894510
 30
0.0
  0
SPLINE
  5
329
100
AcDbEntity
  8
Layer_1
 62
7
100
AcDbSpline
 70
8
 71
3
 72
8
 73
4
 74
0
 40
0
 40
0
 40
0
 40
0
 40
1
 40
1
 40
1
 40
1
 10
162.530650
 20
185.894510
 30
0.0
 10
162.400690
 20
185.927377
 30
0.0
 10
162.286973
 20
185.943810
 30
0.0
 10
162.189500
 20
185.943810
 30
0.0
  0
SPLINE
  5
32a
100
AcDbEntity
  8
Layer_1
 62
7
100
AcDbSpline
 70
8
 71
3
 72
8
 73
4
 74
0
 40
0
 40
0
 40
0
 40
0
 40
1
 40
1
 40
1
 40
1
 10
162.189500
 20
185.943810
 30
0.0
 10
162.113693
 20
185.943810
 30
0.0
 10
162.037887
 20
185.910910
 30
0.0
 10
161.962080
 20
185.845110
 30
0.0
  0
SPLINE
  5
32b
100
AcDbEntity
  8
Layer_1
 62
7
100
AcDbSpline
 70
8
 71
3
 72
8
 73
4
 74
0
 40
0
 40
0
 40
0
 40
0
 40
1
 40
1
 40
1
 40
1
 10
161.962080
 20
185.845110
 30
0.0
 10
161.886267
 20
185.812243
 30
0.0
 10
161.821287
 20
185.795810
 30
0.0
 10
161.767140
 20
185.795810
 30
0.0
  0
SPLINE
  5
32c
100
AcDbEntity
  8
Layer_1
 62
7
100
AcDbSpline
 70
8
 71
3
 72
8
 73
4
 74
0
 40
0
 40
0
 40
0
 40
0
 40
1
 40
1
 40
1
 40
1
 10
161.767140
 20
185.795810
 30
0.0
 10
161.713007
 20
185.795810
 30
0.0
 10
161.653440
 20
185.845137
 30
0.0
 10
161.588440
 20
185.943790
 30
0.0
  0
SPLINE
  5
32d
100
AcDbEntity
  8
Layer_1
 62
7
100
AcDbSpline
 70
8
 71
3
 72
8
 73
4
 74
0
 40
0
 40
0
 40
0
 40
0
 40
1
 40
1
 40
1
 40
1
 10
161.588440
 20
185.943790
 30
0.0
 10
161.425993
 20
186.009590
 30
0.0
 10
161.279790
 20
186.042490
 30
0.0
 10
161.149830
 20
186.042490
 30
0.0
  0
SPLINE
  5
32e
100
AcDbEntity
  8
Layer_1
 62
7
100
AcDbSpline
 70
8
 71
3
 72
8
 73
4
 74
0
 40
0
 40
0
 40
0
 40
0
 40
1
 40
1
 40
1
 40
1
 10
161.149830
 20
186.042490
 30
0.0
 10
161.030703
 20
186.042490
 30
0.0
 10
160.927820
 20
186.058923
 30
0.0
 10
160.841180
 20
186.091790
 30
0.0
  0
SPLINE
  5
32f
100
AcDbEntity
  8
Layer_1
 62
7
100
AcDbSpline
 70
8
 71
3
 72
8
 73
4
 74
0
 40
0
 40
0
 40
0
 40
0
 40
1
 40
1
 40
1
 40
1
 10
160.841180
 20
186.091790
 30
0.0
 10
160.472967
 20
186.124657
 30
0.0
 10
160.213050
 20
186.190423
 30
0.0
 10
160.061430
 20
186.289090
 30
0.0
  0
SPLINE
  5
330
100
AcDbEntity
  8
Layer_1
 62
7
100
AcDbSpline
 70
8
 71
3
 72
8
 73
4
 74
0
 40
0
 40
0
 40
0
 40
0
 40
1
 40
1
 40
1
 40
1
 10
160.061430
 20
186.289090
 30
0.0
 10
159.909810
 20
186.420630
 30
0.0
 10
159.834000
 20
186.700147
 30
0.0
 10
159.834000
 20
187.127640
 30
0.0
  0
SPLINE
  5
331
100
AcDbEntity
  8
Layer_1
 62
7
100
AcDbSpline
 70
8
 71
3
 72
8
 73
4
 74
0
 40
0
 40
0
 40
0
 40
0
 40
1
 40
1
 40
1
 40
1
 10
159.834000
 20
187.127640
 30
0.0
 10
159.834000
 20
187.423593
 30
0.0
 10
159.882733
 20
187.834643
 30
0.0
 10
159.980200
 20
188.360790
 30
0.0
  0
LINE
  5
332
100
AcDbEntity
  8
Layer_1
 62
7
100
AcDbLine
 10
159.980200
 20
188.360790
 30
0.0
 11
161.296040
 21
188.360790
 31
0.0
  0
LINE
  5
333
100
AcDbEntity
  8
Layer_1
 62
7
100
AcDbLine
 10
161.296040
 20
188.360790
 30
0.0
 11
161.296040
 21
204.539894
 31
0.0
  0
LINE
  5
334
100
AcDbEntity
  8
Layer_1
 62
7
100
AcDbLine
 10
161.296040
 20
204.539894
 30
0.0
 11
161.507220
 21
219.831033
 31
0.0
  0
SPLINE
  5
335
100
AcDbEntity
  8
Layer_1
 62
7
100
AcDbSpline
 70
8
 71
3
 72
8
 73
4
 74
0
 40
0
 40
0
 40
0
 40
0
 40
1
 40
1
 40
1
 40
1
 10
161.507220
 20
219.831033
 30
0.0
 10
161.333940
 20
219.896800
 30
0.0
 10
161.095683
 20
219.929683
 30
0.0
 10
160.792450
 20
219.929683
 30
0.0
  0
LINE
  5
336
100
AcDbEntity
  8
Layer_1
 62
7
100
AcDbLine
 10
160.792450
 20
219.929683
 30
0.0
 11
160.288860
 21
219.929683
 31
0.0
  0
SPLINE
  5
337
100
AcDbEntity
  8
Layer_1
 62
7
100
AcDbSpline
 70
8
 71
3
 72
8
 73
4
 74
0
 40
0
 40
0
 40
0
 40
0
 40
1
 40
1
 40
1
 40
1
 10
160.288860
 20
219.929683
 30
0.0
 10
160.093920
 20
219.929683
 30
0.0
 10
159.947717
 20
219.946126
 30
0.0
 10
159.850250
 20
219.979013
 30
0.0
  0
LINE
  5
338
100
AcDbEntity
  8
Layer_1
 62
7
100
AcDbLine
 10
159.850250
 20
219.979013
 30
0.0
 11
159.850130
 21
219.979012
 31
0.0
  0
SPLINE
  5
339
100
AcDbEntity
  8
Layer_1
 62
7
100
AcDbSpline
 70
8
 71
3
 72
8
 73
4
 74
0
 40
0
 40
0
 40
0
 40
0
 40
1
 40
1
 40
1
 40
1
 10
179.866320
 20
185.253330
 30
0.0
 10
179.238187
 20
185.056023
 30
0.0
 10
178.772500
 20
184.957370
 30
0.0
 10
178.469260
 20
184.957370
 30
0.0
  0
SPLINE
  5
33a
100
AcDbEntity
  8
Layer_1
 62
7
100
AcDbSpline
 70
8
 71
3
 72
8
 73
4
 74
0
 40
0
 40
0
 40
0
 40
0
 40
1
 40
1
 40
1
 40
1
 10
178.469260
 20
184.957370
 30
0.0
 10
177.938600
 20
184.957370
 30
0.0
 10
177.315883
 20
185.138233
 30
0.0
 10
176.601110
 20
185.499960
 30
0.0
  0
SPLINE
  5
33b
100
AcDbEntity
  8
Layer_1
 62
7
100
AcDbSpline
 70
8
 71
3
 72
8
 73
4
 74
0
 40
0
 40
0
 40
0
 40
0
 40
1
 40
1
 40
1
 40
1
 10
176.601110
 20
185.499960
 30
0.0
 10
176.005463
 20
185.960340
 30
0.0
 10
175.485627
 20
186.535813
 30
0.0
 10
175.041600
 20
187.226380
 30
0.0
  0
SPLINE
  5
33c
100
AcDbEntity
  8
Layer_1
 62
7
100
AcDbSpline
 70
8
 71
3
 72
8
 73
4
 74
0
 40
0
 40
0
 40
0
 40
0
 40
1
 40
1
 40
1
 40
1
 10
175.041600
 20
187.226380
 30
0.0
 10
174.597573
 20
187.916947
 30
0.0
 10
174.191453
 20
188.771933
 30
0.0
 10
173.823240
 20
189.791340
 30
0.0
  0
SPLINE
  5
33d
100
AcDbEntity
  8
Layer_1
 62
7
100
AcDbSpline
 70
8
 71
3
 72
8
 73
4
 74
0
 40
0
 40
0
 40
0
 40
0
 40
1
 40
1
 40
1
 40
1
 10
173.823240
 20
189.791340
 30
0.0
 10
173.390040
 20
190.712100
 30
0.0
 10
173.043483
 20
192.274100
 30
0.0
 10
172.783570
 20
194.477340
 30
0.0
  0
SPLINE
  5
33e
100
AcDbEntity
  8
Layer_1
 62
7
100
AcDbSpline
 70
8
 71
3
 72
8
 73
4
 74
0
 40
0
 40
0
 40
0
 40
0
 40
1
 40
1
 40
1
 40
1
 10
172.783570
 20
194.477340
 30
0.0
 10
172.523650
 20
196.680578
 30
0.0
 10
172.393690
 20
199.114006
 30
0.0
 10
172.393690
 20
201.777624
 30
0.0
  0
SPLINE
  5
33f
100
AcDbEntity
  8
Layer_1
 62
7
100
AcDbSpline
 70
8
 71
3
 72
8
 73
4
 74
0
 40
0
 40
0
 40
0
 40
0
 40
1
 40
1
 40
1
 40
1
 10
172.393690
 20
201.777624
 30
0.0
 10
172.393690
 20
204.474125
 30
0.0
 10
172.523650
 20
206.989764
 30
0.0
 10
172.783570
 20
209.324540
 30
0.0
  0
SPLINE
  5
340
100
AcDbEntity
  8
Layer_1
 62
7
100
AcDbSpline
 70
8
 71
3
 72
8
 73
4
 74
0
 40
0
 40
0
 40
0
 40
0
 40
1
 40
1
 40
1
 40
1
 10
172.783570
 20
209.324540
 30
0.0
 10
173.151783
 20
212.645842
 30
0.0
 10
173.574147
 20
215.276576
 30
0.0
 10
174.050660
 20
217.216742
 30
0.0
  0
SPLINE
  5
341
100
AcDbEntity
  8
Layer_1
 62
7
100
AcDbSpline
 70
8
 71
3
 72
8
 73
4
 74
0
 40
0
 40
0
 40
0
 40
0
 40
1
 40
1
 40
1
 40
1
 10
174.050660
 20
217.216742
 30
0.0
 10
174.538007
 20
219.189792
 30
0.0
 10
175.155313
 20
220.636695
 30
0.0
 10
175.902580
 20
221.557452
 30
0.0
  0
SPLINE
  5
342
100
AcDbEntity
  8
Layer_1
 62
7
100
AcDbSpline
 70
8
 71
3
 72
8
 73
4
 74
0
 40
0
 40
0
 40
0
 40
0
 40
1
 40
1
 40
1
 40
1
 10
175.902580
 20
221.557452
 30
0.0
 10
176.649840
 20
222.511093
 30
0.0
 10
177.586627
 20
222.987913
 30
0.0
 10
178.712940
 20
222.987913
 30
0.0
  0
SPLINE
  5
343
100
AcDbEntity
  8
Layer_1
 62
7
100
AcDbSpline
 70
8
 71
3
 72
8
 73
4
 74
0
 40
0
 40
0
 40
0
 40
0
 40
1
 40
1
 40
1
 40
1
 10
178.712940
 20
222.987913
 30
0.0
 10
179.091987
 20
222.987913
 30
0.0
 10
179.498107
 20
222.938587
 30
0.0
 10
179.931300
 20
222.839935
 30
0.0
  0
SPLINE
  5
344
100
AcDbEntity
  8
Layer_1
 62
7
100
AcDbSpline
 70
8
 71
3
 72
8
 73
4
 74
0
 40
0
 40
0
 40
0
 40
0
 40
1
 40
1
 40
1
 40
1
 10
179.931300
 20
222.839935
 30
0.0
 10
180.526947
 20
222.708398
 30
0.0
 10
180.960143
 20
222.313788
 30
0.0
 10
181.230890
 20
221.656105
 30
0.0
  0
SPLINE
  5
345
100
AcDbEntity
  8
Layer_1
 62
7
100
AcDbSpline
 70
8
 71
3
 72
8
 73
4
 74
0
 40
0
 40
0
 40
0
 40
0
 40
1
 40
1
 40
1
 40
1
 10
181.230890
 20
221.656105
 30
0.0
 10
181.501637
 20
221.031306
 30
0.0
 10
181.637010
 20
220.357180
 30
0.0
 10
181.637010
 20
219.633728
 30
0.0
  0
SPLINE
  5
346
100
AcDbEntity
  8
Layer_1
 62
7
100
AcDbSpline
 70
8
 71
3
 72
8
 73
4
 74
0
 40
0
 40
0
 40
0
 40
0
 40
1
 40
1
 40
1
 40
1
 10
181.637010
 20
219.633728
 30
0.0
 10
181.637010
 20
219.239118
 30
0.0
 10
181.599107
 20
218.910276
 30
0.0
 10
181.523300
 20
218.647203
 30
0.0
  0
SPLINE
  5
347
100
AcDbEntity
  8
Layer_1
 62
7
100
AcDbSpline
 70
8
 71
3
 72
8
 73
4
 74
0
 40
0
 40
0
 40
0
 40
0
 40
1
 40
1
 40
1
 40
1
 10
181.523300
 20
218.647203
 30
0.0
 10
181.458300
 20
218.384130
 30
0.0
 10
181.382490
 20
218.252593
 30
0.0
 10
181.295870
 20
218.252593
 30
0.0
  0
SPLINE
  5
348
100
AcDbEntity
  8
Layer_1
 62
7
100
AcDbSpline
 70
8
 71
3
 72
8
 73
4
 74
0
 40
0
 40
0
 40
0
 40
0
 40
1
 40
1
 40
1
 40
1
 10
181.295870
 20
218.252593
 30
0.0
 10
181.165910
 20
218.252593
 30
0.0
 10
181.046780
 20
218.482782
 30
0.0
 10
180.938480
 20
218.943161
 30
0.0
  0
SPLINE
  5
349
100
AcDbEntity
  8
Layer_1
 62
7
100
AcDbSpline
 70
8
 71
3
 72
8
 73
4
 74
0
 40
0
 40
0
 40
0
 40
0
 40
1
 40
1
 40
1
 40
1
 10
180.938480
 20
218.943161
 30
0.0
 10
180.906013
 20
219.107582
 30
0.0
 10
180.868110
 20
219.288445
 30
0.0
 10
180.824770
 20
219.485750
 30
0.0
  0
SPLINE
  5
34a
100
AcDbEntity
  8
Layer_1
 62
7
100
AcDbSpline
 70
8
 71
3
 72
8
 73
4
 74
0
 40
0
 40
0
 40
0
 40
0
 40
1
 40
1
 40
1
 40
1
 10
180.824770
 20
219.485750
 30
0.0
 10
180.792303
 20
219.683055
 30
0.0
 10
180.738153
 20
219.814591
 30
0.0
 10
180.662320
 20
219.880360
 30
0.0
  0
SPLINE
  5
34b
100
AcDbEntity
  8
Layer_1
 62
7
100
AcDbSpline
 70
8
 71
3
 72
8
 73
4
 74
0
 40
0
 40
0
 40
0
 40
0
 40
1
 40
1
 40
1
 40
1
 10
180.662320
 20
219.880360
 30
0.0
 10
180.597320
 20
219.979012
 30
0.0
 10
180.499850
 20
220.061222
 30
0.0
 10
180.369910
 20
220.126991
 30
0.0
  0
SPLINE
  5
34c
100
AcDbEntity
  8
Layer_1
 62
7
100
AcDbSpline
 70
8
 71
3
 72
8
 73
4
 74
0
 40
0
 40
0
 40
0
 40
0
 40
1
 40
1
 40
1
 40
1
 10
180.369910
 20
220.126991
 30
0.0
 10
179.622650
 20
219.798149
 30
0.0
 10
179.027007
 20
218.630761
 30
0.0
 10
178.582980
 20
216.624827
 30
0.0
  0
SPLINE
  5
34d
100
AcDbEntity
  8
Layer_1
 62
7
100
AcDbSpline
 70
8
 71
3
 72
8
 73
4
 74
0
 40
0
 40
0
 40
0
 40
0
 40
1
 40
1
 40
1
 40
1
 10
178.582980
 20
216.624827
 30
0.0
 10
178.138953
 20
214.618893
 30
0.0
 10
177.830300
 20
212.448537
 30
0.0
 10
177.657020
 20
210.113760
 30
0.0
  0
SPLINE
  5
34e
100
AcDbEntity
  8
Layer_1
 62
7
100
AcDbSpline
 70
8
 71
3
 72
8
 73
4
 74
0
 40
0
 40
0
 40
0
 40
0
 40
1
 40
1
 40
1
 40
1
 10
177.657020
 20
210.113760
 30
0.0
 10
177.483740
 20
207.811869
 30
0.0
 10
177.380857
 20
205.707282
 30
0.0
 10
177.348370
 20
203.800000
 30
0.0
  0
SPLINE
  5
34f
100
AcDbEntity
  8
Layer_1
 62
7
100
AcDbSpline
 70
8
 71
3
 72
8
 73
4
 74
0
 40
0
 40
0
 40
0
 40
0
 40
1
 40
1
 40
1
 40
1
 10
177.348370
 20
203.800000
 30
0.0
 10
177.380837
 20
201.300803
 30
0.0
 10
177.397070
 20
198.900260
 30
0.0
 10
177.397070
 20
196.598370
 30
0.0
  0
LINE
  5
350
100
AcDbEntity
  8
Layer_1
 62
7
100
AcDbLine
 10
177.397070
 20
196.598370
 30
0.0
 11
177.397070
 21
194.921270
 31
0.0
  0
SPLINE
  5
351
100
AcDbEntity
  8
Layer_1
 62
7
100
AcDbSpline
 70
8
 71
3
 72
8
 73
4
 74
0
 40
0
 40
0
 40
0
 40
0
 40
1
 40
1
 40
1
 40
1
 10
177.397070
 20
194.921270
 30
0.0
 10
177.418737
 20
194.526663
 30
0.0
 10
177.440403
 20
193.934750
 30
0.0
 10
177.462070
 20
193.145530
 30
0.0
  0
SPLINE
  5
352
100
AcDbEntity
  8
Layer_1
 62
7
100
AcDbSpline
 70
8
 71
3
 72
8
 73
4
 74
0
 40
0
 40
0
 40
0
 40
0
 40
1
 40
1
 40
1
 40
1
 10
177.462070
 20
193.145530
 30
0.0
 10
177.483737
 20
191.567090
 30
0.0
 10
177.543303
 20
190.481913
 30
0.0
 10
177.640770
 20
189.890000
 30
0.0
  0
SPLINE
  5
353
100
AcDbEntity
  8
Layer_1
 62
7
100
AcDbSpline
 70
8
 71
3
 72
8
 73
4
 74
0
 40
0
 40
0
 40
0
 40
0
 40
1
 40
1
 40
1
 40
1
 10
177.640770
 20
189.890000
 30
0.0
 10
177.738237
 20
189.298080
 30
0.0
 10
177.819460
 20
188.936353
 30
0.0
 10
177.884440
 20
188.804820
 30
0.0
  0
SPLINE
  5
354
100
AcDbEntity
  8
Layer_1
 62
7
100
AcDbSpline
 70
8
 71
3
 72
8
 73
4
 74
0
 40
0
 40
0
 40
0
 40
0
 40
1
 40
1
 40
1
 40
1
 10
177.884440
 20
188.804820
 30
0.0
 10
177.960247
 20
188.673280
 30
0.0
 10
178.111863
 20
188.574627
 30
0.0
 10
178.339290
 20
188.508860
 30
0.0
  0
SPLINE
  5
355
100
AcDbEntity
  8
Layer_1
 62
7
100
AcDbSpline
 70
8
 71
3
 72
8
 73
4
 74
0
 40
0
 40
0
 40
0
 40
0
 40
1
 40
1
 40
1
 40
1
 10
178.339290
 20
188.508860
 30
0.0
 10
178.415103
 20
188.541727
 30
0.0
 10
178.534233
 20
188.558160
 30
0.0
 10
178.696680
 20
188.558160
 30
0.0
  0
LINE
  5
356
100
AcDbEntity
  8
Layer_1
 62
7
100
AcDbLine
 10
178.696680
 20
188.558160
 30
0.0
 11
179.265250
 21
188.508860
 31
0.0
  0
SPLINE
  5
357
100
AcDbEntity
  8
Layer_1
 62
7
100
AcDbSpline
 70
8
 71
3
 72
8
 73
4
 74
0
 40
0
 40
0
 40
0
 40
0
 40
1
 40
1
 40
1
 40
1
 10
179.265250
 20
188.508860
 30
0.0
 10
179.503510
 20
188.443127
 30
0.0
 10
179.687620
 20
188.410260
 30
0.0
 10
179.817580
 20
188.410260
 30
0.0
  0
SPLINE
  5
358
100
AcDbEntity
  8
Layer_1
 62
7
100
AcDbSpline
 70
8
 71
3
 72
8
 73
4
 74
0
 40
0
 40
0
 40
0
 40
0
 40
1
 40
1
 40
1
 40
1
 10
179.817580
 20
188.410260
 30
0.0
 10
180.185793
 20
188.410260
 30
0.0
 10
180.478200
 20
188.607563
 30
0.0
 10
180.694800
 20
189.002170
 30
0.0
  0
SPLINE
  5
359
100
AcDbEntity
  8
Layer_1
 62
7
100
AcDbSpline
 70
8
 71
3
 72
8
 73
4
 74
0
 40
0
 40
0
 40
0
 40
0
 40
1
 40
1
 40
1
 40
1
 10
180.694800
 20
189.002170
 30
0.0
 10
180.911400
 20
189.396783
 30
0.0
 10
181.030527
 20
190.120237
 30
0.0
 10
181.052180
 20
191.172530
 30
0.0
  0
SPLINE
  5
35a
100
AcDbEntity
  8
Layer_1
 62
7
100
AcDbSpline
 70
8
 71
3
 72
8
 73
4
 74
0
 40
0
 40
0
 40
0
 40
0
 40
1
 40
1
 40
1
 40
1
 10
181.052180
 20
191.172530
 30
0.0
 10
181.117180
 20
193.737497
 30
0.0
 10
181.149680
 20
197.223218
 30
0.0
 10
181.149680
 20
201.629695
 30
0.0
  0
SPLINE
  5
35b
100
AcDbEntity
  8
Layer_1
 62
7
100
AcDbSpline
 70
8
 71
3
 72
8
 73
4
 74
0
 40
0
 40
0
 40
0
 40
0
 40
1
 40
1
 40
1
 40
1
 10
181.149680
 20
201.629695
 30
0.0
 10
181.149680
 20
205.148301
 30
0.0
 10
181.122613
 20
207.187119
 30
0.0
 10
181.068480
 20
207.746150
 30
0.0
  0
SPLINE
  5
35c
100
AcDbEntity
  8
Layer_1
 62
7
100
AcDbSpline
 70
8
 71
3
 72
8
 73
4
 74
0
 40
0
 40
0
 40
0
 40
0
 40
1
 40
1
 40
1
 40
1
 10
181.068480
 20
207.746150
 30
0.0
 10
180.960180
 20
207.811917
 30
0.0
 10
180.868127
 20
207.844800
 30
0.0
 10
180.792320
 20
207.844800
 30
0.0
  0
SPLINE
  5
35d
100
AcDbEntity
  8
Layer_1
 62
7
100
AcDbSpline
 70
8
 71
3
 72
8
 73
4
 74
0
 40
0
 40
0
 40
0
 40
0
 40
1
 40
1
 40
1
 40
1
 10
180.792320
 20
207.844800
 30
0.0
 10
180.629867
 20
207.844800
 30
0.0
 10
180.505323
 20
207.828357
 30
0.0
 10
180.418690
 20
207.795470
 30
0.0
  0
LINE
  5
35e
100
AcDbEntity
  8
Layer_1
 62
7
100
AcDbLine
 10
180.418690
 20
207.795470
 30
0.0
 11
180.045050
 21
207.746140
 31
0.0
  0
SPLINE
  5
35f
100
AcDbEntity
  8
Layer_1
 62
7
100
AcDbSpline
 70
8
 71
3
 72
8
 73
4
 74
0
 40
0
 40
0
 40
0
 40
0
 40
1
 40
1
 40
1
 40
1
 10
180.045050
 20
207.746140
 30
0.0
 10
179.730983
 20
207.746140
 30
0.0
 10
179.573950
 20
207.992771
 30
0.0
 10
179.573950
 20
208.486034
 30
0.0
  0
SPLINE
  5
360
100
AcDbEntity
  8
Layer_1
 62
7
100
AcDbSpline
 70
8
 71
3
 72
8
 73
4
 74
0
 40
0
 40
0
 40
0
 40
0
 40
1
 40
1
 40
1
 40
1
 10
179.573950
 20
208.486034
 30
0.0
 10
179.573950
 20
208.716223
 30
0.0
 10
179.584783
 20
208.897086
 30
0.0
 10
179.606450
 20
209.028623
 30
0.0
  0
SPLINE
  5
361
100
AcDbEntity
  8
Layer_1
 62
7
100
AcDbSpline
 70
8
 71
3
 72
8
 73
4
 74
0
 40
0
 40
0
 40
0
 40
0
 40
1
 40
1
 40
1
 40
1
 10
179.606450
 20
209.028623
 30
0.0
 10
179.660583
 20
209.554770
 30
0.0
 10
179.855523
 20
209.883611
 30
0.0
 10
180.191270
 20
210.015148
 30
0.0
  0
SPLINE
  5
362
100
AcDbEntity
  8
Layer_1
 62
7
100
AcDbSpline
 70
8
 71
3
 72
8
 73
4
 74
0
 40
0
 40
0
 40
0
 40
0
 40
1
 40
1
 40
1
 40
1
 10
180.191270
 20
210.015148
 30
0.0
 10
180.526997
 20
210.146685
 30
0.0
 10
180.911457
 20
210.212453
 30
0.0
 10
181.344650
 20
210.212453
 30
0.0
  0
SPLINE
  5
363
100
AcDbEntity
  8
Layer_1
 62
7
100
AcDbSpline
 70
8
 71
3
 72
8
 73
4
 74
0
 40
0
 40
0
 40
0
 40
0
 40
1
 40
1
 40
1
 40
1
 10
181.344650
 20
210.212453
 30
0.0
 10
181.561250
 20
210.343990
 30
0.0
 10
181.799510
 20
210.409758
 30
0.0
 10
182.059430
 20
210.409758
 30
0.0
  0
SPLINE
  5
364
100
AcDbEntity
  8
Layer_1
 62
7
100
AcDbSpline
 70
8
 71
3
 72
8
 73
4
 74
0
 40
0
 40
0
 40
0
 40
0
 40
1
 40
1
 40
1
 40
1
 10
182.059430
 20
210.409758
 30
0.0
 10
182.330177
 20
210.409758
 30
0.0
 10
182.568433
 20
210.343990
 30
0.0
 10
182.774200
 20
210.212453
 30
0.0
  0
SPLINE
  5
365
100
AcDbEntity
  8
Layer_1
 62
7
100
AcDbSpline
 70
8
 71
3
 72
8
 73
4
 74
0
 40
0
 40
0
 40
0
 40
0
 40
1
 40
1
 40
1
 40
1
 10
182.774200
 20
210.212453
 30
0.0
 10
182.979967
 20
210.080916
 30
0.0
 10
183.093680
 20
209.883611
 30
0.0
 10
183.115340
 20
209.620538
 30
0.0
  0
SPLINE
  5
366
100
AcDbEntity
  8
Layer_1
 62
7
100
AcDbSpline
 70
8
 71
3
 72
8
 73
4
 74
0
 40
0
 40
0
 40
0
 40
0
 40
1
 40
1
 40
1
 40
1
 10
183.115340
 20
209.620538
 30
0.0
 10
183.147807
 20
209.390349
 30
0.0
 10
183.164040
 20
209.193044
 30
0.0
 10
183.164040
 20
209.028623
 30
0.0
  0
SPLINE
  5
367
100
AcDbEntity
  8
Layer_1
 62
7
100
AcDbSpline
 70
8
 71
3
 72
8
 73
4
 74
0
 40
0
 40
0
 40
0
 40
0
 40
1
 40
1
 40
1
 40
1
 10
183.164040
 20
209.028623
 30
0.0
 10
183.164040
 20
208.370940
 30
0.0
 10
182.925780
 20
208.042098
 30
0.0
 10
182.449260
 20
208.042098
 30
0.0
  0
SPLINE
  5
368
100
AcDbEntity
  8
Layer_1
 62
7
100
AcDbSpline
 70
8
 71
3
 72
8
 73
4
 74
0
 40
0
 40
0
 40
0
 40
0
 40
1
 40
1
 40
1
 40
1
 10
182.449260
 20
208.042098
 30
0.0
 10
182.286813
 20
208.042098
 30
0.0
 10
182.146027
 20
208.058541
 30
0.0
 10
182.026900
 20
208.091428
 30
0.0
  0
SPLINE
  5
369
100
AcDbEntity
  8
Layer_1
 62
7
100
AcDbSpline
 70
8
 71
3
 72
8
 73
4
 74
0
 40
0
 40
0
 40
0
 40
0
 40
1
 40
1
 40
1
 40
1
 10
182.026900
 20
208.091428
 30
0.0
 10
181.918600
 20
208.124315
 30
0.0
 10
181.837373
 20
208.140758
 30
0.0
 10
181.783220
 20
208.140758
 30
0.0
  0
SPLINE
  5
36a
100
AcDbEntity
  8
Layer_1
 62
7
100
AcDbSpline
 70
8
 71
3
 72
8
 73
4
 74
0
 40
0
 40
0
 40
0
 40
0
 40
1
 40
1
 40
1
 40
1
 10
181.783220
 20
208.140758
 30
0.0
 10
181.859033
 20
207.220001
 30
0.0
 10
181.907770
 20
206.036171
 30
0.0
 10
181.929430
 20
204.589268
 30
0.0
  0
SPLINE
  5
36b
100
AcDbEntity
  8
Layer_1
 62
7
100
AcDbSpline
 70
8
 71
3
 72
8
 73
4
 74
0
 40
0
 40
0
 40
0
 40
0
 40
1
 40
1
 40
1
 40
1
 10
181.929430
 20
204.589268
 30
0.0
 10
181.951097
 20
203.175249
 30
0.0
 10
181.961930
 20
201.366619
 30
0.0
 10
181.961930
 20
199.163380
 30
0.0
  0
SPLINE
  5
36c
100
AcDbEntity
  8
Layer_1
 62
7
100
AcDbSpline
 70
8
 71
3
 72
8
 73
4
 74
0
 40
0
 40
0
 40
0
 40
0
 40
1
 40
1
 40
1
 40
1
 10
181.961930
 20
199.163380
 30
0.0
 10
181.961930
 20
197.749361
 30
0.0
 10
181.967330
 20
196.746395
 30
0.0
 10
181.978130
 20
196.154480
 30
0.0
  0
SPLINE
  5
36d
100
AcDbEntity
  8
Layer_1
 62
7
100
AcDbSpline
 70
8
 71
3
 72
8
 73
4
 74
0
 40
0
 40
0
 40
0
 40
0
 40
1
 40
1
 40
1
 40
1
 10
181.978130
 20
196.154480
 30
0.0
 10
182.010597
 20
189.248807
 30
0.0
 10
181.642380
 20
185.713760
 30
0.0
 10
180.873480
 20
185.549340
 30
0.0
  0
LINE
  5
36e
100
AcDbEntity
  8
Layer_1
 62
7
100
AcDbLine
 10
180.873480
 20
185.549340
 30
0.0
 11
179.866320
 21
185.253330
 31
0.0
  0
SPLINE
  5
36f
100
AcDbEntity
  8
Layer_1
 62
1
100
AcDbSpline
 70
8
 71
3
 72
8
 73
4
 74
0
 40
0
 40
0
 40
0
 40
0
 40
1
 40
1
 40
1
 40
1
 10
43.081650
 20
160.161930
 30
0.0
 10
42.670564
 20
160.161930
 30
0.0
 10
42.276316
 20
160.325233
 30
0.0
 10
41.985634
 20
160.615914
 30
0.0
  0
SPLINE
  5
370
100
AcDbEntity
  8
Layer_1
 62
1
100
AcDbSpline
 70
8
 71
3
 72
8
 73
4
 74
0
 40
0
 40
0
 40
0
 40
0
 40
1
 40
1
 40
1
 40
1
 10
41.985634
 20
160.615914
 30
0.0
 10
41.694953
 20
160.906596
 30
0.0
 10
41.531650
 20
161.300844
 30
0.0
 10
41.531650
 20
161.711930
 30
0.0
  0
SPLINE
  5
371
100
AcDbEntity
  8
Layer_1
 62
1
100
AcDbSpline
 70
8
 71
3
 72
8
 73
4
 74
0
 40
0
 40
0
 40
0
 40
0
 40
1
 40
1
 40
1
 40
1
 10
41.531650
 20
161.711930
 30
0.0
 10
41.531650
 20
162.123016
 30
0.0
 10
41.694953
 20
162.517264
 30
0.0
 10
41.985634
 20
162.807946
 30
0.0
  0
SPLINE
  5
372
100
AcDbEntity
  8
Layer_1
 62
1
100
AcDbSpline
 70
8
 71
3
 72
8
 73
4
 74
0
 40
0
 40
0
 40
0
 40
0
 40
1
 40
1
 40
1
 40
1
 10
41.985634
 20
162.807946
 30
0.0
 10
42.276316
 20
163.098627
 30
0.0
 10
42.670564
 20
163.261930
 30
0.0
 10
43.081650
 20
163.261930
 30
0.0
  0
SPLINE
  5
373
100
AcDbEntity
  8
Layer_1
 62
1
100
AcDbSpline
 70
8
 71
3
 72
8
 73
4
 74
0
 40
0
 40
0
 40
0
 40
0
 40
1
 40
1
 40
1
 40
1
 10
43.081650
 20
163.261930
 30
0.0
 10
43.492735
 20
163.261930
 30
0.0
 10
43.886984
 20
163.098627
 30
0.0
 10
44.177665
 20
162.807945
 30
0.0
  0
SPLINE
  5
374
100
AcDbEntity
  8
Layer_1
 62
1
100
AcDbSpline
 70
8
 71
3
 72
8
 73
4
 74
0
 40
0
 40
0
 40
0
 40
0
 40
1
 40
1
 40
1
 40
1
 10
44.177665
 20
162.807945
 30
0.0
 10
44.468346
 20
162.517264
 30
0.0
 10
44.631649
 20
162.123015
 30
0.0
 10
44.631649
 20
161.711930
 30
0.0
  0
SPLINE
  5
375
100
AcDbEntity
  8
Layer_1
 62
1
100
AcDbSpline
 70
8
 71
3
 72
8
 73
4
 74
0
 40
0
 40
0
 40
0
 40
0
 40
1
 40
1
 40
1
 40
1
 10
44.631649
 20
161.711930
 30
0.0
 10
44.631649
 20
161.300845
 30
0.0
 10
44.468346
 20
160.906596
 30
0.0
 10
44.177665
 20
160.615915
 30
0.0
  0
SPLINE
  5
376
100
AcDbEntity
  8
Layer_1
 62
1
100
AcDbSpline
 70
8
 71
3
 72
8
 73
4
 74
0
 40
0
 40
0
 40
0
 40
0
 40
1
 40
1
 40
1
 40
1
 10
44.177665
 20
160.615915
 30
0.0
 10
43.886984
 20
160.325233
 30
0.0
 10
43.492735
 20
160.161930
 30
0.0
 10
43.081650
 20
160.161930
 30
0.0
  0
LINE
  5
377
100
AcDbEntity
  8
Layer_1
 62
1
100
AcDbLine
 10
43.081650
 20
160.161930
 30
0.0
 11
43.081650
 21
160.161930
 31
0.0
  0
SPLINE
  5
378
100
AcDbEntity
  8
Layer_1
 62
1
100
AcDbSpline
 70
8
 71
3
 72
8
 73
4
 74
0
 40
0
 40
0
 40
0
 40
0
 40
1
 40
1
 40
1
 40
1
 10
194.539000
 20
160.161930
 30
0.0
 10
194.127914
 20
160.161930
 30
0.0
 10
193.733666
 20
160.325233
 30
0.0
 10
193.442984
 20
160.615914
 30
0.0
  0
SPLINE
  5
379
100
AcDbEntity
  8
Layer_1
 62
1
100
AcDbSpline
 70
8
 71
3
 72
8
 73
4
 74
0
 40
0
 40
0
 40
0
 40
0
 40
1
 40
1
 40
1
 40
1
 10
193.442984
 20
160.615914
 30
0.0
 10
193.152303
 20
160.906596
 30
0.0
 10
192.989000
 20
161.300844
 30
0.0
 10
192.989000
 20
161.711930
 30
0.0
  0
SPLINE
  5
37a
100
AcDbEntity
  8
Layer_1
 62
1
100
AcDbSpline
 70
8
 71
3
 72
8
 73
4
 74
0
 40
0
 40
0
 40
0
 40
0
 40
1
 40
1
 40
1
 40
1
 10
192.989000
 20
161.711930
 30
0.0
 10
192.989000
 20
162.123016
 30
0.0
 10
193.152303
 20
162.517264
 30
0.0
 10
193.442984
 20
162.807946
 30
0.0
  0
SPLINE
  5
37b
100
AcDbEntity
  8
Layer_1
 62
1
100
AcDbSpline
 70
8
 71
3
 72
8
 73
4
 74
0
 40
0
 40
0
 40
0
 40
0
 40
1
 40
1
 40
1
 40
1
 10
193.442984
 20
162.807946
 30
0.0
 10
193.733666
 20
163.098627
 30
0.0
 10
194.127914
 20
163.261930
 30
0.0
 10
194.539000
 20
163.261930
 30
0.0
  0
SPLINE
  5
37c
100
AcDbEntity
  8
Layer_1
 62
1
100
AcDbSpline
 70
8
 71
3
 72
8
 73
4
 74
0
 40
0
 40
0
 40
0
 40
0
 40
1
 40
1
 40
1
 40
1
 10
194.539000
 20
163.261930
 30
0.0
 10
194.950086
 20
163.261930
 30
0.0
 10
195.344334
 20
163.098627
 30
0.0
 10
195.635016
 20
162.807946
 30
0.0
  0
SPLINE
  5
37d
100
AcDbEntity
  8
Layer_1
 62
1
100
AcDbSpline
 70
8
 71
3
 72
8
 73
4
 74
0
 40
0
 40
0
 40
0
 40
0
 40
1
 40
1
 40
1
 40
1
 10
195.635016
 20
162.807946
 30
0.0
 10
195.925697
 20
162.517264
 30
0.0
 10
196.089000
 20
162.123016
 30
0.0
 10
196.089000
 20
161.711930
 30
0.0
  0
SPLINE
  5
37e
100
AcDbEntity
  8
Layer_1
 62
1
100
AcDbSpline
 70
8
 71
3
 72
8
 73
4
 74
0
 40
0
 40
0
 40
0
 40
0
 40
1
 40
1
 40
1
 40
1
 10
196.089000
 20
161.711930
 30
0.0
 10
196.089000
 20
161.300844
 30
0.0
 10
195.925697
 20
160.906596
 30
0.0
 10
195.635016
 20
160.615914
 30
0.0
  0
SPLINE
  5
37f
100
AcDbEntity
  8
Layer_1
 62
1
100
AcDbSpline
 70
8
 71
3
 72
8
 73
4
 74
0
 40
0
 40
0
 40
0
 40
0
 40
1
 40
1
 40
1
 40
1
 10
195.635016
 20
160.615914
 30
0.0
 10
195.344334
 20
160.325233
 30
0.0
 10
194.950086
 20
160.161930
 30
0.0
 10
194.539000
 20
160.161930
 30
0.0
  0
LINE
  5
380
100
AcDbEntity
  8
Layer_1
 62
1
100
AcDbLine
 10
194.539000
 20
160.161930
 30
0.0
 11
194.539000
 21
160.161930
 31
0.0
  0
SPLINE
  5
381
100
AcDbEntity
  8
Layer_1
 62
1
100
AcDbSpline
 70
8
 71
3
 72
8
 73
4
 74
0
 40
0
 40
0
 40
0
 40
0
 40
1
 40
1
 40
1
 40
1
 10
43.026390
 20
58.357120
 30
0.0
 10
42.615305
 20
58.357120
 30
0.0
 10
42.221056
 20
58.520423
 30
0.0
 10
41.930375
 20
58.811105
 30
0.0
  0
SPLINE
  5
382
100
AcDbEntity
  8
Layer_1
 62
1
100
AcDbSpline
 70
8
 71
3
 72
8
 73
4
 74
0
 40
0
 40
0
 40
0
 40
0
 40
1
 40
1
 40
1
 40
1
 10
41.930375
 20
58.811105
 30
0.0
 10
41.639694
 20
59.101786
 30
0.0
 10
41.476391
 20
59.496035
 30
0.0
 10
41.476391
 20
59.907120
 30
0.0
  0
SPLINE
  5
383
100
AcDbEntity
  8
Layer_1
 62
1
100
AcDbSpline
 70
8
 71
3
 72
8
 73
4
 74
0
 40
0
 40
0
 40
0
 40
0
 40
1
 40
1
 40
1
 40
1
 10
41.476391
 20
59.907120
 30
0.0
 10
41.476391
 20
60.318205
 30
0.0
 10
41.639694
 20
60.712454
 30
0.0
 10
41.930375
 20
61.003135
 30
0.0
  0
SPLINE
  5
384
100
AcDbEntity
  8
Layer_1
 62
1
100
AcDbSpline
 70
8
 71
3
 72
8
 73
4
 74
0
 40
0
 40
0
 40
0
 40
0
 40
1
 40
1
 40
1
 40
1
 10
41.930375
 20
61.003135
 30
0.0
 10
42.221056
 20
61.293817
 30
0.0
 10
42.615305
 20
61.457120
 30
0.0
 10
43.026390
 20
61.457120
 30
0.0
  0
SPLINE
  5
385
100
AcDbEntity
  8
Layer_1
 62
1
100
AcDbSpline
 70
8
 71
3
 72
8
 73
4
 74
0
 40
0
 40
0
 40
0
 40
0
 40
1
 40
1
 40
1
 40
1
 10
43.026390
 20
61.457120
 30
0.0
 10
43.437476
 20
61.457120
 30
0.0
 10
43.831724
 20
61.293817
 30
0.0
 10
44.122406
 20
61.003136
 30
0.0
  0
SPLINE
  5
386
100
AcDbEntity
  8
Layer_1
 62
1
100
AcDbSpline
 70
8
 71
3
 72
8
 73
4
 74
0
 40
0
 40
0
 40
0
 40
0
 40
1
 40
1
 40
1
 40
1
 10
44.122406
 20
61.003136
 30
0.0
 10
44.413087
 20
60.712454
 30
0.0
 10
44.576390
 20
60.318206
 30
0.0
 10
44.576390
 20
59.907120
 30
0.0
  0
SPLINE
  5
387
100
AcDbEntity
  8
Layer_1
 62
1
100
AcDbSpline
 70
8
 71
3
 72
8
 73
4
 74
0
 40
0
 40
0
 40
0
 40
0
 40
1
 40
1
 40
1
 40
1
 10
44.576390
 20
59.907120
 30
0.0
 10
44.576390
 20
59.496034
 30
0.0
 10
44.413087
 20
59.101786
 30
0.0
 10
44.122406
 20
58.811104
 30
0.0
  0
SPLINE
  5
388
100
AcDbEntity
  8
Layer_1
 62
1
100
AcDbSpline
 70
8
 71
3
 72
8
 73
4
 74
0
 40
0
 40
0
 40
0
 40
0
 40
1
 40
1
 40
1
 40
1
 10
44.122406
 20
58.811104
 30
0.0
 10
43.831724
 20
58.520423
 30
0.0
 10
43.437476
 20
58.357120
 30
0.0
 10
43.026390
 20
58.357120
 30
0.0
  0
LINE
  5
389
100
AcDbEntity
  8
Layer_1
 62
1
100
AcDbLine
 10
43.026390
 20
58.357120
 30
0.0
 11
43.026390
 21
58.357120
 31
0.0
  0
SPLINE
  5
38a
100
AcDbEntity
  8
Layer_1
 62
1
100
AcDbSpline
 70
8
 71
3
 72
8
 73
4
 74
0
 40
0
 40
0
 40
0
 40
0
 40
1
 40
1
 40
1
 40
1
 10
194.483730
 20
58.357120
 30
0.0
 10
194.072644
 20
58.357120
 30
0.0
 10
193.678396
 20
58.520423
 30
0.0
 10
193.387714
 20
58.811104
 30
0.0
  0
SPLINE
  5
38b
100
AcDbEntity
  8
Layer_1
 62
1
100
AcDbSpline
 70
8
 71
3
 72
8
 73
4
 74
0
 40
0
 40
0
 40
0
 40
0
 40
1
 40
1
 40
1
 40
1
 10
193.387714
 20
58.811104
 30
0.0
 10
193.097033
 20
59.101786
 30
0.0
 10
192.933730
 20
59.496034
 30
0.0
 10
192.933730
 20
59.907120
 30
0.0
  0
SPLINE
  5
38c
100
AcDbEntity
  8
Layer_1
 62
1
100
AcDbSpline
 70
8
 71
3
 72
8
 73
4
 74
0
 40
0
 40
0
 40
0
 40
0
 40
1
 40
1
 40
1
 40
1
 10
192.933730
 20
59.907120
 30
0.0
 10
192.933730
 20
60.318206
 30
0.0
 10
193.097033
 20
60.712454
 30
0.0
 10
193.387714
 20
61.003136
 30
0.0
  0
SPLINE
  5
38d
100
AcDbEntity
  8
Layer_1
 62
1
100
AcDbSpline
 70
8
 71
3
 72
8
 73
4
 74
0
 40
0
 40
0
 40
0
 40
0
 40
1
 40
1
 40
1
 40
1
 10
193.387714
 20
61.003136
 30
0.0
 10
193.678396
 20
61.293817
 30
0.0
 10
194.072644
 20
61.457120
 30
0.0
 10
194.483730
 20
61.457120
 30
0.0
  0
SPLINE
  5
38e
100
AcDbEntity
  8
Layer_1
 62
1
100
AcDbSpline
 70
8
 71
3
 72
8
 73
4
 74
0
 40
0
 40
0
 40
0
 40
0
 40
1
 40
1
 40
1
 40
1
 10
194.483730
 20
61.457120
 30
0.0
 10
194.894816
 20
61.457120
 30
0.0
 10
195.289064
 20
61.293817
 30
0.0
 10
195.579746
 20
61.003136
 30
0.0
  0
SPLINE
  5
38f
100
AcDbEntity
  8
Layer_1
 62
1
100
AcDbSpline
 70
8
 71
3
 72
8
 73
4
 74
0
 40
0
 40
0
 40
0
 40
0
 40
1
 40
1
 40
1
 40
1
 10
195.579746
 20
61.003136
 30
0.0
 10
195.870427
 20
60.712454
 30
0.0
 10
196.033730
 20
60.318206
 30
0.0
 10
196.033730
 20
59.907120
 30
0.0
  0
SPLINE
  5
390
100
AcDbEntity
  8
Layer_1
 62
1
100
AcDbSpline
 70
8
 71
3
 72
8
 73
4
 74
0
 40
0
 40
0
 40
0
 40
0
 40
1
 40
1
 40
1
 40
1
 10
196.033730
 20
59.907120
 30
0.0
 10
196.033730
 20
59.496034
 30
0.0
 10
195.870427
 20
59.101786
 30
0.0
 10
195.579746
 20
58.811104
 30
0.0
  0
SPLINE
  5
391
100
AcDbEntity
  8
Layer_1
 62
1
100
AcDbSpline
 70
8
 71
3
 72
8
 73
4
 74
0
 40
0
 40
0
 40
0
 40
0
 40
1
 40
1
 40
1
 40
1
 10
195.579746
 20
58.811104
 30
0.0
 10
195.289064
 20
58.520423
 30
0.0
 10
194.894816
 20
58.357120
 30
0.0
 10
194.483730
 20
58.357120
 30
0.0
  0
LINE
  5
392
100
AcDbEntity
  8
Layer_1
 62
1
100
AcDbLine
 10
194.483730
 20
58.357120
 30
0.0
 11
194.483730
 21
58.357120
 31
0.0
  0
LINE
  5
393
100
AcDbEntity
  8
Layer_1
 62
1
100
AcDbLine
 10
195.661000
 20
144.931960
 30
0.0
 11
195.661000
 21
134.931960
 31
0.0
  0
LINE
  5
394
100
AcDbEntity
  8
Layer_1
 62
1
100
AcDbLine
 10
195.661000
 20
134.931960
 30
0.0
 11
192.661000
 21
134.931960
 31
0.0
  0
LINE
  5
395
100
AcDbEntity
  8
Layer_1
 62
1
100
AcDbLine
 10
192.661000
 20
134.931960
 30
0.0
 11
192.661000
 21
144.931960
 31
0.0
  0
LINE
  5
396
100
AcDbEntity
  8
Layer_1
 62
1
100
AcDbLine
 10
192.661000
 20
144.931960
 30
0.0
 11
195.661000
 21
144.931960
 31
0.0
  0
LINE
  5
397
100
AcDbEntity
  8
Layer_1
 62
1
100
AcDbLine
 10
195.661000
 20
125.436390
 30
0.0
 11
195.661000
 21
115.436380
 31
0.0
  0
LINE
  5
398
100
AcDbEntity
  8
Layer_1
 62
1
100
AcDbLine
 10
195.661000
 20
115.436380
 30
0.0
 11
192.661000
 21
115.436380
 31
0.0
  0
LINE
  5
399
100
AcDbEntity
  8
Layer_1
 62
1
100
AcDbLine
 10
192.661000
 20
115.436380
 30
0.0
 11
192.661000
 21
125.436390
 31
0.0
  0
LINE
  5
39a
100
AcDbEntity
  8
Layer_1
 62
1
100
AcDbLine
 10
192.661000
 20
125.436390
 30
0.0
 11
195.661000
 21
125.436390
 31
0.0
  0
LINE
  5
39b
100
AcDbEntity
  8
Layer_1
 62
1
100
AcDbLine
 10
195.661000
 20
105.940800
 30
0.0
 11
195.661000
 21
95.940790
 31
0.0
  0
LINE
  5
39c
100
AcDbEntity
  8
Layer_1
 62
1
100
AcDbLine
 10
195.661000
 20
95.940790
 30
0.0
 11
192.661000
 21
95.940790
 31
0.0
  0
LINE
  5
39d
100
AcDbEntity
  8
Layer_1
 62
1
100
AcDbLine
 10
192.661000
 20
95.940790
 30
0.0
 11
192.661000
 21
105.940800
 31
0.0
  0
LINE
  5
39e
100
AcDbEntity
  8
Layer_1
 62
1
100
AcDbLine
 10
192.661000
 20
105.940800
 30
0.0
 11
195.661000
 21
105.940800
 31
0.0
  0
LINE
  5
39f
100
AcDbEntity
  8
Layer_1
 62
1
100
AcDbLine
 10
195.661000
 20
86.445210
 30
0.0
 11
195.661000
 21
76.445200
 31
0.0
  0
LINE
  5
3a0
100
AcDbEntity
  8
Layer_1
 62
1
100
AcDbLine
 10
195.661000
 20
76.445200
 30
0.0
 11
192.661000
 21
76.445200
 31
0.0
  0
LINE
  5
3a1
100
AcDbEntity
  8
Layer_1
 62
1
100
AcDbLine
 10
192.661000
 20
76.445200
 30
0.0
 11
192.661000
 21
86.445210
 31
0.0
  0
LINE
  5
3a2
100
AcDbEntity
  8
Layer_1
 62
1
100
AcDbLine
 10
192.661000
 20
86.445210
 30
0.0
 11
195.661000
 21
86.445210
 31
0.0
  0
LINE
  5
3a3
100
AcDbEntity
  8
Layer_1
 62
1
100
AcDbLine
 10
133.165660
 20
58.596040
 30
0.0
 11
123.165660
 21
58.596040
 31
0.0
  0
LINE
  5
3a4
100
AcDbEntity
  8
Layer_1
 62
1
100
AcDbLine
 10
123.165660
 20
58.596040
 30
0.0
 11
123.165660
 21
61.596030
 31
0.0
  0
LINE
  5
3a5
100
AcDbEntity
  8
Layer_1
 62
1
100
AcDbLine
 10
123.165660
 20
61.596030
 30
0.0
 11
133.165660
 21
61.596030
 31
0.0
  0
LINE
  5
3a6
100
AcDbEntity
  8
Layer_1
 62
1
100
AcDbLine
 10
133.165660
 20
61.596030
 30
0.0
 11
133.165660
 21
58.596040
 31
0.0
  0
LINE
  5
3a7
100
AcDbEntity
  8
Layer_1
 62
1
100
AcDbLine
 10
113.670090
 20
58.596040
 30
0.0
 11
103.670080
 21
58.596040
 31
0.0
  0
LINE
  5
3a8
100
AcDbEntity
  8
Layer_1
 62
1
100
AcDbLine
 10
103.670080
 20
58.596040
 30
0.0
 11
103.670080
 21
61.596030
 31
0.0
  0
LINE
  5
3a9
100
AcDbEntity
  8
Layer_1
 62
1
100
AcDbLine
 10
103.670080
 20
61.596030
 30
0.0
 11
113.670090
 21
61.596030
 31
0.0
  0
LINE
  5
3aa
100
AcDbEntity
  8
Layer_1
 62
1
100
AcDbLine
 10
113.670090
 20
61.596030
 30
0.0
 11
113.670090
 21
58.596040
 31
0.0
  0
LINE
  5
3ab
100
AcDbEntity
  8
Layer_1
 62
1
100
AcDbLine
 10
94.174500
 20
58.596040
 30
0.0
 11
84.174494
 21
58.596040
 31
0.0
  0
LINE
  5
3ac
100
AcDbEntity
  8
Layer_1
 62
1
100
AcDbLine
 10
84.174494
 20
58.596040
 30
0.0
 11
84.174494
 21
61.596030
 31
0.0
  0
LINE
  5
3ad
100
AcDbEntity
  8
Layer_1
 62
1
100
AcDbLine
 10
84.174494
 20
61.596030
 30
0.0
 11
94.174500
 21
61.596030
 31
0.0
  0
LINE
  5
3ae
100
AcDbEntity
  8
Layer_1
 62
1
100
AcDbLine
 10
94.174500
 20
61.596030
 30
0.0
 11
94.174500
 21
58.596040
 31
0.0
  0
LINE
  5
3af
100
AcDbEntity
  8
Layer_1
 62
1
100
AcDbLine
 10
74.678909
 20
58.596040
 30
0.0
 11
64.678904
 21
58.596040
 31
0.0
  0
LINE
  5
3b0
100
AcDbEntity
  8
Layer_1
 62
1
100
AcDbLine
 10
64.678904
 20
58.596040
 30
0.0
 11
64.678904
 21
61.596030
 31
0.0
  0
LINE
  5
3b1
100
AcDbEntity
  8
Layer_1
 62
1
100
AcDbLine
 10
64.678904
 20
61.596030
 30
0.0
 11
74.678909
 21
61.596030
 31
0.0
  0
LINE
  5
3b2
100
AcDbEntity
  8
Layer_1
 62
1
100
AcDbLine
 10
74.678909
 20
61.596030
 30
0.0
 11
74.678909
 21
58.596040
 31
0.0
  0
LINE
  5
3b3
100
AcDbEntity
  8
Layer_1
 62
1
100
AcDbLine
 10
172.831240
 20
58.596040
 30
0.0
 11
162.831230
 21
58.596040
 31
0.0
  0
LINE
  5
3b4
100
AcDbEntity
  8
Layer_1
 62
1
100
AcDbLine
 10
162.831230
 20
58.596040
 30
0.0
 11
162.831230
 21
61.596030
 31
0.0
  0
LINE
  5
3b5
100
AcDbEntity
  8
Layer_1
 62
1
100
AcDbLine
 10
162.831230
 20
61.596030
 30
0.0
 11
172.831240
 21
61.596030
 31
0.0
  0
LINE
  5
3b6
100
AcDbEntity
  8
Layer_1
 62
1
100
AcDbLine
 10
172.831240
 20
61.596030
 30
0.0
 11
172.831240
 21
58.596040
 31
0.0
  0
LINE
  5
3b7
100
AcDbEntity
  8
Layer_1
 62
1
100
AcDbLine
 10
153.335650
 20
58.596040
 30
0.0
 11
143.335640
 21
58.596040
 31
0.0
  0
LINE
  5
3b8
100
AcDbEntity
  8
Layer_1
 62
1
100
AcDbLine
 10
143.335640
 20
58.596040
 30
0.0
 11
143.335640
 21
61.596030
 31
0.0
  0
LINE
  5
3b9
100
AcDbEntity
  8
Layer_1
 62
1
100
AcDbLine
 10
143.335640
 20
61.596030
 30
0.0
 11
153.335650
 21
61.596030
 31
0.0
  0
LINE
  5
3ba
100
AcDbEntity
  8
Layer_1
 62
1
100
AcDbLine
 10
153.335650
 20
61.596030
 30
0.0
 11
153.335650
 21
58.596040
 31
0.0
  0
LINE
  5
3bb
100
AcDbEntity
  8
Layer_1
 62
1
100
AcDbLine
 10
44.667000
 20
144.931960
 30
0.0
 11
44.667000
 21
134.931960
 31
0.0
  0
LINE
  5
3bc
100
AcDbEntity
  8
Layer_1
 62
1
100
AcDbLine
 10
44.667000
 20
134.931960
 30
0.0
 11
41.667006
 21
134.931960
 31
0.0
  0
LINE
  5
3bd
100
AcDbEntity
  8
Layer_1
 62
1
100
AcDbLine
 10
41.667006
 20
134.931960
 30
0.0
 11
41.667006
 21
144.931960
 31
0.0
  0
LINE
  5
3be
100
AcDbEntity
  8
Layer_1
 62
1
100
AcDbLine
 10
41.667006
 20
144.931960
 30
0.0
 11
44.667000
 21
144.931960
 31
0.0
  0
LINE
  5
3bf
100
AcDbEntity
  8
Layer_1
 62
1
100
AcDbLine
 10
44.667000
 20
125.436390
 30
0.0
 11
44.667000
 21
115.436380
 31
0.0
  0
LINE
  5
3c0
100
AcDbEntity
  8
Layer_1
 62
1
100
AcDbLine
 10
44.667000
 20
115.436380
 30
0.0
 11
41.667006
 21
115.436380
 31
0.0
  0
LINE
  5
3c1
100
AcDbEntity
  8
Layer_1
 62
1
100
AcDbLine
 10
41.667006
 20
115.436380
 30
0.0
 11
41.667006
 21
125.436390
 31
0.0
  0
LINE
  5
3c2
100
AcDbEntity
  8
Layer_1
 62
1
100
AcDbLine
 10
41.667006
 20
125.436390
 30
0.0
 11
44.667000
 21
125.436390
 31
0.0
  0
LINE
  5
3c3
100
AcDbEntity
  8
Layer_1
 62
1
100
AcDbLine
 10
44.667000
 20
105.940800
 30
0.0
 11
44.667000
 21
95.940790
 31
0.0
  0
LINE
  5
3c4
100
AcDbEntity
  8
Layer_1
 62
1
100
AcDbLine
 10
44.667000
 20
95.940790
 30
0.0
 11
41.667006
 21
95.940790
 31
0.0
  0
LINE
  5
3c5
100
AcDbEntity
  8
Layer_1
 62
1
100
AcDbLine
 10
41.667006
 20
95.940790
 30
0.0
 11
41.667006
 21
105.940800
 31
0.0
  0
LINE
  5
3c6
100
AcDbEntity
  8
Layer_1
 62
1
100
AcDbLine
 10
41.667006
 20
105.940800
 30
0.0
 11
44.667000
 21
105.940800
 31
0.0
  0
LINE
  5
3c7
100
AcDbEntity
  8
Layer_1
 62
1
100
AcDbLine
 10
44.667000
 20
86.445210
 30
0.0
 11
44.667000
 21
76.445200
 31
0.0
  0
LINE
  5
3c8
100
AcDbEntity
  8
Layer_1
 62
1
100
AcDbLine
 10
44.667000
 20
76.445200
 30
0.0
 11
41.667006
 21
76.445200
 31
0.0
  0
LINE
  5
3c9
100
AcDbEntity
  8
Layer_1
 62
1
100
AcDbLine
 10
41.667006
 20
76.445200
 30
0.0
 11
41.667006
 21
86.445210
 31
0.0
  0
LINE
  5
3ca
100
AcDbEntity
  8
Layer_1
 62
1
100
AcDbLine
 10
41.667006
 20
86.445210
 30
0.0
 11
44.667000
 21
86.445210
 31
0.0
  0
SPLINE
  5
3cb
100
AcDbEntity
  8
Layer_1
 62
1
100
AcDbSpline
 70
8
 71
3
 72
8
 73
4
 74
0
 40
0
 40
0
 40
0
 40
0
 40
1
 40
1
 40
1
 40
1
 10
117.205090
 20
53.962270
 30
0.0
 10
117.205095
 20
54.818308
 30
0.0
 10
117.899052
 20
55.512260
 30
0.0
 10
118.755090
 20
55.512260
 30
0.0
  0
SPLINE
  5
3cc
100
AcDbEntity
  8
Layer_1
 62
1
100
AcDbSpline
 70
8
 71
3
 72
8
 73
4
 74
0
 40
0
 40
0
 40
0
 40
0
 40
1
 40
1
 40
1
 40
1
 10
118.755090
 20
55.512260
 30
0.0
 10
119.611128
 20
55.512260
 30
0.0
 10
120.305085
 20
54.818308
 30
0.0
 10
120.305090
 20
53.962270
 30
0.0
  0
SPLINE
  5
3cd
100
AcDbEntity
  8
Layer_1
 62
1
100
AcDbSpline
 70
8
 71
3
 72
8
 73
4
 74
0
 40
0
 40
0
 40
0
 40
0
 40
1
 40
1
 40
1
 40
1
 10
120.305090
 20
53.962270
 30
0.0
 10
120.305090
 20
53.551184
 30
0.0
 10
120.141787
 20
53.156936
 30
0.0
 10
119.851106
 20
52.866254
 30
0.0
  0
SPLINE
  5
3ce
100
AcDbEntity
  8
Layer_1
 62
1
100
AcDbSpline
 70
8
 71
3
 72
8
 73
4
 74
0
 40
0
 40
0
 40
0
 40
0
 40
1
 40
1
 40
1
 40
1
 10
119.851106
 20
52.866254
 30
0.0
 10
119.560424
 20
52.575573
 30
0.0
 10
119.166176
 20
52.412270
 30
0.0
 10
118.755090
 20
52.412270
 30
0.0
  0
SPLINE
  5
3cf
100
AcDbEntity
  8
Layer_1
 62
1
100
AcDbSpline
 70
8
 71
3
 72
8
 73
4
 74
0
 40
0
 40
0
 40
0
 40
0
 40
1
 40
1
 40
1
 40
1
 10
118.755090
 20
52.412270
 30
0.0
 10
118.344004
 20
52.412270
 30
0.0
 10
117.949756
 20
52.575573
 30
0.0
 10
117.659074
 20
52.866254
 30
0.0
  0
SPLINE
  5
3d0
100
AcDbEntity
  8
Layer_1
 62
1
100
AcDbSpline
 70
8
 71
3
 72
8
 73
4
 74
0
 40
0
 40
0
 40
0
 40
0
 40
1
 40
1
 40
1
 40
1
 10
117.659074
 20
52.866254
 30
0.0
 10
117.368393
 20
53.156936
 30
0.0
 10
117.205090
 20
53.551184
 30
0.0
 10
117.205090
 20
53.962270
 30
0.0
  0
LINE
  5
3d1
100
AcDbEntity
  8
Layer_1
 62
1
100
AcDbLine
 10
117.205090
 20
53.962270
 30
0.0
 11
117.205090
 21
53.962270
 31
0.0
  0
LINE
  5
3d2
100
AcDbEntity
  8
Layer_1
 62
1
100
AcDbLine
 10
38.676900
 20
208.810760
 30
0.0
 11
38.676900
 21
198.810755
 31
0.0
  0
LINE
  5
3d3
100
AcDbEntity
  8
Layer_1
 62
1
100
AcDbLine
 10
38.676900
 20
198.810755
 30
0.0
 11
35.676906
 21
198.810755
 31
0.0
  0
LINE
  5
3d4
100
AcDbEntity
  8
Layer_1
 62
1
100
AcDbLine
 10
35.676906
 20
198.810755
 30
0.0
 11
35.676906
 21
208.810760
 31
0.0
  0
LINE
  5
3d5
100
AcDbEntity
  8
Layer_1
 62
1
100
AcDbLine
 10
35.676906
 20
208.810760
 30
0.0
 11
38.676900
 21
208.810760
 31
0.0
  0
LINE
  5
3d6
100
AcDbEntity
  8
Layer_1
 62
1
100
AcDbLine
 10
38.676900
 20
188.810800
 30
0.0
 11
38.676900
 21
178.810790
 31
0.0
  0
LINE
  5
3d7
100
AcDbEntity
  8
Layer_1
 62
1
100
AcDbLine
 10
38.676900
 20
178.810790
 30
0.0
 11
35.676906
 21
178.810790
 31
0.0
  0
LINE
  5
3d8
100
AcDbEntity
  8
Layer_1
 62
1
100
AcDbLine
 10
35.676906
 20
178.810790
 30
0.0
 11
35.676906
 21
188.810800
 31
0.0
  0
LINE
  5
3d9
100
AcDbEntity
  8
Layer_1
 62
1
100
AcDbLine
 10
35.676906
 20
188.810800
 30
0.0
 11
38.676900
 21
188.810800
 31
0.0
  0
SPLINE
  5
3da
100
AcDbEntity
  8
Layer_1
 62
1
100
AcDbSpline
 70
8
 71
3
 72
8
 73
4
 74
0
 40
0
 40
0
 40
0
 40
0
 40
1
 40
1
 40
1
 40
1
 10
37.175760
 20
192.260790
 30
0.0
 10
36.764673
 20
192.260787
 30
0.0
 10
36.370421
 20
192.424089
 30
0.0
 10
36.079738
 20
192.714771
 30
0.0
  0
SPLINE
  5
3db
100
AcDbEntity
  8
Layer_1
 62
1
100
AcDbSpline
 70
8
 71
3
 72
8
 73
4
 74
0
 40
0
 40
0
 40
0
 40
0
 40
1
 40
1
 40
1
 40
1
 10
36.079738
 20
192.714771
 30
0.0
 10
35.789054
 20
193.005453
 30
0.0
 10
35.625750
 20
193.399703
 30
0.0
 10
35.625750
 20
193.810790
 30
0.0
  0
SPLINE
  5
3dc
100
AcDbEntity
  8
Layer_1
 62
1
100
AcDbSpline
 70
8
 71
3
 72
8
 73
4
 74
0
 40
0
 40
0
 40
0
 40
0
 40
1
 40
1
 40
1
 40
1
 10
35.625750
 20
193.810790
 30
0.0
 10
35.625750
 20
194.221877
 30
0.0
 10
35.789054
 20
194.616127
 30
0.0
 10
36.079738
 20
194.906809
 30
0.0
  0
SPLINE
  5
3dd
100
AcDbEntity
  8
Layer_1
 62
1
100
AcDbSpline
 70
8
 71
3
 72
8
 73
4
 74
0
 40
0
 40
0
 40
0
 40
0
 40
1
 40
1
 40
1
 40
1
 10
36.079738
 20
194.906809
 30
0.0
 10
36.370421
 20
195.197491
 30
0.0
 10
36.764673
 20
195.360793
 30
0.0
 10
37.175760
 20
195.360790
 30
0.0
  0
SPLINE
  5
3de
100
AcDbEntity
  8
Layer_1
 62
1
100
AcDbSpline
 70
8
 71
3
 72
8
 73
4
 74
0
 40
0
 40
0
 40
0
 40
0
 40
1
 40
1
 40
1
 40
1
 10
37.175760
 20
195.360790
 30
0.0
 10
37.586847
 20
195.360793
 30
0.0
 10
37.981099
 20
195.197491
 30
0.0
 10
38.271782
 20
194.906809
 30
0.0
  0
SPLINE
  5
3df
100
AcDbEntity
  8
Layer_1
 62
1
100
AcDbSpline
 70
8
 71
3
 72
8
 73
4
 74
0
 40
0
 40
0
 40
0
 40
0
 40
1
 40
1
 40
1
 40
1
 10
38.271782
 20
194.906809
 30
0.0
 10
38.562466
 20
194.616127
 30
0.0
 10
38.725770
 20
194.221877
 30
0.0
 10
38.725770
 20
193.810790
 30
0.0
  0
SPLINE
  5
3e0
100
AcDbEntity
  8
Layer_1
 62
1
100
AcDbSpline
 70
8
 71
3
 72
8
 73
4
 74
0
 40
0
 40
0
 40
0
 40
0
 40
1
 40
1
 40
1
 40
1
 10
38.725770
 20
193.810790
 30
0.0
 10
38.725770
 20
193.399703
 30
0.0
 10
38.562466
 20
193.005453
 30
0.0
 10
38.271782
 20
192.714771
 30
0.0
  0
SPLINE
  5
3e1
100
AcDbEntity
  8
Layer_1
 62
1
100
AcDbSpline
 70
8
 71
3
 72
8
 73
4
 74
0
 40
0
 40
0
 40
0
 40
0
 40
1
 40
1
 40
1
 40
1
 10
38.271782
 20
192.714771
 30
0.0
 10
37.981099
 20
192.424089
 30
0.0
 10
37.586847
 20
192.260787
 30
0.0
 10
37.175760
 20
192.260790
 30
0.0
  0
LINE
  5
3e2
100
AcDbEntity
  8
Layer_1
 62
1
100
AcDbLine
 10
37.175760
 20
192.260790
 30
0.0
 11
37.175760
 21
192.260790
 31
0.0
  0
LINE
  5
3e3
100
AcDbEntity
  8
Layer_1
 62
1
100
AcDbLine
 10
38.676900
 20
116.482080
 30
0.0
 11
38.676900
 21
106.482070
 31
0.0
  0
LINE
  5
3e4
100
AcDbEntity
  8
Layer_1
 62
1
100
AcDbLine
 10
38.676900
 20
106.482070
 30
0.0
 11
35.676906
 21
106.482070
 31
0.0
  0
LINE
  5
3e5
100
AcDbEntity
  8
Layer_1
 62
1
100
AcDbLine
 10
35.676906
 20
106.482070
 30
0.0
 11
35.676906
 21
116.482080
 31
0.0
  0
LINE
  5
3e6
100
AcDbEntity
  8
Layer_1
 62
1
100
AcDbLine
 10
35.676906
 20
116.482080
 30
0.0
 11
38.676900
 21
116.482080
 31
0.0
  0
LINE
  5
3e7
100
AcDbEntity
  8
Layer_1
 62
1
100
AcDbLine
 10
38.676900
 20
96.482120
 30
0.0
 11
38.676900
 21
86.482110
 31
0.0
  0
LINE
  5
3e8
100
AcDbEntity
  8
Layer_1
 62
1
100
AcDbLine
 10
38.676900
 20
86.482110
 30
0.0
 11
35.676906
 21
86.482110
 31
0.0
  0
LINE
  5
3e9
100
AcDbEntity
  8
Layer_1
 62
1
100
AcDbLine
 10
35.676906
 20
86.482110
 30
0.0
 11
35.676906
 21
96.482120
 31
0.0
  0
LINE
  5
3ea
100
AcDbEntity
  8
Layer_1
 62
1
100
AcDbLine
 10
35.676906
 20
96.482120
 30
0.0
 11
38.676900
 21
96.482120
 31
0.0
  0
SPLINE
  5
3eb
100
AcDbEntity
  8
Layer_1
 62
1
100
AcDbSpline
 70
8
 71
3
 72
8
 73
4
 74
0
 40
0
 40
0
 40
0
 40
0
 40
1
 40
1
 40
1
 40
1
 10
37.175760
 20
99.932110
 30
0.0
 10
36.764673
 20
99.932107
 30
0.0
 10
36.370421
 20
100.095409
 30
0.0
 10
36.079738
 20
100.386091
 30
0.0
  0
SPLINE
  5
3ec
100
AcDbEntity
  8
Layer_1
 62
1
100
AcDbSpline
 70
8
 71
3
 72
8
 73
4
 74
0
 40
0
 40
0
 40
0
 40
0
 40
1
 40
1
 40
1
 40
1
 10
36.079738
 20
100.386091
 30
0.0
 10
35.789054
 20
100.676773
 30
0.0
 10
35.625750
 20
101.071023
 30
0.0
 10
35.625750
 20
101.482110
 30
0.0
  0
SPLINE
  5
3ed
100
AcDbEntity
  8
Layer_1
 62
1
100
AcDbSpline
 70
8
 71
3
 72
8
 73
4
 74
0
 40
0
 40
0
 40
0
 40
0
 40
1
 40
1
 40
1
 40
1
 10
35.625750
 20
101.482110
 30
0.0
 10
35.625750
 20
101.893197
 30
0.0
 10
35.789054
 20
102.287447
 30
0.0
 10
36.079738
 20
102.578129
 30
0.0
  0
SPLINE
  5
3ee
100
AcDbEntity
  8
Layer_1
 62
1
100
AcDbSpline
 70
8
 71
3
 72
8
 73
4
 74
0
 40
0
 40
0
 40
0
 40
0
 40
1
 40
1
 40
1
 40
1
 10
36.079738
 20
102.578129
 30
0.0
 10
36.370421
 20
102.868811
 30
0.0
 10
36.764673
 20
103.032113
 30
0.0
 10
37.175760
 20
103.032110
 30
0.0
  0
SPLINE
  5
3ef
100
AcDbEntity
  8
Layer_1
 62
1
100
AcDbSpline
 70
8
 71
3
 72
8
 73
4
 74
0
 40
0
 40
0
 40
0
 40
0
 40
1
 40
1
 40
1
 40
1
 10
37.175760
 20
103.032110
 30
0.0
 10
37.586847
 20
103.032113
 30
0.0
 10
37.981099
 20
102.868811
 30
0.0
 10
38.271782
 20
102.578129
 30
0.0
  0
SPLINE
  5
3f0
100
AcDbEntity
  8
Layer_1
 62
1
100
AcDbSpline
 70
8
 71
3
 72
8
 73
4
 74
0
 40
0
 40
0
 40
0
 40
0
 40
1
 40
1
 40
1
 40
1
 10
38.271782
 20
102.578129
 30
0.0
 10
38.562466
 20
102.287447
 30
0.0
 10
38.725770
 20
101.893197
 30
0.0
 10
38.725770
 20
101.482110
 30
0.0
  0
SPLINE
  5
3f1
100
AcDbEntity
  8
Layer_1
 62
1
100
AcDbSpline
 70
8
 71
3
 72
8
 73
4
 74
0
 40
0
 40
0
 40
0
 40
0
 40
1
 40
1
 40
1
 40
1
 10
38.725770
 20
101.482110
 30
0.0
 10
38.725770
 20
101.071023
 30
0.0
 10
38.562466
 20
100.676773
 30
0.0
 10
38.271782
 20
100.386091
 30
0.0
  0
SPLINE
  5
3f2
100
AcDbEntity
  8
Layer_1
 62
1
100
AcDbSpline
 70
8
 71
3
 72
8
 73
4
 74
0
 40
0
 40
0
 40
0
 40
0
 40
1
 40
1
 40
1
 40
1
 10
38.271782
 20
100.386091
 30
0.0
 10
37.981099
 20
100.095409
 30
0.0
 10
37.586847
 20
99.932107
 30
0.0
 10
37.175760
 20
99.932110
 30
0.0
  0
LINE
  5
3f3
100
AcDbEntity
  8
Layer_1
 62
1
100
AcDbLine
 10
37.175760
 20
99.932110
 30
0.0
 11
37.175760
 21
99.932110
 31
0.0
  0
ENDSEC
  0
SECTION
  2
OBJECTS
  0
DICTIONARY
  5
C
330
0
100
AcDbDictionary
  3
ACAD_GROUP
350
D
  3
ACAD_MLINESTYLE
350
17
  0
DICTIONARY
  5
D
330
C
100
AcDbDictionary
  0
DICTIONARY
  5
1A
330
C
100
AcDbDictionary
  0
DICTIONARY
  5
17
330
C
100
AcDbDictionary
  3
STANDARD
350
18
  0
DICTIONARY
  5
19
330
C
100
AcDbDictionary
  0
ENDSEC
  0
EOF
