  0
SECTION
  2
HEADER
  9
$ACADVER
  1
AC1006
  9
$EXTMIN
 10
-4.251500
 20
1.781965
  9
$EXTMAX
 10
12.286933
 20
8.950319
  9
$LTSCALE
 40
0.000394
  9
$PDMODE
 70
    35
  9
$PDSIZE
 40
0.000315
  0
ENDSEC
  0
SECTION
  2
TABLES
  0
TABLE
  2
LTYPE
 70
     9
  0
LTYPE
  2
CONTINUOUS
 70
    64
  3
Solid line
 72
    65
 73
     0
 40
0.000000
  0
LTYPE
  2
DASHED
 70
    64
  3
__ __ __ __ __ __ __ __ __ __ __ __ __ __ __
 72
    65
 73
     2
 40
0.000003
 49
0.000002
 49
-0.000001
  0
LTYPE
  2
HIDDEN
 70
    64
  3
 _ _ _ _ _ _ _ _ _ _ _ _ _ _ _ _ _ _ _ _ _ _
 72
    65
 73
     2
 40
0.000001
 49
0.000001
 49
-0.000000
  0
LTYPE
  2
CENTER
 70
    64
  3
____ _ ____ _ ____ _ ____ _ ____ _ ____ _ ____
 72
    65
 73
     4
 40
0.000008
 49
0.000005
 49
-0.000001
 49
0.000001
 49
-0.000001
  0
LTYPE
  2
PHANTOM
 70
    64
  3
_____ _ _ _____ _ _ _____ _ _ _____ _ _ ____
 72
    65
 73
     6
 40
0.000010
 49
0.000005
 49
-0.000001
 49
0.000001
 49
-0.000001
 49
0.000001
 49
-0.000001
  0
LTYPE
  2
DOT
 70
    64
  3
...............................................
 72
    65
 73
     2
 40
0.000001
 49
0.000000
 49
-0.000001
  0
LTYPE
  2
DASHDOT
 70
    64
  3
__ . __ . __ . __ . __ . __ . __ . __ . __ . __
 72
    65
 73
     4
 40
0.000004
 49
0.000002
 49
-0.000001
 49
0.000000
 49
-0.000001
  0
LTYPE
  2
BORDER
 70
    64
  3
__ __ . __ __ . __ __ . __ __ . __ __ . __ __
 72
    65
 73
     6
 40
0.000007
 49
0.000002
 49
-0.000001
 49
0.000002
 49
-0.000001
 49
0.000000
 49
-0.000001
  0
LTYPE
  2
DIVIDE
 70
    64
  3
__ . . __ . . __ . . __ . . __ . . __ . . __
 72
    65
 73
     6
 40
0.000005
 49
0.000002
 49
-0.000001
 49
0.000000
 49
-0.000001
 49
0.000000
 49
-0.000001
  0
LTYPE
  2
DOTDOT
 70
    64
  3
 . .  . .  . .  . .  . .  . . 
 72
    65
 73
     5
 40
0.000002
 49
-0.000001
 49
0.000000
 49
-0.000001
 49
0.000000
 49
-0.000001
  0
ENDTAB
  0
TABLE
  2
STYLE
 70
     2
  0
STYLE
 70
     0
  2
SN0
 40
0.000000
 41
0.000004
 50
0.000000
 71
     0
 42
0.000000
  3
ROMAND
  0
STYLE
 70
    68
  2
SV0
 40
0.000000
 41
0.000004
 50
0.000000
 71
     0
 42
0.000000
  3
ROMAND
  0
ENDTAB
  0
TABLE
  2
LAYER
 70
     3
  0
LAYER
  2
FOREGROUND
 70
    64
 62
     7
  6
CONTINUOUS
  0
LAYER
  2
BACKGROUND
 70
    65
 62
    -7
  6
CONTINUOUS
  0
LAYER
  2
CAPA_1
 70
    64
 62
     7
  6
CONTINUOUS
  0
ENDTAB
  0
ENDSEC
  0
SECTION
  2
ENTITIES
  0
POLYLINE
  8
CAPA_1
 62
    39
  6
CONTINUOUS
 66
     1
 40
0.003000
 41
0.003000
 70
     1
  0
VERTEX
  8
CAPA_1
 62
    39
  6
CONTINUOUS
 10
-4.250000
 20
8.948819
  0
VERTEX
  8
CAPA_1
 62
    39
  6
CONTINUOUS
 10
12.285433
 20
8.948819
  0
VERTEX
  8
CAPA_1
 62
    39
  6
CONTINUOUS
 10
12.285433
 20
1.783465
  0
VERTEX
  8
CAPA_1
 62
    39
  6
CONTINUOUS
 10
-4.250000
 20
1.783465
  0
SEQEND
  8
0
  0
POLYLINE
  8
CAPA_1
 62
    39
  6
CONTINUOUS
 66
     1
 40
0.003000
 41
0.003000
 70
     1
  0
VERTEX
  8
CAPA_1
 62
    39
  6
CONTINUOUS
 10
10.316929
 20
3.751969
  0
VERTEX
  8
CAPA_1
 62
    39
  6
CONTINUOUS
 10
10.405099
 20
3.731048
  0
VERTEX
  8
CAPA_1
 62
    39
  6
CONTINUOUS
 10
10.472808
 20
3.675104
  0
VERTEX
  8
CAPA_1
 62
    39
  6
CONTINUOUS
 10
10.509831
 20
3.594362
  0
VERTEX
  8
CAPA_1
 62
    39
  6
CONTINUOUS
 10
10.509858
 20
3.594366
  0
VERTEX
  8
CAPA_1
 62
    39
  6
CONTINUOUS
 10
10.702744
 20
2.649362
  0
VERTEX
  8
CAPA_1
 62
    39
  6
CONTINUOUS
 10
10.702736
 20
2.649362
  0
VERTEX
  8
CAPA_1
 62
    39
  6
CONTINUOUS
 10
10.707080
 20
2.623703
  0
VERTEX
  8
CAPA_1
 62
    39
  6
CONTINUOUS
 10
10.709732
 20
2.597517
  0
VERTEX
  8
CAPA_1
 62
    39
  6
CONTINUOUS
 10
10.710630
 20
2.570866
  0
VERTEX
  8
CAPA_1
 62
    39
  6
CONTINUOUS
 10
10.696525
 20
2.466411
  0
VERTEX
  8
CAPA_1
 62
    39
  6
CONTINUOUS
 10
10.656747
 20
2.372421
  0
VERTEX
  8
CAPA_1
 62
    39
  6
CONTINUOUS
 10
10.595095
 20
2.292700
  0
VERTEX
  8
CAPA_1
 62
    39
  6
CONTINUOUS
 10
10.515374
 20
2.231049
  0
VERTEX
  8
CAPA_1
 62
    39
  6
CONTINUOUS
 10
10.421385
 20
2.191270
  0
VERTEX
  8
CAPA_1
 62
    39
  6
CONTINUOUS
 10
10.316929
 20
2.177165
  0
VERTEX
  8
CAPA_1
 62
    39
  6
CONTINUOUS
 10
10.212474
 20
2.191270
  0
VERTEX
  8
CAPA_1
 62
    39
  6
CONTINUOUS
 10
10.118484
 20
2.231049
  0
VERTEX
  8
CAPA_1
 62
    39
  6
CONTINUOUS
 10
10.038763
 20
2.292700
  0
VERTEX
  8
CAPA_1
 62
    39
  6
CONTINUOUS
 10
9.977112
 20
2.372421
  0
VERTEX
  8
CAPA_1
 62
    39
  6
CONTINUOUS
 10
9.937333
 20
2.466411
  0
VERTEX
  8
CAPA_1
 62
    39
  6
CONTINUOUS
 10
9.923228
 20
2.570866
  0
VERTEX
  8
CAPA_1
 62
    39
  6
CONTINUOUS
 10
9.924126
 20
2.597516
  0
VERTEX
  8
CAPA_1
 62
    39
  6
CONTINUOUS
 10
9.926778
 20
2.623700
  0
VERTEX
  8
CAPA_1
 62
    39
  6
CONTINUOUS
 10
9.931122
 20
2.649358
  0
VERTEX
  8
CAPA_1
 62
    39
  6
CONTINUOUS
 10
9.931106
 20
2.649362
  0
VERTEX
  8
CAPA_1
 62
    39
  6
CONTINUOUS
 10
10.123992
 20
3.594366
  0
VERTEX
  8
CAPA_1
 62
    39
  6
CONTINUOUS
 10
10.124028
 20
3.594358
  0
VERTEX
  8
CAPA_1
 62
    39
  6
CONTINUOUS
 10
10.161050
 20
3.675101
  0
VERTEX
  8
CAPA_1
 62
    39
  6
CONTINUOUS
 10
10.228759
 20
3.731047
  0
SEQEND
  8
0
  0
POLYLINE
  8
CAPA_1
 62
    39
  6
CONTINUOUS
 66
     1
 40
0.003000
 41
0.003000
 70
     1
  0
VERTEX
  8
CAPA_1
 62
    39
  6
CONTINUOUS
 10
10.316929
 20
3.614173
  0
VERTEX
  8
CAPA_1
 62
    39
  6
CONTINUOUS
 10
10.346696
 20
3.606091
  0
VERTEX
  8
CAPA_1
 62
    39
  6
CONTINUOUS
 10
10.367902
 20
3.584885
  0
VERTEX
  8
CAPA_1
 62
    39
  6
CONTINUOUS
 10
10.375984
 20
3.555118
  0
VERTEX
  8
CAPA_1
 62
    39
  6
CONTINUOUS
 10
10.367902
 20
3.525351
  0
VERTEX
  8
CAPA_1
 62
    39
  6
CONTINUOUS
 10
10.346696
 20
3.504145
  0
VERTEX
  8
CAPA_1
 62
    39
  6
CONTINUOUS
 10
10.316929
 20
3.496063
  0
VERTEX
  8
CAPA_1
 62
    39
  6
CONTINUOUS
 10
10.287162
 20
3.504145
  0
VERTEX
  8
CAPA_1
 62
    39
  6
CONTINUOUS
 10
10.265956
 20
3.525351
  0
VERTEX
  8
CAPA_1
 62
    39
  6
CONTINUOUS
 10
10.257874
 20
3.555118
  0
VERTEX
  8
CAPA_1
 62
    39
  6
CONTINUOUS
 10
10.265956
 20
3.584885
  0
VERTEX
  8
CAPA_1
 62
    39
  6
CONTINUOUS
 10
10.287162
 20
3.606091
  0
SEQEND
  8
0
  0
POLYLINE
  8
CAPA_1
 62
    39
  6
CONTINUOUS
 66
     1
 40
0.003000
 41
0.003000
 70
     1
  0
VERTEX
  8
CAPA_1
 62
    39
  6
CONTINUOUS
 10
10.316929
 20
2.629921
  0
VERTEX
  8
CAPA_1
 62
    39
  6
CONTINUOUS
 10
10.346696
 20
2.621839
  0
VERTEX
  8
CAPA_1
 62
    39
  6
CONTINUOUS
 10
10.367902
 20
2.600633
  0
VERTEX
  8
CAPA_1
 62
    39
  6
CONTINUOUS
 10
10.375984
 20
2.570866
  0
VERTEX
  8
CAPA_1
 62
    39
  6
CONTINUOUS
 10
10.367902
 20
2.541099
  0
VERTEX
  8
CAPA_1
 62
    39
  6
CONTINUOUS
 10
10.346696
 20
2.519893
  0
VERTEX
  8
CAPA_1
 62
    39
  6
CONTINUOUS
 10
10.316929
 20
2.511811
  0
VERTEX
  8
CAPA_1
 62
    39
  6
CONTINUOUS
 10
10.287162
 20
2.519893
  0
VERTEX
  8
CAPA_1
 62
    39
  6
CONTINUOUS
 10
10.265956
 20
2.541099
  0
VERTEX
  8
CAPA_1
 62
    39
  6
CONTINUOUS
 10
10.257874
 20
2.570866
  0
VERTEX
  8
CAPA_1
 62
    39
  6
CONTINUOUS
 10
10.265956
 20
2.600633
  0
VERTEX
  8
CAPA_1
 62
    39
  6
CONTINUOUS
 10
10.287162
 20
2.621839
  0
SEQEND
  8
0
  0
POLYLINE
  8
CAPA_1
 62
    39
  6
CONTINUOUS
 66
     1
 40
0.003000
 41
0.003000
 70
     1
  0
VERTEX
  8
CAPA_1
 62
    39
  6
CONTINUOUS
 10
11.498031
 20
2.177165
  0
VERTEX
  8
CAPA_1
 62
    39
  6
CONTINUOUS
 10
11.586201
 20
2.198086
  0
VERTEX
  8
CAPA_1
 62
    39
  6
CONTINUOUS
 10
11.653910
 20
2.254030
  0
VERTEX
  8
CAPA_1
 62
    39
  6
CONTINUOUS
 10
11.690933
 20
2.334772
  0
VERTEX
  8
CAPA_1
 62
    39
  6
CONTINUOUS
 10
11.690961
 20
2.334768
  0
VERTEX
  8
CAPA_1
 62
    39
  6
CONTINUOUS
 10
11.883846
 20
3.279772
  0
VERTEX
  8
CAPA_1
 62
    39
  6
CONTINUOUS
 10
11.883839
 20
3.279772
  0
VERTEX
  8
CAPA_1
 62
    39
  6
CONTINUOUS
 10
11.888183
 20
3.305430
  0
VERTEX
  8
CAPA_1
 62
    39
  6
CONTINUOUS
 10
11.890834
 20
3.331617
  0
VERTEX
  8
CAPA_1
 62
    39
  6
CONTINUOUS
 10
11.891732
 20
3.358268
  0
VERTEX
  8
CAPA_1
 62
    39
  6
CONTINUOUS
 10
11.877628
 20
3.462723
  0
VERTEX
  8
CAPA_1
 62
    39
  6
CONTINUOUS
 10
11.837849
 20
3.556713
  0
VERTEX
  8
CAPA_1
 62
    39
  6
CONTINUOUS
 10
11.776198
 20
3.636434
  0
VERTEX
  8
CAPA_1
 62
    39
  6
CONTINUOUS
 10
11.696477
 20
3.698085
  0
VERTEX
  8
CAPA_1
 62
    39
  6
CONTINUOUS
 10
11.602487
 20
3.737864
  0
VERTEX
  8
CAPA_1
 62
    39
  6
CONTINUOUS
 10
11.498031
 20
3.751969
  0
VERTEX
  8
CAPA_1
 62
    39
  6
CONTINUOUS
 10
11.393576
 20
3.737864
  0
VERTEX
  8
CAPA_1
 62
    39
  6
CONTINUOUS
 10
11.299586
 20
3.698085
  0
VERTEX
  8
CAPA_1
 62
    39
  6
CONTINUOUS
 10
11.219865
 20
3.636434
  0
VERTEX
  8
CAPA_1
 62
    39
  6
CONTINUOUS
 10
11.158214
 20
3.556713
  0
VERTEX
  8
CAPA_1
 62
    39
  6
CONTINUOUS
 10
11.118435
 20
3.462723
  0
VERTEX
  8
CAPA_1
 62
    39
  6
CONTINUOUS
 10
11.104331
 20
3.358268
  0
VERTEX
  8
CAPA_1
 62
    39
  6
CONTINUOUS
 10
11.104331
 20
3.358268
  0
VERTEX
  8
CAPA_1
 62
    39
  6
CONTINUOUS
 10
11.105228
 20
3.331618
  0
VERTEX
  8
CAPA_1
 62
    39
  6
CONTINUOUS
 10
11.107880
 20
3.305433
  0
VERTEX
  8
CAPA_1
 62
    39
  6
CONTINUOUS
 10
11.112224
 20
3.279776
  0
VERTEX
  8
CAPA_1
 62
    39
  6
CONTINUOUS
 10
11.112209
 20
3.279772
  0
VERTEX
  8
CAPA_1
 62
    39
  6
CONTINUOUS
 10
11.305094
 20
2.334768
  0
VERTEX
  8
CAPA_1
 62
    39
  6
CONTINUOUS
 10
11.305130
 20
2.334776
  0
VERTEX
  8
CAPA_1
 62
    39
  6
CONTINUOUS
 10
11.342153
 20
2.254033
  0
VERTEX
  8
CAPA_1
 62
    39
  6
CONTINUOUS
 10
11.409862
 20
2.198087
  0
SEQEND
  8
0
  0
POLYLINE
  8
CAPA_1
 62
    39
  6
CONTINUOUS
 66
     1
 40
0.003000
 41
0.003000
 70
     1
  0
VERTEX
  8
CAPA_1
 62
    39
  6
CONTINUOUS
 10
11.498031
 20
2.314961
  0
VERTEX
  8
CAPA_1
 62
    39
  6
CONTINUOUS
 10
11.527799
 20
2.323043
  0
VERTEX
  8
CAPA_1
 62
    39
  6
CONTINUOUS
 10
11.549004
 20
2.344248
  0
VERTEX
  8
CAPA_1
 62
    39
  6
CONTINUOUS
 10
11.557087
 20
2.374016
  0
VERTEX
  8
CAPA_1
 62
    39
  6
CONTINUOUS
 10
11.549004
 20
2.403783
  0
VERTEX
  8
CAPA_1
 62
    39
  6
CONTINUOUS
 10
11.527799
 20
2.424989
  0
VERTEX
  8
CAPA_1
 62
    39
  6
CONTINUOUS
 10
11.498031
 20
2.433071
  0
VERTEX
  8
CAPA_1
 62
    39
  6
CONTINUOUS
 10
11.468264
 20
2.424989
  0
VERTEX
  8
CAPA_1
 62
    39
  6
CONTINUOUS
 10
11.447059
 20
2.403783
  0
VERTEX
  8
CAPA_1
 62
    39
  6
CONTINUOUS
 10
11.438976
 20
2.374016
  0
VERTEX
  8
CAPA_1
 62
    39
  6
CONTINUOUS
 10
11.447059
 20
2.344248
  0
VERTEX
  8
CAPA_1
 62
    39
  6
CONTINUOUS
 10
11.468264
 20
2.323043
  0
SEQEND
  8
0
  0
POLYLINE
  8
CAPA_1
 62
    39
  6
CONTINUOUS
 66
     1
 40
0.003000
 41
0.003000
 70
     1
  0
VERTEX
  8
CAPA_1
 62
    39
  6
CONTINUOUS
 10
11.498031
 20
3.299213
  0
VERTEX
  8
CAPA_1
 62
    39
  6
CONTINUOUS
 10
11.527799
 20
3.307295
  0
VERTEX
  8
CAPA_1
 62
    39
  6
CONTINUOUS
 10
11.549004
 20
3.328500
  0
VERTEX
  8
CAPA_1
 62
    39
  6
CONTINUOUS
 10
11.557087
 20
3.358268
  0
VERTEX
  8
CAPA_1
 62
    39
  6
CONTINUOUS
 10
11.549004
 20
3.388035
  0
VERTEX
  8
CAPA_1
 62
    39
  6
CONTINUOUS
 10
11.527799
 20
3.409241
  0
VERTEX
  8
CAPA_1
 62
    39
  6
CONTINUOUS
 10
11.498031
 20
3.417323
  0
VERTEX
  8
CAPA_1
 62
    39
  6
CONTINUOUS
 10
11.468264
 20
3.409241
  0
VERTEX
  8
CAPA_1
 62
    39
  6
CONTINUOUS
 10
11.447059
 20
3.388035
  0
VERTEX
  8
CAPA_1
 62
    39
  6
CONTINUOUS
 10
11.438976
 20
3.358268
  0
VERTEX
  8
CAPA_1
 62
    39
  6
CONTINUOUS
 10
11.447059
 20
3.328500
  0
VERTEX
  8
CAPA_1
 62
    39
  6
CONTINUOUS
 10
11.468264
 20
3.307295
  0
SEQEND
  8
0
  0
POLYLINE
  8
CAPA_1
 62
    39
  6
CONTINUOUS
 66
     1
 40
0.003000
 41
0.003000
 70
     1
  0
VERTEX
  8
CAPA_1
 62
    39
  6
CONTINUOUS
 10
2.994094
 20
8.167087
  0
VERTEX
  8
CAPA_1
 62
    39
  6
CONTINUOUS
 10
3.209941
 20
7.502791
  0
VERTEX
  8
CAPA_1
 62
    39
  6
CONTINUOUS
 10
3.210953
 20
7.502289
  0
VERTEX
  8
CAPA_1
 62
    39
  6
CONTINUOUS
 10
3.211928
 20
7.501719
  0
VERTEX
  8
CAPA_1
 62
    39
  6
CONTINUOUS
 10
3.212858
 20
7.501083
  0
VERTEX
  8
CAPA_1
 62
    39
  6
CONTINUOUS
 10
3.910772
 20
7.501083
  0
VERTEX
  8
CAPA_1
 62
    39
  6
CONTINUOUS
 10
3.344307
 20
7.089240
  0
VERTEX
  8
CAPA_1
 62
    39
  6
CONTINUOUS
 10
3.560630
 20
6.423465
  0
VERTEX
  8
CAPA_1
 62
    39
  6
CONTINUOUS
 10
2.993878
 20
6.834925
  0
VERTEX
  8
CAPA_1
 62
    39
  6
CONTINUOUS
 10
2.427559
 20
6.423465
  0
VERTEX
  8
CAPA_1
 62
    39
  6
CONTINUOUS
 10
2.643744
 20
7.089626
  0
VERTEX
  8
CAPA_1
 62
    39
  6
CONTINUOUS
 10
2.077417
 20
7.501083
  0
VERTEX
  8
CAPA_1
 62
    39
  6
CONTINUOUS
 10
2.775846
 20
7.501083
  0
VERTEX
  8
CAPA_1
 62
    39
  6
CONTINUOUS
 10
2.776575
 20
7.501504
  0
VERTEX
  8
CAPA_1
 62
    39
  6
CONTINUOUS
 10
2.777316
 20
7.501883
  0
VERTEX
  8
CAPA_1
 62
    39
  6
CONTINUOUS
 10
2.778063
 20
7.502220
  0
SEQEND
  8
0
  0
POLYLINE
  8
CAPA_1
 62
    39
  6
CONTINUOUS
 66
     1
 40
0.003000
 41
0.003000
 70
     1
  0
VERTEX
  8
CAPA_1
 62
    39
  6
CONTINUOUS
 10
4.962598
 20
6.423465
  0
VERTEX
  8
CAPA_1
 62
    39
  6
CONTINUOUS
 10
5.178445
 20
7.087760
  0
VERTEX
  8
CAPA_1
 62
    39
  6
CONTINUOUS
 10
5.179457
 20
7.088262
  0
VERTEX
  8
CAPA_1
 62
    39
  6
CONTINUOUS
 10
5.180432
 20
7.088832
  0
VERTEX
  8
CAPA_1
 62
    39
  6
CONTINUOUS
 10
5.181362
 20
7.089469
  0
VERTEX
  8
CAPA_1
 62
    39
  6
CONTINUOUS
 10
5.879276
 20
7.089469
  0
VERTEX
  8
CAPA_1
 62
    39
  6
CONTINUOUS
 10
5.312811
 20
7.501311
  0
VERTEX
  8
CAPA_1
 62
    39
  6
CONTINUOUS
 10
5.529134
 20
8.167087
  0
VERTEX
  8
CAPA_1
 62
    39
  6
CONTINUOUS
 10
4.962382
 20
7.755626
  0
VERTEX
  8
CAPA_1
 62
    39
  6
CONTINUOUS
 10
4.396063
 20
8.167087
  0
VERTEX
  8
CAPA_1
 62
    39
  6
CONTINUOUS
 10
4.612248
 20
7.500925
  0
VERTEX
  8
CAPA_1
 62
    39
  6
CONTINUOUS
 10
4.045921
 20
7.089469
  0
VERTEX
  8
CAPA_1
 62
    39
  6
CONTINUOUS
 10
4.744350
 20
7.089469
  0
VERTEX
  8
CAPA_1
 62
    39
  6
CONTINUOUS
 10
4.745079
 20
7.089048
  0
VERTEX
  8
CAPA_1
 62
    39
  6
CONTINUOUS
 10
4.745820
 20
7.088668
  0
VERTEX
  8
CAPA_1
 62
    39
  6
CONTINUOUS
 10
4.746567
 20
7.088331
  0
SEQEND
  8
0
  0
POLYLINE
  8
CAPA_1
 62
    39
  6
CONTINUOUS
 66
     1
 40
0.003000
 41
0.003000
 70
     1
  0
VERTEX
  8
CAPA_1
 62
    39
  6
CONTINUOUS
 10
6.931102
 20
8.167087
  0
VERTEX
  8
CAPA_1
 62
    39
  6
CONTINUOUS
 10
7.146949
 20
7.502791
  0
VERTEX
  8
CAPA_1
 62
    39
  6
CONTINUOUS
 10
7.147961
 20
7.502289
  0
VERTEX
  8
CAPA_1
 62
    39
  6
CONTINUOUS
 10
7.148936
 20
7.501719
  0
VERTEX
  8
CAPA_1
 62
    39
  6
CONTINUOUS
 10
7.149866
 20
7.501083
  0
VERTEX
  8
CAPA_1
 62
    39
  6
CONTINUOUS
 10
7.847780
 20
7.501083
  0
VERTEX
  8
CAPA_1
 62
    39
  6
CONTINUOUS
 10
7.281315
 20
7.089240
  0
VERTEX
  8
CAPA_1
 62
    39
  6
CONTINUOUS
 10
7.497638
 20
6.423465
  0
VERTEX
  8
CAPA_1
 62
    39
  6
CONTINUOUS
 10
6.930886
 20
6.834925
  0
VERTEX
  8
CAPA_1
 62
    39
  6
CONTINUOUS
 10
6.364567
 20
6.423465
  0
VERTEX
  8
CAPA_1
 62
    39
  6
CONTINUOUS
 10
6.580752
 20
7.089626
  0
VERTEX
  8
CAPA_1
 62
    39
  6
CONTINUOUS
 10
6.014425
 20
7.501083
  0
VERTEX
  8
CAPA_1
 62
    39
  6
CONTINUOUS
 10
6.712854
 20
7.501083
  0
VERTEX
  8
CAPA_1
 62
    39
  6
CONTINUOUS
 10
6.713583
 20
7.501504
  0
VERTEX
  8
CAPA_1
 62
    39
  6
CONTINUOUS
 10
6.714324
 20
7.501883
  0
VERTEX
  8
CAPA_1
 62
    39
  6
CONTINUOUS
 10
6.715071
 20
7.502220
  0
SEQEND
  8
0
  0
POLYLINE
  8
CAPA_1
 62
    39
  6
CONTINUOUS
 66
     1
 40
0.003000
 41
0.003000
 70
     1
  0
VERTEX
  8
CAPA_1
 62
    39
  6
CONTINUOUS
 10
8.899606
 20
6.423465
  0
VERTEX
  8
CAPA_1
 62
    39
  6
CONTINUOUS
 10
9.115453
 20
7.087760
  0
VERTEX
  8
CAPA_1
 62
    39
  6
CONTINUOUS
 10
9.116465
 20
7.088262
  0
VERTEX
  8
CAPA_1
 62
    39
  6
CONTINUOUS
 10
9.117440
 20
7.088832
  0
VERTEX
  8
CAPA_1
 62
    39
  6
CONTINUOUS
 10
9.118370
 20
7.089469
  0
VERTEX
  8
CAPA_1
 62
    39
  6
CONTINUOUS
 10
9.816283
 20
7.089469
  0
VERTEX
  8
CAPA_1
 62
    39
  6
CONTINUOUS
 10
9.249819
 20
7.501311
  0
VERTEX
  8
CAPA_1
 62
    39
  6
CONTINUOUS
 10
9.466142
 20
8.167087
  0
VERTEX
  8
CAPA_1
 62
    39
  6
CONTINUOUS
 10
8.899390
 20
7.755626
  0
VERTEX
  8
CAPA_1
 62
    39
  6
CONTINUOUS
 10
8.333071
 20
8.167087
  0
VERTEX
  8
CAPA_1
 62
    39
  6
CONTINUOUS
 10
8.549256
 20
7.500925
  0
VERTEX
  8
CAPA_1
 62
    39
  6
CONTINUOUS
 10
7.982929
 20
7.089469
  0
VERTEX
  8
CAPA_1
 62
    39
  6
CONTINUOUS
 10
8.681358
 20
7.089469
  0
VERTEX
  8
CAPA_1
 62
    39
  6
CONTINUOUS
 10
8.682087
 20
7.089048
  0
VERTEX
  8
CAPA_1
 62
    39
  6
CONTINUOUS
 10
8.682828
 20
7.088668
  0
VERTEX
  8
CAPA_1
 62
    39
  6
CONTINUOUS
 10
8.683575
 20
7.088331
  0
SEQEND
  8
0
  0
POLYLINE
  8
CAPA_1
 62
    39
  6
CONTINUOUS
 66
     1
 40
0.003000
 41
0.003000
 70
     1
  0
VERTEX
  8
CAPA_1
 62
    39
  6
CONTINUOUS
 10
10.868110
 20
8.167087
  0
VERTEX
  8
CAPA_1
 62
    39
  6
CONTINUOUS
 10
11.083957
 20
7.502791
  0
VERTEX
  8
CAPA_1
 62
    39
  6
CONTINUOUS
 10
11.084969
 20
7.502289
  0
VERTEX
  8
CAPA_1
 62
    39
  6
CONTINUOUS
 10
11.085944
 20
7.501719
  0
VERTEX
  8
CAPA_1
 62
    39
  6
CONTINUOUS
 10
11.086874
 20
7.501083
  0
VERTEX
  8
CAPA_1
 62
    39
  6
CONTINUOUS
 10
11.784787
 20
7.501083
  0
VERTEX
  8
CAPA_1
 62
    39
  6
CONTINUOUS
 10
11.218323
 20
7.089240
  0
VERTEX
  8
CAPA_1
 62
    39
  6
CONTINUOUS
 10
11.434646
 20
6.423465
  0
VERTEX
  8
CAPA_1
 62
    39
  6
CONTINUOUS
 10
10.867894
 20
6.834925
  0
VERTEX
  8
CAPA_1
 62
    39
  6
CONTINUOUS
 10
10.301575
 20
6.423465
  0
VERTEX
  8
CAPA_1
 62
    39
  6
CONTINUOUS
 10
10.517760
 20
7.089626
  0
VERTEX
  8
CAPA_1
 62
    39
  6
CONTINUOUS
 10
9.951433
 20
7.501083
  0
VERTEX
  8
CAPA_1
 62
    39
  6
CONTINUOUS
 10
10.649862
 20
7.501083
  0
VERTEX
  8
CAPA_1
 62
    39
  6
CONTINUOUS
 10
10.650591
 20
7.501504
  0
VERTEX
  8
CAPA_1
 62
    39
  6
CONTINUOUS
 10
10.651332
 20
7.501883
  0
VERTEX
  8
CAPA_1
 62
    39
  6
CONTINUOUS
 10
10.652079
 20
7.502220
  0
SEQEND
  8
0
  0
POLYLINE
  8
CAPA_1
 62
    39
  6
CONTINUOUS
 66
     1
 40
0.003000
 41
0.003000
 70
     1
  0
VERTEX
  8
CAPA_1
 62
    39
  6
CONTINUOUS
 10
-3.068898
 20
5.720472
  0
VERTEX
  8
CAPA_1
 62
    39
  6
CONTINUOUS
 10
-2.977289
 20
5.715158
  0
VERTEX
  8
CAPA_1
 62
    39
  6
CONTINUOUS
 10
-2.888727
 20
5.699614
  0
VERTEX
  8
CAPA_1
 62
    39
  6
CONTINUOUS
 10
-2.803810
 20
5.674440
  0
VERTEX
  8
CAPA_1
 62
    39
  6
CONTINUOUS
 10
-2.723137
 20
5.640233
  0
VERTEX
  8
CAPA_1
 62
    39
  6
CONTINUOUS
 10
-2.647306
 20
5.597592
  0
VERTEX
  8
CAPA_1
 62
    39
  6
CONTINUOUS
 10
-2.576916
 20
5.547116
  0
VERTEX
  8
CAPA_1
 62
    39
  6
CONTINUOUS
 10
-2.512565
 20
5.489404
  0
VERTEX
  8
CAPA_1
 62
    39
  6
CONTINUOUS
 10
-2.454852
 20
5.425053
  0
VERTEX
  8
CAPA_1
 62
    39
  6
CONTINUOUS
 10
-2.404376
 20
5.354663
  0
VERTEX
  8
CAPA_1
 62
    39
  6
CONTINUOUS
 10
-2.361736
 20
5.278832
  0
VERTEX
  8
CAPA_1
 62
    39
  6
CONTINUOUS
 10
-2.327529
 20
5.198159
  0
VERTEX
  8
CAPA_1
 62
    39
  6
CONTINUOUS
 10
-2.302354
 20
5.113242
  0
VERTEX
  8
CAPA_1
 62
    39
  6
CONTINUOUS
 10
-2.286810
 20
5.024680
  0
VERTEX
  8
CAPA_1
 62
    39
  6
CONTINUOUS
 10
-2.281496
 20
4.933071
  0
VERTEX
  8
CAPA_1
 62
    39
  6
CONTINUOUS
 10
-2.281496
 20
4.933071
  0
VERTEX
  8
CAPA_1
 62
    39
  6
CONTINUOUS
 10
-2.286810
 20
4.841462
  0
VERTEX
  8
CAPA_1
 62
    39
  6
CONTINUOUS
 10
-2.302354
 20
4.752900
  0
VERTEX
  8
CAPA_1
 62
    39
  6
CONTINUOUS
 10
-2.327529
 20
4.667983
  0
VERTEX
  8
CAPA_1
 62
    39
  6
CONTINUOUS
 10
-2.361736
 20
4.587310
  0
VERTEX
  8
CAPA_1
 62
    39
  6
CONTINUOUS
 10
-2.404376
 20
4.511479
  0
VERTEX
  8
CAPA_1
 62
    39
  6
CONTINUOUS
 10
-2.454852
 20
4.441089
  0
VERTEX
  8
CAPA_1
 62
    39
  6
CONTINUOUS
 10
-2.512565
 20
4.376738
  0
VERTEX
  8
CAPA_1
 62
    39
  6
CONTINUOUS
 10
-2.576916
 20
4.319026
  0
VERTEX
  8
CAPA_1
 62
    39
  6
CONTINUOUS
 10
-2.647306
 20
4.268550
  0
VERTEX
  8
CAPA_1
 62
    39
  6
CONTINUOUS
 10
-2.723137
 20
4.225909
  0
VERTEX
  8
CAPA_1
 62
    39
  6
CONTINUOUS
 10
-2.803810
 20
4.191702
  0
VERTEX
  8
CAPA_1
 62
    39
  6
CONTINUOUS
 10
-2.888727
 20
4.166527
  0
VERTEX
  8
CAPA_1
 62
    39
  6
CONTINUOUS
 10
-2.977289
 20
4.150984
  0
VERTEX
  8
CAPA_1
 62
    39
  6
CONTINUOUS
 10
-3.068898
 20
4.145669
  0
VERTEX
  8
CAPA_1
 62
    39
  6
CONTINUOUS
 10
-3.068898
 20
4.145669
  0
VERTEX
  8
CAPA_1
 62
    39
  6
CONTINUOUS
 10
-3.160506
 20
4.150984
  0
VERTEX
  8
CAPA_1
 62
    39
  6
CONTINUOUS
 10
-3.249069
 20
4.166527
  0
VERTEX
  8
CAPA_1
 62
    39
  6
CONTINUOUS
 10
-3.333986
 20
4.191702
  0
VERTEX
  8
CAPA_1
 62
    39
  6
CONTINUOUS
 10
-3.414659
 20
4.225909
  0
VERTEX
  8
CAPA_1
 62
    39
  6
CONTINUOUS
 10
-3.490490
 20
4.268550
  0
VERTEX
  8
CAPA_1
 62
    39
  6
CONTINUOUS
 10
-3.560880
 20
4.319026
  0
VERTEX
  8
CAPA_1
 62
    39
  6
CONTINUOUS
 10
-3.625230
 20
4.376738
  0
VERTEX
  8
CAPA_1
 62
    39
  6
CONTINUOUS
 10
-3.682943
 20
4.441089
  0
VERTEX
  8
CAPA_1
 62
    39
  6
CONTINUOUS
 10
-3.733419
 20
4.511479
  0
VERTEX
  8
CAPA_1
 62
    39
  6
CONTINUOUS
 10
-3.776060
 20
4.587310
  0
VERTEX
  8
CAPA_1
 62
    39
  6
CONTINUOUS
 10
-3.810267
 20
4.667983
  0
VERTEX
  8
CAPA_1
 62
    39
  6
CONTINUOUS
 10
-3.835441
 20
4.752900
  0
VERTEX
  8
CAPA_1
 62
    39
  6
CONTINUOUS
 10
-3.850985
 20
4.841462
  0
VERTEX
  8
CAPA_1
 62
    39
  6
CONTINUOUS
 10
-3.856299
 20
4.933071
  0
VERTEX
  8
CAPA_1
 62
    39
  6
CONTINUOUS
 10
-3.850985
 20
5.024680
  0
VERTEX
  8
CAPA_1
 62
    39
  6
CONTINUOUS
 10
-3.835441
 20
5.113242
  0
VERTEX
  8
CAPA_1
 62
    39
  6
CONTINUOUS
 10
-3.810267
 20
5.198159
  0
VERTEX
  8
CAPA_1
 62
    39
  6
CONTINUOUS
 10
-3.776060
 20
5.278832
  0
VERTEX
  8
CAPA_1
 62
    39
  6
CONTINUOUS
 10
-3.733419
 20
5.354663
  0
VERTEX
  8
CAPA_1
 62
    39
  6
CONTINUOUS
 10
-3.682943
 20
5.425053
  0
VERTEX
  8
CAPA_1
 62
    39
  6
CONTINUOUS
 10
-3.625230
 20
5.489404
  0
VERTEX
  8
CAPA_1
 62
    39
  6
CONTINUOUS
 10
-3.560880
 20
5.547116
  0
VERTEX
  8
CAPA_1
 62
    39
  6
CONTINUOUS
 10
-3.490490
 20
5.597592
  0
VERTEX
  8
CAPA_1
 62
    39
  6
CONTINUOUS
 10
-3.414659
 20
5.640233
  0
VERTEX
  8
CAPA_1
 62
    39
  6
CONTINUOUS
 10
-3.333986
 20
5.674440
  0
VERTEX
  8
CAPA_1
 62
    39
  6
CONTINUOUS
 10
-3.249069
 20
5.699614
  0
VERTEX
  8
CAPA_1
 62
    39
  6
CONTINUOUS
 10
-3.160506
 20
5.715158
  0
VERTEX
  8
CAPA_1
 62
    39
  6
CONTINUOUS
 10
-3.068898
 20
5.720472
  0
SEQEND
  8
0
  0
POLYLINE
  8
CAPA_1
 62
    39
  6
CONTINUOUS
 66
     1
 40
0.003000
 41
0.003000
 70
     1
  0
VERTEX
  8
CAPA_1
 62
    39
  6
CONTINUOUS
 10
-3.068898
 20
5.444882
  0
VERTEX
  8
CAPA_1
 62
    39
  6
CONTINUOUS
 10
-3.009363
 20
5.428717
  0
VERTEX
  8
CAPA_1
 62
    39
  6
CONTINUOUS
 10
-2.966952
 20
5.386306
  0
VERTEX
  8
CAPA_1
 62
    39
  6
CONTINUOUS
 10
-2.950787
 20
5.326772
  0
VERTEX
  8
CAPA_1
 62
    39
  6
CONTINUOUS
 10
-2.966952
 20
5.267237
  0
VERTEX
  8
CAPA_1
 62
    39
  6
CONTINUOUS
 10
-3.009363
 20
5.224826
  0
VERTEX
  8
CAPA_1
 62
    39
  6
CONTINUOUS
 10
-3.068898
 20
5.208661
  0
VERTEX
  8
CAPA_1
 62
    39
  6
CONTINUOUS
 10
-3.128432
 20
5.224826
  0
VERTEX
  8
CAPA_1
 62
    39
  6
CONTINUOUS
 10
-3.170843
 20
5.267237
  0
VERTEX
  8
CAPA_1
 62
    39
  6
CONTINUOUS
 10
-3.187008
 20
5.326772
  0
VERTEX
  8
CAPA_1
 62
    39
  6
CONTINUOUS
 10
-3.170843
 20
5.386306
  0
VERTEX
  8
CAPA_1
 62
    39
  6
CONTINUOUS
 10
-3.128432
 20
5.428717
  0
SEQEND
  8
0
  0
POLYLINE
  8
CAPA_1
 62
    39
  6
CONTINUOUS
 66
     1
 40
0.003000
 41
0.003000
 70
     1
  0
VERTEX
  8
CAPA_1
 62
    39
  6
CONTINUOUS
 10
-3.068898
 20
4.992126
  0
VERTEX
  8
CAPA_1
 62
    39
  6
CONTINUOUS
 10
-3.039130
 20
4.984044
  0
VERTEX
  8
CAPA_1
 62
    39
  6
CONTINUOUS
 10
-3.017925
 20
4.962838
  0
VERTEX
  8
CAPA_1
 62
    39
  6
CONTINUOUS
 10
-3.009843
 20
4.933071
  0
VERTEX
  8
CAPA_1
 62
    39
  6
CONTINUOUS
 10
-3.017925
 20
4.903304
  0
VERTEX
  8
CAPA_1
 62
    39
  6
CONTINUOUS
 10
-3.039130
 20
4.882098
  0
VERTEX
  8
CAPA_1
 62
    39
  6
CONTINUOUS
 10
-3.068898
 20
4.874016
  0
VERTEX
  8
CAPA_1
 62
    39
  6
CONTINUOUS
 10
-3.098665
 20
4.882098
  0
VERTEX
  8
CAPA_1
 62
    39
  6
CONTINUOUS
 10
-3.119871
 20
4.903304
  0
VERTEX
  8
CAPA_1
 62
    39
  6
CONTINUOUS
 10
-3.127953
 20
4.933071
  0
VERTEX
  8
CAPA_1
 62
    39
  6
CONTINUOUS
 10
-3.119871
 20
4.962838
  0
VERTEX
  8
CAPA_1
 62
    39
  6
CONTINUOUS
 10
-3.098665
 20
4.984044
  0
SEQEND
  8
0
  0
POLYLINE
  8
CAPA_1
 62
    39
  6
CONTINUOUS
 66
     1
 40
0.003000
 41
0.003000
 70
     1
  0
VERTEX
  8
CAPA_1
 62
    39
  6
CONTINUOUS
 10
-3.068898
 20
7.688976
  0
VERTEX
  8
CAPA_1
 62
    39
  6
CONTINUOUS
 10
-2.977289
 20
7.683662
  0
VERTEX
  8
CAPA_1
 62
    39
  6
CONTINUOUS
 10
-2.888727
 20
7.668118
  0
VERTEX
  8
CAPA_1
 62
    39
  6
CONTINUOUS
 10
-2.803810
 20
7.642944
  0
VERTEX
  8
CAPA_1
 62
    39
  6
CONTINUOUS
 10
-2.723137
 20
7.608737
  0
VERTEX
  8
CAPA_1
 62
    39
  6
CONTINUOUS
 10
-2.647306
 20
7.566096
  0
VERTEX
  8
CAPA_1
 62
    39
  6
CONTINUOUS
 10
-2.576916
 20
7.515620
  0
VERTEX
  8
CAPA_1
 62
    39
  6
CONTINUOUS
 10
-2.512565
 20
7.457907
  0
VERTEX
  8
CAPA_1
 62
    39
  6
CONTINUOUS
 10
-2.454852
 20
7.393557
  0
VERTEX
  8
CAPA_1
 62
    39
  6
CONTINUOUS
 10
-2.404376
 20
7.323167
  0
VERTEX
  8
CAPA_1
 62
    39
  6
CONTINUOUS
 10
-2.361736
 20
7.247336
  0
VERTEX
  8
CAPA_1
 62
    39
  6
CONTINUOUS
 10
-2.327529
 20
7.166663
  0
VERTEX
  8
CAPA_1
 62
    39
  6
CONTINUOUS
 10
-2.302354
 20
7.081746
  0
VERTEX
  8
CAPA_1
 62
    39
  6
CONTINUOUS
 10
-2.286810
 20
6.993184
  0
VERTEX
  8
CAPA_1
 62
    39
  6
CONTINUOUS
 10
-2.281496
 20
6.901575
  0
VERTEX
  8
CAPA_1
 62
    39
  6
CONTINUOUS
 10
-2.286810
 20
6.809966
  0
VERTEX
  8
CAPA_1
 62
    39
  6
CONTINUOUS
 10
-2.302354
 20
6.721404
  0
VERTEX
  8
CAPA_1
 62
    39
  6
CONTINUOUS
 10
-2.327529
 20
6.636487
  0
VERTEX
  8
CAPA_1
 62
    39
  6
CONTINUOUS
 10
-2.361736
 20
6.555814
  0
VERTEX
  8
CAPA_1
 62
    39
  6
CONTINUOUS
 10
-2.404376
 20
6.479983
  0
VERTEX
  8
CAPA_1
 62
    39
  6
CONTINUOUS
 10
-2.454852
 20
6.409593
  0
VERTEX
  8
CAPA_1
 62
    39
  6
CONTINUOUS
 10
-2.512565
 20
6.345242
  0
VERTEX
  8
CAPA_1
 62
    39
  6
CONTINUOUS
 10
-2.576916
 20
6.287530
  0
VERTEX
  8
CAPA_1
 62
    39
  6
CONTINUOUS
 10
-2.647306
 20
6.237054
  0
VERTEX
  8
CAPA_1
 62
    39
  6
CONTINUOUS
 10
-2.723137
 20
6.194413
  0
VERTEX
  8
CAPA_1
 62
    39
  6
CONTINUOUS
 10
-2.803810
 20
6.160206
  0
VERTEX
  8
CAPA_1
 62
    39
  6
CONTINUOUS
 10
-2.888727
 20
6.135031
  0
VERTEX
  8
CAPA_1
 62
    39
  6
CONTINUOUS
 10
-2.977289
 20
6.119487
  0
VERTEX
  8
CAPA_1
 62
    39
  6
CONTINUOUS
 10
-3.068898
 20
6.114173
  0
VERTEX
  8
CAPA_1
 62
    39
  6
CONTINUOUS
 10
-3.068898
 20
6.114173
  0
VERTEX
  8
CAPA_1
 62
    39
  6
CONTINUOUS
 10
-3.160506
 20
6.119487
  0
VERTEX
  8
CAPA_1
 62
    39
  6
CONTINUOUS
 10
-3.249069
 20
6.135031
  0
VERTEX
  8
CAPA_1
 62
    39
  6
CONTINUOUS
 10
-3.333986
 20
6.160206
  0
VERTEX
  8
CAPA_1
 62
    39
  6
CONTINUOUS
 10
-3.414659
 20
6.194413
  0
VERTEX
  8
CAPA_1
 62
    39
  6
CONTINUOUS
 10
-3.490490
 20
6.237054
  0
VERTEX
  8
CAPA_1
 62
    39
  6
CONTINUOUS
 10
-3.560880
 20
6.287530
  0
VERTEX
  8
CAPA_1
 62
    39
  6
CONTINUOUS
 10
-3.625230
 20
6.345242
  0
VERTEX
  8
CAPA_1
 62
    39
  6
CONTINUOUS
 10
-3.682943
 20
6.409593
  0
VERTEX
  8
CAPA_1
 62
    39
  6
CONTINUOUS
 10
-3.733419
 20
6.479983
  0
VERTEX
  8
CAPA_1
 62
    39
  6
CONTINUOUS
 10
-3.776060
 20
6.555814
  0
VERTEX
  8
CAPA_1
 62
    39
  6
CONTINUOUS
 10
-3.810267
 20
6.636487
  0
VERTEX
  8
CAPA_1
 62
    39
  6
CONTINUOUS
 10
-3.835441
 20
6.721404
  0
VERTEX
  8
CAPA_1
 62
    39
  6
CONTINUOUS
 10
-3.850985
 20
6.809966
  0
VERTEX
  8
CAPA_1
 62
    39
  6
CONTINUOUS
 10
-3.856299
 20
6.901575
  0
VERTEX
  8
CAPA_1
 62
    39
  6
CONTINUOUS
 10
-3.856299
 20
6.901575
  0
VERTEX
  8
CAPA_1
 62
    39
  6
CONTINUOUS
 10
-3.850985
 20
6.993184
  0
VERTEX
  8
CAPA_1
 62
    39
  6
CONTINUOUS
 10
-3.835441
 20
7.081746
  0
VERTEX
  8
CAPA_1
 62
    39
  6
CONTINUOUS
 10
-3.810267
 20
7.166663
  0
VERTEX
  8
CAPA_1
 62
    39
  6
CONTINUOUS
 10
-3.776060
 20
7.247336
  0
VERTEX
  8
CAPA_1
 62
    39
  6
CONTINUOUS
 10
-3.733419
 20
7.323167
  0
VERTEX
  8
CAPA_1
 62
    39
  6
CONTINUOUS
 10
-3.682943
 20
7.393557
  0
VERTEX
  8
CAPA_1
 62
    39
  6
CONTINUOUS
 10
-3.625230
 20
7.457907
  0
VERTEX
  8
CAPA_1
 62
    39
  6
CONTINUOUS
 10
-3.560880
 20
7.515620
  0
VERTEX
  8
CAPA_1
 62
    39
  6
CONTINUOUS
 10
-3.490490
 20
7.566096
  0
VERTEX
  8
CAPA_1
 62
    39
  6
CONTINUOUS
 10
-3.414659
 20
7.608737
  0
VERTEX
  8
CAPA_1
 62
    39
  6
CONTINUOUS
 10
-3.333986
 20
7.642944
  0
VERTEX
  8
CAPA_1
 62
    39
  6
CONTINUOUS
 10
-3.249069
 20
7.668118
  0
VERTEX
  8
CAPA_1
 62
    39
  6
CONTINUOUS
 10
-3.160506
 20
7.683662
  0
VERTEX
  8
CAPA_1
 62
    39
  6
CONTINUOUS
 10
-3.068898
 20
7.688976
  0
SEQEND
  8
0
  0
POLYLINE
  8
CAPA_1
 62
    39
  6
CONTINUOUS
 66
     1
 40
0.003000
 41
0.003000
 70
     1
  0
VERTEX
  8
CAPA_1
 62
    39
  6
CONTINUOUS
 10
-3.068898
 20
7.413386
  0
VERTEX
  8
CAPA_1
 62
    39
  6
CONTINUOUS
 10
-3.009363
 20
7.397221
  0
VERTEX
  8
CAPA_1
 62
    39
  6
CONTINUOUS
 10
-2.966952
 20
7.354810
  0
VERTEX
  8
CAPA_1
 62
    39
  6
CONTINUOUS
 10
-2.950787
 20
7.295276
  0
VERTEX
  8
CAPA_1
 62
    39
  6
CONTINUOUS
 10
-2.966952
 20
7.235741
  0
VERTEX
  8
CAPA_1
 62
    39
  6
CONTINUOUS
 10
-3.009363
 20
7.193330
  0
VERTEX
  8
CAPA_1
 62
    39
  6
CONTINUOUS
 10
-3.068898
 20
7.177165
  0
VERTEX
  8
CAPA_1
 62
    39
  6
CONTINUOUS
 10
-3.128432
 20
7.193330
  0
VERTEX
  8
CAPA_1
 62
    39
  6
CONTINUOUS
 10
-3.170843
 20
7.235741
  0
VERTEX
  8
CAPA_1
 62
    39
  6
CONTINUOUS
 10
-3.187008
 20
7.295276
  0
VERTEX
  8
CAPA_1
 62
    39
  6
CONTINUOUS
 10
-3.170843
 20
7.354810
  0
VERTEX
  8
CAPA_1
 62
    39
  6
CONTINUOUS
 10
-3.128432
 20
7.397221
  0
SEQEND
  8
0
  0
POLYLINE
  8
CAPA_1
 62
    39
  6
CONTINUOUS
 66
     1
 40
0.003000
 41
0.003000
 70
     1
  0
VERTEX
  8
CAPA_1
 62
    39
  6
CONTINUOUS
 10
-3.068898
 20
6.960630
  0
VERTEX
  8
CAPA_1
 62
    39
  6
CONTINUOUS
 10
-3.039130
 20
6.952548
  0
VERTEX
  8
CAPA_1
 62
    39
  6
CONTINUOUS
 10
-3.017925
 20
6.931342
  0
VERTEX
  8
CAPA_1
 62
    39
  6
CONTINUOUS
 10
-3.009843
 20
6.901575
  0
VERTEX
  8
CAPA_1
 62
    39
  6
CONTINUOUS
 10
-3.017925
 20
6.871808
  0
VERTEX
  8
CAPA_1
 62
    39
  6
CONTINUOUS
 10
-3.039130
 20
6.850602
  0
VERTEX
  8
CAPA_1
 62
    39
  6
CONTINUOUS
 10
-3.068898
 20
6.842520
  0
VERTEX
  8
CAPA_1
 62
    39
  6
CONTINUOUS
 10
-3.098665
 20
6.850602
  0
VERTEX
  8
CAPA_1
 62
    39
  6
CONTINUOUS
 10
-3.119871
 20
6.871808
  0
VERTEX
  8
CAPA_1
 62
    39
  6
CONTINUOUS
 10
-3.127953
 20
6.901575
  0
VERTEX
  8
CAPA_1
 62
    39
  6
CONTINUOUS
 10
-3.119871
 20
6.931342
  0
VERTEX
  8
CAPA_1
 62
    39
  6
CONTINUOUS
 10
-3.098665
 20
6.952548
  0
SEQEND
  8
0
  0
POLYLINE
  8
CAPA_1
 62
    39
  6
CONTINUOUS
 66
     1
 40
0.003000
 41
0.003000
 70
     1
  0
VERTEX
  8
CAPA_1
 62
    39
  6
CONTINUOUS
 10
-3.068898
 20
3.751969
  0
VERTEX
  8
CAPA_1
 62
    39
  6
CONTINUOUS
 10
-2.977289
 20
3.746654
  0
VERTEX
  8
CAPA_1
 62
    39
  6
CONTINUOUS
 10
-2.888727
 20
3.731110
  0
VERTEX
  8
CAPA_1
 62
    39
  6
CONTINUOUS
 10
-2.803810
 20
3.705936
  0
VERTEX
  8
CAPA_1
 62
    39
  6
CONTINUOUS
 10
-2.723137
 20
3.671729
  0
VERTEX
  8
CAPA_1
 62
    39
  6
CONTINUOUS
 10
-2.647306
 20
3.629088
  0
VERTEX
  8
CAPA_1
 62
    39
  6
CONTINUOUS
 10
-2.576916
 20
3.578612
  0
VERTEX
  8
CAPA_1
 62
    39
  6
CONTINUOUS
 10
-2.512565
 20
3.520900
  0
VERTEX
  8
CAPA_1
 62
    39
  6
CONTINUOUS
 10
-2.454852
 20
3.456549
  0
VERTEX
  8
CAPA_1
 62
    39
  6
CONTINUOUS
 10
-2.404376
 20
3.386159
  0
VERTEX
  8
CAPA_1
 62
    39
  6
CONTINUOUS
 10
-2.361736
 20
3.310328
  0
VERTEX
  8
CAPA_1
 62
    39
  6
CONTINUOUS
 10
-2.327529
 20
3.229655
  0
VERTEX
  8
CAPA_1
 62
    39
  6
CONTINUOUS
 10
-2.302354
 20
3.144738
  0
VERTEX
  8
CAPA_1
 62
    39
  6
CONTINUOUS
 10
-2.286810
 20
3.056176
  0
VERTEX
  8
CAPA_1
 62
    39
  6
CONTINUOUS
 10
-2.281496
 20
2.964567
  0
VERTEX
  8
CAPA_1
 62
    39
  6
CONTINUOUS
 10
-2.281496
 20
2.964567
  0
VERTEX
  8
CAPA_1
 62
    39
  6
CONTINUOUS
 10
-2.286810
 20
2.872958
  0
VERTEX
  8
CAPA_1
 62
    39
  6
CONTINUOUS
 10
-2.302354
 20
2.784396
  0
VERTEX
  8
CAPA_1
 62
    39
  6
CONTINUOUS
 10
-2.327529
 20
2.699479
  0
VERTEX
  8
CAPA_1
 62
    39
  6
CONTINUOUS
 10
-2.361736
 20
2.618806
  0
VERTEX
  8
CAPA_1
 62
    39
  6
CONTINUOUS
 10
-2.404376
 20
2.542975
  0
VERTEX
  8
CAPA_1
 62
    39
  6
CONTINUOUS
 10
-2.454852
 20
2.472585
  0
VERTEX
  8
CAPA_1
 62
    39
  6
CONTINUOUS
 10
-2.512565
 20
2.408234
  0
VERTEX
  8
CAPA_1
 62
    39
  6
CONTINUOUS
 10
-2.576916
 20
2.350522
  0
VERTEX
  8
CAPA_1
 62
    39
  6
CONTINUOUS
 10
-2.647306
 20
2.300046
  0
VERTEX
  8
CAPA_1
 62
    39
  6
CONTINUOUS
 10
-2.723137
 20
2.257405
  0
VERTEX
  8
CAPA_1
 62
    39
  6
CONTINUOUS
 10
-2.803810
 20
2.223198
  0
VERTEX
  8
CAPA_1
 62
    39
  6
CONTINUOUS
 10
-2.888727
 20
2.198023
  0
VERTEX
  8
CAPA_1
 62
    39
  6
CONTINUOUS
 10
-2.977289
 20
2.182480
  0
VERTEX
  8
CAPA_1
 62
    39
  6
CONTINUOUS
 10
-3.068898
 20
2.177165
  0
VERTEX
  8
CAPA_1
 62
    39
  6
CONTINUOUS
 10
-3.068898
 20
2.177165
  0
VERTEX
  8
CAPA_1
 62
    39
  6
CONTINUOUS
 10
-3.160506
 20
2.182480
  0
VERTEX
  8
CAPA_1
 62
    39
  6
CONTINUOUS
 10
-3.249069
 20
2.198023
  0
VERTEX
  8
CAPA_1
 62
    39
  6
CONTINUOUS
 10
-3.333986
 20
2.223198
  0
VERTEX
  8
CAPA_1
 62
    39
  6
CONTINUOUS
 10
-3.414659
 20
2.257405
  0
VERTEX
  8
CAPA_1
 62
    39
  6
CONTINUOUS
 10
-3.490490
 20
2.300046
  0
VERTEX
  8
CAPA_1
 62
    39
  6
CONTINUOUS
 10
-3.560880
 20
2.350522
  0
VERTEX
  8
CAPA_1
 62
    39
  6
CONTINUOUS
 10
-3.625230
 20
2.408234
  0
VERTEX
  8
CAPA_1
 62
    39
  6
CONTINUOUS
 10
-3.682943
 20
2.472585
  0
VERTEX
  8
CAPA_1
 62
    39
  6
CONTINUOUS
 10
-3.733419
 20
2.542975
  0
VERTEX
  8
CAPA_1
 62
    39
  6
CONTINUOUS
 10
-3.776060
 20
2.618806
  0
VERTEX
  8
CAPA_1
 62
    39
  6
CONTINUOUS
 10
-3.810267
 20
2.699479
  0
VERTEX
  8
CAPA_1
 62
    39
  6
CONTINUOUS
 10
-3.835441
 20
2.784396
  0
VERTEX
  8
CAPA_1
 62
    39
  6
CONTINUOUS
 10
-3.850985
 20
2.872958
  0
VERTEX
  8
CAPA_1
 62
    39
  6
CONTINUOUS
 10
-3.856299
 20
2.964567
  0
VERTEX
  8
CAPA_1
 62
    39
  6
CONTINUOUS
 10
-3.850985
 20
3.056176
  0
VERTEX
  8
CAPA_1
 62
    39
  6
CONTINUOUS
 10
-3.835441
 20
3.144738
  0
VERTEX
  8
CAPA_1
 62
    39
  6
CONTINUOUS
 10
-3.810267
 20
3.229655
  0
VERTEX
  8
CAPA_1
 62
    39
  6
CONTINUOUS
 10
-3.776060
 20
3.310328
  0
VERTEX
  8
CAPA_1
 62
    39
  6
CONTINUOUS
 10
-3.733419
 20
3.386159
  0
VERTEX
  8
CAPA_1
 62
    39
  6
CONTINUOUS
 10
-3.682943
 20
3.456549
  0
VERTEX
  8
CAPA_1
 62
    39
  6
CONTINUOUS
 10
-3.625230
 20
3.520900
  0
VERTEX
  8
CAPA_1
 62
    39
  6
CONTINUOUS
 10
-3.560880
 20
3.578612
  0
VERTEX
  8
CAPA_1
 62
    39
  6
CONTINUOUS
 10
-3.490490
 20
3.629088
  0
VERTEX
  8
CAPA_1
 62
    39
  6
CONTINUOUS
 10
-3.414659
 20
3.671729
  0
VERTEX
  8
CAPA_1
 62
    39
  6
CONTINUOUS
 10
-3.333986
 20
3.705936
  0
VERTEX
  8
CAPA_1
 62
    39
  6
CONTINUOUS
 10
-3.249069
 20
3.731110
  0
VERTEX
  8
CAPA_1
 62
    39
  6
CONTINUOUS
 10
-3.160506
 20
3.746654
  0
VERTEX
  8
CAPA_1
 62
    39
  6
CONTINUOUS
 10
-3.068898
 20
3.751969
  0
SEQEND
  8
0
  0
POLYLINE
  8
CAPA_1
 62
    39
  6
CONTINUOUS
 66
     1
 40
0.003000
 41
0.003000
 70
     1
  0
VERTEX
  8
CAPA_1
 62
    39
  6
CONTINUOUS
 10
-3.068898
 20
3.476378
  0
VERTEX
  8
CAPA_1
 62
    39
  6
CONTINUOUS
 10
-3.009363
 20
3.460213
  0
VERTEX
  8
CAPA_1
 62
    39
  6
CONTINUOUS
 10
-2.966952
 20
3.417802
  0
VERTEX
  8
CAPA_1
 62
    39
  6
CONTINUOUS
 10
-2.950787
 20
3.358268
  0
VERTEX
  8
CAPA_1
 62
    39
  6
CONTINUOUS
 10
-2.966952
 20
3.298733
  0
VERTEX
  8
CAPA_1
 62
    39
  6
CONTINUOUS
 10
-3.009363
 20
3.256322
  0
VERTEX
  8
CAPA_1
 62
    39
  6
CONTINUOUS
 10
-3.068898
 20
3.240157
  0
VERTEX
  8
CAPA_1
 62
    39
  6
CONTINUOUS
 10
-3.128432
 20
3.256322
  0
VERTEX
  8
CAPA_1
 62
    39
  6
CONTINUOUS
 10
-3.170843
 20
3.298733
  0
VERTEX
  8
CAPA_1
 62
    39
  6
CONTINUOUS
 10
-3.187008
 20
3.358268
  0
VERTEX
  8
CAPA_1
 62
    39
  6
CONTINUOUS
 10
-3.170843
 20
3.417802
  0
VERTEX
  8
CAPA_1
 62
    39
  6
CONTINUOUS
 10
-3.128432
 20
3.460213
  0
SEQEND
  8
0
  0
POLYLINE
  8
CAPA_1
 62
    39
  6
CONTINUOUS
 66
     1
 40
0.003000
 41
0.003000
 70
     1
  0
VERTEX
  8
CAPA_1
 62
    39
  6
CONTINUOUS
 10
-3.068898
 20
3.023622
  0
VERTEX
  8
CAPA_1
 62
    39
  6
CONTINUOUS
 10
-3.039130
 20
3.015540
  0
VERTEX
  8
CAPA_1
 62
    39
  6
CONTINUOUS
 10
-3.017925
 20
2.994334
  0
VERTEX
  8
CAPA_1
 62
    39
  6
CONTINUOUS
 10
-3.009843
 20
2.964567
  0
VERTEX
  8
CAPA_1
 62
    39
  6
CONTINUOUS
 10
-3.017925
 20
2.934800
  0
VERTEX
  8
CAPA_1
 62
    39
  6
CONTINUOUS
 10
-3.039130
 20
2.913594
  0
VERTEX
  8
CAPA_1
 62
    39
  6
CONTINUOUS
 10
-3.068898
 20
2.905512
  0
VERTEX
  8
CAPA_1
 62
    39
  6
CONTINUOUS
 10
-3.098665
 20
2.913594
  0
VERTEX
  8
CAPA_1
 62
    39
  6
CONTINUOUS
 10
-3.119871
 20
2.934800
  0
VERTEX
  8
CAPA_1
 62
    39
  6
CONTINUOUS
 10
-3.127953
 20
2.964567
  0
VERTEX
  8
CAPA_1
 62
    39
  6
CONTINUOUS
 10
-3.119871
 20
2.994334
  0
VERTEX
  8
CAPA_1
 62
    39
  6
CONTINUOUS
 10
-3.098665
 20
3.015540
  0
SEQEND
  8
0
  0
POLYLINE
  8
CAPA_1
 62
    39
  6
CONTINUOUS
 66
     1
 40
0.003000
 41
0.003000
 70
     1
  0
VERTEX
  8
CAPA_1
 62
    39
  6
CONTINUOUS
 10
-1.100394
 20
3.751969
  0
VERTEX
  8
CAPA_1
 62
    39
  6
CONTINUOUS
 10
-1.008785
 20
3.746654
  0
VERTEX
  8
CAPA_1
 62
    39
  6
CONTINUOUS
 10
-0.920223
 20
3.731110
  0
VERTEX
  8
CAPA_1
 62
    39
  6
CONTINUOUS
 10
-0.835306
 20
3.705936
  0
VERTEX
  8
CAPA_1
 62
    39
  6
CONTINUOUS
 10
-0.754633
 20
3.671729
  0
VERTEX
  8
CAPA_1
 62
    39
  6
CONTINUOUS
 10
-0.678802
 20
3.629088
  0
VERTEX
  8
CAPA_1
 62
    39
  6
CONTINUOUS
 10
-0.608412
 20
3.578612
  0
VERTEX
  8
CAPA_1
 62
    39
  6
CONTINUOUS
 10
-0.544061
 20
3.520900
  0
VERTEX
  8
CAPA_1
 62
    39
  6
CONTINUOUS
 10
-0.486348
 20
3.456549
  0
VERTEX
  8
CAPA_1
 62
    39
  6
CONTINUOUS
 10
-0.435873
 20
3.386159
  0
VERTEX
  8
CAPA_1
 62
    39
  6
CONTINUOUS
 10
-0.393232
 20
3.310328
  0
VERTEX
  8
CAPA_1
 62
    39
  6
CONTINUOUS
 10
-0.359025
 20
3.229655
  0
VERTEX
  8
CAPA_1
 62
    39
  6
CONTINUOUS
 10
-0.333850
 20
3.144738
  0
VERTEX
  8
CAPA_1
 62
    39
  6
CONTINUOUS
 10
-0.318306
 20
3.056176
  0
VERTEX
  8
CAPA_1
 62
    39
  6
CONTINUOUS
 10
-0.312992
 20
2.964567
  0
VERTEX
  8
CAPA_1
 62
    39
  6
CONTINUOUS
 10
-0.312992
 20
2.964567
  0
VERTEX
  8
CAPA_1
 62
    39
  6
CONTINUOUS
 10
-0.318306
 20
2.872958
  0
VERTEX
  8
CAPA_1
 62
    39
  6
CONTINUOUS
 10
-0.333850
 20
2.784396
  0
VERTEX
  8
CAPA_1
 62
    39
  6
CONTINUOUS
 10
-0.359025
 20
2.699479
  0
VERTEX
  8
CAPA_1
 62
    39
  6
CONTINUOUS
 10
-0.393232
 20
2.618806
  0
VERTEX
  8
CAPA_1
 62
    39
  6
CONTINUOUS
 10
-0.435873
 20
2.542975
  0
VERTEX
  8
CAPA_1
 62
    39
  6
CONTINUOUS
 10
-0.486348
 20
2.472585
  0
VERTEX
  8
CAPA_1
 62
    39
  6
CONTINUOUS
 10
-0.544061
 20
2.408234
  0
VERTEX
  8
CAPA_1
 62
    39
  6
CONTINUOUS
 10
-0.608412
 20
2.350522
  0
VERTEX
  8
CAPA_1
 62
    39
  6
CONTINUOUS
 10
-0.678802
 20
2.300046
  0
VERTEX
  8
CAPA_1
 62
    39
  6
CONTINUOUS
 10
-0.754633
 20
2.257405
  0
VERTEX
  8
CAPA_1
 62
    39
  6
CONTINUOUS
 10
-0.835306
 20
2.223198
  0
VERTEX
  8
CAPA_1
 62
    39
  6
CONTINUOUS
 10
-0.920223
 20
2.198023
  0
VERTEX
  8
CAPA_1
 62
    39
  6
CONTINUOUS
 10
-1.008785
 20
2.182480
  0
VERTEX
  8
CAPA_1
 62
    39
  6
CONTINUOUS
 10
-1.100394
 20
2.177165
  0
VERTEX
  8
CAPA_1
 62
    39
  6
CONTINUOUS
 10
-1.100394
 20
2.177165
  0
VERTEX
  8
CAPA_1
 62
    39
  6
CONTINUOUS
 10
-1.192002
 20
2.182480
  0
VERTEX
  8
CAPA_1
 62
    39
  6
CONTINUOUS
 10
-1.280565
 20
2.198023
  0
VERTEX
  8
CAPA_1
 62
    39
  6
CONTINUOUS
 10
-1.365482
 20
2.223198
  0
VERTEX
  8
CAPA_1
 62
    39
  6
CONTINUOUS
 10
-1.446155
 20
2.257405
  0
VERTEX
  8
CAPA_1
 62
    39
  6
CONTINUOUS
 10
-1.521986
 20
2.300046
  0
VERTEX
  8
CAPA_1
 62
    39
  6
CONTINUOUS
 10
-1.592376
 20
2.350522
  0
VERTEX
  8
CAPA_1
 62
    39
  6
CONTINUOUS
 10
-1.656726
 20
2.408234
  0
VERTEX
  8
CAPA_1
 62
    39
  6
CONTINUOUS
 10
-1.714439
 20
2.472585
  0
VERTEX
  8
CAPA_1
 62
    39
  6
CONTINUOUS
 10
-1.764915
 20
2.542975
  0
VERTEX
  8
CAPA_1
 62
    39
  6
CONTINUOUS
 10
-1.807556
 20
2.618806
  0
VERTEX
  8
CAPA_1
 62
    39
  6
CONTINUOUS
 10
-1.841763
 20
2.699479
  0
VERTEX
  8
CAPA_1
 62
    39
  6
CONTINUOUS
 10
-1.866937
 20
2.784396
  0
VERTEX
  8
CAPA_1
 62
    39
  6
CONTINUOUS
 10
-1.882481
 20
2.872958
  0
VERTEX
  8
CAPA_1
 62
    39
  6
CONTINUOUS
 10
-1.887795
 20
2.964567
  0
VERTEX
  8
CAPA_1
 62
    39
  6
CONTINUOUS
 10
-1.882481
 20
3.056176
  0
VERTEX
  8
CAPA_1
 62
    39
  6
CONTINUOUS
 10
-1.866937
 20
3.144738
  0
VERTEX
  8
CAPA_1
 62
    39
  6
CONTINUOUS
 10
-1.841763
 20
3.229655
  0
VERTEX
  8
CAPA_1
 62
    39
  6
CONTINUOUS
 10
-1.807556
 20
3.310328
  0
VERTEX
  8
CAPA_1
 62
    39
  6
CONTINUOUS
 10
-1.764915
 20
3.386159
  0
VERTEX
  8
CAPA_1
 62
    39
  6
CONTINUOUS
 10
-1.714439
 20
3.456549
  0
VERTEX
  8
CAPA_1
 62
    39
  6
CONTINUOUS
 10
-1.656726
 20
3.520900
  0
VERTEX
  8
CAPA_1
 62
    39
  6
CONTINUOUS
 10
-1.592376
 20
3.578612
  0
VERTEX
  8
CAPA_1
 62
    39
  6
CONTINUOUS
 10
-1.521986
 20
3.629088
  0
VERTEX
  8
CAPA_1
 62
    39
  6
CONTINUOUS
 10
-1.446155
 20
3.671729
  0
VERTEX
  8
CAPA_1
 62
    39
  6
CONTINUOUS
 10
-1.365482
 20
3.705936
  0
VERTEX
  8
CAPA_1
 62
    39
  6
CONTINUOUS
 10
-1.280565
 20
3.731110
  0
VERTEX
  8
CAPA_1
 62
    39
  6
CONTINUOUS
 10
-1.192002
 20
3.746654
  0
VERTEX
  8
CAPA_1
 62
    39
  6
CONTINUOUS
 10
-1.100394
 20
3.751969
  0
SEQEND
  8
0
  0
POLYLINE
  8
CAPA_1
 62
    39
  6
CONTINUOUS
 66
     1
 40
0.003000
 41
0.003000
 70
     1
  0
VERTEX
  8
CAPA_1
 62
    39
  6
CONTINUOUS
 10
-1.100394
 20
3.476378
  0
VERTEX
  8
CAPA_1
 62
    39
  6
CONTINUOUS
 10
-1.040859
 20
3.460213
  0
VERTEX
  8
CAPA_1
 62
    39
  6
CONTINUOUS
 10
-0.998448
 20
3.417802
  0
VERTEX
  8
CAPA_1
 62
    39
  6
CONTINUOUS
 10
-0.982283
 20
3.358268
  0
VERTEX
  8
CAPA_1
 62
    39
  6
CONTINUOUS
 10
-0.998448
 20
3.298733
  0
VERTEX
  8
CAPA_1
 62
    39
  6
CONTINUOUS
 10
-1.040859
 20
3.256322
  0
VERTEX
  8
CAPA_1
 62
    39
  6
CONTINUOUS
 10
-1.100394
 20
3.240157
  0
VERTEX
  8
CAPA_1
 62
    39
  6
CONTINUOUS
 10
-1.159928
 20
3.256322
  0
VERTEX
  8
CAPA_1
 62
    39
  6
CONTINUOUS
 10
-1.202339
 20
3.298733
  0
VERTEX
  8
CAPA_1
 62
    39
  6
CONTINUOUS
 10
-1.218504
 20
3.358268
  0
VERTEX
  8
CAPA_1
 62
    39
  6
CONTINUOUS
 10
-1.202339
 20
3.417802
  0
VERTEX
  8
CAPA_1
 62
    39
  6
CONTINUOUS
 10
-1.159928
 20
3.460213
  0
SEQEND
  8
0
  0
POLYLINE
  8
CAPA_1
 62
    39
  6
CONTINUOUS
 66
     1
 40
0.003000
 41
0.003000
 70
     1
  0
VERTEX
  8
CAPA_1
 62
    39
  6
CONTINUOUS
 10
-1.100394
 20
3.023622
  0
VERTEX
  8
CAPA_1
 62
    39
  6
CONTINUOUS
 10
-1.070626
 20
3.015540
  0
VERTEX
  8
CAPA_1
 62
    39
  6
CONTINUOUS
 10
-1.049421
 20
2.994334
  0
VERTEX
  8
CAPA_1
 62
    39
  6
CONTINUOUS
 10
-1.041339
 20
2.964567
  0
VERTEX
  8
CAPA_1
 62
    39
  6
CONTINUOUS
 10
-1.049421
 20
2.934800
  0
VERTEX
  8
CAPA_1
 62
    39
  6
CONTINUOUS
 10
-1.070626
 20
2.913594
  0
VERTEX
  8
CAPA_1
 62
    39
  6
CONTINUOUS
 10
-1.100394
 20
2.905512
  0
VERTEX
  8
CAPA_1
 62
    39
  6
CONTINUOUS
 10
-1.130161
 20
2.913594
  0
VERTEX
  8
CAPA_1
 62
    39
  6
CONTINUOUS
 10
-1.151367
 20
2.934800
  0
VERTEX
  8
CAPA_1
 62
    39
  6
CONTINUOUS
 10
-1.159449
 20
2.964567
  0
VERTEX
  8
CAPA_1
 62
    39
  6
CONTINUOUS
 10
-1.151367
 20
2.994334
  0
VERTEX
  8
CAPA_1
 62
    39
  6
CONTINUOUS
 10
-1.130161
 20
3.015540
  0
SEQEND
  8
0
  0
POLYLINE
  8
CAPA_1
 62
    39
  6
CONTINUOUS
 66
     1
 40
0.003000
 41
0.003000
 70
     1
  0
VERTEX
  8
CAPA_1
 62
    39
  6
CONTINUOUS
 10
0.868110
 20
3.751969
  0
VERTEX
  8
CAPA_1
 62
    39
  6
CONTINUOUS
 10
0.959719
 20
3.746654
  0
VERTEX
  8
CAPA_1
 62
    39
  6
CONTINUOUS
 10
1.048281
 20
3.731110
  0
VERTEX
  8
CAPA_1
 62
    39
  6
CONTINUOUS
 10
1.133198
 20
3.705936
  0
VERTEX
  8
CAPA_1
 62
    39
  6
CONTINUOUS
 10
1.213871
 20
3.671729
  0
VERTEX
  8
CAPA_1
 62
    39
  6
CONTINUOUS
 10
1.289702
 20
3.629088
  0
VERTEX
  8
CAPA_1
 62
    39
  6
CONTINUOUS
 10
1.360092
 20
3.578612
  0
VERTEX
  8
CAPA_1
 62
    39
  6
CONTINUOUS
 10
1.424443
 20
3.520900
  0
VERTEX
  8
CAPA_1
 62
    39
  6
CONTINUOUS
 10
1.482155
 20
3.456549
  0
VERTEX
  8
CAPA_1
 62
    39
  6
CONTINUOUS
 10
1.532631
 20
3.386159
  0
VERTEX
  8
CAPA_1
 62
    39
  6
CONTINUOUS
 10
1.575272
 20
3.310328
  0
VERTEX
  8
CAPA_1
 62
    39
  6
CONTINUOUS
 10
1.609479
 20
3.229655
  0
VERTEX
  8
CAPA_1
 62
    39
  6
CONTINUOUS
 10
1.634654
 20
3.144738
  0
VERTEX
  8
CAPA_1
 62
    39
  6
CONTINUOUS
 10
1.650198
 20
3.056176
  0
VERTEX
  8
CAPA_1
 62
    39
  6
CONTINUOUS
 10
1.655512
 20
2.964567
  0
VERTEX
  8
CAPA_1
 62
    39
  6
CONTINUOUS
 10
1.655512
 20
2.964567
  0
VERTEX
  8
CAPA_1
 62
    39
  6
CONTINUOUS
 10
1.650198
 20
2.872958
  0
VERTEX
  8
CAPA_1
 62
    39
  6
CONTINUOUS
 10
1.634654
 20
2.784396
  0
VERTEX
  8
CAPA_1
 62
    39
  6
CONTINUOUS
 10
1.609479
 20
2.699479
  0
VERTEX
  8
CAPA_1
 62
    39
  6
CONTINUOUS
 10
1.575272
 20
2.618806
  0
VERTEX
  8
CAPA_1
 62
    39
  6
CONTINUOUS
 10
1.532631
 20
2.542975
  0
VERTEX
  8
CAPA_1
 62
    39
  6
CONTINUOUS
 10
1.482155
 20
2.472585
  0
VERTEX
  8
CAPA_1
 62
    39
  6
CONTINUOUS
 10
1.424443
 20
2.408234
  0
VERTEX
  8
CAPA_1
 62
    39
  6
CONTINUOUS
 10
1.360092
 20
2.350522
  0
VERTEX
  8
CAPA_1
 62
    39
  6
CONTINUOUS
 10
1.289702
 20
2.300046
  0
VERTEX
  8
CAPA_1
 62
    39
  6
CONTINUOUS
 10
1.213871
 20
2.257405
  0
VERTEX
  8
CAPA_1
 62
    39
  6
CONTINUOUS
 10
1.133198
 20
2.223198
  0
VERTEX
  8
CAPA_1
 62
    39
  6
CONTINUOUS
 10
1.048281
 20
2.198023
  0
VERTEX
  8
CAPA_1
 62
    39
  6
CONTINUOUS
 10
0.959719
 20
2.182480
  0
VERTEX
  8
CAPA_1
 62
    39
  6
CONTINUOUS
 10
0.868110
 20
2.177165
  0
VERTEX
  8
CAPA_1
 62
    39
  6
CONTINUOUS
 10
0.776501
 20
2.182480
  0
VERTEX
  8
CAPA_1
 62
    39
  6
CONTINUOUS
 10
0.687939
 20
2.198023
  0
VERTEX
  8
CAPA_1
 62
    39
  6
CONTINUOUS
 10
0.603022
 20
2.223198
  0
VERTEX
  8
CAPA_1
 62
    39
  6
CONTINUOUS
 10
0.522349
 20
2.257405
  0
VERTEX
  8
CAPA_1
 62
    39
  6
CONTINUOUS
 10
0.446518
 20
2.300046
  0
VERTEX
  8
CAPA_1
 62
    39
  6
CONTINUOUS
 10
0.376128
 20
2.350522
  0
VERTEX
  8
CAPA_1
 62
    39
  6
CONTINUOUS
 10
0.311778
 20
2.408234
  0
VERTEX
  8
CAPA_1
 62
    39
  6
CONTINUOUS
 10
0.254065
 20
2.472585
  0
VERTEX
  8
CAPA_1
 62
    39
  6
CONTINUOUS
 10
0.203589
 20
2.542975
  0
VERTEX
  8
CAPA_1
 62
    39
  6
CONTINUOUS
 10
0.160948
 20
2.618806
  0
VERTEX
  8
CAPA_1
 62
    39
  6
CONTINUOUS
 10
0.126741
 20
2.699479
  0
VERTEX
  8
CAPA_1
 62
    39
  6
CONTINUOUS
 10
0.101567
 20
2.784396
  0
VERTEX
  8
CAPA_1
 62
    39
  6
CONTINUOUS
 10
0.086023
 20
2.872958
  0
VERTEX
  8
CAPA_1
 62
    39
  6
CONTINUOUS
 10
0.080709
 20
2.964567
  0
VERTEX
  8
CAPA_1
 62
    39
  6
CONTINUOUS
 10
0.086023
 20
3.056176
  0
VERTEX
  8
CAPA_1
 62
    39
  6
CONTINUOUS
 10
0.101567
 20
3.144738
  0
VERTEX
  8
CAPA_1
 62
    39
  6
CONTINUOUS
 10
0.126741
 20
3.229655
  0
VERTEX
  8
CAPA_1
 62
    39
  6
CONTINUOUS
 10
0.160948
 20
3.310328
  0
VERTEX
  8
CAPA_1
 62
    39
  6
CONTINUOUS
 10
0.203589
 20
3.386159
  0
VERTEX
  8
CAPA_1
 62
    39
  6
CONTINUOUS
 10
0.254065
 20
3.456549
  0
VERTEX
  8
CAPA_1
 62
    39
  6
CONTINUOUS
 10
0.311778
 20
3.520900
  0
VERTEX
  8
CAPA_1
 62
    39
  6
CONTINUOUS
 10
0.376128
 20
3.578612
  0
VERTEX
  8
CAPA_1
 62
    39
  6
CONTINUOUS
 10
0.446518
 20
3.629088
  0
VERTEX
  8
CAPA_1
 62
    39
  6
CONTINUOUS
 10
0.522349
 20
3.671729
  0
VERTEX
  8
CAPA_1
 62
    39
  6
CONTINUOUS
 10
0.603022
 20
3.705936
  0
VERTEX
  8
CAPA_1
 62
    39
  6
CONTINUOUS
 10
0.687939
 20
3.731110
  0
VERTEX
  8
CAPA_1
 62
    39
  6
CONTINUOUS
 10
0.776501
 20
3.746654
  0
SEQEND
  8
0
  0
POLYLINE
  8
CAPA_1
 62
    39
  6
CONTINUOUS
 66
     1
 40
0.003000
 41
0.003000
 70
     1
  0
VERTEX
  8
CAPA_1
 62
    39
  6
CONTINUOUS
 10
0.868110
 20
3.476378
  0
VERTEX
  8
CAPA_1
 62
    39
  6
CONTINUOUS
 10
0.927645
 20
3.460213
  0
VERTEX
  8
CAPA_1
 62
    39
  6
CONTINUOUS
 10
0.970056
 20
3.417802
  0
VERTEX
  8
CAPA_1
 62
    39
  6
CONTINUOUS
 10
0.986220
 20
3.358268
  0
VERTEX
  8
CAPA_1
 62
    39
  6
CONTINUOUS
 10
0.970056
 20
3.298733
  0
VERTEX
  8
CAPA_1
 62
    39
  6
CONTINUOUS
 10
0.927645
 20
3.256322
  0
VERTEX
  8
CAPA_1
 62
    39
  6
CONTINUOUS
 10
0.868110
 20
3.240157
  0
VERTEX
  8
CAPA_1
 62
    39
  6
CONTINUOUS
 10
0.808576
 20
3.256322
  0
VERTEX
  8
CAPA_1
 62
    39
  6
CONTINUOUS
 10
0.766164
 20
3.298733
  0
VERTEX
  8
CAPA_1
 62
    39
  6
CONTINUOUS
 10
0.750000
 20
3.358268
  0
VERTEX
  8
CAPA_1
 62
    39
  6
CONTINUOUS
 10
0.766164
 20
3.417802
  0
VERTEX
  8
CAPA_1
 62
    39
  6
CONTINUOUS
 10
0.808576
 20
3.460213
  0
SEQEND
  8
0
  0
POLYLINE
  8
CAPA_1
 62
    39
  6
CONTINUOUS
 66
     1
 40
0.003000
 41
0.003000
 70
     1
  0
VERTEX
  8
CAPA_1
 62
    39
  6
CONTINUOUS
 10
0.868110
 20
3.023622
  0
VERTEX
  8
CAPA_1
 62
    39
  6
CONTINUOUS
 10
0.897878
 20
3.015540
  0
VERTEX
  8
CAPA_1
 62
    39
  6
CONTINUOUS
 10
0.919083
 20
2.994334
  0
VERTEX
  8
CAPA_1
 62
    39
  6
CONTINUOUS
 10
0.927165
 20
2.964567
  0
VERTEX
  8
CAPA_1
 62
    39
  6
CONTINUOUS
 10
0.919083
 20
2.934800
  0
VERTEX
  8
CAPA_1
 62
    39
  6
CONTINUOUS
 10
0.897878
 20
2.913594
  0
VERTEX
  8
CAPA_1
 62
    39
  6
CONTINUOUS
 10
0.868110
 20
2.905512
  0
VERTEX
  8
CAPA_1
 62
    39
  6
CONTINUOUS
 10
0.838343
 20
2.913594
  0
VERTEX
  8
CAPA_1
 62
    39
  6
CONTINUOUS
 10
0.817137
 20
2.934800
  0
VERTEX
  8
CAPA_1
 62
    39
  6
CONTINUOUS
 10
0.809055
 20
2.964567
  0
VERTEX
  8
CAPA_1
 62
    39
  6
CONTINUOUS
 10
0.817137
 20
2.994334
  0
VERTEX
  8
CAPA_1
 62
    39
  6
CONTINUOUS
 10
0.838343
 20
3.015540
  0
SEQEND
  8
0
  0
POLYLINE
  8
CAPA_1
 62
    39
  6
CONTINUOUS
 66
     1
 40
0.003000
 41
0.003000
 70
     1
  0
VERTEX
  8
CAPA_1
 62
    39
  6
CONTINUOUS
 10
2.836614
 20
3.751969
  0
VERTEX
  8
CAPA_1
 62
    39
  6
CONTINUOUS
 10
2.928223
 20
3.746654
  0
VERTEX
  8
CAPA_1
 62
    39
  6
CONTINUOUS
 10
3.016785
 20
3.731110
  0
VERTEX
  8
CAPA_1
 62
    39
  6
CONTINUOUS
 10
3.101702
 20
3.705936
  0
VERTEX
  8
CAPA_1
 62
    39
  6
CONTINUOUS
 10
3.182375
 20
3.671729
  0
VERTEX
  8
CAPA_1
 62
    39
  6
CONTINUOUS
 10
3.258206
 20
3.629088
  0
VERTEX
  8
CAPA_1
 62
    39
  6
CONTINUOUS
 10
3.328596
 20
3.578612
  0
VERTEX
  8
CAPA_1
 62
    39
  6
CONTINUOUS
 10
3.392947
 20
3.520900
  0
VERTEX
  8
CAPA_1
 62
    39
  6
CONTINUOUS
 10
3.450659
 20
3.456549
  0
VERTEX
  8
CAPA_1
 62
    39
  6
CONTINUOUS
 10
3.501135
 20
3.386159
  0
VERTEX
  8
CAPA_1
 62
    39
  6
CONTINUOUS
 10
3.543776
 20
3.310328
  0
VERTEX
  8
CAPA_1
 62
    39
  6
CONTINUOUS
 10
3.577983
 20
3.229655
  0
VERTEX
  8
CAPA_1
 62
    39
  6
CONTINUOUS
 10
3.603158
 20
3.144738
  0
VERTEX
  8
CAPA_1
 62
    39
  6
CONTINUOUS
 10
3.618701
 20
3.056176
  0
VERTEX
  8
CAPA_1
 62
    39
  6
CONTINUOUS
 10
3.624016
 20
2.964567
  0
VERTEX
  8
CAPA_1
 62
    39
  6
CONTINUOUS
 10
3.624016
 20
2.964567
  0
VERTEX
  8
CAPA_1
 62
    39
  6
CONTINUOUS
 10
3.618701
 20
2.872958
  0
VERTEX
  8
CAPA_1
 62
    39
  6
CONTINUOUS
 10
3.603158
 20
2.784396
  0
VERTEX
  8
CAPA_1
 62
    39
  6
CONTINUOUS
 10
3.577983
 20
2.699479
  0
VERTEX
  8
CAPA_1
 62
    39
  6
CONTINUOUS
 10
3.543776
 20
2.618806
  0
VERTEX
  8
CAPA_1
 62
    39
  6
CONTINUOUS
 10
3.501135
 20
2.542975
  0
VERTEX
  8
CAPA_1
 62
    39
  6
CONTINUOUS
 10
3.450659
 20
2.472585
  0
VERTEX
  8
CAPA_1
 62
    39
  6
CONTINUOUS
 10
3.392947
 20
2.408234
  0
VERTEX
  8
CAPA_1
 62
    39
  6
CONTINUOUS
 10
3.328596
 20
2.350522
  0
VERTEX
  8
CAPA_1
 62
    39
  6
CONTINUOUS
 10
3.258206
 20
2.300046
  0
VERTEX
  8
CAPA_1
 62
    39
  6
CONTINUOUS
 10
3.182375
 20
2.257405
  0
VERTEX
  8
CAPA_1
 62
    39
  6
CONTINUOUS
 10
3.101702
 20
2.223198
  0
VERTEX
  8
CAPA_1
 62
    39
  6
CONTINUOUS
 10
3.016785
 20
2.198023
  0
VERTEX
  8
CAPA_1
 62
    39
  6
CONTINUOUS
 10
2.928223
 20
2.182480
  0
VERTEX
  8
CAPA_1
 62
    39
  6
CONTINUOUS
 10
2.836614
 20
2.177165
  0
VERTEX
  8
CAPA_1
 62
    39
  6
CONTINUOUS
 10
2.745005
 20
2.182480
  0
VERTEX
  8
CAPA_1
 62
    39
  6
CONTINUOUS
 10
2.656443
 20
2.198023
  0
VERTEX
  8
CAPA_1
 62
    39
  6
CONTINUOUS
 10
2.571526
 20
2.223198
  0
VERTEX
  8
CAPA_1
 62
    39
  6
CONTINUOUS
 10
2.490853
 20
2.257405
  0
VERTEX
  8
CAPA_1
 62
    39
  6
CONTINUOUS
 10
2.415022
 20
2.300046
  0
VERTEX
  8
CAPA_1
 62
    39
  6
CONTINUOUS
 10
2.344632
 20
2.350522
  0
VERTEX
  8
CAPA_1
 62
    39
  6
CONTINUOUS
 10
2.280281
 20
2.408234
  0
VERTEX
  8
CAPA_1
 62
    39
  6
CONTINUOUS
 10
2.222569
 20
2.472585
  0
VERTEX
  8
CAPA_1
 62
    39
  6
CONTINUOUS
 10
2.172093
 20
2.542975
  0
VERTEX
  8
CAPA_1
 62
    39
  6
CONTINUOUS
 10
2.129452
 20
2.618806
  0
VERTEX
  8
CAPA_1
 62
    39
  6
CONTINUOUS
 10
2.095245
 20
2.699479
  0
VERTEX
  8
CAPA_1
 62
    39
  6
CONTINUOUS
 10
2.070071
 20
2.784396
  0
VERTEX
  8
CAPA_1
 62
    39
  6
CONTINUOUS
 10
2.054527
 20
2.872958
  0
VERTEX
  8
CAPA_1
 62
    39
  6
CONTINUOUS
 10
2.049213
 20
2.964567
  0
VERTEX
  8
CAPA_1
 62
    39
  6
CONTINUOUS
 10
2.054527
 20
3.056176
  0
VERTEX
  8
CAPA_1
 62
    39
  6
CONTINUOUS
 10
2.070071
 20
3.144738
  0
VERTEX
  8
CAPA_1
 62
    39
  6
CONTINUOUS
 10
2.095245
 20
3.229655
  0
VERTEX
  8
CAPA_1
 62
    39
  6
CONTINUOUS
 10
2.129452
 20
3.310328
  0
VERTEX
  8
CAPA_1
 62
    39
  6
CONTINUOUS
 10
2.172093
 20
3.386159
  0
VERTEX
  8
CAPA_1
 62
    39
  6
CONTINUOUS
 10
2.222569
 20
3.456549
  0
VERTEX
  8
CAPA_1
 62
    39
  6
CONTINUOUS
 10
2.280281
 20
3.520900
  0
VERTEX
  8
CAPA_1
 62
    39
  6
CONTINUOUS
 10
2.344632
 20
3.578612
  0
VERTEX
  8
CAPA_1
 62
    39
  6
CONTINUOUS
 10
2.415022
 20
3.629088
  0
VERTEX
  8
CAPA_1
 62
    39
  6
CONTINUOUS
 10
2.490853
 20
3.671729
  0
VERTEX
  8
CAPA_1
 62
    39
  6
CONTINUOUS
 10
2.571526
 20
3.705936
  0
VERTEX
  8
CAPA_1
 62
    39
  6
CONTINUOUS
 10
2.656443
 20
3.731110
  0
VERTEX
  8
CAPA_1
 62
    39
  6
CONTINUOUS
 10
2.745005
 20
3.746654
  0
SEQEND
  8
0
  0
POLYLINE
  8
CAPA_1
 62
    39
  6
CONTINUOUS
 66
     1
 40
0.003000
 41
0.003000
 70
     1
  0
VERTEX
  8
CAPA_1
 62
    39
  6
CONTINUOUS
 10
2.836614
 20
3.476378
  0
VERTEX
  8
CAPA_1
 62
    39
  6
CONTINUOUS
 10
2.896149
 20
3.460213
  0
VERTEX
  8
CAPA_1
 62
    39
  6
CONTINUOUS
 10
2.938560
 20
3.417802
  0
VERTEX
  8
CAPA_1
 62
    39
  6
CONTINUOUS
 10
2.954724
 20
3.358268
  0
VERTEX
  8
CAPA_1
 62
    39
  6
CONTINUOUS
 10
2.938560
 20
3.298733
  0
VERTEX
  8
CAPA_1
 62
    39
  6
CONTINUOUS
 10
2.896149
 20
3.256322
  0
VERTEX
  8
CAPA_1
 62
    39
  6
CONTINUOUS
 10
2.836614
 20
3.240157
  0
VERTEX
  8
CAPA_1
 62
    39
  6
CONTINUOUS
 10
2.777080
 20
3.256322
  0
VERTEX
  8
CAPA_1
 62
    39
  6
CONTINUOUS
 10
2.734668
 20
3.298733
  0
VERTEX
  8
CAPA_1
 62
    39
  6
CONTINUOUS
 10
2.718504
 20
3.358268
  0
VERTEX
  8
CAPA_1
 62
    39
  6
CONTINUOUS
 10
2.734668
 20
3.417802
  0
VERTEX
  8
CAPA_1
 62
    39
  6
CONTINUOUS
 10
2.777080
 20
3.460213
  0
SEQEND
  8
0
  0
POLYLINE
  8
CAPA_1
 62
    39
  6
CONTINUOUS
 66
     1
 40
0.003000
 41
0.003000
 70
     1
  0
VERTEX
  8
CAPA_1
 62
    39
  6
CONTINUOUS
 10
2.836614
 20
3.023622
  0
VERTEX
  8
CAPA_1
 62
    39
  6
CONTINUOUS
 10
2.866381
 20
3.015540
  0
VERTEX
  8
CAPA_1
 62
    39
  6
CONTINUOUS
 10
2.887587
 20
2.994334
  0
VERTEX
  8
CAPA_1
 62
    39
  6
CONTINUOUS
 10
2.895669
 20
2.964567
  0
VERTEX
  8
CAPA_1
 62
    39
  6
CONTINUOUS
 10
2.887587
 20
2.934800
  0
VERTEX
  8
CAPA_1
 62
    39
  6
CONTINUOUS
 10
2.866381
 20
2.913594
  0
VERTEX
  8
CAPA_1
 62
    39
  6
CONTINUOUS
 10
2.836614
 20
2.905512
  0
VERTEX
  8
CAPA_1
 62
    39
  6
CONTINUOUS
 10
2.806847
 20
2.913594
  0
VERTEX
  8
CAPA_1
 62
    39
  6
CONTINUOUS
 10
2.785641
 20
2.934800
  0
VERTEX
  8
CAPA_1
 62
    39
  6
CONTINUOUS
 10
2.777559
 20
2.964567
  0
VERTEX
  8
CAPA_1
 62
    39
  6
CONTINUOUS
 10
2.785641
 20
2.994334
  0
VERTEX
  8
CAPA_1
 62
    39
  6
CONTINUOUS
 10
2.806847
 20
3.015540
  0
SEQEND
  8
0
  0
POLYLINE
  8
CAPA_1
 62
    39
  6
CONTINUOUS
 66
     1
 40
0.003000
 41
0.003000
 70
     1
  0
VERTEX
  8
CAPA_1
 62
    39
  6
CONTINUOUS
 10
4.805118
 20
3.751969
  0
VERTEX
  8
CAPA_1
 62
    39
  6
CONTINUOUS
 10
4.896727
 20
3.746654
  0
VERTEX
  8
CAPA_1
 62
    39
  6
CONTINUOUS
 10
4.985289
 20
3.731110
  0
VERTEX
  8
CAPA_1
 62
    39
  6
CONTINUOUS
 10
5.070206
 20
3.705936
  0
VERTEX
  8
CAPA_1
 62
    39
  6
CONTINUOUS
 10
5.150879
 20
3.671729
  0
VERTEX
  8
CAPA_1
 62
    39
  6
CONTINUOUS
 10
5.226710
 20
3.629088
  0
VERTEX
  8
CAPA_1
 62
    39
  6
CONTINUOUS
 10
5.297100
 20
3.578612
  0
VERTEX
  8
CAPA_1
 62
    39
  6
CONTINUOUS
 10
5.361451
 20
3.520900
  0
VERTEX
  8
CAPA_1
 62
    39
  6
CONTINUOUS
 10
5.419163
 20
3.456549
  0
VERTEX
  8
CAPA_1
 62
    39
  6
CONTINUOUS
 10
5.469639
 20
3.386159
  0
VERTEX
  8
CAPA_1
 62
    39
  6
CONTINUOUS
 10
5.512280
 20
3.310328
  0
VERTEX
  8
CAPA_1
 62
    39
  6
CONTINUOUS
 10
5.546487
 20
3.229655
  0
VERTEX
  8
CAPA_1
 62
    39
  6
CONTINUOUS
 10
5.571662
 20
3.144738
  0
VERTEX
  8
CAPA_1
 62
    39
  6
CONTINUOUS
 10
5.587205
 20
3.056176
  0
VERTEX
  8
CAPA_1
 62
    39
  6
CONTINUOUS
 10
5.592520
 20
2.964567
  0
VERTEX
  8
CAPA_1
 62
    39
  6
CONTINUOUS
 10
5.592520
 20
2.964567
  0
VERTEX
  8
CAPA_1
 62
    39
  6
CONTINUOUS
 10
5.587205
 20
2.872958
  0
VERTEX
  8
CAPA_1
 62
    39
  6
CONTINUOUS
 10
5.571662
 20
2.784396
  0
VERTEX
  8
CAPA_1
 62
    39
  6
CONTINUOUS
 10
5.546487
 20
2.699479
  0
VERTEX
  8
CAPA_1
 62
    39
  6
CONTINUOUS
 10
5.512280
 20
2.618806
  0
VERTEX
  8
CAPA_1
 62
    39
  6
CONTINUOUS
 10
5.469639
 20
2.542975
  0
VERTEX
  8
CAPA_1
 62
    39
  6
CONTINUOUS
 10
5.419163
 20
2.472585
  0
VERTEX
  8
CAPA_1
 62
    39
  6
CONTINUOUS
 10
5.361451
 20
2.408234
  0
VERTEX
  8
CAPA_1
 62
    39
  6
CONTINUOUS
 10
5.297100
 20
2.350522
  0
VERTEX
  8
CAPA_1
 62
    39
  6
CONTINUOUS
 10
5.226710
 20
2.300046
  0
VERTEX
  8
CAPA_1
 62
    39
  6
CONTINUOUS
 10
5.150879
 20
2.257405
  0
VERTEX
  8
CAPA_1
 62
    39
  6
CONTINUOUS
 10
5.070206
 20
2.223198
  0
VERTEX
  8
CAPA_1
 62
    39
  6
CONTINUOUS
 10
4.985289
 20
2.198023
  0
VERTEX
  8
CAPA_1
 62
    39
  6
CONTINUOUS
 10
4.896727
 20
2.182480
  0
VERTEX
  8
CAPA_1
 62
    39
  6
CONTINUOUS
 10
4.805118
 20
2.177165
  0
VERTEX
  8
CAPA_1
 62
    39
  6
CONTINUOUS
 10
4.713509
 20
2.182480
  0
VERTEX
  8
CAPA_1
 62
    39
  6
CONTINUOUS
 10
4.624947
 20
2.198023
  0
VERTEX
  8
CAPA_1
 62
    39
  6
CONTINUOUS
 10
4.540030
 20
2.223198
  0
VERTEX
  8
CAPA_1
 62
    39
  6
CONTINUOUS
 10
4.459357
 20
2.257405
  0
VERTEX
  8
CAPA_1
 62
    39
  6
CONTINUOUS
 10
4.383526
 20
2.300046
  0
VERTEX
  8
CAPA_1
 62
    39
  6
CONTINUOUS
 10
4.313136
 20
2.350522
  0
VERTEX
  8
CAPA_1
 62
    39
  6
CONTINUOUS
 10
4.248785
 20
2.408234
  0
VERTEX
  8
CAPA_1
 62
    39
  6
CONTINUOUS
 10
4.191073
 20
2.472585
  0
VERTEX
  8
CAPA_1
 62
    39
  6
CONTINUOUS
 10
4.140597
 20
2.542975
  0
VERTEX
  8
CAPA_1
 62
    39
  6
CONTINUOUS
 10
4.097956
 20
2.618806
  0
VERTEX
  8
CAPA_1
 62
    39
  6
CONTINUOUS
 10
4.063749
 20
2.699479
  0
VERTEX
  8
CAPA_1
 62
    39
  6
CONTINUOUS
 10
4.038575
 20
2.784396
  0
VERTEX
  8
CAPA_1
 62
    39
  6
CONTINUOUS
 10
4.023031
 20
2.872958
  0
VERTEX
  8
CAPA_1
 62
    39
  6
CONTINUOUS
 10
4.017717
 20
2.964567
  0
VERTEX
  8
CAPA_1
 62
    39
  6
CONTINUOUS
 10
4.023031
 20
3.056176
  0
VERTEX
  8
CAPA_1
 62
    39
  6
CONTINUOUS
 10
4.038575
 20
3.144738
  0
VERTEX
  8
CAPA_1
 62
    39
  6
CONTINUOUS
 10
4.063749
 20
3.229655
  0
VERTEX
  8
CAPA_1
 62
    39
  6
CONTINUOUS
 10
4.097956
 20
3.310328
  0
VERTEX
  8
CAPA_1
 62
    39
  6
CONTINUOUS
 10
4.140597
 20
3.386159
  0
VERTEX
  8
CAPA_1
 62
    39
  6
CONTINUOUS
 10
4.191073
 20
3.456549
  0
VERTEX
  8
CAPA_1
 62
    39
  6
CONTINUOUS
 10
4.248785
 20
3.520900
  0
VERTEX
  8
CAPA_1
 62
    39
  6
CONTINUOUS
 10
4.313136
 20
3.578612
  0
VERTEX
  8
CAPA_1
 62
    39
  6
CONTINUOUS
 10
4.383526
 20
3.629088
  0
VERTEX
  8
CAPA_1
 62
    39
  6
CONTINUOUS
 10
4.459357
 20
3.671729
  0
VERTEX
  8
CAPA_1
 62
    39
  6
CONTINUOUS
 10
4.540030
 20
3.705936
  0
VERTEX
  8
CAPA_1
 62
    39
  6
CONTINUOUS
 10
4.624947
 20
3.731110
  0
VERTEX
  8
CAPA_1
 62
    39
  6
CONTINUOUS
 10
4.713509
 20
3.746654
  0
SEQEND
  8
0
  0
POLYLINE
  8
CAPA_1
 62
    39
  6
CONTINUOUS
 66
     1
 40
0.003000
 41
0.003000
 70
     1
  0
VERTEX
  8
CAPA_1
 62
    39
  6
CONTINUOUS
 10
4.805118
 20
3.476378
  0
VERTEX
  8
CAPA_1
 62
    39
  6
CONTINUOUS
 10
4.864653
 20
3.460213
  0
VERTEX
  8
CAPA_1
 62
    39
  6
CONTINUOUS
 10
4.907064
 20
3.417802
  0
VERTEX
  8
CAPA_1
 62
    39
  6
CONTINUOUS
 10
4.923228
 20
3.358268
  0
VERTEX
  8
CAPA_1
 62
    39
  6
CONTINUOUS
 10
4.907064
 20
3.298733
  0
VERTEX
  8
CAPA_1
 62
    39
  6
CONTINUOUS
 10
4.864653
 20
3.256322
  0
VERTEX
  8
CAPA_1
 62
    39
  6
CONTINUOUS
 10
4.805118
 20
3.240157
  0
VERTEX
  8
CAPA_1
 62
    39
  6
CONTINUOUS
 10
4.745584
 20
3.256322
  0
VERTEX
  8
CAPA_1
 62
    39
  6
CONTINUOUS
 10
4.703172
 20
3.298733
  0
VERTEX
  8
CAPA_1
 62
    39
  6
CONTINUOUS
 10
4.687008
 20
3.358268
  0
VERTEX
  8
CAPA_1
 62
    39
  6
CONTINUOUS
 10
4.703172
 20
3.417802
  0
VERTEX
  8
CAPA_1
 62
    39
  6
CONTINUOUS
 10
4.745584
 20
3.460213
  0
SEQEND
  8
0
  0
POLYLINE
  8
CAPA_1
 62
    39
  6
CONTINUOUS
 66
     1
 40
0.003000
 41
0.003000
 70
     1
  0
VERTEX
  8
CAPA_1
 62
    39
  6
CONTINUOUS
 10
4.805118
 20
3.023622
  0
VERTEX
  8
CAPA_1
 62
    39
  6
CONTINUOUS
 10
4.834885
 20
3.015540
  0
VERTEX
  8
CAPA_1
 62
    39
  6
CONTINUOUS
 10
4.856091
 20
2.994334
  0
VERTEX
  8
CAPA_1
 62
    39
  6
CONTINUOUS
 10
4.864173
 20
2.964567
  0
VERTEX
  8
CAPA_1
 62
    39
  6
CONTINUOUS
 10
4.856091
 20
2.934800
  0
VERTEX
  8
CAPA_1
 62
    39
  6
CONTINUOUS
 10
4.834885
 20
2.913594
  0
VERTEX
  8
CAPA_1
 62
    39
  6
CONTINUOUS
 10
4.805118
 20
2.905512
  0
VERTEX
  8
CAPA_1
 62
    39
  6
CONTINUOUS
 10
4.775351
 20
2.913594
  0
VERTEX
  8
CAPA_1
 62
    39
  6
CONTINUOUS
 10
4.754145
 20
2.934800
  0
VERTEX
  8
CAPA_1
 62
    39
  6
CONTINUOUS
 10
4.746063
 20
2.964567
  0
VERTEX
  8
CAPA_1
 62
    39
  6
CONTINUOUS
 10
4.754145
 20
2.994334
  0
VERTEX
  8
CAPA_1
 62
    39
  6
CONTINUOUS
 10
4.775351
 20
3.015540
  0
SEQEND
  8
0
  0
POLYLINE
  8
CAPA_1
 62
    39
  6
CONTINUOUS
 66
     1
 40
0.003000
 41
0.003000
 70
     1
  0
VERTEX
  8
CAPA_1
 62
    39
  6
CONTINUOUS
 10
6.773622
 20
3.751969
  0
VERTEX
  8
CAPA_1
 62
    39
  6
CONTINUOUS
 10
6.865231
 20
3.746654
  0
VERTEX
  8
CAPA_1
 62
    39
  6
CONTINUOUS
 10
6.953793
 20
3.731110
  0
VERTEX
  8
CAPA_1
 62
    39
  6
CONTINUOUS
 10
7.038710
 20
3.705936
  0
VERTEX
  8
CAPA_1
 62
    39
  6
CONTINUOUS
 10
7.119383
 20
3.671729
  0
VERTEX
  8
CAPA_1
 62
    39
  6
CONTINUOUS
 10
7.195214
 20
3.629088
  0
VERTEX
  8
CAPA_1
 62
    39
  6
CONTINUOUS
 10
7.265604
 20
3.578612
  0
VERTEX
  8
CAPA_1
 62
    39
  6
CONTINUOUS
 10
7.329955
 20
3.520900
  0
VERTEX
  8
CAPA_1
 62
    39
  6
CONTINUOUS
 10
7.387667
 20
3.456549
  0
VERTEX
  8
CAPA_1
 62
    39
  6
CONTINUOUS
 10
7.438143
 20
3.386159
  0
VERTEX
  8
CAPA_1
 62
    39
  6
CONTINUOUS
 10
7.480784
 20
3.310328
  0
VERTEX
  8
CAPA_1
 62
    39
  6
CONTINUOUS
 10
7.514991
 20
3.229655
  0
VERTEX
  8
CAPA_1
 62
    39
  6
CONTINUOUS
 10
7.540166
 20
3.144738
  0
VERTEX
  8
CAPA_1
 62
    39
  6
CONTINUOUS
 10
7.555709
 20
3.056176
  0
VERTEX
  8
CAPA_1
 62
    39
  6
CONTINUOUS
 10
7.561024
 20
2.964567
  0
VERTEX
  8
CAPA_1
 62
    39
  6
CONTINUOUS
 10
7.561024
 20
2.964567
  0
VERTEX
  8
CAPA_1
 62
    39
  6
CONTINUOUS
 10
7.555709
 20
2.872958
  0
VERTEX
  8
CAPA_1
 62
    39
  6
CONTINUOUS
 10
7.540166
 20
2.784396
  0
VERTEX
  8
CAPA_1
 62
    39
  6
CONTINUOUS
 10
7.514991
 20
2.699479
  0
VERTEX
  8
CAPA_1
 62
    39
  6
CONTINUOUS
 10
7.480784
 20
2.618806
  0
VERTEX
  8
CAPA_1
 62
    39
  6
CONTINUOUS
 10
7.438143
 20
2.542975
  0
VERTEX
  8
CAPA_1
 62
    39
  6
CONTINUOUS
 10
7.387667
 20
2.472585
  0
VERTEX
  8
CAPA_1
 62
    39
  6
CONTINUOUS
 10
7.329955
 20
2.408234
  0
VERTEX
  8
CAPA_1
 62
    39
  6
CONTINUOUS
 10
7.265604
 20
2.350522
  0
VERTEX
  8
CAPA_1
 62
    39
  6
CONTINUOUS
 10
7.195214
 20
2.300046
  0
VERTEX
  8
CAPA_1
 62
    39
  6
CONTINUOUS
 10
7.119383
 20
2.257405
  0
VERTEX
  8
CAPA_1
 62
    39
  6
CONTINUOUS
 10
7.038710
 20
2.223198
  0
VERTEX
  8
CAPA_1
 62
    39
  6
CONTINUOUS
 10
6.953793
 20
2.198023
  0
VERTEX
  8
CAPA_1
 62
    39
  6
CONTINUOUS
 10
6.865231
 20
2.182480
  0
VERTEX
  8
CAPA_1
 62
    39
  6
CONTINUOUS
 10
6.773622
 20
2.177165
  0
VERTEX
  8
CAPA_1
 62
    39
  6
CONTINUOUS
 10
6.682013
 20
2.182480
  0
VERTEX
  8
CAPA_1
 62
    39
  6
CONTINUOUS
 10
6.593451
 20
2.198023
  0
VERTEX
  8
CAPA_1
 62
    39
  6
CONTINUOUS
 10
6.508534
 20
2.223198
  0
VERTEX
  8
CAPA_1
 62
    39
  6
CONTINUOUS
 10
6.427861
 20
2.257405
  0
VERTEX
  8
CAPA_1
 62
    39
  6
CONTINUOUS
 10
6.352030
 20
2.300046
  0
VERTEX
  8
CAPA_1
 62
    39
  6
CONTINUOUS
 10
6.281640
 20
2.350522
  0
VERTEX
  8
CAPA_1
 62
    39
  6
CONTINUOUS
 10
6.217289
 20
2.408234
  0
VERTEX
  8
CAPA_1
 62
    39
  6
CONTINUOUS
 10
6.159577
 20
2.472585
  0
VERTEX
  8
CAPA_1
 62
    39
  6
CONTINUOUS
 10
6.109101
 20
2.542975
  0
VERTEX
  8
CAPA_1
 62
    39
  6
CONTINUOUS
 10
6.066460
 20
2.618806
  0
VERTEX
  8
CAPA_1
 62
    39
  6
CONTINUOUS
 10
6.032253
 20
2.699479
  0
VERTEX
  8
CAPA_1
 62
    39
  6
CONTINUOUS
 10
6.007078
 20
2.784396
  0
VERTEX
  8
CAPA_1
 62
    39
  6
CONTINUOUS
 10
5.991535
 20
2.872958
  0
VERTEX
  8
CAPA_1
 62
    39
  6
CONTINUOUS
 10
5.986220
 20
2.964567
  0
VERTEX
  8
CAPA_1
 62
    39
  6
CONTINUOUS
 10
5.991535
 20
3.056176
  0
VERTEX
  8
CAPA_1
 62
    39
  6
CONTINUOUS
 10
6.007078
 20
3.144738
  0
VERTEX
  8
CAPA_1
 62
    39
  6
CONTINUOUS
 10
6.032253
 20
3.229655
  0
VERTEX
  8
CAPA_1
 62
    39
  6
CONTINUOUS
 10
6.066460
 20
3.310328
  0
VERTEX
  8
CAPA_1
 62
    39
  6
CONTINUOUS
 10
6.109101
 20
3.386159
  0
VERTEX
  8
CAPA_1
 62
    39
  6
CONTINUOUS
 10
6.159577
 20
3.456549
  0
VERTEX
  8
CAPA_1
 62
    39
  6
CONTINUOUS
 10
6.217289
 20
3.520900
  0
VERTEX
  8
CAPA_1
 62
    39
  6
CONTINUOUS
 10
6.281640
 20
3.578612
  0
VERTEX
  8
CAPA_1
 62
    39
  6
CONTINUOUS
 10
6.352030
 20
3.629088
  0
VERTEX
  8
CAPA_1
 62
    39
  6
CONTINUOUS
 10
6.427861
 20
3.671729
  0
VERTEX
  8
CAPA_1
 62
    39
  6
CONTINUOUS
 10
6.508534
 20
3.705936
  0
VERTEX
  8
CAPA_1
 62
    39
  6
CONTINUOUS
 10
6.593451
 20
3.731110
  0
VERTEX
  8
CAPA_1
 62
    39
  6
CONTINUOUS
 10
6.682013
 20
3.746654
  0
SEQEND
  8
0
  0
POLYLINE
  8
CAPA_1
 62
    39
  6
CONTINUOUS
 66
     1
 40
0.003000
 41
0.003000
 70
     1
  0
VERTEX
  8
CAPA_1
 62
    39
  6
CONTINUOUS
 10
6.773622
 20
3.476378
  0
VERTEX
  8
CAPA_1
 62
    39
  6
CONTINUOUS
 10
6.833157
 20
3.460213
  0
VERTEX
  8
CAPA_1
 62
    39
  6
CONTINUOUS
 10
6.875568
 20
3.417802
  0
VERTEX
  8
CAPA_1
 62
    39
  6
CONTINUOUS
 10
6.891732
 20
3.358268
  0
VERTEX
  8
CAPA_1
 62
    39
  6
CONTINUOUS
 10
6.875568
 20
3.298733
  0
VERTEX
  8
CAPA_1
 62
    39
  6
CONTINUOUS
 10
6.833157
 20
3.256322
  0
VERTEX
  8
CAPA_1
 62
    39
  6
CONTINUOUS
 10
6.773622
 20
3.240157
  0
VERTEX
  8
CAPA_1
 62
    39
  6
CONTINUOUS
 10
6.714087
 20
3.256322
  0
VERTEX
  8
CAPA_1
 62
    39
  6
CONTINUOUS
 10
6.671676
 20
3.298733
  0
VERTEX
  8
CAPA_1
 62
    39
  6
CONTINUOUS
 10
6.655512
 20
3.358268
  0
VERTEX
  8
CAPA_1
 62
    39
  6
CONTINUOUS
 10
6.671676
 20
3.417802
  0
VERTEX
  8
CAPA_1
 62
    39
  6
CONTINUOUS
 10
6.714087
 20
3.460213
  0
SEQEND
  8
0
  0
POLYLINE
  8
CAPA_1
 62
    39
  6
CONTINUOUS
 66
     1
 40
0.003000
 41
0.003000
 70
     1
  0
VERTEX
  8
CAPA_1
 62
    39
  6
CONTINUOUS
 10
6.773622
 20
3.023622
  0
VERTEX
  8
CAPA_1
 62
    39
  6
CONTINUOUS
 10
6.803389
 20
3.015540
  0
VERTEX
  8
CAPA_1
 62
    39
  6
CONTINUOUS
 10
6.824595
 20
2.994334
  0
VERTEX
  8
CAPA_1
 62
    39
  6
CONTINUOUS
 10
6.832677
 20
2.964567
  0
VERTEX
  8
CAPA_1
 62
    39
  6
CONTINUOUS
 10
6.824595
 20
2.934800
  0
VERTEX
  8
CAPA_1
 62
    39
  6
CONTINUOUS
 10
6.803389
 20
2.913594
  0
VERTEX
  8
CAPA_1
 62
    39
  6
CONTINUOUS
 10
6.773622
 20
2.905512
  0
VERTEX
  8
CAPA_1
 62
    39
  6
CONTINUOUS
 10
6.743855
 20
2.913594
  0
VERTEX
  8
CAPA_1
 62
    39
  6
CONTINUOUS
 10
6.722649
 20
2.934800
  0
VERTEX
  8
CAPA_1
 62
    39
  6
CONTINUOUS
 10
6.714567
 20
2.964567
  0
VERTEX
  8
CAPA_1
 62
    39
  6
CONTINUOUS
 10
6.722649
 20
2.994334
  0
VERTEX
  8
CAPA_1
 62
    39
  6
CONTINUOUS
 10
6.743855
 20
3.015540
  0
SEQEND
  8
0
  0
POLYLINE
  8
CAPA_1
 62
    39
  6
CONTINUOUS
 66
     1
 40
0.003000
 41
0.003000
 70
     1
  0
VERTEX
  8
CAPA_1
 62
    39
  6
CONTINUOUS
 10
8.742126
 20
3.751969
  0
VERTEX
  8
CAPA_1
 62
    39
  6
CONTINUOUS
 10
8.833735
 20
3.746654
  0
VERTEX
  8
CAPA_1
 62
    39
  6
CONTINUOUS
 10
8.922297
 20
3.731110
  0
VERTEX
  8
CAPA_1
 62
    39
  6
CONTINUOUS
 10
9.007214
 20
3.705936
  0
VERTEX
  8
CAPA_1
 62
    39
  6
CONTINUOUS
 10
9.087887
 20
3.671729
  0
VERTEX
  8
CAPA_1
 62
    39
  6
CONTINUOUS
 10
9.163718
 20
3.629088
  0
VERTEX
  8
CAPA_1
 62
    39
  6
CONTINUOUS
 10
9.234108
 20
3.578612
  0
VERTEX
  8
CAPA_1
 62
    39
  6
CONTINUOUS
 10
9.298459
 20
3.520900
  0
VERTEX
  8
CAPA_1
 62
    39
  6
CONTINUOUS
 10
9.356171
 20
3.456549
  0
VERTEX
  8
CAPA_1
 62
    39
  6
CONTINUOUS
 10
9.406647
 20
3.386159
  0
VERTEX
  8
CAPA_1
 62
    39
  6
CONTINUOUS
 10
9.449288
 20
3.310328
  0
VERTEX
  8
CAPA_1
 62
    39
  6
CONTINUOUS
 10
9.483495
 20
3.229655
  0
VERTEX
  8
CAPA_1
 62
    39
  6
CONTINUOUS
 10
9.508670
 20
3.144738
  0
VERTEX
  8
CAPA_1
 62
    39
  6
CONTINUOUS
 10
9.524213
 20
3.056176
  0
VERTEX
  8
CAPA_1
 62
    39
  6
CONTINUOUS
 10
9.529528
 20
2.964567
  0
VERTEX
  8
CAPA_1
 62
    39
  6
CONTINUOUS
 10
9.529528
 20
2.964567
  0
VERTEX
  8
CAPA_1
 62
    39
  6
CONTINUOUS
 10
9.524213
 20
2.872958
  0
VERTEX
  8
CAPA_1
 62
    39
  6
CONTINUOUS
 10
9.508670
 20
2.784396
  0
VERTEX
  8
CAPA_1
 62
    39
  6
CONTINUOUS
 10
9.483495
 20
2.699479
  0
VERTEX
  8
CAPA_1
 62
    39
  6
CONTINUOUS
 10
9.449288
 20
2.618806
  0
VERTEX
  8
CAPA_1
 62
    39
  6
CONTINUOUS
 10
9.406647
 20
2.542975
  0
VERTEX
  8
CAPA_1
 62
    39
  6
CONTINUOUS
 10
9.356171
 20
2.472585
  0
VERTEX
  8
CAPA_1
 62
    39
  6
CONTINUOUS
 10
9.298459
 20
2.408234
  0
VERTEX
  8
CAPA_1
 62
    39
  6
CONTINUOUS
 10
9.234108
 20
2.350522
  0
VERTEX
  8
CAPA_1
 62
    39
  6
CONTINUOUS
 10
9.163718
 20
2.300046
  0
VERTEX
  8
CAPA_1
 62
    39
  6
CONTINUOUS
 10
9.087887
 20
2.257405
  0
VERTEX
  8
CAPA_1
 62
    39
  6
CONTINUOUS
 10
9.007214
 20
2.223198
  0
VERTEX
  8
CAPA_1
 62
    39
  6
CONTINUOUS
 10
8.922297
 20
2.198023
  0
VERTEX
  8
CAPA_1
 62
    39
  6
CONTINUOUS
 10
8.833735
 20
2.182480
  0
VERTEX
  8
CAPA_1
 62
    39
  6
CONTINUOUS
 10
8.742126
 20
2.177165
  0
VERTEX
  8
CAPA_1
 62
    39
  6
CONTINUOUS
 10
8.650517
 20
2.182480
  0
VERTEX
  8
CAPA_1
 62
    39
  6
CONTINUOUS
 10
8.561955
 20
2.198023
  0
VERTEX
  8
CAPA_1
 62
    39
  6
CONTINUOUS
 10
8.477038
 20
2.223198
  0
VERTEX
  8
CAPA_1
 62
    39
  6
CONTINUOUS
 10
8.396365
 20
2.257405
  0
VERTEX
  8
CAPA_1
 62
    39
  6
CONTINUOUS
 10
8.320534
 20
2.300046
  0
VERTEX
  8
CAPA_1
 62
    39
  6
CONTINUOUS
 10
8.250144
 20
2.350522
  0
VERTEX
  8
CAPA_1
 62
    39
  6
CONTINUOUS
 10
8.185793
 20
2.408234
  0
VERTEX
  8
CAPA_1
 62
    39
  6
CONTINUOUS
 10
8.128081
 20
2.472585
  0
VERTEX
  8
CAPA_1
 62
    39
  6
CONTINUOUS
 10
8.077605
 20
2.542975
  0
VERTEX
  8
CAPA_1
 62
    39
  6
CONTINUOUS
 10
8.034964
 20
2.618806
  0
VERTEX
  8
CAPA_1
 62
    39
  6
CONTINUOUS
 10
8.000757
 20
2.699479
  0
VERTEX
  8
CAPA_1
 62
    39
  6
CONTINUOUS
 10
7.975582
 20
2.784396
  0
VERTEX
  8
CAPA_1
 62
    39
  6
CONTINUOUS
 10
7.960039
 20
2.872958
  0
VERTEX
  8
CAPA_1
 62
    39
  6
CONTINUOUS
 10
7.954724
 20
2.964567
  0
VERTEX
  8
CAPA_1
 62
    39
  6
CONTINUOUS
 10
7.960039
 20
3.056176
  0
VERTEX
  8
CAPA_1
 62
    39
  6
CONTINUOUS
 10
7.975582
 20
3.144738
  0
VERTEX
  8
CAPA_1
 62
    39
  6
CONTINUOUS
 10
8.000757
 20
3.229655
  0
VERTEX
  8
CAPA_1
 62
    39
  6
CONTINUOUS
 10
8.034964
 20
3.310328
  0
VERTEX
  8
CAPA_1
 62
    39
  6
CONTINUOUS
 10
8.077605
 20
3.386159
  0
VERTEX
  8
CAPA_1
 62
    39
  6
CONTINUOUS
 10
8.128081
 20
3.456549
  0
VERTEX
  8
CAPA_1
 62
    39
  6
CONTINUOUS
 10
8.185793
 20
3.520900
  0
VERTEX
  8
CAPA_1
 62
    39
  6
CONTINUOUS
 10
8.250144
 20
3.578612
  0
VERTEX
  8
CAPA_1
 62
    39
  6
CONTINUOUS
 10
8.320534
 20
3.629088
  0
VERTEX
  8
CAPA_1
 62
    39
  6
CONTINUOUS
 10
8.396365
 20
3.671729
  0
VERTEX
  8
CAPA_1
 62
    39
  6
CONTINUOUS
 10
8.477038
 20
3.705936
  0
VERTEX
  8
CAPA_1
 62
    39
  6
CONTINUOUS
 10
8.561955
 20
3.731110
  0
VERTEX
  8
CAPA_1
 62
    39
  6
CONTINUOUS
 10
8.650517
 20
3.746654
  0
SEQEND
  8
0
  0
POLYLINE
  8
CAPA_1
 62
    39
  6
CONTINUOUS
 66
     1
 40
0.003000
 41
0.003000
 70
     1
  0
VERTEX
  8
CAPA_1
 62
    39
  6
CONTINUOUS
 10
8.742126
 20
3.476378
  0
VERTEX
  8
CAPA_1
 62
    39
  6
CONTINUOUS
 10
8.801661
 20
3.460213
  0
VERTEX
  8
CAPA_1
 62
    39
  6
CONTINUOUS
 10
8.844072
 20
3.417802
  0
VERTEX
  8
CAPA_1
 62
    39
  6
CONTINUOUS
 10
8.860236
 20
3.358268
  0
VERTEX
  8
CAPA_1
 62
    39
  6
CONTINUOUS
 10
8.844072
 20
3.298733
  0
VERTEX
  8
CAPA_1
 62
    39
  6
CONTINUOUS
 10
8.801661
 20
3.256322
  0
VERTEX
  8
CAPA_1
 62
    39
  6
CONTINUOUS
 10
8.742126
 20
3.240157
  0
VERTEX
  8
CAPA_1
 62
    39
  6
CONTINUOUS
 10
8.682591
 20
3.256322
  0
VERTEX
  8
CAPA_1
 62
    39
  6
CONTINUOUS
 10
8.640180
 20
3.298733
  0
VERTEX
  8
CAPA_1
 62
    39
  6
CONTINUOUS
 10
8.624016
 20
3.358268
  0
VERTEX
  8
CAPA_1
 62
    39
  6
CONTINUOUS
 10
8.640180
 20
3.417802
  0
VERTEX
  8
CAPA_1
 62
    39
  6
CONTINUOUS
 10
8.682591
 20
3.460213
  0
SEQEND
  8
0
  0
POLYLINE
  8
CAPA_1
 62
    39
  6
CONTINUOUS
 66
     1
 40
0.003000
 41
0.003000
 70
     1
  0
VERTEX
  8
CAPA_1
 62
    39
  6
CONTINUOUS
 10
8.742126
 20
3.023622
  0
VERTEX
  8
CAPA_1
 62
    39
  6
CONTINUOUS
 10
8.771893
 20
3.015540
  0
VERTEX
  8
CAPA_1
 62
    39
  6
CONTINUOUS
 10
8.793099
 20
2.994334
  0
VERTEX
  8
CAPA_1
 62
    39
  6
CONTINUOUS
 10
8.801181
 20
2.964567
  0
VERTEX
  8
CAPA_1
 62
    39
  6
CONTINUOUS
 10
8.793099
 20
2.934800
  0
VERTEX
  8
CAPA_1
 62
    39
  6
CONTINUOUS
 10
8.771893
 20
2.913594
  0
VERTEX
  8
CAPA_1
 62
    39
  6
CONTINUOUS
 10
8.742126
 20
2.905512
  0
VERTEX
  8
CAPA_1
 62
    39
  6
CONTINUOUS
 10
8.712359
 20
2.913594
  0
VERTEX
  8
CAPA_1
 62
    39
  6
CONTINUOUS
 10
8.691153
 20
2.934800
  0
VERTEX
  8
CAPA_1
 62
    39
  6
CONTINUOUS
 10
8.683071
 20
2.964567
  0
VERTEX
  8
CAPA_1
 62
    39
  6
CONTINUOUS
 10
8.691153
 20
2.994334
  0
VERTEX
  8
CAPA_1
 62
    39
  6
CONTINUOUS
 10
8.712359
 20
3.015540
  0
SEQEND
  8
0
  0
POLYLINE
  8
CAPA_1
 62
    39
  6
CONTINUOUS
 66
     1
 40
0.003000
 41
0.003000
 70
     1
  0
VERTEX
  8
CAPA_1
 62
    39
  6
CONTINUOUS
 10
-1.100394
 20
5.720472
  0
VERTEX
  8
CAPA_1
 62
    39
  6
CONTINUOUS
 10
-1.008785
 20
5.715158
  0
VERTEX
  8
CAPA_1
 62
    39
  6
CONTINUOUS
 10
-0.920223
 20
5.699614
  0
VERTEX
  8
CAPA_1
 62
    39
  6
CONTINUOUS
 10
-0.835306
 20
5.674440
  0
VERTEX
  8
CAPA_1
 62
    39
  6
CONTINUOUS
 10
-0.754633
 20
5.640233
  0
VERTEX
  8
CAPA_1
 62
    39
  6
CONTINUOUS
 10
-0.678802
 20
5.597592
  0
VERTEX
  8
CAPA_1
 62
    39
  6
CONTINUOUS
 10
-0.608412
 20
5.547116
  0
VERTEX
  8
CAPA_1
 62
    39
  6
CONTINUOUS
 10
-0.544061
 20
5.489404
  0
VERTEX
  8
CAPA_1
 62
    39
  6
CONTINUOUS
 10
-0.486348
 20
5.425053
  0
VERTEX
  8
CAPA_1
 62
    39
  6
CONTINUOUS
 10
-0.435873
 20
5.354663
  0
VERTEX
  8
CAPA_1
 62
    39
  6
CONTINUOUS
 10
-0.393232
 20
5.278832
  0
VERTEX
  8
CAPA_1
 62
    39
  6
CONTINUOUS
 10
-0.359025
 20
5.198159
  0
VERTEX
  8
CAPA_1
 62
    39
  6
CONTINUOUS
 10
-0.333850
 20
5.113242
  0
VERTEX
  8
CAPA_1
 62
    39
  6
CONTINUOUS
 10
-0.318306
 20
5.024680
  0
VERTEX
  8
CAPA_1
 62
    39
  6
CONTINUOUS
 10
-0.312992
 20
4.933071
  0
VERTEX
  8
CAPA_1
 62
    39
  6
CONTINUOUS
 10
-0.312992
 20
4.933071
  0
VERTEX
  8
CAPA_1
 62
    39
  6
CONTINUOUS
 10
-0.318306
 20
4.841462
  0
VERTEX
  8
CAPA_1
 62
    39
  6
CONTINUOUS
 10
-0.333850
 20
4.752900
  0
VERTEX
  8
CAPA_1
 62
    39
  6
CONTINUOUS
 10
-0.359025
 20
4.667983
  0
VERTEX
  8
CAPA_1
 62
    39
  6
CONTINUOUS
 10
-0.393232
 20
4.587310
  0
VERTEX
  8
CAPA_1
 62
    39
  6
CONTINUOUS
 10
-0.435873
 20
4.511479
  0
VERTEX
  8
CAPA_1
 62
    39
  6
CONTINUOUS
 10
-0.486348
 20
4.441089
  0
VERTEX
  8
CAPA_1
 62
    39
  6
CONTINUOUS
 10
-0.544061
 20
4.376738
  0
VERTEX
  8
CAPA_1
 62
    39
  6
CONTINUOUS
 10
-0.608412
 20
4.319026
  0
VERTEX
  8
CAPA_1
 62
    39
  6
CONTINUOUS
 10
-0.678802
 20
4.268550
  0
VERTEX
  8
CAPA_1
 62
    39
  6
CONTINUOUS
 10
-0.754633
 20
4.225909
  0
VERTEX
  8
CAPA_1
 62
    39
  6
CONTINUOUS
 10
-0.835306
 20
4.191702
  0
VERTEX
  8
CAPA_1
 62
    39
  6
CONTINUOUS
 10
-0.920223
 20
4.166527
  0
VERTEX
  8
CAPA_1
 62
    39
  6
CONTINUOUS
 10
-1.008785
 20
4.150984
  0
VERTEX
  8
CAPA_1
 62
    39
  6
CONTINUOUS
 10
-1.100394
 20
4.145669
  0
VERTEX
  8
CAPA_1
 62
    39
  6
CONTINUOUS
 10
-1.100394
 20
4.145669
  0
VERTEX
  8
CAPA_1
 62
    39
  6
CONTINUOUS
 10
-1.192002
 20
4.150984
  0
VERTEX
  8
CAPA_1
 62
    39
  6
CONTINUOUS
 10
-1.280565
 20
4.166527
  0
VERTEX
  8
CAPA_1
 62
    39
  6
CONTINUOUS
 10
-1.365482
 20
4.191702
  0
VERTEX
  8
CAPA_1
 62
    39
  6
CONTINUOUS
 10
-1.446155
 20
4.225909
  0
VERTEX
  8
CAPA_1
 62
    39
  6
CONTINUOUS
 10
-1.521986
 20
4.268550
  0
VERTEX
  8
CAPA_1
 62
    39
  6
CONTINUOUS
 10
-1.592376
 20
4.319026
  0
VERTEX
  8
CAPA_1
 62
    39
  6
CONTINUOUS
 10
-1.656726
 20
4.376738
  0
VERTEX
  8
CAPA_1
 62
    39
  6
CONTINUOUS
 10
-1.714439
 20
4.441089
  0
VERTEX
  8
CAPA_1
 62
    39
  6
CONTINUOUS
 10
-1.764915
 20
4.511479
  0
VERTEX
  8
CAPA_1
 62
    39
  6
CONTINUOUS
 10
-1.807556
 20
4.587310
  0
VERTEX
  8
CAPA_1
 62
    39
  6
CONTINUOUS
 10
-1.841763
 20
4.667983
  0
VERTEX
  8
CAPA_1
 62
    39
  6
CONTINUOUS
 10
-1.866937
 20
4.752900
  0
VERTEX
  8
CAPA_1
 62
    39
  6
CONTINUOUS
 10
-1.882481
 20
4.841462
  0
VERTEX
  8
CAPA_1
 62
    39
  6
CONTINUOUS
 10
-1.887795
 20
4.933071
  0
VERTEX
  8
CAPA_1
 62
    39
  6
CONTINUOUS
 10
-1.882481
 20
5.024680
  0
VERTEX
  8
CAPA_1
 62
    39
  6
CONTINUOUS
 10
-1.866937
 20
5.113242
  0
VERTEX
  8
CAPA_1
 62
    39
  6
CONTINUOUS
 10
-1.841763
 20
5.198159
  0
VERTEX
  8
CAPA_1
 62
    39
  6
CONTINUOUS
 10
-1.807556
 20
5.278832
  0
VERTEX
  8
CAPA_1
 62
    39
  6
CONTINUOUS
 10
-1.764915
 20
5.354663
  0
VERTEX
  8
CAPA_1
 62
    39
  6
CONTINUOUS
 10
-1.714439
 20
5.425053
  0
VERTEX
  8
CAPA_1
 62
    39
  6
CONTINUOUS
 10
-1.656726
 20
5.489404
  0
VERTEX
  8
CAPA_1
 62
    39
  6
CONTINUOUS
 10
-1.592376
 20
5.547116
  0
VERTEX
  8
CAPA_1
 62
    39
  6
CONTINUOUS
 10
-1.521986
 20
5.597592
  0
VERTEX
  8
CAPA_1
 62
    39
  6
CONTINUOUS
 10
-1.446155
 20
5.640233
  0
VERTEX
  8
CAPA_1
 62
    39
  6
CONTINUOUS
 10
-1.365482
 20
5.674440
  0
VERTEX
  8
CAPA_1
 62
    39
  6
CONTINUOUS
 10
-1.280565
 20
5.699614
  0
VERTEX
  8
CAPA_1
 62
    39
  6
CONTINUOUS
 10
-1.192002
 20
5.715158
  0
VERTEX
  8
CAPA_1
 62
    39
  6
CONTINUOUS
 10
-1.100394
 20
5.720472
  0
SEQEND
  8
0
  0
POLYLINE
  8
CAPA_1
 62
    39
  6
CONTINUOUS
 66
     1
 40
0.003000
 41
0.003000
 70
     1
  0
VERTEX
  8
CAPA_1
 62
    39
  6
CONTINUOUS
 10
-1.100394
 20
5.444882
  0
VERTEX
  8
CAPA_1
 62
    39
  6
CONTINUOUS
 10
-1.040859
 20
5.428717
  0
VERTEX
  8
CAPA_1
 62
    39
  6
CONTINUOUS
 10
-0.998448
 20
5.386306
  0
VERTEX
  8
CAPA_1
 62
    39
  6
CONTINUOUS
 10
-0.982283
 20
5.326772
  0
VERTEX
  8
CAPA_1
 62
    39
  6
CONTINUOUS
 10
-0.998448
 20
5.267237
  0
VERTEX
  8
CAPA_1
 62
    39
  6
CONTINUOUS
 10
-1.040859
 20
5.224826
  0
VERTEX
  8
CAPA_1
 62
    39
  6
CONTINUOUS
 10
-1.100394
 20
5.208661
  0
VERTEX
  8
CAPA_1
 62
    39
  6
CONTINUOUS
 10
-1.159928
 20
5.224826
  0
VERTEX
  8
CAPA_1
 62
    39
  6
CONTINUOUS
 10
-1.202339
 20
5.267237
  0
VERTEX
  8
CAPA_1
 62
    39
  6
CONTINUOUS
 10
-1.218504
 20
5.326772
  0
VERTEX
  8
CAPA_1
 62
    39
  6
CONTINUOUS
 10
-1.202339
 20
5.386306
  0
VERTEX
  8
CAPA_1
 62
    39
  6
CONTINUOUS
 10
-1.159928
 20
5.428717
  0
SEQEND
  8
0
  0
POLYLINE
  8
CAPA_1
 62
    39
  6
CONTINUOUS
 66
     1
 40
0.003000
 41
0.003000
 70
     1
  0
VERTEX
  8
CAPA_1
 62
    39
  6
CONTINUOUS
 10
-1.100394
 20
4.992126
  0
VERTEX
  8
CAPA_1
 62
    39
  6
CONTINUOUS
 10
-1.070626
 20
4.984044
  0
VERTEX
  8
CAPA_1
 62
    39
  6
CONTINUOUS
 10
-1.049421
 20
4.962838
  0
VERTEX
  8
CAPA_1
 62
    39
  6
CONTINUOUS
 10
-1.041339
 20
4.933071
  0
VERTEX
  8
CAPA_1
 62
    39
  6
CONTINUOUS
 10
-1.049421
 20
4.903304
  0
VERTEX
  8
CAPA_1
 62
    39
  6
CONTINUOUS
 10
-1.070626
 20
4.882098
  0
VERTEX
  8
CAPA_1
 62
    39
  6
CONTINUOUS
 10
-1.100394
 20
4.874016
  0
VERTEX
  8
CAPA_1
 62
    39
  6
CONTINUOUS
 10
-1.130161
 20
4.882098
  0
VERTEX
  8
CAPA_1
 62
    39
  6
CONTINUOUS
 10
-1.151367
 20
4.903304
  0
VERTEX
  8
CAPA_1
 62
    39
  6
CONTINUOUS
 10
-1.159449
 20
4.933071
  0
VERTEX
  8
CAPA_1
 62
    39
  6
CONTINUOUS
 10
-1.151367
 20
4.962838
  0
VERTEX
  8
CAPA_1
 62
    39
  6
CONTINUOUS
 10
-1.130161
 20
4.984044
  0
SEQEND
  8
0
  0
POLYLINE
  8
CAPA_1
 62
    39
  6
CONTINUOUS
 66
     1
 40
0.003000
 41
0.003000
 70
     1
  0
VERTEX
  8
CAPA_1
 62
    39
  6
CONTINUOUS
 10
-1.100394
 20
7.688976
  0
VERTEX
  8
CAPA_1
 62
    39
  6
CONTINUOUS
 10
-1.008785
 20
7.683662
  0
VERTEX
  8
CAPA_1
 62
    39
  6
CONTINUOUS
 10
-0.920223
 20
7.668118
  0
VERTEX
  8
CAPA_1
 62
    39
  6
CONTINUOUS
 10
-0.835306
 20
7.642944
  0
VERTEX
  8
CAPA_1
 62
    39
  6
CONTINUOUS
 10
-0.754633
 20
7.608737
  0
VERTEX
  8
CAPA_1
 62
    39
  6
CONTINUOUS
 10
-0.678802
 20
7.566096
  0
VERTEX
  8
CAPA_1
 62
    39
  6
CONTINUOUS
 10
-0.608412
 20
7.515620
  0
VERTEX
  8
CAPA_1
 62
    39
  6
CONTINUOUS
 10
-0.544061
 20
7.457907
  0
VERTEX
  8
CAPA_1
 62
    39
  6
CONTINUOUS
 10
-0.486348
 20
7.393557
  0
VERTEX
  8
CAPA_1
 62
    39
  6
CONTINUOUS
 10
-0.435873
 20
7.323167
  0
VERTEX
  8
CAPA_1
 62
    39
  6
CONTINUOUS
 10
-0.393232
 20
7.247336
  0
VERTEX
  8
CAPA_1
 62
    39
  6
CONTINUOUS
 10
-0.359025
 20
7.166663
  0
VERTEX
  8
CAPA_1
 62
    39
  6
CONTINUOUS
 10
-0.333850
 20
7.081746
  0
VERTEX
  8
CAPA_1
 62
    39
  6
CONTINUOUS
 10
-0.318306
 20
6.993184
  0
VERTEX
  8
CAPA_1
 62
    39
  6
CONTINUOUS
 10
-0.312992
 20
6.901575
  0
VERTEX
  8
CAPA_1
 62
    39
  6
CONTINUOUS
 10
-0.318306
 20
6.809966
  0
VERTEX
  8
CAPA_1
 62
    39
  6
CONTINUOUS
 10
-0.333850
 20
6.721404
  0
VERTEX
  8
CAPA_1
 62
    39
  6
CONTINUOUS
 10
-0.359025
 20
6.636487
  0
VERTEX
  8
CAPA_1
 62
    39
  6
CONTINUOUS
 10
-0.393232
 20
6.555814
  0
VERTEX
  8
CAPA_1
 62
    39
  6
CONTINUOUS
 10
-0.435873
 20
6.479983
  0
VERTEX
  8
CAPA_1
 62
    39
  6
CONTINUOUS
 10
-0.486348
 20
6.409593
  0
VERTEX
  8
CAPA_1
 62
    39
  6
CONTINUOUS
 10
-0.544061
 20
6.345242
  0
VERTEX
  8
CAPA_1
 62
    39
  6
CONTINUOUS
 10
-0.608412
 20
6.287530
  0
VERTEX
  8
CAPA_1
 62
    39
  6
CONTINUOUS
 10
-0.678802
 20
6.237054
  0
VERTEX
  8
CAPA_1
 62
    39
  6
CONTINUOUS
 10
-0.754633
 20
6.194413
  0
VERTEX
  8
CAPA_1
 62
    39
  6
CONTINUOUS
 10
-0.835306
 20
6.160206
  0
VERTEX
  8
CAPA_1
 62
    39
  6
CONTINUOUS
 10
-0.920223
 20
6.135031
  0
VERTEX
  8
CAPA_1
 62
    39
  6
CONTINUOUS
 10
-1.008785
 20
6.119487
  0
VERTEX
  8
CAPA_1
 62
    39
  6
CONTINUOUS
 10
-1.100394
 20
6.114173
  0
VERTEX
  8
CAPA_1
 62
    39
  6
CONTINUOUS
 10
-1.100394
 20
6.114173
  0
VERTEX
  8
CAPA_1
 62
    39
  6
CONTINUOUS
 10
-1.192002
 20
6.119487
  0
VERTEX
  8
CAPA_1
 62
    39
  6
CONTINUOUS
 10
-1.280565
 20
6.135031
  0
VERTEX
  8
CAPA_1
 62
    39
  6
CONTINUOUS
 10
-1.365482
 20
6.160206
  0
VERTEX
  8
CAPA_1
 62
    39
  6
CONTINUOUS
 10
-1.446155
 20
6.194413
  0
VERTEX
  8
CAPA_1
 62
    39
  6
CONTINUOUS
 10
-1.521986
 20
6.237054
  0
VERTEX
  8
CAPA_1
 62
    39
  6
CONTINUOUS
 10
-1.592376
 20
6.287530
  0
VERTEX
  8
CAPA_1
 62
    39
  6
CONTINUOUS
 10
-1.656726
 20
6.345242
  0
VERTEX
  8
CAPA_1
 62
    39
  6
CONTINUOUS
 10
-1.714439
 20
6.409593
  0
VERTEX
  8
CAPA_1
 62
    39
  6
CONTINUOUS
 10
-1.764915
 20
6.479983
  0
VERTEX
  8
CAPA_1
 62
    39
  6
CONTINUOUS
 10
-1.807556
 20
6.555814
  0
VERTEX
  8
CAPA_1
 62
    39
  6
CONTINUOUS
 10
-1.841763
 20
6.636487
  0
VERTEX
  8
CAPA_1
 62
    39
  6
CONTINUOUS
 10
-1.866937
 20
6.721404
  0
VERTEX
  8
CAPA_1
 62
    39
  6
CONTINUOUS
 10
-1.882481
 20
6.809966
  0
VERTEX
  8
CAPA_1
 62
    39
  6
CONTINUOUS
 10
-1.887795
 20
6.901575
  0
VERTEX
  8
CAPA_1
 62
    39
  6
CONTINUOUS
 10
-1.887795
 20
6.901575
  0
VERTEX
  8
CAPA_1
 62
    39
  6
CONTINUOUS
 10
-1.882481
 20
6.993184
  0
VERTEX
  8
CAPA_1
 62
    39
  6
CONTINUOUS
 10
-1.866937
 20
7.081746
  0
VERTEX
  8
CAPA_1
 62
    39
  6
CONTINUOUS
 10
-1.841763
 20
7.166663
  0
VERTEX
  8
CAPA_1
 62
    39
  6
CONTINUOUS
 10
-1.807556
 20
7.247336
  0
VERTEX
  8
CAPA_1
 62
    39
  6
CONTINUOUS
 10
-1.764915
 20
7.323167
  0
VERTEX
  8
CAPA_1
 62
    39
  6
CONTINUOUS
 10
-1.714439
 20
7.393557
  0
VERTEX
  8
CAPA_1
 62
    39
  6
CONTINUOUS
 10
-1.656726
 20
7.457907
  0
VERTEX
  8
CAPA_1
 62
    39
  6
CONTINUOUS
 10
-1.592376
 20
7.515620
  0
VERTEX
  8
CAPA_1
 62
    39
  6
CONTINUOUS
 10
-1.521986
 20
7.566096
  0
VERTEX
  8
CAPA_1
 62
    39
  6
CONTINUOUS
 10
-1.446155
 20
7.608737
  0
VERTEX
  8
CAPA_1
 62
    39
  6
CONTINUOUS
 10
-1.365482
 20
7.642944
  0
VERTEX
  8
CAPA_1
 62
    39
  6
CONTINUOUS
 10
-1.280565
 20
7.668118
  0
VERTEX
  8
CAPA_1
 62
    39
  6
CONTINUOUS
 10
-1.192002
 20
7.683662
  0
VERTEX
  8
CAPA_1
 62
    39
  6
CONTINUOUS
 10
-1.100394
 20
7.688976
  0
SEQEND
  8
0
  0
POLYLINE
  8
CAPA_1
 62
    39
  6
CONTINUOUS
 66
     1
 40
0.003000
 41
0.003000
 70
     1
  0
VERTEX
  8
CAPA_1
 62
    39
  6
CONTINUOUS
 10
-1.100394
 20
7.413386
  0
VERTEX
  8
CAPA_1
 62
    39
  6
CONTINUOUS
 10
-1.040859
 20
7.397221
  0
VERTEX
  8
CAPA_1
 62
    39
  6
CONTINUOUS
 10
-0.998448
 20
7.354810
  0
VERTEX
  8
CAPA_1
 62
    39
  6
CONTINUOUS
 10
-0.982283
 20
7.295276
  0
VERTEX
  8
CAPA_1
 62
    39
  6
CONTINUOUS
 10
-0.998448
 20
7.235741
  0
VERTEX
  8
CAPA_1
 62
    39
  6
CONTINUOUS
 10
-1.040859
 20
7.193330
  0
VERTEX
  8
CAPA_1
 62
    39
  6
CONTINUOUS
 10
-1.100394
 20
7.177165
  0
VERTEX
  8
CAPA_1
 62
    39
  6
CONTINUOUS
 10
-1.159928
 20
7.193330
  0
VERTEX
  8
CAPA_1
 62
    39
  6
CONTINUOUS
 10
-1.202339
 20
7.235741
  0
VERTEX
  8
CAPA_1
 62
    39
  6
CONTINUOUS
 10
-1.218504
 20
7.295276
  0
VERTEX
  8
CAPA_1
 62
    39
  6
CONTINUOUS
 10
-1.202339
 20
7.354810
  0
VERTEX
  8
CAPA_1
 62
    39
  6
CONTINUOUS
 10
-1.159928
 20
7.397221
  0
SEQEND
  8
0
  0
POLYLINE
  8
CAPA_1
 62
    39
  6
CONTINUOUS
 66
     1
 40
0.003000
 41
0.003000
 70
     1
  0
VERTEX
  8
CAPA_1
 62
    39
  6
CONTINUOUS
 10
-1.100394
 20
6.960630
  0
VERTEX
  8
CAPA_1
 62
    39
  6
CONTINUOUS
 10
-1.070626
 20
6.952548
  0
VERTEX
  8
CAPA_1
 62
    39
  6
CONTINUOUS
 10
-1.049421
 20
6.931342
  0
VERTEX
  8
CAPA_1
 62
    39
  6
CONTINUOUS
 10
-1.041339
 20
6.901575
  0
VERTEX
  8
CAPA_1
 62
    39
  6
CONTINUOUS
 10
-1.049421
 20
6.871808
  0
VERTEX
  8
CAPA_1
 62
    39
  6
CONTINUOUS
 10
-1.070626
 20
6.850602
  0
VERTEX
  8
CAPA_1
 62
    39
  6
CONTINUOUS
 10
-1.100394
 20
6.842520
  0
VERTEX
  8
CAPA_1
 62
    39
  6
CONTINUOUS
 10
-1.130161
 20
6.850602
  0
VERTEX
  8
CAPA_1
 62
    39
  6
CONTINUOUS
 10
-1.151367
 20
6.871808
  0
VERTEX
  8
CAPA_1
 62
    39
  6
CONTINUOUS
 10
-1.159449
 20
6.901575
  0
VERTEX
  8
CAPA_1
 62
    39
  6
CONTINUOUS
 10
-1.151367
 20
6.931342
  0
VERTEX
  8
CAPA_1
 62
    39
  6
CONTINUOUS
 10
-1.130161
 20
6.952548
  0
SEQEND
  8
0
  0
POLYLINE
  8
CAPA_1
 62
    39
  6
CONTINUOUS
 66
     1
 40
0.003000
 41
0.003000
 70
     1
  0
VERTEX
  8
CAPA_1
 62
    39
  6
CONTINUOUS
 10
0.868110
 20
5.720472
  0
VERTEX
  8
CAPA_1
 62
    39
  6
CONTINUOUS
 10
0.959719
 20
5.715158
  0
VERTEX
  8
CAPA_1
 62
    39
  6
CONTINUOUS
 10
1.048281
 20
5.699614
  0
VERTEX
  8
CAPA_1
 62
    39
  6
CONTINUOUS
 10
1.133198
 20
5.674440
  0
VERTEX
  8
CAPA_1
 62
    39
  6
CONTINUOUS
 10
1.213871
 20
5.640233
  0
VERTEX
  8
CAPA_1
 62
    39
  6
CONTINUOUS
 10
1.289702
 20
5.597592
  0
VERTEX
  8
CAPA_1
 62
    39
  6
CONTINUOUS
 10
1.360092
 20
5.547116
  0
VERTEX
  8
CAPA_1
 62
    39
  6
CONTINUOUS
 10
1.424443
 20
5.489404
  0
VERTEX
  8
CAPA_1
 62
    39
  6
CONTINUOUS
 10
1.482155
 20
5.425053
  0
VERTEX
  8
CAPA_1
 62
    39
  6
CONTINUOUS
 10
1.532631
 20
5.354663
  0
VERTEX
  8
CAPA_1
 62
    39
  6
CONTINUOUS
 10
1.575272
 20
5.278832
  0
VERTEX
  8
CAPA_1
 62
    39
  6
CONTINUOUS
 10
1.609479
 20
5.198159
  0
VERTEX
  8
CAPA_1
 62
    39
  6
CONTINUOUS
 10
1.634654
 20
5.113242
  0
VERTEX
  8
CAPA_1
 62
    39
  6
CONTINUOUS
 10
1.650198
 20
5.024680
  0
VERTEX
  8
CAPA_1
 62
    39
  6
CONTINUOUS
 10
1.655512
 20
4.933071
  0
VERTEX
  8
CAPA_1
 62
    39
  6
CONTINUOUS
 10
1.655512
 20
4.933071
  0
VERTEX
  8
CAPA_1
 62
    39
  6
CONTINUOUS
 10
1.650198
 20
4.841462
  0
VERTEX
  8
CAPA_1
 62
    39
  6
CONTINUOUS
 10
1.634654
 20
4.752900
  0
VERTEX
  8
CAPA_1
 62
    39
  6
CONTINUOUS
 10
1.609479
 20
4.667983
  0
VERTEX
  8
CAPA_1
 62
    39
  6
CONTINUOUS
 10
1.575272
 20
4.587310
  0
VERTEX
  8
CAPA_1
 62
    39
  6
CONTINUOUS
 10
1.532631
 20
4.511479
  0
VERTEX
  8
CAPA_1
 62
    39
  6
CONTINUOUS
 10
1.482155
 20
4.441089
  0
VERTEX
  8
CAPA_1
 62
    39
  6
CONTINUOUS
 10
1.424443
 20
4.376738
  0
VERTEX
  8
CAPA_1
 62
    39
  6
CONTINUOUS
 10
1.360092
 20
4.319026
  0
VERTEX
  8
CAPA_1
 62
    39
  6
CONTINUOUS
 10
1.289702
 20
4.268550
  0
VERTEX
  8
CAPA_1
 62
    39
  6
CONTINUOUS
 10
1.213871
 20
4.225909
  0
VERTEX
  8
CAPA_1
 62
    39
  6
CONTINUOUS
 10
1.133198
 20
4.191702
  0
VERTEX
  8
CAPA_1
 62
    39
  6
CONTINUOUS
 10
1.048281
 20
4.166527
  0
VERTEX
  8
CAPA_1
 62
    39
  6
CONTINUOUS
 10
0.959719
 20
4.150984
  0
VERTEX
  8
CAPA_1
 62
    39
  6
CONTINUOUS
 10
0.868110
 20
4.145669
  0
VERTEX
  8
CAPA_1
 62
    39
  6
CONTINUOUS
 10
0.776501
 20
4.150984
  0
VERTEX
  8
CAPA_1
 62
    39
  6
CONTINUOUS
 10
0.687939
 20
4.166527
  0
VERTEX
  8
CAPA_1
 62
    39
  6
CONTINUOUS
 10
0.603022
 20
4.191702
  0
VERTEX
  8
CAPA_1
 62
    39
  6
CONTINUOUS
 10
0.522349
 20
4.225909
  0
VERTEX
  8
CAPA_1
 62
    39
  6
CONTINUOUS
 10
0.446518
 20
4.268550
  0
VERTEX
  8
CAPA_1
 62
    39
  6
CONTINUOUS
 10
0.376128
 20
4.319026
  0
VERTEX
  8
CAPA_1
 62
    39
  6
CONTINUOUS
 10
0.311778
 20
4.376738
  0
VERTEX
  8
CAPA_1
 62
    39
  6
CONTINUOUS
 10
0.254065
 20
4.441089
  0
VERTEX
  8
CAPA_1
 62
    39
  6
CONTINUOUS
 10
0.203589
 20
4.511479
  0
VERTEX
  8
CAPA_1
 62
    39
  6
CONTINUOUS
 10
0.160948
 20
4.587310
  0
VERTEX
  8
CAPA_1
 62
    39
  6
CONTINUOUS
 10
0.126741
 20
4.667983
  0
VERTEX
  8
CAPA_1
 62
    39
  6
CONTINUOUS
 10
0.101567
 20
4.752900
  0
VERTEX
  8
CAPA_1
 62
    39
  6
CONTINUOUS
 10
0.086023
 20
4.841462
  0
VERTEX
  8
CAPA_1
 62
    39
  6
CONTINUOUS
 10
0.080709
 20
4.933071
  0
VERTEX
  8
CAPA_1
 62
    39
  6
CONTINUOUS
 10
0.086023
 20
5.024680
  0
VERTEX
  8
CAPA_1
 62
    39
  6
CONTINUOUS
 10
0.101567
 20
5.113242
  0
VERTEX
  8
CAPA_1
 62
    39
  6
CONTINUOUS
 10
0.126741
 20
5.198159
  0
VERTEX
  8
CAPA_1
 62
    39
  6
CONTINUOUS
 10
0.160948
 20
5.278832
  0
VERTEX
  8
CAPA_1
 62
    39
  6
CONTINUOUS
 10
0.203589
 20
5.354663
  0
VERTEX
  8
CAPA_1
 62
    39
  6
CONTINUOUS
 10
0.254065
 20
5.425053
  0
VERTEX
  8
CAPA_1
 62
    39
  6
CONTINUOUS
 10
0.311778
 20
5.489404
  0
VERTEX
  8
CAPA_1
 62
    39
  6
CONTINUOUS
 10
0.376128
 20
5.547116
  0
VERTEX
  8
CAPA_1
 62
    39
  6
CONTINUOUS
 10
0.446518
 20
5.597592
  0
VERTEX
  8
CAPA_1
 62
    39
  6
CONTINUOUS
 10
0.522349
 20
5.640233
  0
VERTEX
  8
CAPA_1
 62
    39
  6
CONTINUOUS
 10
0.603022
 20
5.674440
  0
VERTEX
  8
CAPA_1
 62
    39
  6
CONTINUOUS
 10
0.687939
 20
5.699614
  0
VERTEX
  8
CAPA_1
 62
    39
  6
CONTINUOUS
 10
0.776501
 20
5.715158
  0
SEQEND
  8
0
  0
POLYLINE
  8
CAPA_1
 62
    39
  6
CONTINUOUS
 66
     1
 40
0.003000
 41
0.003000
 70
     1
  0
VERTEX
  8
CAPA_1
 62
    39
  6
CONTINUOUS
 10
0.868110
 20
5.444882
  0
VERTEX
  8
CAPA_1
 62
    39
  6
CONTINUOUS
 10
0.927645
 20
5.428717
  0
VERTEX
  8
CAPA_1
 62
    39
  6
CONTINUOUS
 10
0.970056
 20
5.386306
  0
VERTEX
  8
CAPA_1
 62
    39
  6
CONTINUOUS
 10
0.986220
 20
5.326772
  0
VERTEX
  8
CAPA_1
 62
    39
  6
CONTINUOUS
 10
0.970056
 20
5.267237
  0
VERTEX
  8
CAPA_1
 62
    39
  6
CONTINUOUS
 10
0.927645
 20
5.224826
  0
VERTEX
  8
CAPA_1
 62
    39
  6
CONTINUOUS
 10
0.868110
 20
5.208661
  0
VERTEX
  8
CAPA_1
 62
    39
  6
CONTINUOUS
 10
0.808576
 20
5.224826
  0
VERTEX
  8
CAPA_1
 62
    39
  6
CONTINUOUS
 10
0.766164
 20
5.267237
  0
VERTEX
  8
CAPA_1
 62
    39
  6
CONTINUOUS
 10
0.750000
 20
5.326772
  0
VERTEX
  8
CAPA_1
 62
    39
  6
CONTINUOUS
 10
0.766164
 20
5.386306
  0
VERTEX
  8
CAPA_1
 62
    39
  6
CONTINUOUS
 10
0.808576
 20
5.428717
  0
SEQEND
  8
0
  0
POLYLINE
  8
CAPA_1
 62
    39
  6
CONTINUOUS
 66
     1
 40
0.003000
 41
0.003000
 70
     1
  0
VERTEX
  8
CAPA_1
 62
    39
  6
CONTINUOUS
 10
0.868110
 20
4.992126
  0
VERTEX
  8
CAPA_1
 62
    39
  6
CONTINUOUS
 10
0.897878
 20
4.984044
  0
VERTEX
  8
CAPA_1
 62
    39
  6
CONTINUOUS
 10
0.919083
 20
4.962838
  0
VERTEX
  8
CAPA_1
 62
    39
  6
CONTINUOUS
 10
0.927165
 20
4.933071
  0
VERTEX
  8
CAPA_1
 62
    39
  6
CONTINUOUS
 10
0.919083
 20
4.903304
  0
VERTEX
  8
CAPA_1
 62
    39
  6
CONTINUOUS
 10
0.897878
 20
4.882098
  0
VERTEX
  8
CAPA_1
 62
    39
  6
CONTINUOUS
 10
0.868110
 20
4.874016
  0
VERTEX
  8
CAPA_1
 62
    39
  6
CONTINUOUS
 10
0.838343
 20
4.882098
  0
VERTEX
  8
CAPA_1
 62
    39
  6
CONTINUOUS
 10
0.817137
 20
4.903304
  0
VERTEX
  8
CAPA_1
 62
    39
  6
CONTINUOUS
 10
0.809055
 20
4.933071
  0
VERTEX
  8
CAPA_1
 62
    39
  6
CONTINUOUS
 10
0.817137
 20
4.962838
  0
VERTEX
  8
CAPA_1
 62
    39
  6
CONTINUOUS
 10
0.838343
 20
4.984044
  0
SEQEND
  8
0
  0
POLYLINE
  8
CAPA_1
 62
    39
  6
CONTINUOUS
 66
     1
 40
0.003000
 41
0.003000
 70
     1
  0
VERTEX
  8
CAPA_1
 62
    39
  6
CONTINUOUS
 10
0.868110
 20
7.688976
  0
VERTEX
  8
CAPA_1
 62
    39
  6
CONTINUOUS
 10
0.959719
 20
7.683662
  0
VERTEX
  8
CAPA_1
 62
    39
  6
CONTINUOUS
 10
1.048281
 20
7.668118
  0
VERTEX
  8
CAPA_1
 62
    39
  6
CONTINUOUS
 10
1.133198
 20
7.642944
  0
VERTEX
  8
CAPA_1
 62
    39
  6
CONTINUOUS
 10
1.213871
 20
7.608737
  0
VERTEX
  8
CAPA_1
 62
    39
  6
CONTINUOUS
 10
1.289702
 20
7.566096
  0
VERTEX
  8
CAPA_1
 62
    39
  6
CONTINUOUS
 10
1.360092
 20
7.515620
  0
VERTEX
  8
CAPA_1
 62
    39
  6
CONTINUOUS
 10
1.424443
 20
7.457907
  0
VERTEX
  8
CAPA_1
 62
    39
  6
CONTINUOUS
 10
1.482155
 20
7.393557
  0
VERTEX
  8
CAPA_1
 62
    39
  6
CONTINUOUS
 10
1.532631
 20
7.323167
  0
VERTEX
  8
CAPA_1
 62
    39
  6
CONTINUOUS
 10
1.575272
 20
7.247336
  0
VERTEX
  8
CAPA_1
 62
    39
  6
CONTINUOUS
 10
1.609479
 20
7.166663
  0
VERTEX
  8
CAPA_1
 62
    39
  6
CONTINUOUS
 10
1.634654
 20
7.081746
  0
VERTEX
  8
CAPA_1
 62
    39
  6
CONTINUOUS
 10
1.650198
 20
6.993184
  0
VERTEX
  8
CAPA_1
 62
    39
  6
CONTINUOUS
 10
1.655512
 20
6.901575
  0
VERTEX
  8
CAPA_1
 62
    39
  6
CONTINUOUS
 10
1.650198
 20
6.809966
  0
VERTEX
  8
CAPA_1
 62
    39
  6
CONTINUOUS
 10
1.634654
 20
6.721404
  0
VERTEX
  8
CAPA_1
 62
    39
  6
CONTINUOUS
 10
1.609479
 20
6.636487
  0
VERTEX
  8
CAPA_1
 62
    39
  6
CONTINUOUS
 10
1.575272
 20
6.555814
  0
VERTEX
  8
CAPA_1
 62
    39
  6
CONTINUOUS
 10
1.532631
 20
6.479983
  0
VERTEX
  8
CAPA_1
 62
    39
  6
CONTINUOUS
 10
1.482155
 20
6.409593
  0
VERTEX
  8
CAPA_1
 62
    39
  6
CONTINUOUS
 10
1.424443
 20
6.345242
  0
VERTEX
  8
CAPA_1
 62
    39
  6
CONTINUOUS
 10
1.360092
 20
6.287530
  0
VERTEX
  8
CAPA_1
 62
    39
  6
CONTINUOUS
 10
1.289702
 20
6.237054
  0
VERTEX
  8
CAPA_1
 62
    39
  6
CONTINUOUS
 10
1.213871
 20
6.194413
  0
VERTEX
  8
CAPA_1
 62
    39
  6
CONTINUOUS
 10
1.133198
 20
6.160206
  0
VERTEX
  8
CAPA_1
 62
    39
  6
CONTINUOUS
 10
1.048281
 20
6.135031
  0
VERTEX
  8
CAPA_1
 62
    39
  6
CONTINUOUS
 10
0.959719
 20
6.119487
  0
VERTEX
  8
CAPA_1
 62
    39
  6
CONTINUOUS
 10
0.868110
 20
6.114173
  0
VERTEX
  8
CAPA_1
 62
    39
  6
CONTINUOUS
 10
0.776501
 20
6.119487
  0
VERTEX
  8
CAPA_1
 62
    39
  6
CONTINUOUS
 10
0.687939
 20
6.135031
  0
VERTEX
  8
CAPA_1
 62
    39
  6
CONTINUOUS
 10
0.603022
 20
6.160206
  0
VERTEX
  8
CAPA_1
 62
    39
  6
CONTINUOUS
 10
0.522349
 20
6.194413
  0
VERTEX
  8
CAPA_1
 62
    39
  6
CONTINUOUS
 10
0.446518
 20
6.237054
  0
VERTEX
  8
CAPA_1
 62
    39
  6
CONTINUOUS
 10
0.376128
 20
6.287530
  0
VERTEX
  8
CAPA_1
 62
    39
  6
CONTINUOUS
 10
0.311778
 20
6.345242
  0
VERTEX
  8
CAPA_1
 62
    39
  6
CONTINUOUS
 10
0.254065
 20
6.409593
  0
VERTEX
  8
CAPA_1
 62
    39
  6
CONTINUOUS
 10
0.203589
 20
6.479983
  0
VERTEX
  8
CAPA_1
 62
    39
  6
CONTINUOUS
 10
0.160948
 20
6.555814
  0
VERTEX
  8
CAPA_1
 62
    39
  6
CONTINUOUS
 10
0.126741
 20
6.636487
  0
VERTEX
  8
CAPA_1
 62
    39
  6
CONTINUOUS
 10
0.101567
 20
6.721404
  0
VERTEX
  8
CAPA_1
 62
    39
  6
CONTINUOUS
 10
0.086023
 20
6.809966
  0
VERTEX
  8
CAPA_1
 62
    39
  6
CONTINUOUS
 10
0.080709
 20
6.901575
  0
VERTEX
  8
CAPA_1
 62
    39
  6
CONTINUOUS
 10
0.080709
 20
6.901575
  0
VERTEX
  8
CAPA_1
 62
    39
  6
CONTINUOUS
 10
0.086023
 20
6.993184
  0
VERTEX
  8
CAPA_1
 62
    39
  6
CONTINUOUS
 10
0.101567
 20
7.081746
  0
VERTEX
  8
CAPA_1
 62
    39
  6
CONTINUOUS
 10
0.126741
 20
7.166663
  0
VERTEX
  8
CAPA_1
 62
    39
  6
CONTINUOUS
 10
0.160948
 20
7.247336
  0
VERTEX
  8
CAPA_1
 62
    39
  6
CONTINUOUS
 10
0.203589
 20
7.323167
  0
VERTEX
  8
CAPA_1
 62
    39
  6
CONTINUOUS
 10
0.254065
 20
7.393557
  0
VERTEX
  8
CAPA_1
 62
    39
  6
CONTINUOUS
 10
0.311778
 20
7.457907
  0
VERTEX
  8
CAPA_1
 62
    39
  6
CONTINUOUS
 10
0.376128
 20
7.515620
  0
VERTEX
  8
CAPA_1
 62
    39
  6
CONTINUOUS
 10
0.446518
 20
7.566096
  0
VERTEX
  8
CAPA_1
 62
    39
  6
CONTINUOUS
 10
0.522349
 20
7.608737
  0
VERTEX
  8
CAPA_1
 62
    39
  6
CONTINUOUS
 10
0.603022
 20
7.642944
  0
VERTEX
  8
CAPA_1
 62
    39
  6
CONTINUOUS
 10
0.687939
 20
7.668118
  0
VERTEX
  8
CAPA_1
 62
    39
  6
CONTINUOUS
 10
0.776501
 20
7.683662
  0
SEQEND
  8
0
  0
POLYLINE
  8
CAPA_1
 62
    39
  6
CONTINUOUS
 66
     1
 40
0.003000
 41
0.003000
 70
     1
  0
VERTEX
  8
CAPA_1
 62
    39
  6
CONTINUOUS
 10
0.868110
 20
7.413386
  0
VERTEX
  8
CAPA_1
 62
    39
  6
CONTINUOUS
 10
0.927645
 20
7.397221
  0
VERTEX
  8
CAPA_1
 62
    39
  6
CONTINUOUS
 10
0.970056
 20
7.354810
  0
VERTEX
  8
CAPA_1
 62
    39
  6
CONTINUOUS
 10
0.986220
 20
7.295276
  0
VERTEX
  8
CAPA_1
 62
    39
  6
CONTINUOUS
 10
0.970056
 20
7.235741
  0
VERTEX
  8
CAPA_1
 62
    39
  6
CONTINUOUS
 10
0.927645
 20
7.193330
  0
VERTEX
  8
CAPA_1
 62
    39
  6
CONTINUOUS
 10
0.868110
 20
7.177165
  0
VERTEX
  8
CAPA_1
 62
    39
  6
CONTINUOUS
 10
0.808576
 20
7.193330
  0
VERTEX
  8
CAPA_1
 62
    39
  6
CONTINUOUS
 10
0.766164
 20
7.235741
  0
VERTEX
  8
CAPA_1
 62
    39
  6
CONTINUOUS
 10
0.750000
 20
7.295276
  0
VERTEX
  8
CAPA_1
 62
    39
  6
CONTINUOUS
 10
0.766164
 20
7.354810
  0
VERTEX
  8
CAPA_1
 62
    39
  6
CONTINUOUS
 10
0.808576
 20
7.397221
  0
SEQEND
  8
0
  0
POLYLINE
  8
CAPA_1
 62
    39
  6
CONTINUOUS
 66
     1
 40
0.003000
 41
0.003000
 70
     1
  0
VERTEX
  8
CAPA_1
 62
    39
  6
CONTINUOUS
 10
0.868110
 20
6.960630
  0
VERTEX
  8
CAPA_1
 62
    39
  6
CONTINUOUS
 10
0.897878
 20
6.952548
  0
VERTEX
  8
CAPA_1
 62
    39
  6
CONTINUOUS
 10
0.919083
 20
6.931342
  0
VERTEX
  8
CAPA_1
 62
    39
  6
CONTINUOUS
 10
0.927165
 20
6.901575
  0
VERTEX
  8
CAPA_1
 62
    39
  6
CONTINUOUS
 10
0.919083
 20
6.871808
  0
VERTEX
  8
CAPA_1
 62
    39
  6
CONTINUOUS
 10
0.897878
 20
6.850602
  0
VERTEX
  8
CAPA_1
 62
    39
  6
CONTINUOUS
 10
0.868110
 20
6.842520
  0
VERTEX
  8
CAPA_1
 62
    39
  6
CONTINUOUS
 10
0.838343
 20
6.850602
  0
VERTEX
  8
CAPA_1
 62
    39
  6
CONTINUOUS
 10
0.817137
 20
6.871808
  0
VERTEX
  8
CAPA_1
 62
    39
  6
CONTINUOUS
 10
0.809055
 20
6.901575
  0
VERTEX
  8
CAPA_1
 62
    39
  6
CONTINUOUS
 10
0.817137
 20
6.931342
  0
VERTEX
  8
CAPA_1
 62
    39
  6
CONTINUOUS
 10
0.838343
 20
6.952548
  0
SEQEND
  8
0
  0
POLYLINE
  8
CAPA_1
 62
    39
  6
CONTINUOUS
 66
     1
 40
0.003000
 41
0.003000
 70
     1
  0
VERTEX
  8
CAPA_1
 62
    39
  6
CONTINUOUS
 10
2.836614
 20
5.720472
  0
VERTEX
  8
CAPA_1
 62
    39
  6
CONTINUOUS
 10
2.928223
 20
5.715158
  0
VERTEX
  8
CAPA_1
 62
    39
  6
CONTINUOUS
 10
3.016785
 20
5.699614
  0
VERTEX
  8
CAPA_1
 62
    39
  6
CONTINUOUS
 10
3.101702
 20
5.674440
  0
VERTEX
  8
CAPA_1
 62
    39
  6
CONTINUOUS
 10
3.182375
 20
5.640233
  0
VERTEX
  8
CAPA_1
 62
    39
  6
CONTINUOUS
 10
3.258206
 20
5.597592
  0
VERTEX
  8
CAPA_1
 62
    39
  6
CONTINUOUS
 10
3.328596
 20
5.547116
  0
VERTEX
  8
CAPA_1
 62
    39
  6
CONTINUOUS
 10
3.392947
 20
5.489404
  0
VERTEX
  8
CAPA_1
 62
    39
  6
CONTINUOUS
 10
3.450659
 20
5.425053
  0
VERTEX
  8
CAPA_1
 62
    39
  6
CONTINUOUS
 10
3.501135
 20
5.354663
  0
VERTEX
  8
CAPA_1
 62
    39
  6
CONTINUOUS
 10
3.543776
 20
5.278832
  0
VERTEX
  8
CAPA_1
 62
    39
  6
CONTINUOUS
 10
3.577983
 20
5.198159
  0
VERTEX
  8
CAPA_1
 62
    39
  6
CONTINUOUS
 10
3.603158
 20
5.113242
  0
VERTEX
  8
CAPA_1
 62
    39
  6
CONTINUOUS
 10
3.618701
 20
5.024680
  0
VERTEX
  8
CAPA_1
 62
    39
  6
CONTINUOUS
 10
3.624016
 20
4.933071
  0
VERTEX
  8
CAPA_1
 62
    39
  6
CONTINUOUS
 10
3.624016
 20
4.933071
  0
VERTEX
  8
CAPA_1
 62
    39
  6
CONTINUOUS
 10
3.618701
 20
4.841462
  0
VERTEX
  8
CAPA_1
 62
    39
  6
CONTINUOUS
 10
3.603158
 20
4.752900
  0
VERTEX
  8
CAPA_1
 62
    39
  6
CONTINUOUS
 10
3.577983
 20
4.667983
  0
VERTEX
  8
CAPA_1
 62
    39
  6
CONTINUOUS
 10
3.543776
 20
4.587310
  0
VERTEX
  8
CAPA_1
 62
    39
  6
CONTINUOUS
 10
3.501135
 20
4.511479
  0
VERTEX
  8
CAPA_1
 62
    39
  6
CONTINUOUS
 10
3.450659
 20
4.441089
  0
VERTEX
  8
CAPA_1
 62
    39
  6
CONTINUOUS
 10
3.392947
 20
4.376738
  0
VERTEX
  8
CAPA_1
 62
    39
  6
CONTINUOUS
 10
3.328596
 20
4.319026
  0
VERTEX
  8
CAPA_1
 62
    39
  6
CONTINUOUS
 10
3.258206
 20
4.268550
  0
VERTEX
  8
CAPA_1
 62
    39
  6
CONTINUOUS
 10
3.182375
 20
4.225909
  0
VERTEX
  8
CAPA_1
 62
    39
  6
CONTINUOUS
 10
3.101702
 20
4.191702
  0
VERTEX
  8
CAPA_1
 62
    39
  6
CONTINUOUS
 10
3.016785
 20
4.166527
  0
VERTEX
  8
CAPA_1
 62
    39
  6
CONTINUOUS
 10
2.928223
 20
4.150984
  0
VERTEX
  8
CAPA_1
 62
    39
  6
CONTINUOUS
 10
2.836614
 20
4.145669
  0
VERTEX
  8
CAPA_1
 62
    39
  6
CONTINUOUS
 10
2.745005
 20
4.150984
  0
VERTEX
  8
CAPA_1
 62
    39
  6
CONTINUOUS
 10
2.656443
 20
4.166527
  0
VERTEX
  8
CAPA_1
 62
    39
  6
CONTINUOUS
 10
2.571526
 20
4.191702
  0
VERTEX
  8
CAPA_1
 62
    39
  6
CONTINUOUS
 10
2.490853
 20
4.225909
  0
VERTEX
  8
CAPA_1
 62
    39
  6
CONTINUOUS
 10
2.415022
 20
4.268550
  0
VERTEX
  8
CAPA_1
 62
    39
  6
CONTINUOUS
 10
2.344632
 20
4.319026
  0
VERTEX
  8
CAPA_1
 62
    39
  6
CONTINUOUS
 10
2.280281
 20
4.376738
  0
VERTEX
  8
CAPA_1
 62
    39
  6
CONTINUOUS
 10
2.222569
 20
4.441089
  0
VERTEX
  8
CAPA_1
 62
    39
  6
CONTINUOUS
 10
2.172093
 20
4.511479
  0
VERTEX
  8
CAPA_1
 62
    39
  6
CONTINUOUS
 10
2.129452
 20
4.587310
  0
VERTEX
  8
CAPA_1
 62
    39
  6
CONTINUOUS
 10
2.095245
 20
4.667983
  0
VERTEX
  8
CAPA_1
 62
    39
  6
CONTINUOUS
 10
2.070071
 20
4.752900
  0
VERTEX
  8
CAPA_1
 62
    39
  6
CONTINUOUS
 10
2.054527
 20
4.841462
  0
VERTEX
  8
CAPA_1
 62
    39
  6
CONTINUOUS
 10
2.049213
 20
4.933071
  0
VERTEX
  8
CAPA_1
 62
    39
  6
CONTINUOUS
 10
2.054527
 20
5.024680
  0
VERTEX
  8
CAPA_1
 62
    39
  6
CONTINUOUS
 10
2.070071
 20
5.113242
  0
VERTEX
  8
CAPA_1
 62
    39
  6
CONTINUOUS
 10
2.095245
 20
5.198159
  0
VERTEX
  8
CAPA_1
 62
    39
  6
CONTINUOUS
 10
2.129452
 20
5.278832
  0
VERTEX
  8
CAPA_1
 62
    39
  6
CONTINUOUS
 10
2.172093
 20
5.354663
  0
VERTEX
  8
CAPA_1
 62
    39
  6
CONTINUOUS
 10
2.222569
 20
5.425053
  0
VERTEX
  8
CAPA_1
 62
    39
  6
CONTINUOUS
 10
2.280281
 20
5.489404
  0
VERTEX
  8
CAPA_1
 62
    39
  6
CONTINUOUS
 10
2.344632
 20
5.547116
  0
VERTEX
  8
CAPA_1
 62
    39
  6
CONTINUOUS
 10
2.415022
 20
5.597592
  0
VERTEX
  8
CAPA_1
 62
    39
  6
CONTINUOUS
 10
2.490853
 20
5.640233
  0
VERTEX
  8
CAPA_1
 62
    39
  6
CONTINUOUS
 10
2.571526
 20
5.674440
  0
VERTEX
  8
CAPA_1
 62
    39
  6
CONTINUOUS
 10
2.656443
 20
5.699614
  0
VERTEX
  8
CAPA_1
 62
    39
  6
CONTINUOUS
 10
2.745005
 20
5.715158
  0
SEQEND
  8
0
  0
POLYLINE
  8
CAPA_1
 62
    39
  6
CONTINUOUS
 66
     1
 40
0.003000
 41
0.003000
 70
     1
  0
VERTEX
  8
CAPA_1
 62
    39
  6
CONTINUOUS
 10
2.836614
 20
5.444882
  0
VERTEX
  8
CAPA_1
 62
    39
  6
CONTINUOUS
 10
2.896149
 20
5.428717
  0
VERTEX
  8
CAPA_1
 62
    39
  6
CONTINUOUS
 10
2.938560
 20
5.386306
  0
VERTEX
  8
CAPA_1
 62
    39
  6
CONTINUOUS
 10
2.954724
 20
5.326772
  0
VERTEX
  8
CAPA_1
 62
    39
  6
CONTINUOUS
 10
2.938560
 20
5.267237
  0
VERTEX
  8
CAPA_1
 62
    39
  6
CONTINUOUS
 10
2.896149
 20
5.224826
  0
VERTEX
  8
CAPA_1
 62
    39
  6
CONTINUOUS
 10
2.836614
 20
5.208661
  0
VERTEX
  8
CAPA_1
 62
    39
  6
CONTINUOUS
 10
2.777080
 20
5.224826
  0
VERTEX
  8
CAPA_1
 62
    39
  6
CONTINUOUS
 10
2.734668
 20
5.267237
  0
VERTEX
  8
CAPA_1
 62
    39
  6
CONTINUOUS
 10
2.718504
 20
5.326772
  0
VERTEX
  8
CAPA_1
 62
    39
  6
CONTINUOUS
 10
2.734668
 20
5.386306
  0
VERTEX
  8
CAPA_1
 62
    39
  6
CONTINUOUS
 10
2.777080
 20
5.428717
  0
SEQEND
  8
0
  0
POLYLINE
  8
CAPA_1
 62
    39
  6
CONTINUOUS
 66
     1
 40
0.003000
 41
0.003000
 70
     1
  0
VERTEX
  8
CAPA_1
 62
    39
  6
CONTINUOUS
 10
2.836614
 20
4.992126
  0
VERTEX
  8
CAPA_1
 62
    39
  6
CONTINUOUS
 10
2.866381
 20
4.984044
  0
VERTEX
  8
CAPA_1
 62
    39
  6
CONTINUOUS
 10
2.887587
 20
4.962838
  0
VERTEX
  8
CAPA_1
 62
    39
  6
CONTINUOUS
 10
2.895669
 20
4.933071
  0
VERTEX
  8
CAPA_1
 62
    39
  6
CONTINUOUS
 10
2.887587
 20
4.903304
  0
VERTEX
  8
CAPA_1
 62
    39
  6
CONTINUOUS
 10
2.866381
 20
4.882098
  0
VERTEX
  8
CAPA_1
 62
    39
  6
CONTINUOUS
 10
2.836614
 20
4.874016
  0
VERTEX
  8
CAPA_1
 62
    39
  6
CONTINUOUS
 10
2.806847
 20
4.882098
  0
VERTEX
  8
CAPA_1
 62
    39
  6
CONTINUOUS
 10
2.785641
 20
4.903304
  0
VERTEX
  8
CAPA_1
 62
    39
  6
CONTINUOUS
 10
2.777559
 20
4.933071
  0
VERTEX
  8
CAPA_1
 62
    39
  6
CONTINUOUS
 10
2.785641
 20
4.962838
  0
VERTEX
  8
CAPA_1
 62
    39
  6
CONTINUOUS
 10
2.806847
 20
4.984044
  0
SEQEND
  8
0
  0
POLYLINE
  8
CAPA_1
 62
    39
  6
CONTINUOUS
 66
     1
 40
0.003000
 41
0.003000
 70
     1
  0
VERTEX
  8
CAPA_1
 62
    39
  6
CONTINUOUS
 10
4.805118
 20
5.720472
  0
VERTEX
  8
CAPA_1
 62
    39
  6
CONTINUOUS
 10
4.896727
 20
5.715158
  0
VERTEX
  8
CAPA_1
 62
    39
  6
CONTINUOUS
 10
4.985289
 20
5.699614
  0
VERTEX
  8
CAPA_1
 62
    39
  6
CONTINUOUS
 10
5.070206
 20
5.674440
  0
VERTEX
  8
CAPA_1
 62
    39
  6
CONTINUOUS
 10
5.150879
 20
5.640233
  0
VERTEX
  8
CAPA_1
 62
    39
  6
CONTINUOUS
 10
5.226710
 20
5.597592
  0
VERTEX
  8
CAPA_1
 62
    39
  6
CONTINUOUS
 10
5.297100
 20
5.547116
  0
VERTEX
  8
CAPA_1
 62
    39
  6
CONTINUOUS
 10
5.361451
 20
5.489404
  0
VERTEX
  8
CAPA_1
 62
    39
  6
CONTINUOUS
 10
5.419163
 20
5.425053
  0
VERTEX
  8
CAPA_1
 62
    39
  6
CONTINUOUS
 10
5.469639
 20
5.354663
  0
VERTEX
  8
CAPA_1
 62
    39
  6
CONTINUOUS
 10
5.512280
 20
5.278832
  0
VERTEX
  8
CAPA_1
 62
    39
  6
CONTINUOUS
 10
5.546487
 20
5.198159
  0
VERTEX
  8
CAPA_1
 62
    39
  6
CONTINUOUS
 10
5.571662
 20
5.113242
  0
VERTEX
  8
CAPA_1
 62
    39
  6
CONTINUOUS
 10
5.587205
 20
5.024680
  0
VERTEX
  8
CAPA_1
 62
    39
  6
CONTINUOUS
 10
5.592520
 20
4.933071
  0
VERTEX
  8
CAPA_1
 62
    39
  6
CONTINUOUS
 10
5.592520
 20
4.933071
  0
VERTEX
  8
CAPA_1
 62
    39
  6
CONTINUOUS
 10
5.587205
 20
4.841462
  0
VERTEX
  8
CAPA_1
 62
    39
  6
CONTINUOUS
 10
5.571662
 20
4.752900
  0
VERTEX
  8
CAPA_1
 62
    39
  6
CONTINUOUS
 10
5.546487
 20
4.667983
  0
VERTEX
  8
CAPA_1
 62
    39
  6
CONTINUOUS
 10
5.512280
 20
4.587310
  0
VERTEX
  8
CAPA_1
 62
    39
  6
CONTINUOUS
 10
5.469639
 20
4.511479
  0
VERTEX
  8
CAPA_1
 62
    39
  6
CONTINUOUS
 10
5.419163
 20
4.441089
  0
VERTEX
  8
CAPA_1
 62
    39
  6
CONTINUOUS
 10
5.361451
 20
4.376738
  0
VERTEX
  8
CAPA_1
 62
    39
  6
CONTINUOUS
 10
5.297100
 20
4.319026
  0
VERTEX
  8
CAPA_1
 62
    39
  6
CONTINUOUS
 10
5.226710
 20
4.268550
  0
VERTEX
  8
CAPA_1
 62
    39
  6
CONTINUOUS
 10
5.150879
 20
4.225909
  0
VERTEX
  8
CAPA_1
 62
    39
  6
CONTINUOUS
 10
5.070206
 20
4.191702
  0
VERTEX
  8
CAPA_1
 62
    39
  6
CONTINUOUS
 10
4.985289
 20
4.166527
  0
VERTEX
  8
CAPA_1
 62
    39
  6
CONTINUOUS
 10
4.896727
 20
4.150984
  0
VERTEX
  8
CAPA_1
 62
    39
  6
CONTINUOUS
 10
4.805118
 20
4.145669
  0
VERTEX
  8
CAPA_1
 62
    39
  6
CONTINUOUS
 10
4.713509
 20
4.150984
  0
VERTEX
  8
CAPA_1
 62
    39
  6
CONTINUOUS
 10
4.624947
 20
4.166527
  0
VERTEX
  8
CAPA_1
 62
    39
  6
CONTINUOUS
 10
4.540030
 20
4.191702
  0
VERTEX
  8
CAPA_1
 62
    39
  6
CONTINUOUS
 10
4.459357
 20
4.225909
  0
VERTEX
  8
CAPA_1
 62
    39
  6
CONTINUOUS
 10
4.383526
 20
4.268550
  0
VERTEX
  8
CAPA_1
 62
    39
  6
CONTINUOUS
 10
4.313136
 20
4.319026
  0
VERTEX
  8
CAPA_1
 62
    39
  6
CONTINUOUS
 10
4.248785
 20
4.376738
  0
VERTEX
  8
CAPA_1
 62
    39
  6
CONTINUOUS
 10
4.191073
 20
4.441089
  0
VERTEX
  8
CAPA_1
 62
    39
  6
CONTINUOUS
 10
4.140597
 20
4.511479
  0
VERTEX
  8
CAPA_1
 62
    39
  6
CONTINUOUS
 10
4.097956
 20
4.587310
  0
VERTEX
  8
CAPA_1
 62
    39
  6
CONTINUOUS
 10
4.063749
 20
4.667983
  0
VERTEX
  8
CAPA_1
 62
    39
  6
CONTINUOUS
 10
4.038575
 20
4.752900
  0
VERTEX
  8
CAPA_1
 62
    39
  6
CONTINUOUS
 10
4.023031
 20
4.841462
  0
VERTEX
  8
CAPA_1
 62
    39
  6
CONTINUOUS
 10
4.017717
 20
4.933071
  0
VERTEX
  8
CAPA_1
 62
    39
  6
CONTINUOUS
 10
4.023031
 20
5.024680
  0
VERTEX
  8
CAPA_1
 62
    39
  6
CONTINUOUS
 10
4.038575
 20
5.113242
  0
VERTEX
  8
CAPA_1
 62
    39
  6
CONTINUOUS
 10
4.063749
 20
5.198159
  0
VERTEX
  8
CAPA_1
 62
    39
  6
CONTINUOUS
 10
4.097956
 20
5.278832
  0
VERTEX
  8
CAPA_1
 62
    39
  6
CONTINUOUS
 10
4.140597
 20
5.354663
  0
VERTEX
  8
CAPA_1
 62
    39
  6
CONTINUOUS
 10
4.191073
 20
5.425053
  0
VERTEX
  8
CAPA_1
 62
    39
  6
CONTINUOUS
 10
4.248785
 20
5.489404
  0
VERTEX
  8
CAPA_1
 62
    39
  6
CONTINUOUS
 10
4.313136
 20
5.547116
  0
VERTEX
  8
CAPA_1
 62
    39
  6
CONTINUOUS
 10
4.383526
 20
5.597592
  0
VERTEX
  8
CAPA_1
 62
    39
  6
CONTINUOUS
 10
4.459357
 20
5.640233
  0
VERTEX
  8
CAPA_1
 62
    39
  6
CONTINUOUS
 10
4.540030
 20
5.674440
  0
VERTEX
  8
CAPA_1
 62
    39
  6
CONTINUOUS
 10
4.624947
 20
5.699614
  0
VERTEX
  8
CAPA_1
 62
    39
  6
CONTINUOUS
 10
4.713509
 20
5.715158
  0
SEQEND
  8
0
  0
POLYLINE
  8
CAPA_1
 62
    39
  6
CONTINUOUS
 66
     1
 40
0.003000
 41
0.003000
 70
     1
  0
VERTEX
  8
CAPA_1
 62
    39
  6
CONTINUOUS
 10
4.805118
 20
5.444882
  0
VERTEX
  8
CAPA_1
 62
    39
  6
CONTINUOUS
 10
4.864653
 20
5.428717
  0
VERTEX
  8
CAPA_1
 62
    39
  6
CONTINUOUS
 10
4.907064
 20
5.386306
  0
VERTEX
  8
CAPA_1
 62
    39
  6
CONTINUOUS
 10
4.923228
 20
5.326772
  0
VERTEX
  8
CAPA_1
 62
    39
  6
CONTINUOUS
 10
4.907064
 20
5.267237
  0
VERTEX
  8
CAPA_1
 62
    39
  6
CONTINUOUS
 10
4.864653
 20
5.224826
  0
VERTEX
  8
CAPA_1
 62
    39
  6
CONTINUOUS
 10
4.805118
 20
5.208661
  0
VERTEX
  8
CAPA_1
 62
    39
  6
CONTINUOUS
 10
4.745584
 20
5.224826
  0
VERTEX
  8
CAPA_1
 62
    39
  6
CONTINUOUS
 10
4.703172
 20
5.267237
  0
VERTEX
  8
CAPA_1
 62
    39
  6
CONTINUOUS
 10
4.687008
 20
5.326772
  0
VERTEX
  8
CAPA_1
 62
    39
  6
CONTINUOUS
 10
4.703172
 20
5.386306
  0
VERTEX
  8
CAPA_1
 62
    39
  6
CONTINUOUS
 10
4.745584
 20
5.428717
  0
SEQEND
  8
0
  0
POLYLINE
  8
CAPA_1
 62
    39
  6
CONTINUOUS
 66
     1
 40
0.003000
 41
0.003000
 70
     1
  0
VERTEX
  8
CAPA_1
 62
    39
  6
CONTINUOUS
 10
4.805118
 20
4.992126
  0
VERTEX
  8
CAPA_1
 62
    39
  6
CONTINUOUS
 10
4.834885
 20
4.984044
  0
VERTEX
  8
CAPA_1
 62
    39
  6
CONTINUOUS
 10
4.856091
 20
4.962838
  0
VERTEX
  8
CAPA_1
 62
    39
  6
CONTINUOUS
 10
4.864173
 20
4.933071
  0
VERTEX
  8
CAPA_1
 62
    39
  6
CONTINUOUS
 10
4.856091
 20
4.903304
  0
VERTEX
  8
CAPA_1
 62
    39
  6
CONTINUOUS
 10
4.834885
 20
4.882098
  0
VERTEX
  8
CAPA_1
 62
    39
  6
CONTINUOUS
 10
4.805118
 20
4.874016
  0
VERTEX
  8
CAPA_1
 62
    39
  6
CONTINUOUS
 10
4.775351
 20
4.882098
  0
VERTEX
  8
CAPA_1
 62
    39
  6
CONTINUOUS
 10
4.754145
 20
4.903304
  0
VERTEX
  8
CAPA_1
 62
    39
  6
CONTINUOUS
 10
4.746063
 20
4.933071
  0
VERTEX
  8
CAPA_1
 62
    39
  6
CONTINUOUS
 10
4.754145
 20
4.962838
  0
VERTEX
  8
CAPA_1
 62
    39
  6
CONTINUOUS
 10
4.775351
 20
4.984044
  0
SEQEND
  8
0
  0
POLYLINE
  8
CAPA_1
 62
    39
  6
CONTINUOUS
 66
     1
 40
0.003000
 41
0.003000
 70
     1
  0
VERTEX
  8
CAPA_1
 62
    39
  6
CONTINUOUS
 10
6.773622
 20
5.720472
  0
VERTEX
  8
CAPA_1
 62
    39
  6
CONTINUOUS
 10
6.865231
 20
5.715158
  0
VERTEX
  8
CAPA_1
 62
    39
  6
CONTINUOUS
 10
6.953793
 20
5.699614
  0
VERTEX
  8
CAPA_1
 62
    39
  6
CONTINUOUS
 10
7.038710
 20
5.674440
  0
VERTEX
  8
CAPA_1
 62
    39
  6
CONTINUOUS
 10
7.119383
 20
5.640233
  0
VERTEX
  8
CAPA_1
 62
    39
  6
CONTINUOUS
 10
7.195214
 20
5.597592
  0
VERTEX
  8
CAPA_1
 62
    39
  6
CONTINUOUS
 10
7.265604
 20
5.547116
  0
VERTEX
  8
CAPA_1
 62
    39
  6
CONTINUOUS
 10
7.329955
 20
5.489404
  0
VERTEX
  8
CAPA_1
 62
    39
  6
CONTINUOUS
 10
7.387667
 20
5.425053
  0
VERTEX
  8
CAPA_1
 62
    39
  6
CONTINUOUS
 10
7.438143
 20
5.354663
  0
VERTEX
  8
CAPA_1
 62
    39
  6
CONTINUOUS
 10
7.480784
 20
5.278832
  0
VERTEX
  8
CAPA_1
 62
    39
  6
CONTINUOUS
 10
7.514991
 20
5.198159
  0
VERTEX
  8
CAPA_1
 62
    39
  6
CONTINUOUS
 10
7.540166
 20
5.113242
  0
VERTEX
  8
CAPA_1
 62
    39
  6
CONTINUOUS
 10
7.555709
 20
5.024680
  0
VERTEX
  8
CAPA_1
 62
    39
  6
CONTINUOUS
 10
7.561024
 20
4.933071
  0
VERTEX
  8
CAPA_1
 62
    39
  6
CONTINUOUS
 10
7.561024
 20
4.933071
  0
VERTEX
  8
CAPA_1
 62
    39
  6
CONTINUOUS
 10
7.555709
 20
4.841462
  0
VERTEX
  8
CAPA_1
 62
    39
  6
CONTINUOUS
 10
7.540166
 20
4.752900
  0
VERTEX
  8
CAPA_1
 62
    39
  6
CONTINUOUS
 10
7.514991
 20
4.667983
  0
VERTEX
  8
CAPA_1
 62
    39
  6
CONTINUOUS
 10
7.480784
 20
4.587310
  0
VERTEX
  8
CAPA_1
 62
    39
  6
CONTINUOUS
 10
7.438143
 20
4.511479
  0
VERTEX
  8
CAPA_1
 62
    39
  6
CONTINUOUS
 10
7.387667
 20
4.441089
  0
VERTEX
  8
CAPA_1
 62
    39
  6
CONTINUOUS
 10
7.329955
 20
4.376738
  0
VERTEX
  8
CAPA_1
 62
    39
  6
CONTINUOUS
 10
7.265604
 20
4.319026
  0
VERTEX
  8
CAPA_1
 62
    39
  6
CONTINUOUS
 10
7.195214
 20
4.268550
  0
VERTEX
  8
CAPA_1
 62
    39
  6
CONTINUOUS
 10
7.119383
 20
4.225909
  0
VERTEX
  8
CAPA_1
 62
    39
  6
CONTINUOUS
 10
7.038710
 20
4.191702
  0
VERTEX
  8
CAPA_1
 62
    39
  6
CONTINUOUS
 10
6.953793
 20
4.166527
  0
VERTEX
  8
CAPA_1
 62
    39
  6
CONTINUOUS
 10
6.865231
 20
4.150984
  0
VERTEX
  8
CAPA_1
 62
    39
  6
CONTINUOUS
 10
6.773622
 20
4.145669
  0
VERTEX
  8
CAPA_1
 62
    39
  6
CONTINUOUS
 10
6.682013
 20
4.150984
  0
VERTEX
  8
CAPA_1
 62
    39
  6
CONTINUOUS
 10
6.593451
 20
4.166527
  0
VERTEX
  8
CAPA_1
 62
    39
  6
CONTINUOUS
 10
6.508534
 20
4.191702
  0
VERTEX
  8
CAPA_1
 62
    39
  6
CONTINUOUS
 10
6.427861
 20
4.225909
  0
VERTEX
  8
CAPA_1
 62
    39
  6
CONTINUOUS
 10
6.352030
 20
4.268550
  0
VERTEX
  8
CAPA_1
 62
    39
  6
CONTINUOUS
 10
6.281640
 20
4.319026
  0
VERTEX
  8
CAPA_1
 62
    39
  6
CONTINUOUS
 10
6.217289
 20
4.376738
  0
VERTEX
  8
CAPA_1
 62
    39
  6
CONTINUOUS
 10
6.159577
 20
4.441089
  0
VERTEX
  8
CAPA_1
 62
    39
  6
CONTINUOUS
 10
6.109101
 20
4.511479
  0
VERTEX
  8
CAPA_1
 62
    39
  6
CONTINUOUS
 10
6.066460
 20
4.587310
  0
VERTEX
  8
CAPA_1
 62
    39
  6
CONTINUOUS
 10
6.032253
 20
4.667983
  0
VERTEX
  8
CAPA_1
 62
    39
  6
CONTINUOUS
 10
6.007078
 20
4.752900
  0
VERTEX
  8
CAPA_1
 62
    39
  6
CONTINUOUS
 10
5.991535
 20
4.841462
  0
VERTEX
  8
CAPA_1
 62
    39
  6
CONTINUOUS
 10
5.986220
 20
4.933071
  0
VERTEX
  8
CAPA_1
 62
    39
  6
CONTINUOUS
 10
5.991535
 20
5.024680
  0
VERTEX
  8
CAPA_1
 62
    39
  6
CONTINUOUS
 10
6.007078
 20
5.113242
  0
VERTEX
  8
CAPA_1
 62
    39
  6
CONTINUOUS
 10
6.032253
 20
5.198159
  0
VERTEX
  8
CAPA_1
 62
    39
  6
CONTINUOUS
 10
6.066460
 20
5.278832
  0
VERTEX
  8
CAPA_1
 62
    39
  6
CONTINUOUS
 10
6.109101
 20
5.354663
  0
VERTEX
  8
CAPA_1
 62
    39
  6
CONTINUOUS
 10
6.159577
 20
5.425053
  0
VERTEX
  8
CAPA_1
 62
    39
  6
CONTINUOUS
 10
6.217289
 20
5.489404
  0
VERTEX
  8
CAPA_1
 62
    39
  6
CONTINUOUS
 10
6.281640
 20
5.547116
  0
VERTEX
  8
CAPA_1
 62
    39
  6
CONTINUOUS
 10
6.352030
 20
5.597592
  0
VERTEX
  8
CAPA_1
 62
    39
  6
CONTINUOUS
 10
6.427861
 20
5.640233
  0
VERTEX
  8
CAPA_1
 62
    39
  6
CONTINUOUS
 10
6.508534
 20
5.674440
  0
VERTEX
  8
CAPA_1
 62
    39
  6
CONTINUOUS
 10
6.593451
 20
5.699614
  0
VERTEX
  8
CAPA_1
 62
    39
  6
CONTINUOUS
 10
6.682013
 20
5.715158
  0
SEQEND
  8
0
  0
POLYLINE
  8
CAPA_1
 62
    39
  6
CONTINUOUS
 66
     1
 40
0.003000
 41
0.003000
 70
     1
  0
VERTEX
  8
CAPA_1
 62
    39
  6
CONTINUOUS
 10
6.773622
 20
5.444882
  0
VERTEX
  8
CAPA_1
 62
    39
  6
CONTINUOUS
 10
6.833157
 20
5.428717
  0
VERTEX
  8
CAPA_1
 62
    39
  6
CONTINUOUS
 10
6.875568
 20
5.386306
  0
VERTEX
  8
CAPA_1
 62
    39
  6
CONTINUOUS
 10
6.891732
 20
5.326772
  0
VERTEX
  8
CAPA_1
 62
    39
  6
CONTINUOUS
 10
6.875568
 20
5.267237
  0
VERTEX
  8
CAPA_1
 62
    39
  6
CONTINUOUS
 10
6.833157
 20
5.224826
  0
VERTEX
  8
CAPA_1
 62
    39
  6
CONTINUOUS
 10
6.773622
 20
5.208661
  0
VERTEX
  8
CAPA_1
 62
    39
  6
CONTINUOUS
 10
6.714087
 20
5.224826
  0
VERTEX
  8
CAPA_1
 62
    39
  6
CONTINUOUS
 10
6.671676
 20
5.267237
  0
VERTEX
  8
CAPA_1
 62
    39
  6
CONTINUOUS
 10
6.655512
 20
5.326772
  0
VERTEX
  8
CAPA_1
 62
    39
  6
CONTINUOUS
 10
6.671676
 20
5.386306
  0
VERTEX
  8
CAPA_1
 62
    39
  6
CONTINUOUS
 10
6.714087
 20
5.428717
  0
SEQEND
  8
0
  0
POLYLINE
  8
CAPA_1
 62
    39
  6
CONTINUOUS
 66
     1
 40
0.003000
 41
0.003000
 70
     1
  0
VERTEX
  8
CAPA_1
 62
    39
  6
CONTINUOUS
 10
6.773622
 20
4.992126
  0
VERTEX
  8
CAPA_1
 62
    39
  6
CONTINUOUS
 10
6.803389
 20
4.984044
  0
VERTEX
  8
CAPA_1
 62
    39
  6
CONTINUOUS
 10
6.824595
 20
4.962838
  0
VERTEX
  8
CAPA_1
 62
    39
  6
CONTINUOUS
 10
6.832677
 20
4.933071
  0
VERTEX
  8
CAPA_1
 62
    39
  6
CONTINUOUS
 10
6.824595
 20
4.903304
  0
VERTEX
  8
CAPA_1
 62
    39
  6
CONTINUOUS
 10
6.803389
 20
4.882098
  0
VERTEX
  8
CAPA_1
 62
    39
  6
CONTINUOUS
 10
6.773622
 20
4.874016
  0
VERTEX
  8
CAPA_1
 62
    39
  6
CONTINUOUS
 10
6.743855
 20
4.882098
  0
VERTEX
  8
CAPA_1
 62
    39
  6
CONTINUOUS
 10
6.722649
 20
4.903304
  0
VERTEX
  8
CAPA_1
 62
    39
  6
CONTINUOUS
 10
6.714567
 20
4.933071
  0
VERTEX
  8
CAPA_1
 62
    39
  6
CONTINUOUS
 10
6.722649
 20
4.962838
  0
VERTEX
  8
CAPA_1
 62
    39
  6
CONTINUOUS
 10
6.743855
 20
4.984044
  0
SEQEND
  8
0
  0
POLYLINE
  8
CAPA_1
 62
    39
  6
CONTINUOUS
 66
     1
 40
0.003000
 41
0.003000
 70
     1
  0
VERTEX
  8
CAPA_1
 62
    39
  6
CONTINUOUS
 10
8.742126
 20
5.720472
  0
VERTEX
  8
CAPA_1
 62
    39
  6
CONTINUOUS
 10
8.833735
 20
5.715158
  0
VERTEX
  8
CAPA_1
 62
    39
  6
CONTINUOUS
 10
8.922297
 20
5.699614
  0
VERTEX
  8
CAPA_1
 62
    39
  6
CONTINUOUS
 10
9.007214
 20
5.674440
  0
VERTEX
  8
CAPA_1
 62
    39
  6
CONTINUOUS
 10
9.087887
 20
5.640233
  0
VERTEX
  8
CAPA_1
 62
    39
  6
CONTINUOUS
 10
9.163718
 20
5.597592
  0
VERTEX
  8
CAPA_1
 62
    39
  6
CONTINUOUS
 10
9.234108
 20
5.547116
  0
VERTEX
  8
CAPA_1
 62
    39
  6
CONTINUOUS
 10
9.298459
 20
5.489404
  0
VERTEX
  8
CAPA_1
 62
    39
  6
CONTINUOUS
 10
9.356171
 20
5.425053
  0
VERTEX
  8
CAPA_1
 62
    39
  6
CONTINUOUS
 10
9.406647
 20
5.354663
  0
VERTEX
  8
CAPA_1
 62
    39
  6
CONTINUOUS
 10
9.449288
 20
5.278832
  0
VERTEX
  8
CAPA_1
 62
    39
  6
CONTINUOUS
 10
9.483495
 20
5.198159
  0
VERTEX
  8
CAPA_1
 62
    39
  6
CONTINUOUS
 10
9.508670
 20
5.113242
  0
VERTEX
  8
CAPA_1
 62
    39
  6
CONTINUOUS
 10
9.524213
 20
5.024680
  0
VERTEX
  8
CAPA_1
 62
    39
  6
CONTINUOUS
 10
9.529528
 20
4.933071
  0
VERTEX
  8
CAPA_1
 62
    39
  6
CONTINUOUS
 10
9.529528
 20
4.933071
  0
VERTEX
  8
CAPA_1
 62
    39
  6
CONTINUOUS
 10
9.524213
 20
4.841462
  0
VERTEX
  8
CAPA_1
 62
    39
  6
CONTINUOUS
 10
9.508670
 20
4.752900
  0
VERTEX
  8
CAPA_1
 62
    39
  6
CONTINUOUS
 10
9.483495
 20
4.667983
  0
VERTEX
  8
CAPA_1
 62
    39
  6
CONTINUOUS
 10
9.449288
 20
4.587310
  0
VERTEX
  8
CAPA_1
 62
    39
  6
CONTINUOUS
 10
9.406647
 20
4.511479
  0
VERTEX
  8
CAPA_1
 62
    39
  6
CONTINUOUS
 10
9.356171
 20
4.441089
  0
VERTEX
  8
CAPA_1
 62
    39
  6
CONTINUOUS
 10
9.298459
 20
4.376738
  0
VERTEX
  8
CAPA_1
 62
    39
  6
CONTINUOUS
 10
9.234108
 20
4.319026
  0
VERTEX
  8
CAPA_1
 62
    39
  6
CONTINUOUS
 10
9.163718
 20
4.268550
  0
VERTEX
  8
CAPA_1
 62
    39
  6
CONTINUOUS
 10
9.087887
 20
4.225909
  0
VERTEX
  8
CAPA_1
 62
    39
  6
CONTINUOUS
 10
9.007214
 20
4.191702
  0
VERTEX
  8
CAPA_1
 62
    39
  6
CONTINUOUS
 10
8.922297
 20
4.166527
  0
VERTEX
  8
CAPA_1
 62
    39
  6
CONTINUOUS
 10
8.833735
 20
4.150984
  0
VERTEX
  8
CAPA_1
 62
    39
  6
CONTINUOUS
 10
8.742126
 20
4.145669
  0
VERTEX
  8
CAPA_1
 62
    39
  6
CONTINUOUS
 10
8.650517
 20
4.150984
  0
VERTEX
  8
CAPA_1
 62
    39
  6
CONTINUOUS
 10
8.561955
 20
4.166527
  0
VERTEX
  8
CAPA_1
 62
    39
  6
CONTINUOUS
 10
8.477038
 20
4.191702
  0
VERTEX
  8
CAPA_1
 62
    39
  6
CONTINUOUS
 10
8.396365
 20
4.225909
  0
VERTEX
  8
CAPA_1
 62
    39
  6
CONTINUOUS
 10
8.320534
 20
4.268550
  0
VERTEX
  8
CAPA_1
 62
    39
  6
CONTINUOUS
 10
8.250144
 20
4.319026
  0
VERTEX
  8
CAPA_1
 62
    39
  6
CONTINUOUS
 10
8.185793
 20
4.376738
  0
VERTEX
  8
CAPA_1
 62
    39
  6
CONTINUOUS
 10
8.128081
 20
4.441089
  0
VERTEX
  8
CAPA_1
 62
    39
  6
CONTINUOUS
 10
8.077605
 20
4.511479
  0
VERTEX
  8
CAPA_1
 62
    39
  6
CONTINUOUS
 10
8.034964
 20
4.587310
  0
VERTEX
  8
CAPA_1
 62
    39
  6
CONTINUOUS
 10
8.000757
 20
4.667983
  0
VERTEX
  8
CAPA_1
 62
    39
  6
CONTINUOUS
 10
7.975582
 20
4.752900
  0
VERTEX
  8
CAPA_1
 62
    39
  6
CONTINUOUS
 10
7.960039
 20
4.841462
  0
VERTEX
  8
CAPA_1
 62
    39
  6
CONTINUOUS
 10
7.954724
 20
4.933071
  0
VERTEX
  8
CAPA_1
 62
    39
  6
CONTINUOUS
 10
7.960039
 20
5.024680
  0
VERTEX
  8
CAPA_1
 62
    39
  6
CONTINUOUS
 10
7.975582
 20
5.113242
  0
VERTEX
  8
CAPA_1
 62
    39
  6
CONTINUOUS
 10
8.000757
 20
5.198159
  0
VERTEX
  8
CAPA_1
 62
    39
  6
CONTINUOUS
 10
8.034964
 20
5.278832
  0
VERTEX
  8
CAPA_1
 62
    39
  6
CONTINUOUS
 10
8.077605
 20
5.354663
  0
VERTEX
  8
CAPA_1
 62
    39
  6
CONTINUOUS
 10
8.128081
 20
5.425053
  0
VERTEX
  8
CAPA_1
 62
    39
  6
CONTINUOUS
 10
8.185793
 20
5.489404
  0
VERTEX
  8
CAPA_1
 62
    39
  6
CONTINUOUS
 10
8.250144
 20
5.547116
  0
VERTEX
  8
CAPA_1
 62
    39
  6
CONTINUOUS
 10
8.320534
 20
5.597592
  0
VERTEX
  8
CAPA_1
 62
    39
  6
CONTINUOUS
 10
8.396365
 20
5.640233
  0
VERTEX
  8
CAPA_1
 62
    39
  6
CONTINUOUS
 10
8.477038
 20
5.674440
  0
VERTEX
  8
CAPA_1
 62
    39
  6
CONTINUOUS
 10
8.561955
 20
5.699614
  0
VERTEX
  8
CAPA_1
 62
    39
  6
CONTINUOUS
 10
8.650517
 20
5.715158
  0
SEQEND
  8
0
  0
POLYLINE
  8
CAPA_1
 62
    39
  6
CONTINUOUS
 66
     1
 40
0.003000
 41
0.003000
 70
     1
  0
VERTEX
  8
CAPA_1
 62
    39
  6
CONTINUOUS
 10
8.742126
 20
5.444882
  0
VERTEX
  8
CAPA_1
 62
    39
  6
CONTINUOUS
 10
8.801661
 20
5.428717
  0
VERTEX
  8
CAPA_1
 62
    39
  6
CONTINUOUS
 10
8.844072
 20
5.386306
  0
VERTEX
  8
CAPA_1
 62
    39
  6
CONTINUOUS
 10
8.860236
 20
5.326772
  0
VERTEX
  8
CAPA_1
 62
    39
  6
CONTINUOUS
 10
8.844072
 20
5.267237
  0
VERTEX
  8
CAPA_1
 62
    39
  6
CONTINUOUS
 10
8.801661
 20
5.224826
  0
VERTEX
  8
CAPA_1
 62
    39
  6
CONTINUOUS
 10
8.742126
 20
5.208661
  0
VERTEX
  8
CAPA_1
 62
    39
  6
CONTINUOUS
 10
8.682591
 20
5.224826
  0
VERTEX
  8
CAPA_1
 62
    39
  6
CONTINUOUS
 10
8.640180
 20
5.267237
  0
VERTEX
  8
CAPA_1
 62
    39
  6
CONTINUOUS
 10
8.624016
 20
5.326772
  0
VERTEX
  8
CAPA_1
 62
    39
  6
CONTINUOUS
 10
8.640180
 20
5.386306
  0
VERTEX
  8
CAPA_1
 62
    39
  6
CONTINUOUS
 10
8.682591
 20
5.428717
  0
SEQEND
  8
0
  0
POLYLINE
  8
CAPA_1
 62
    39
  6
CONTINUOUS
 66
     1
 40
0.003000
 41
0.003000
 70
     1
  0
VERTEX
  8
CAPA_1
 62
    39
  6
CONTINUOUS
 10
8.742126
 20
4.992126
  0
VERTEX
  8
CAPA_1
 62
    39
  6
CONTINUOUS
 10
8.771893
 20
4.984044
  0
VERTEX
  8
CAPA_1
 62
    39
  6
CONTINUOUS
 10
8.793099
 20
4.962838
  0
VERTEX
  8
CAPA_1
 62
    39
  6
CONTINUOUS
 10
8.801181
 20
4.933071
  0
VERTEX
  8
CAPA_1
 62
    39
  6
CONTINUOUS
 10
8.793099
 20
4.903304
  0
VERTEX
  8
CAPA_1
 62
    39
  6
CONTINUOUS
 10
8.771893
 20
4.882098
  0
VERTEX
  8
CAPA_1
 62
    39
  6
CONTINUOUS
 10
8.742126
 20
4.874016
  0
VERTEX
  8
CAPA_1
 62
    39
  6
CONTINUOUS
 10
8.712359
 20
4.882098
  0
VERTEX
  8
CAPA_1
 62
    39
  6
CONTINUOUS
 10
8.691153
 20
4.903304
  0
VERTEX
  8
CAPA_1
 62
    39
  6
CONTINUOUS
 10
8.683071
 20
4.933071
  0
VERTEX
  8
CAPA_1
 62
    39
  6
CONTINUOUS
 10
8.691153
 20
4.962838
  0
VERTEX
  8
CAPA_1
 62
    39
  6
CONTINUOUS
 10
8.712359
 20
4.984044
  0
SEQEND
  8
0
  0
POLYLINE
  8
CAPA_1
 62
    39
  6
CONTINUOUS
 66
     1
 40
0.003000
 41
0.003000
 70
     1
  0
VERTEX
  8
CAPA_1
 62
    39
  6
CONTINUOUS
 10
10.710630
 20
5.720472
  0
VERTEX
  8
CAPA_1
 62
    39
  6
CONTINUOUS
 10
10.802239
 20
5.715158
  0
VERTEX
  8
CAPA_1
 62
    39
  6
CONTINUOUS
 10
10.890801
 20
5.699614
  0
VERTEX
  8
CAPA_1
 62
    39
  6
CONTINUOUS
 10
10.975718
 20
5.674440
  0
VERTEX
  8
CAPA_1
 62
    39
  6
CONTINUOUS
 10
11.056391
 20
5.640233
  0
VERTEX
  8
CAPA_1
 62
    39
  6
CONTINUOUS
 10
11.132222
 20
5.597592
  0
VERTEX
  8
CAPA_1
 62
    39
  6
CONTINUOUS
 10
11.202612
 20
5.547116
  0
VERTEX
  8
CAPA_1
 62
    39
  6
CONTINUOUS
 10
11.266963
 20
5.489404
  0
VERTEX
  8
CAPA_1
 62
    39
  6
CONTINUOUS
 10
11.324675
 20
5.425053
  0
VERTEX
  8
CAPA_1
 62
    39
  6
CONTINUOUS
 10
11.375151
 20
5.354663
  0
VERTEX
  8
CAPA_1
 62
    39
  6
CONTINUOUS
 10
11.417792
 20
5.278832
  0
VERTEX
  8
CAPA_1
 62
    39
  6
CONTINUOUS
 10
11.451999
 20
5.198159
  0
VERTEX
  8
CAPA_1
 62
    39
  6
CONTINUOUS
 10
11.477173
 20
5.113242
  0
VERTEX
  8
CAPA_1
 62
    39
  6
CONTINUOUS
 10
11.492717
 20
5.024680
  0
VERTEX
  8
CAPA_1
 62
    39
  6
CONTINUOUS
 10
11.498031
 20
4.933071
  0
VERTEX
  8
CAPA_1
 62
    39
  6
CONTINUOUS
 10
11.498031
 20
4.933071
  0
VERTEX
  8
CAPA_1
 62
    39
  6
CONTINUOUS
 10
11.492717
 20
4.841462
  0
VERTEX
  8
CAPA_1
 62
    39
  6
CONTINUOUS
 10
11.477173
 20
4.752900
  0
VERTEX
  8
CAPA_1
 62
    39
  6
CONTINUOUS
 10
11.451999
 20
4.667983
  0
VERTEX
  8
CAPA_1
 62
    39
  6
CONTINUOUS
 10
11.417792
 20
4.587310
  0
VERTEX
  8
CAPA_1
 62
    39
  6
CONTINUOUS
 10
11.375151
 20
4.511479
  0
VERTEX
  8
CAPA_1
 62
    39
  6
CONTINUOUS
 10
11.324675
 20
4.441089
  0
VERTEX
  8
CAPA_1
 62
    39
  6
CONTINUOUS
 10
11.266963
 20
4.376738
  0
VERTEX
  8
CAPA_1
 62
    39
  6
CONTINUOUS
 10
11.202612
 20
4.319026
  0
VERTEX
  8
CAPA_1
 62
    39
  6
CONTINUOUS
 10
11.132222
 20
4.268550
  0
VERTEX
  8
CAPA_1
 62
    39
  6
CONTINUOUS
 10
11.056391
 20
4.225909
  0
VERTEX
  8
CAPA_1
 62
    39
  6
CONTINUOUS
 10
10.975718
 20
4.191702
  0
VERTEX
  8
CAPA_1
 62
    39
  6
CONTINUOUS
 10
10.890801
 20
4.166527
  0
VERTEX
  8
CAPA_1
 62
    39
  6
CONTINUOUS
 10
10.802239
 20
4.150984
  0
VERTEX
  8
CAPA_1
 62
    39
  6
CONTINUOUS
 10
10.710630
 20
4.145669
  0
VERTEX
  8
CAPA_1
 62
    39
  6
CONTINUOUS
 10
10.619021
 20
4.150984
  0
VERTEX
  8
CAPA_1
 62
    39
  6
CONTINUOUS
 10
10.530459
 20
4.166527
  0
VERTEX
  8
CAPA_1
 62
    39
  6
CONTINUOUS
 10
10.445542
 20
4.191702
  0
VERTEX
  8
CAPA_1
 62
    39
  6
CONTINUOUS
 10
10.364869
 20
4.225909
  0
VERTEX
  8
CAPA_1
 62
    39
  6
CONTINUOUS
 10
10.289038
 20
4.268550
  0
VERTEX
  8
CAPA_1
 62
    39
  6
CONTINUOUS
 10
10.218648
 20
4.319026
  0
VERTEX
  8
CAPA_1
 62
    39
  6
CONTINUOUS
 10
10.154297
 20
4.376738
  0
VERTEX
  8
CAPA_1
 62
    39
  6
CONTINUOUS
 10
10.096585
 20
4.441089
  0
VERTEX
  8
CAPA_1
 62
    39
  6
CONTINUOUS
 10
10.046109
 20
4.511479
  0
VERTEX
  8
CAPA_1
 62
    39
  6
CONTINUOUS
 10
10.003468
 20
4.587310
  0
VERTEX
  8
CAPA_1
 62
    39
  6
CONTINUOUS
 10
9.969261
 20
4.667983
  0
VERTEX
  8
CAPA_1
 62
    39
  6
CONTINUOUS
 10
9.944086
 20
4.752900
  0
VERTEX
  8
CAPA_1
 62
    39
  6
CONTINUOUS
 10
9.928543
 20
4.841462
  0
VERTEX
  8
CAPA_1
 62
    39
  6
CONTINUOUS
 10
9.923228
 20
4.933071
  0
VERTEX
  8
CAPA_1
 62
    39
  6
CONTINUOUS
 10
9.928543
 20
5.024680
  0
VERTEX
  8
CAPA_1
 62
    39
  6
CONTINUOUS
 10
9.944086
 20
5.113242
  0
VERTEX
  8
CAPA_1
 62
    39
  6
CONTINUOUS
 10
9.969261
 20
5.198159
  0
VERTEX
  8
CAPA_1
 62
    39
  6
CONTINUOUS
 10
10.003468
 20
5.278832
  0
VERTEX
  8
CAPA_1
 62
    39
  6
CONTINUOUS
 10
10.046109
 20
5.354663
  0
VERTEX
  8
CAPA_1
 62
    39
  6
CONTINUOUS
 10
10.096585
 20
5.425053
  0
VERTEX
  8
CAPA_1
 62
    39
  6
CONTINUOUS
 10
10.154297
 20
5.489404
  0
VERTEX
  8
CAPA_1
 62
    39
  6
CONTINUOUS
 10
10.218648
 20
5.547116
  0
VERTEX
  8
CAPA_1
 62
    39
  6
CONTINUOUS
 10
10.289038
 20
5.597592
  0
VERTEX
  8
CAPA_1
 62
    39
  6
CONTINUOUS
 10
10.364869
 20
5.640233
  0
VERTEX
  8
CAPA_1
 62
    39
  6
CONTINUOUS
 10
10.445542
 20
5.674440
  0
VERTEX
  8
CAPA_1
 62
    39
  6
CONTINUOUS
 10
10.530459
 20
5.699614
  0
VERTEX
  8
CAPA_1
 62
    39
  6
CONTINUOUS
 10
10.619021
 20
5.715158
  0
SEQEND
  8
0
  0
POLYLINE
  8
CAPA_1
 62
    39
  6
CONTINUOUS
 66
     1
 40
0.003000
 41
0.003000
 70
     1
  0
VERTEX
  8
CAPA_1
 62
    39
  6
CONTINUOUS
 10
10.710630
 20
5.444882
  0
VERTEX
  8
CAPA_1
 62
    39
  6
CONTINUOUS
 10
10.770164
 20
5.428717
  0
VERTEX
  8
CAPA_1
 62
    39
  6
CONTINUOUS
 10
10.812576
 20
5.386306
  0
VERTEX
  8
CAPA_1
 62
    39
  6
CONTINUOUS
 10
10.828740
 20
5.326772
  0
VERTEX
  8
CAPA_1
 62
    39
  6
CONTINUOUS
 10
10.812576
 20
5.267237
  0
VERTEX
  8
CAPA_1
 62
    39
  6
CONTINUOUS
 10
10.770164
 20
5.224826
  0
VERTEX
  8
CAPA_1
 62
    39
  6
CONTINUOUS
 10
10.710630
 20
5.208661
  0
VERTEX
  8
CAPA_1
 62
    39
  6
CONTINUOUS
 10
10.651095
 20
5.224826
  0
VERTEX
  8
CAPA_1
 62
    39
  6
CONTINUOUS
 10
10.608684
 20
5.267237
  0
VERTEX
  8
CAPA_1
 62
    39
  6
CONTINUOUS
 10
10.592520
 20
5.326772
  0
VERTEX
  8
CAPA_1
 62
    39
  6
CONTINUOUS
 10
10.608684
 20
5.386306
  0
VERTEX
  8
CAPA_1
 62
    39
  6
CONTINUOUS
 10
10.651095
 20
5.428717
  0
SEQEND
  8
0
  0
POLYLINE
  8
CAPA_1
 62
    39
  6
CONTINUOUS
 66
     1
 40
0.003000
 41
0.003000
 70
     1
  0
VERTEX
  8
CAPA_1
 62
    39
  6
CONTINUOUS
 10
10.710630
 20
4.992126
  0
VERTEX
  8
CAPA_1
 62
    39
  6
CONTINUOUS
 10
10.740397
 20
4.984044
  0
VERTEX
  8
CAPA_1
 62
    39
  6
CONTINUOUS
 10
10.761603
 20
4.962838
  0
VERTEX
  8
CAPA_1
 62
    39
  6
CONTINUOUS
 10
10.769685
 20
4.933071
  0
VERTEX
  8
CAPA_1
 62
    39
  6
CONTINUOUS
 10
10.761603
 20
4.903304
  0
VERTEX
  8
CAPA_1
 62
    39
  6
CONTINUOUS
 10
10.740397
 20
4.882098
  0
VERTEX
  8
CAPA_1
 62
    39
  6
CONTINUOUS
 10
10.710630
 20
4.874016
  0
VERTEX
  8
CAPA_1
 62
    39
  6
CONTINUOUS
 10
10.680863
 20
4.882098
  0
VERTEX
  8
CAPA_1
 62
    39
  6
CONTINUOUS
 10
10.659657
 20
4.903304
  0
VERTEX
  8
CAPA_1
 62
    39
  6
CONTINUOUS
 10
10.651575
 20
4.933071
  0
VERTEX
  8
CAPA_1
 62
    39
  6
CONTINUOUS
 10
10.659657
 20
4.962838
  0
VERTEX
  8
CAPA_1
 62
    39
  6
CONTINUOUS
 10
10.680863
 20
4.984044
  0
SEQEND
  8
0
  0
POLYLINE
  8
CAPA_1
 62
    39
  6
CONTINUOUS
 66
     1
 40
0.005780
 41
0.005780
  0
VERTEX
  8
CAPA_1
 62
    39
  6
CONTINUOUS
 10
-3.026535
 20
8.555118
  0
VERTEX
  8
CAPA_1
 62
    39
  6
CONTINUOUS
 10
-3.026535
 20
8.280535
  0
SEQEND
  8
0
  0
POLYLINE
  8
CAPA_1
 62
    39
  6
CONTINUOUS
 66
     1
 40
0.005780
 41
0.005780
  0
VERTEX
  8
CAPA_1
 62
    39
  6
CONTINUOUS
 10
-2.632835
 20
8.555118
  0
VERTEX
  8
CAPA_1
 62
    39
  6
CONTINUOUS
 10
-2.632835
 20
8.280535
  0
SEQEND
  8
0
  0
POLYLINE
  8
CAPA_1
 62
    39
  6
CONTINUOUS
 66
     1
 40
0.005780
 41
0.005780
  0
VERTEX
  8
CAPA_1
 62
    39
  6
CONTINUOUS
 10
-2.239134
 20
8.555118
  0
VERTEX
  8
CAPA_1
 62
    39
  6
CONTINUOUS
 10
-2.239134
 20
8.280535
  0
SEQEND
  8
0
  0
POLYLINE
  8
CAPA_1
 62
    39
  6
CONTINUOUS
 66
     1
 40
0.005780
 41
0.005780
  0
VERTEX
  8
CAPA_1
 62
    39
  6
CONTINUOUS
 10
-1.845433
 20
8.555118
  0
VERTEX
  8
CAPA_1
 62
    39
  6
CONTINUOUS
 10
-1.845433
 20
8.280535
  0
SEQEND
  8
0
  0
POLYLINE
  8
CAPA_1
 62
    39
  6
CONTINUOUS
 66
     1
 40
0.005780
 41
0.005780
  0
VERTEX
  8
CAPA_1
 62
    39
  6
CONTINUOUS
 10
-1.451732
 20
8.555118
  0
VERTEX
  8
CAPA_1
 62
    39
  6
CONTINUOUS
 10
-1.451732
 20
8.280535
  0
SEQEND
  8
0
  0
POLYLINE
  8
CAPA_1
 62
    39
  6
CONTINUOUS
 66
     1
 40
0.005780
 41
0.005780
  0
VERTEX
  8
CAPA_1
 62
    39
  6
CONTINUOUS
 10
-1.058031
 20
8.555118
  0
VERTEX
  8
CAPA_1
 62
    39
  6
CONTINUOUS
 10
-1.058031
 20
8.280535
  0
SEQEND
  8
0
  0
POLYLINE
  8
CAPA_1
 62
    39
  6
CONTINUOUS
 66
     1
 40
0.005780
 41
0.005780
  0
VERTEX
  8
CAPA_1
 62
    39
  6
CONTINUOUS
 10
-0.664331
 20
8.555118
  0
VERTEX
  8
CAPA_1
 62
    39
  6
CONTINUOUS
 10
-0.664331
 20
8.280535
  0
SEQEND
  8
0
  0
POLYLINE
  8
CAPA_1
 62
    39
  6
CONTINUOUS
 66
     1
 40
0.005780
 41
0.005780
  0
VERTEX
  8
CAPA_1
 62
    39
  6
CONTINUOUS
 10
-0.270630
 20
8.555118
  0
VERTEX
  8
CAPA_1
 62
    39
  6
CONTINUOUS
 10
-0.270630
 20
8.280535
  0
SEQEND
  8
0
  0
POLYLINE
  8
CAPA_1
 62
    39
  6
CONTINUOUS
 66
     1
 40
0.005780
 41
0.005780
  0
VERTEX
  8
CAPA_1
 62
    39
  6
CONTINUOUS
 10
0.123071
 20
8.555118
  0
VERTEX
  8
CAPA_1
 62
    39
  6
CONTINUOUS
 10
0.123071
 20
8.280535
  0
SEQEND
  8
0
  0
POLYLINE
  8
CAPA_1
 62
    39
  6
CONTINUOUS
 66
     1
 40
0.005780
 41
0.005780
  0
VERTEX
  8
CAPA_1
 62
    39
  6
CONTINUOUS
 10
0.516772
 20
8.555118
  0
VERTEX
  8
CAPA_1
 62
    39
  6
CONTINUOUS
 10
0.516772
 20
8.280535
  0
SEQEND
  8
0
  0
POLYLINE
  8
CAPA_1
 62
    39
  6
CONTINUOUS
 66
     1
 40
0.005780
 41
0.005780
  0
VERTEX
  8
CAPA_1
 62
    39
  6
CONTINUOUS
 10
0.910472
 20
8.555118
  0
VERTEX
  8
CAPA_1
 62
    39
  6
CONTINUOUS
 10
0.910472
 20
8.280535
  0
SEQEND
  8
0
  0
SOLID
  8
CAPA_1
 62
    39
 10
-3.026535
 20
8.476378
 11
-2.632835
 21
8.476378
 12
-3.026535
 22
8.555118
 13
-2.632835
 23
8.555118
  0
POLYLINE
  8
CAPA_1
 62
    39
  6
CONTINUOUS
 66
     1
 40
0.005780
 41
0.005780
 70
     1
  0
VERTEX
  8
CAPA_1
 62
    39
  6
CONTINUOUS
 10
-3.026535
 20
8.476378
  0
VERTEX
  8
CAPA_1
 62
    39
  6
CONTINUOUS
 10
-2.632835
 20
8.476378
  0
VERTEX
  8
CAPA_1
 62
    39
  6
CONTINUOUS
 10
-2.632835
 20
8.555118
  0
VERTEX
  8
CAPA_1
 62
    39
  6
CONTINUOUS
 10
-3.026535
 20
8.555118
  0
SEQEND
  8
0
  0
SOLID
  8
CAPA_1
 62
    39
 10
-2.239134
 20
8.476378
 11
-1.845433
 21
8.476378
 12
-2.239134
 22
8.555118
 13
-1.845433
 23
8.555118
  0
POLYLINE
  8
CAPA_1
 62
    39
  6
CONTINUOUS
 66
     1
 40
0.005780
 41
0.005780
 70
     1
  0
VERTEX
  8
CAPA_1
 62
    39
  6
CONTINUOUS
 10
-2.239134
 20
8.476378
  0
VERTEX
  8
CAPA_1
 62
    39
  6
CONTINUOUS
 10
-1.845433
 20
8.476378
  0
VERTEX
  8
CAPA_1
 62
    39
  6
CONTINUOUS
 10
-1.845433
 20
8.555118
  0
VERTEX
  8
CAPA_1
 62
    39
  6
CONTINUOUS
 10
-2.239134
 20
8.555118
  0
SEQEND
  8
0
  0
SOLID
  8
CAPA_1
 62
    39
 10
-1.451732
 20
8.476378
 11
-1.058031
 21
8.476378
 12
-1.451732
 22
8.555118
 13
-1.058031
 23
8.555118
  0
POLYLINE
  8
CAPA_1
 62
    39
  6
CONTINUOUS
 66
     1
 40
0.005780
 41
0.005780
 70
     1
  0
VERTEX
  8
CAPA_1
 62
    39
  6
CONTINUOUS
 10
-1.451732
 20
8.476378
  0
VERTEX
  8
CAPA_1
 62
    39
  6
CONTINUOUS
 10
-1.058031
 20
8.476378
  0
VERTEX
  8
CAPA_1
 62
    39
  6
CONTINUOUS
 10
-1.058031
 20
8.555118
  0
VERTEX
  8
CAPA_1
 62
    39
  6
CONTINUOUS
 10
-1.451732
 20
8.555118
  0
SEQEND
  8
0
  0
SOLID
  8
CAPA_1
 62
    39
 10
-0.664331
 20
8.476378
 11
-0.270630
 21
8.476378
 12
-0.664331
 22
8.555118
 13
-0.270630
 23
8.555118
  0
POLYLINE
  8
CAPA_1
 62
    39
  6
CONTINUOUS
 66
     1
 40
0.005780
 41
0.005780
 70
     1
  0
VERTEX
  8
CAPA_1
 62
    39
  6
CONTINUOUS
 10
-0.664331
 20
8.476378
  0
VERTEX
  8
CAPA_1
 62
    39
  6
CONTINUOUS
 10
-0.270630
 20
8.476378
  0
VERTEX
  8
CAPA_1
 62
    39
  6
CONTINUOUS
 10
-0.270630
 20
8.555118
  0
VERTEX
  8
CAPA_1
 62
    39
  6
CONTINUOUS
 10
-0.664331
 20
8.555118
  0
SEQEND
  8
0
  0
SOLID
  8
CAPA_1
 62
    39
 10
0.123071
 20
8.476378
 11
0.516772
 21
8.476378
 12
0.123071
 22
8.555118
 13
0.516772
 23
8.555118
  0
POLYLINE
  8
CAPA_1
 62
    39
  6
CONTINUOUS
 66
     1
 40
0.005780
 41
0.005780
 70
     1
  0
VERTEX
  8
CAPA_1
 62
    39
  6
CONTINUOUS
 10
0.123071
 20
8.476378
  0
VERTEX
  8
CAPA_1
 62
    39
  6
CONTINUOUS
 10
0.516772
 20
8.476378
  0
VERTEX
  8
CAPA_1
 62
    39
  6
CONTINUOUS
 10
0.516772
 20
8.555118
  0
VERTEX
  8
CAPA_1
 62
    39
  6
CONTINUOUS
 10
0.123071
 20
8.555118
  0
SEQEND
  8
0
  0
SOLID
  8
CAPA_1
 62
    39
 10
-2.632835
 20
8.397638
 11
-2.239134
 21
8.397638
 12
-2.632835
 22
8.476378
 13
-2.239134
 23
8.476378
  0
POLYLINE
  8
CAPA_1
 62
    39
  6
CONTINUOUS
 66
     1
 40
0.005780
 41
0.005780
 70
     1
  0
VERTEX
  8
CAPA_1
 62
    39
  6
CONTINUOUS
 10
-2.632835
 20
8.397638
  0
VERTEX
  8
CAPA_1
 62
    39
  6
CONTINUOUS
 10
-2.239134
 20
8.397638
  0
VERTEX
  8
CAPA_1
 62
    39
  6
CONTINUOUS
 10
-2.239134
 20
8.476378
  0
VERTEX
  8
CAPA_1
 62
    39
  6
CONTINUOUS
 10
-2.632835
 20
8.476378
  0
SEQEND
  8
0
  0
SOLID
  8
CAPA_1
 62
    39
 10
-1.845433
 20
8.397638
 11
-1.451732
 21
8.397638
 12
-1.845433
 22
8.476378
 13
-1.451732
 23
8.476378
  0
POLYLINE
  8
CAPA_1
 62
    39
  6
CONTINUOUS
 66
     1
 40
0.005780
 41
0.005780
 70
     1
  0
VERTEX
  8
CAPA_1
 62
    39
  6
CONTINUOUS
 10
-1.845433
 20
8.397638
  0
VERTEX
  8
CAPA_1
 62
    39
  6
CONTINUOUS
 10
-1.451732
 20
8.397638
  0
VERTEX
  8
CAPA_1
 62
    39
  6
CONTINUOUS
 10
-1.451732
 20
8.476378
  0
VERTEX
  8
CAPA_1
 62
    39
  6
CONTINUOUS
 10
-1.845433
 20
8.476378
  0
SEQEND
  8
0
  0
SOLID
  8
CAPA_1
 62
    39
 10
-1.058031
 20
8.397638
 11
-0.664331
 21
8.397638
 12
-1.058031
 22
8.476378
 13
-0.664331
 23
8.476378
  0
POLYLINE
  8
CAPA_1
 62
    39
  6
CONTINUOUS
 66
     1
 40
0.005780
 41
0.005780
 70
     1
  0
VERTEX
  8
CAPA_1
 62
    39
  6
CONTINUOUS
 10
-1.058031
 20
8.397638
  0
VERTEX
  8
CAPA_1
 62
    39
  6
CONTINUOUS
 10
-0.664331
 20
8.397638
  0
VERTEX
  8
CAPA_1
 62
    39
  6
CONTINUOUS
 10
-0.664331
 20
8.476378
  0
VERTEX
  8
CAPA_1
 62
    39
  6
CONTINUOUS
 10
-1.058031
 20
8.476378
  0
SEQEND
  8
0
  0
SOLID
  8
CAPA_1
 62
    39
 10
-0.270630
 20
8.397638
 11
0.123071
 21
8.397638
 12
-0.270630
 22
8.476378
 13
0.123071
 23
8.476378
  0
POLYLINE
  8
CAPA_1
 62
    39
  6
CONTINUOUS
 66
     1
 40
0.005780
 41
0.005780
 70
     1
  0
VERTEX
  8
CAPA_1
 62
    39
  6
CONTINUOUS
 10
-0.270630
 20
8.397638
  0
VERTEX
  8
CAPA_1
 62
    39
  6
CONTINUOUS
 10
0.123071
 20
8.397638
  0
VERTEX
  8
CAPA_1
 62
    39
  6
CONTINUOUS
 10
0.123071
 20
8.476378
  0
VERTEX
  8
CAPA_1
 62
    39
  6
CONTINUOUS
 10
-0.270630
 20
8.476378
  0
SEQEND
  8
0
  0
SOLID
  8
CAPA_1
 62
    39
 10
0.516772
 20
8.397638
 11
0.910472
 21
8.397638
 12
0.516772
 22
8.476378
 13
0.910472
 23
8.476378
  0
POLYLINE
  8
CAPA_1
 62
    39
  6
CONTINUOUS
 66
     1
 40
0.005780
 41
0.005780
 70
     1
  0
VERTEX
  8
CAPA_1
 62
    39
  6
CONTINUOUS
 10
0.516772
 20
8.397638
  0
VERTEX
  8
CAPA_1
 62
    39
  6
CONTINUOUS
 10
0.910472
 20
8.397638
  0
VERTEX
  8
CAPA_1
 62
    39
  6
CONTINUOUS
 10
0.910472
 20
8.476378
  0
VERTEX
  8
CAPA_1
 62
    39
  6
CONTINUOUS
 10
0.516772
 20
8.476378
  0
SEQEND
  8
0
  0
TEXT
  8
CAPA_1
 62
    39
 10
-3.068898
 20
8.168472
 40
0.137205
  1
0
 41
1.000000
  7
SN0
 71
     0
 72
     5
 11
-2.976282
 21
8.168472
  0
TEXT
  8
CAPA_1
 62
    39
 10
-2.675197
 20
8.168472
 40
0.137205
  1
1
 41
1.000000
  7
SN0
 71
     0
 72
     5
 11
-2.582582
 21
8.168472
  0
TEXT
  8
CAPA_1
 62
    39
 10
-2.281496
 20
8.168472
 40
0.137205
  1
2
 41
1.000000
  7
SN0
 71
     0
 72
     5
 11
-2.188881
 21
8.168472
  0
TEXT
  8
CAPA_1
 62
    39
 10
-1.887795
 20
8.168472
 40
0.137205
  1
3
 41
1.000000
  7
SN0
 71
     0
 72
     5
 11
-1.795180
 21
8.168472
  0
TEXT
  8
CAPA_1
 62
    39
 10
-1.494094
 20
8.168472
 40
0.137205
  1
4
 41
1.000000
  7
SN0
 71
     0
 72
     5
 11
-1.401479
 21
8.168472
  0
TEXT
  8
CAPA_1
 62
    39
 10
-1.100394
 20
8.168472
 40
0.137205
  1
5
 41
1.000000
  7
SN0
 71
     0
 72
     5
 11
-1.007778
 21
8.168472
  0
TEXT
  8
CAPA_1
 62
    39
 10
-0.706693
 20
8.168472
 40
0.137205
  1
6
 41
1.000000
  7
SN0
 71
     0
 72
     5
 11
-0.614078
 21
8.168472
  0
TEXT
  8
CAPA_1
 62
    39
 10
-0.312992
 20
8.168472
 40
0.137205
  1
7
 41
1.000000
  7
SN0
 71
     0
 72
     5
 11
-0.220377
 21
8.168472
  0
TEXT
  8
CAPA_1
 62
    39
 10
0.080709
 20
8.168472
 40
0.137205
  1
8
 41
1.000000
  7
SN0
 71
     0
 72
     5
 11
0.173324
 21
8.168472
  0
TEXT
  8
CAPA_1
 62
    39
 10
0.474409
 20
8.168472
 40
0.137205
  1
9
 41
1.000000
  7
SN0
 71
     0
 72
     5
 11
0.567025
 21
8.168472
  0
TEXT
  8
CAPA_1
 62
    39
 10
0.821764
 20
8.168472
 40
0.137205
  1
10
 41
1.000000
  7
SN0
 71
     0
 72
     5
 11
1.006994
 21
8.168472
  0
ENDSEC
  0
EOF
