  0
SECTION
  2
HEADER
  9
$ACADVER
  1
AC1009
  9
$DWGCODEPAGE
  3
ansi_1252
  9
$INSBASE
 10
0.0
 20
0.0
 30
0.0
  9
$EXTMIN
 10
-166.4136866269117
 20
312.5504636445745
 30
223.8626164114116
  9
$EXTMAX
 10
-40.69180354946036
 20
373.9088419848813
 30
229.4644216371469
  9
$LIMMIN
 10
0.0
 20
0.0
  9
$LIMMAX
 10
12.0
 20
9.0
  9
$ORTHOMODE
 70
     0
  9
$REGENMODE
 70
     1
  9
$FILLMODE
 70
     1
  9
$QTEXTMODE
 70
     0
  9
$MIRRTEXT
 70
     1
  9
$DRAGMODE
 70
     2
  9
$LTSCALE
 40
1.0
  9
$OSMODE
 70
    37
  9
$ATTMODE
 70
     1
  9
$TEXTSIZE
 40
0.2
  9
$TRACEWID
 40
0.05
  9
$TEXTSTYLE
  7
STANDARD
  9
$CLAYER
  8
DEFAULT
  9
$CELTYPE
  6
BYLAYER
  9
$CECOLOR
 62
   256
  9
$DIMSCALE
 40
1.0
  9
$DIMASZ
 40
0.18
  9
$DIMEXO
 40
0.0625
  9
$DIMDLI
 40
0.38
  9
$DIMRND
 40
0.0
  9
$DIMDLE
 40
0.0
  9
$DIMEXE
 40
0.18
  9
$DIMTP
 40
0.0
  9
$DIMTM
 40
0.0
  9
$DIMTXT
 40
0.18
  9
$DIMCEN
 40
0.09
  9
$DIMTSZ
 40
0.0
  9
$DIMTOL
 70
     0
  9
$DIMLIM
 70
     0
  9
$DIMTIH
 70
     1
  9
$DIMTOH
 70
     1
  9
$DIMSE1
 70
     0
  9
$DIMSE2
 70
     0
  9
$DIMTAD
 70
     0
  9
$DIMZIN
 70
     0
  9
$DIMBLK
  1

  9
$DIMASO
 70
     1
  9
$DIMSHO
 70
     1
  9
$DIMPOST
  1

  9
$DIMAPOST
  1

  9
$DIMALT
 70
     0
  9
$DIMALTD
 70
     2
  9
$DIMALTF
 40
25.4
  9
$DIMLFAC
 40
1.0
  9
$DIMTOFL
 70
     0
  9
$DIMTVP
 40
0.0
  9
$DIMTIX
 70
     0
  9
$DIMSOXD
 70
     0
  9
$DIMSAH
 70
     0
  9
$DIMBLK1
  1

  9
$DIMBLK2
  1

  9
$DIMSTYLE
  2
STANDARD
  9
$DIMCLRD
 70
     0
  9
$DIMCLRE
 70
     0
  9
$DIMCLRT
 70
     0
  9
$DIMTFAC
 40
1.0
  9
$DIMGAP
 40
0.09
  9
$LUNITS
 70
     2
  9
$LUPREC
 70
     2
  9
$SKETCHINC
 40
0.1
  9
$FILLETRAD
 40
0.5
  9
$AUNITS
 70
     0
  9
$AUPREC
 70
     0
  9
$MENU
  1
.
  9
$ELEVATION
 40
0.0
  9
$PELEVATION
 40
0.0
  9
$THICKNESS
 40
0.0
  9
$LIMCHECK
 70
     0
  9
$CHAMFERA
 40
0.5
  9
$CHAMFERB
 40
0.5
  9
$SKPOLY
 70
     0
  9
$TDCREATE
 40
2456067.800988137
  9
$TDUPDATE
 40
2456067.800988148
  9
$TDINDWG
 40
0.0000000116
  9
$TDUSRTIMER
 40
0.0000000116
  9
$USRTIMER
 70
     1
  9
$ANGBASE
 50
0.0
  9
$ANGDIR
 70
     0
  9
$PDMODE
 70
     0
  9
$PDSIZE
 40
0.0
  9
$PLINEWID
 40
0.0
  9
$COORDS
 70
     1
  9
$SPLFRAME
 70
     0
  9
$SPLINETYPE
 70
     6
  9
$SPLINESEGS
 70
     8
  9
$ATTDIA
 70
     0
  9
$ATTREQ
 70
     1
  9
$HANDLING
 70
     1
  9
$HANDSEED
  5
438
  9
$SURFTAB1
 70
     6
  9
$SURFTAB2
 70
     6
  9
$SURFTYPE
 70
     6
  9
$SURFU
 70
     6
  9
$SURFV
 70
     6
  9
$UCSNAME
  2

  9
$UCSORG
 10
0.0
 20
0.0
 30
0.0
  9
$UCSXDIR
 10
1.0
 20
0.0
 30
0.0
  9
$UCSYDIR
 10
0.0
 20
1.0
 30
0.0
  9
$PUCSNAME
  2

  9
$PUCSORG
 10
0.0
 20
0.0
 30
0.0
  9
$PUCSXDIR
 10
1.0
 20
0.0
 30
0.0
  9
$PUCSYDIR
 10
0.0
 20
1.0
 30
0.0
  9
$USERI1
 70
     0
  9
$USERI2
 70
     0
  9
$USERI3
 70
     0
  9
$USERI4
 70
     0
  9
$USERI5
 70
     0
  9
$USERR1
 40
0.0
  9
$USERR2
 40
0.0
  9
$USERR3
 40
0.0
  9
$USERR4
 40
0.0
  9
$USERR5
 40
0.0
  9
$WORLDVIEW
 70
     1
  9
$SHADEDGE
 70
     3
  9
$SHADEDIF
 70
    70
  9
$TILEMODE
 70
     1
  9
$MAXACTVP
 70
    64
  9
$PLIMCHECK
 70
     0
  9
$PEXTMIN
 10
1.000000000000000E+20
 20
1.000000000000000E+20
 30
1.000000000000000E+20
  9
$PEXTMAX
 10
-1.000000000000000E+20
 20
-1.000000000000000E+20
 30
-1.000000000000000E+20
  9
$PLIMMIN
 10
0.0
 20
0.0
  9
$PLIMMAX
 10
12.0
 20
9.0
  9
$UNITMODE
 70
     0
  9
$VISRETAIN
 70
     1
  9
$PLINEGEN
 70
     0
  9
$PSLTSCALE
 70
     1
  0
ENDSEC
  0
SECTION
  2
TABLES
  0
TABLE
  2
VPORT
 70
     1
  0
VPORT
  2
*ACTIVE
 70
     0
 10
0.0
 20
0.0
 11
1.0
 21
1.0
 12
0.0
 22
0.0
 13
0.0
 23
0.0
 14
0.5
 24
0.5
 15
0.5
 25
0.5
 16
0.0
 26
0.0
 36
1.0
 17
-103.552745088186
 27
343.2296528147279
 37
0.0
 40
62.58554590711292
 41
2.048976626796926
 42
50.0
 43
0.0
 44
0.0
 50
0.0
 51
0.0
 71
     0
 72
   100
 73
     1
 74
     3
 75
     0
 76
     0
 77
     0
 78
     0
  0
ENDTAB
  0
TABLE
  2
LTYPE
 70
     1
  0
LTYPE
  2
CONTINUOUS
 70
     0
  3
Solid line
 72
    65
 73
     0
 40
0.0
  0
ENDTAB
  0
TABLE
  2
LAYER
 70
     2
  0
LAYER
  2
0
 70
     0
 62
     7
  6
CONTINUOUS
  0
LAYER
  2
DEFAULT
 70
     0
 62
     7
  6
CONTINUOUS
  0
ENDTAB
  0
TABLE
  2
STYLE
 70
     1
  0
STYLE
  2
STANDARD
 70
     0
 40
0.0
 41
1.0
 50
0.0
 71
     0
 42
0.2
  3
txt
  4

  0
ENDTAB
  0
TABLE
  2
VIEW
 70
     0
  0
ENDTAB
  0
TABLE
  2
UCS
 70
     0
  0
ENDTAB
  0
TABLE
  2
APPID
 70
     1
  0
APPID
  2
ACAD
 70
     0
  0
ENDTAB
  0
TABLE
  2
DIMSTYLE
 70
     1
  0
DIMSTYLE
  2
STANDARD
 70
     0
  3

  4

  5

  6

  7

 40
1.0
 41
0.18
 42
0.0625
 43
0.38
 44
0.18
 45
0.0
 46
0.0
 47
0.0
 48
0.0
140
0.18
141
0.09
142
0.0
143
25.4
144
1.0
145
0.0
146
1.0
147
0.09
 71
     0
 72
     0
 73
     1
 74
     1
 75
     0
 76
     0
 77
     0
 78
     0
170
     0
171
     2
172
     0
173
     0
174
     0
175
     0
176
     0
177
     0
178
     0
  0
ENDTAB
  0
ENDSEC
  0
SECTION
  2
BLOCKS
  0
BLOCK
  8
0
  2
$MODEL_SPACE
 70
     0
 10
0.0
 20
0.0
 30
0.0
  3
$MODEL_SPACE
  1

  0
ENDBLK
  5
21
  8
0
  0
BLOCK
 67
     1
  8
0
  2
$PAPER_SPACE
 70
     0
 10
0.0
 20
0.0
 30
0.0
  3
$PAPER_SPACE
  1

  0
ENDBLK
  5
1D
 67
     1
  8
0
  0
ENDSEC
  0
SECTION
  2
ENTITIES
  0
POLYLINE
  5
2B
  8
DEFAULT
 66
     1
 10
0.0
 20
0.0
 30
223.8620320977953
210
1.435889620738050E-5
220
8.008487540786873E-15
230
0.9999999998969111
  0
VERTEX
  5
2D
  8
DEFAULT
 10
-158.6508206716773
 20
325.6960345486639
 30
223.8620320977953
  0
VERTEX
  5
2E
  8
DEFAULT
 10
-158.6503279510645
 20
323.0516426611405
 30
223.8620320977953
  0
VERTEX
  5
2F
  8
DEFAULT
 10
-158.6488322850887
 20
323.0068740603664
 30
223.8620320977953
  0
VERTEX
  5
30
  8
DEFAULT
 10
-158.6463080375223
 20
322.9617580698848
 30
223.8620320977952
  0
VERTEX
  5
31
  8
DEFAULT
 10
-158.6427304889031
 20
322.9163256728683
 30
223.8620320977953
  0
VERTEX
  5
32
  8
DEFAULT
 10
-158.6380759507349
 20
322.870609492696
 30
223.8620320977952
  0
VERTEX
  5
33
  8
DEFAULT
 10
-158.6323218810138
 20
322.8246437651098
 30
223.8620320977953
  0
VERTEX
  5
34
  8
DEFAULT
 10
-158.6254470004263
 20
322.7784643016138
 30
223.8620320977952
  0
VERTEX
  5
35
  8
DEFAULT
 10
-158.6174314085105
 20
322.7321084438394
 30
223.8620320977952
  0
VERTEX
  5
36
  8
DEFAULT
 10
-158.6082566990297
 20
322.6856150086525
 30
223.8620320977952
  0
VERTEX
  5
37
  8
DEFAULT
 10
-158.5979060737628
 20
322.6390242238508
 30
223.8620320977953
  0
VERTEX
  5
38
  8
DEFAULT
 10
-158.5863644538809
 20
322.5923776543666
 30
223.8620320977953
  0
VERTEX
  5
39
  8
DEFAULT
 10
-158.5736185880514
 20
322.545718118973
 30
223.8620320977953
  0
VERTEX
  5
3A
  8
DEFAULT
 10
-158.5596571563889
 20
322.4990895975717
 30
223.8620320977953
  0
VERTEX
  5
3B
  8
DEFAULT
 10
-158.5444708693607
 20
322.4525371292332
 30
223.8620320977953
  0
VERTEX
  5
3C
  8
DEFAULT
 10
-158.5280525607522
 20
322.4061067012474
 30
223.8620320977953
  0
VERTEX
  5
3D
  8
DEFAULT
 10
-158.5103972738022
 20
322.35984512954
 30
223.8620320977952
  0
VERTEX
  5
3E
  8
DEFAULT
 10
-158.4915023396413
 20
322.3137999309042
 30
223.8620320977952
  0
VERTEX
  5
3F
  8
DEFAULT
 10
-158.4713674471908
 20
322.2680191875941
 30
223.8620320977953
  0
VERTEX
  5
40
  8
DEFAULT
 10
-158.4499947037233
 20
322.2225514049159
 30
223.8620320977953
  0
VERTEX
  5
41
  8
DEFAULT
 10
-158.4273886853368
 20
322.1774453625518
 30
223.8620320977953
  0
VERTEX
  5
42
  8
DEFAULT
 10
-158.4035564766596
 20
322.1327499604277
 30
223.8620320977953
  0
VERTEX
  5
43
  8
DEFAULT
 10
-158.3785076991722
 20
322.0885140600255
 30
223.8620320977953
  0
VERTEX
  5
44
  8
DEFAULT
 10
-158.3522545276248
 20
322.0447863221086
 30
223.8620320977953
  0
VERTEX
  5
45
  8
DEFAULT
 10
-158.3248116941146
 20
322.0016150418936
 30
223.8620320977953
  0
VERTEX
  5
46
  8
DEFAULT
 10
-158.296196479495
 20
321.9590479827588
 30
223.8620320977952
  0
VERTEX
  5
47
  8
DEFAULT
 10
-158.2664286918953
 20
321.9171322096182
 30
223.8620320977953
  0
VERTEX
  5
48
  8
DEFAULT
 10
-158.2355306322468
 20
321.8759139231224
 30
223.8620320977953
  0
VERTEX
  5
49
  8
DEFAULT
 10
-158.203527046827
 20
321.8354382958653
 30
223.8620320977953
  0
VERTEX
  5
4A
  8
DEFAULT
 10
-158.1704450669597
 20
321.7957493117781
 30
223.8620320977953
  0
VERTEX
  5
4B
  8
DEFAULT
 10
-158.1363141361288
 20
321.7568896098794
 30
223.8620320977953
  0
VERTEX
  5
4C
  8
DEFAULT
 10
-158.1011659248861
 20
321.7189003335291
 30
223.8620320977952
  0
VERTEX
  5
4D
  8
DEFAULT
 10
-158.0650342340504
 20
321.6818209862907
 30
223.8620320977953
  0
VERTEX
  5
4E
  8
DEFAULT
 10
-158.027954886812
 20
321.6456892954549
 30
223.8620320977952
  0
VERTEX
  5
4F
  8
DEFAULT
 10
-157.9899656104616
 20
321.6105410842122
 30
223.8620320977952
  0
VERTEX
  5
50
  8
DEFAULT
 10
-157.951105908563
 20
321.5764101533815
 30
223.8620320977952
  0
VERTEX
  5
51
  8
DEFAULT
 10
-157.9114169244757
 20
321.5433281735141
 30
223.8620320977952
  0
VERTEX
  5
52
  8
DEFAULT
 10
-157.8709412972187
 20
321.5113245880942
 30
223.8620320977952
  0
VERTEX
  5
53
  8
DEFAULT
 10
-157.8297230107229
 20
321.4804265284458
 30
223.8620320977952
  0
VERTEX
  5
54
  8
DEFAULT
 10
-157.7878072375823
 20
321.4506587408461
 30
223.8620320977952
  0
VERTEX
  5
55
  8
DEFAULT
 10
-157.7452401784476
 20
321.4220435262265
 30
223.8620320977952
  0
VERTEX
  5
56
  8
DEFAULT
 10
-157.7020688982326
 20
321.3946006927163
 30
223.8620320977952
  0
VERTEX
  5
57
  8
DEFAULT
 10
-157.6583411603156
 20
321.368347521169
 30
223.8620320977953
  0
VERTEX
  5
58
  8
DEFAULT
 10
-157.6141052599134
 20
321.3432987436816
 30
223.8620320977952
  0
VERTEX
  5
59
  8
DEFAULT
 10
-157.5694098577893
 20
321.3194665350043
 30
223.8620320977952
  0
VERTEX
  5
5A
  8
DEFAULT
 10
-157.5243038154251
 20
321.2968605166179
 30
223.8620320977952
  0
VERTEX
  5
5B
  8
DEFAULT
 10
-157.4788360327469
 20
321.2754877731504
 30
223.8620320977952
  0
VERTEX
  5
5C
  8
DEFAULT
 10
-157.4330552894367
 20
321.2553528806998
 30
223.8620320977952
  0
VERTEX
  5
5D
  8
DEFAULT
 10
-157.387010090801
 20
321.2364579465389
 30
223.8620320977952
  0
VERTEX
  5
5E
  8
DEFAULT
 10
-157.3407485190936
 20
321.2188026595889
 30
223.8620320977953
  0
VERTEX
  5
5F
  8
DEFAULT
 10
-157.2943180911078
 20
321.2023843509804
 30
223.8620320977952
  0
VERTEX
  5
60
  8
DEFAULT
 10
-157.2477656227693
 20
321.1871980639523
 30
223.8620320977952
  0
VERTEX
  5
61
  8
DEFAULT
 10
-157.2011371013679
 20
321.1732366322897
 30
223.8620320977952
  0
VERTEX
  5
62
  8
DEFAULT
 10
-157.1544775659742
 20
321.1604907664602
 30
223.8620320977952
  0
VERTEX
  5
63
  8
DEFAULT
 10
-157.1078309964901
 20
321.1489491465783
 30
223.8620320977952
  0
VERTEX
  5
64
  8
DEFAULT
 10
-157.0612402116884
 20
321.1385985213114
 30
223.8620320977952
  0
VERTEX
  5
65
  8
DEFAULT
 10
-157.0147467765015
 20
321.1294238118306
 30
223.8620320977952
  0
VERTEX
  5
66
  8
DEFAULT
 10
-156.9683909187271
 20
321.1214082199148
 30
223.8620320977952
  0
VERTEX
  5
67
  8
DEFAULT
 10
-156.9222114552311
 20
321.1145333393274
 30
223.8620320977952
  0
VERTEX
  5
68
  8
DEFAULT
 10
-156.8762457276449
 20
321.1087792696064
 30
223.8620320977952
  0
VERTEX
  5
69
  8
DEFAULT
 10
-156.8305295474726
 20
321.1041247314381
 30
223.8620320977952
  0
VERTEX
  5
6A
  8
DEFAULT
 10
-156.7850971504559
 20
321.1005471828188
 30
223.8620320977952
  0
VERTEX
  5
6B
  8
DEFAULT
 10
-156.7399811599744
 20
321.0980229352525
 30
223.8620320977952
  0
VERTEX
  5
6C
  8
DEFAULT
 10
-156.6952125592004
 20
321.0965272692767
 30
223.8620320977952
  0
VERTEX
  5
6D
  8
DEFAULT
 10
-154.0008206716772
 20
321.0960345486639
 30
223.8620320977953
  0
SEQEND
  5
2C
  8
DEFAULT
  0
LINE
  5
6E
  8
DEFAULT
 10
-166.4136866269117
 20
325.6960345486658
 30
223.864421637724
 11
-158.6476062436385
 21
325.6960345486658
 31
223.8643101253822
  0
LINE
  5
6F
  8
DEFAULT
 10
-166.4136866269117
 20
365.366034128453
 30
223.864421637724
 11
-166.4136866269117
 21
325.6960345486658
 31
223.864421637724
  0
LINE
  5
70
  8
DEFAULT
 10
-131.7527852901884
 20
365.366034128453
 30
223.8639239454401
 11
-166.4136866269117
 21
365.366034128453
 31
223.864421637724
  0
LINE
  5
71
  8
DEFAULT
 10
-75.35278529600248
 20
365.366034128453
 30
223.8631141036956
 11
-75.35278529600248
 21
373.9088419848812
 31
223.8631141036956
  0
LINE
  5
72
  8
DEFAULT
 10
-40.69188395927938
 20
365.366034128453
 30
223.8626164114116
 11
-75.35278529600248
 21
365.366034128453
 31
223.8631141036956
  0
LINE
  5
73
  8
DEFAULT
 10
-40.69188395927938
 20
325.6960345486658
 30
223.8626164114116
 11
-40.69188395927938
 21
365.366034128453
 31
223.8626164114116
  0
LINE
  5
74
  8
DEFAULT
 10
-48.4579643425526
 20
325.6960345486658
 30
223.8627279237537
 11
-40.69188395927938
 21
325.6960345486658
 31
223.8626164114116
  0
POLYLINE
  5
75
  8
DEFAULT
 66
     1
 10
0.0
 20
0.0
 30
223.8620320978115
210
1.435889615826652E-5
220
4.164005413144858E-14
230
0.9999999998969112
  0
VERTEX
  5
77
  8
DEFAULT
 10
-53.11117875922102
 20
321.0960345486564
 30
223.8620320978115
  0
VERTEX
  5
78
  8
DEFAULT
 10
-50.41678687169806
 20
321.0965272692692
 30
223.8620320978115
  0
VERTEX
  5
79
  8
DEFAULT
 10
-50.37201827092395
 20
321.098022935245
 30
223.8620320978114
  0
VERTEX
  5
7A
  8
DEFAULT
 10
-50.32690228044245
 20
321.1005471828113
 30
223.8620320978114
  0
VERTEX
  5
7B
  8
DEFAULT
 10
-50.28146988342585
 20
321.1041247314306
 30
223.8620320978115
  0
VERTEX
  5
7C
  8
DEFAULT
 10
-50.23575370325353
 20
321.1087792695989
 30
223.8620320978115
  0
VERTEX
  5
7D
  8
DEFAULT
 10
-50.18978797566727
 20
321.1145333393198
 30
223.8620320978115
  0
VERTEX
  5
7E
  8
DEFAULT
 10
-50.14360851217138
 20
321.1214082199073
 30
223.8620320978115
  0
VERTEX
  5
7F
  8
DEFAULT
 10
-50.09725265439695
 20
321.1294238118231
 30
223.8620320978115
  0
VERTEX
  5
80
  8
DEFAULT
 10
-50.05075921921006
 20
321.1385985213039
 30
223.8620320978115
  0
VERTEX
  5
81
  8
DEFAULT
 10
-50.00416843440835
 20
321.1489491465708
 30
223.8620320978115
  0
VERTEX
  5
82
  8
DEFAULT
 10
-49.95752186492419
 20
321.1604907664527
 30
223.8620320978115
  0
VERTEX
  5
83
  8
DEFAULT
 10
-49.9108623295305
 20
321.1732366322822
 30
223.8620320978115
  0
VERTEX
  5
84
  8
DEFAULT
 10
-49.86423380812917
 20
321.1871980639448
 30
223.8620320978115
  0
VERTEX
  5
85
  8
DEFAULT
 10
-49.81768133979068
 20
321.2023843509729
 30
223.8620320978114
  0
VERTEX
  5
86
  8
DEFAULT
 10
-49.7712509118049
 20
321.2188026595814
 30
223.8620320978115
  0
VERTEX
  5
87
  8
DEFAULT
 10
-49.72498934009748
 20
321.2364579465314
 30
223.8620320978114
  0
VERTEX
  5
88
  8
DEFAULT
 10
-49.67894414146177
 20
321.2553528806923
 30
223.8620320978115
  0
VERTEX
  5
89
  8
DEFAULT
 10
-49.63316339815152
 20
321.2754877731429
 30
223.8620320978115
  0
VERTEX
  5
8A
  8
DEFAULT
 10
-49.58769561547335
 20
321.2968605166104
 30
223.8620320978115
  0
VERTEX
  5
8B
  8
DEFAULT
 10
-49.54258957310919
 20
321.3194665349968
 30
223.8620320978115
  0
VERTEX
  5
8C
  8
DEFAULT
 10
-49.49789417098506
 20
321.3432987436741
 30
223.8620320978115
  0
VERTEX
  5
8D
  8
DEFAULT
 10
-49.4536582705829
 20
321.3683475211615
 30
223.8620320978115
  0
VERTEX
  5
8E
  8
DEFAULT
 10
-49.40993053266591
 20
321.3946006927088
 30
223.8620320978115
  0
VERTEX
  5
8F
  8
DEFAULT
 10
-49.3667592524509
 20
321.422043526219
 30
223.8620320978115
  0
VERTEX
  5
90
  8
DEFAULT
 10
-49.32419219331618
 20
321.4506587408386
 30
223.8620320978115
  0
VERTEX
  5
91
  8
DEFAULT
 10
-49.28227642017558
 20
321.4804265284383
 30
223.8620320978115
  0
VERTEX
  5
92
  8
DEFAULT
 10
-49.24105813367974
 20
321.5113245880867
 30
223.8620320978115
  0
VERTEX
  5
93
  8
DEFAULT
 10
-49.20058250642271
 20
321.5433281735066
 30
223.8620320978115
  0
VERTEX
  5
94
  8
DEFAULT
 10
-49.1608935223355
 20
321.576410153374
 30
223.8620320978115
  0
VERTEX
  5
95
  8
DEFAULT
 10
-49.12203382043677
 20
321.6105410842047
 30
223.8620320978115
  0
VERTEX
  5
96
  8
DEFAULT
 10
-49.08404454408648
 20
321.6456892954474
 30
223.8620320978115
  0
VERTEX
  5
97
  8
DEFAULT
 10
-49.04696519684806
 20
321.6818209862832
 30
223.8620320978115
  0
VERTEX
  5
98
  8
DEFAULT
 10
-49.0108335060123
 20
321.7189003335216
 30
223.8620320978114
  0
VERTEX
  5
99
  8
DEFAULT
 10
-48.97568529476963
 20
321.7568896098719
 30
223.8620320978114
  0
VERTEX
  5
9A
  8
DEFAULT
 10
-48.94155436393881
 20
321.7957493117706
 30
223.8620320978115
  0
VERTEX
  5
9B
  8
DEFAULT
 10
-48.90847238407145
 20
321.8354382958578
 30
223.8620320978115
  0
VERTEX
  5
9C
  8
DEFAULT
 10
-48.87646879865159
 20
321.8759139231149
 30
223.8620320978115
  0
VERTEX
  5
9D
  8
DEFAULT
 10
-48.84557073900311
 20
321.9171322096107
 30
223.8620320978115
  0
VERTEX
  5
9E
  8
DEFAULT
 10
-48.81580295140348
 20
321.9590479827513
 30
223.8620320978114
  0
VERTEX
  5
9F
  8
DEFAULT
 10
-48.78718773678382
 20
322.0016150418861
 30
223.8620320978115
  0
VERTEX
  5
A0
  8
DEFAULT
 10
-48.75974490327363
 20
322.0447863221011
 30
223.8620320978116
  0
VERTEX
  5
A1
  8
DEFAULT
 10
-48.73349173172625
 20
322.088514060018
 30
223.8620320978115
  0
VERTEX
  5
A2
  8
DEFAULT
 10
-48.70844295423888
 20
322.1327499604202
 30
223.8620320978115
  0
VERTEX
  5
A3
  8
DEFAULT
 10
-48.6846107455616
 20
322.1774453625443
 30
223.8620320978115
  0
VERTEX
  5
A4
  8
DEFAULT
 10
-48.6620047271752
 20
322.2225514049084
 30
223.8620320978115
  0
VERTEX
  5
A5
  8
DEFAULT
 10
-48.64063198370759
 20
322.2680191875866
 30
223.8620320978115
  0
VERTEX
  5
A6
  8
DEFAULT
 10
-48.62049709125709
 20
322.3137999308967
 30
223.8620320978114
  0
VERTEX
  5
A7
  8
DEFAULT
 10
-48.60160215709625
 20
322.3598451295325
 30
223.8620320978114
  0
VERTEX
  5
A8
  8
DEFAULT
 10
-48.58394687014628
 20
322.4061067012399
 30
223.8620320978115
  0
VERTEX
  5
A9
  8
DEFAULT
 10
-48.56752856153775
 20
322.4525371292257
 30
223.8620320978114
  0
VERTEX
  5
AA
  8
DEFAULT
 10
-48.55234227450962
 20
322.4990895975642
 30
223.8620320978115
  0
VERTEX
  5
AB
  8
DEFAULT
 10
-48.53838084284703
 20
322.5457181189655
 30
223.8620320978114
  0
VERTEX
  5
AC
  8
DEFAULT
 10
-48.52563497701748
 20
322.5923776543591
 30
223.8620320978115
  0
VERTEX
  5
AD
  8
DEFAULT
 10
-48.51409335713559
 20
322.6390242238433
 30
223.8620320978115
  0
VERTEX
  5
AE
  8
DEFAULT
 10
-48.50374273186872
 20
322.685615008645
 30
223.8620320978114
  0
VERTEX
  5
AF
  8
DEFAULT
 10
-48.49456802238793
 20
322.7321084438319
 30
223.8620320978114
  0
VERTEX
  5
B0
  8
DEFAULT
 10
-48.48655243047209
 20
322.7784643016063
 30
223.8620320978114
  0
VERTEX
  5
B1
  8
DEFAULT
 10
-48.4796775498846
 20
322.8246437651023
 30
223.8620320978114
  0
VERTEX
  5
B2
  8
DEFAULT
 10
-48.47392348016358
 20
322.8706094926885
 30
223.8620320978114
  0
VERTEX
  5
B3
  8
DEFAULT
 10
-48.46926894199534
 20
322.9163256728608
 30
223.8620320978114
  0
VERTEX
  5
B4
  8
DEFAULT
 10
-48.46569139337615
 20
322.9617580698773
 30
223.8620320978114
  0
VERTEX
  5
B5
  8
DEFAULT
 10
-48.46316714580976
 20
323.0068740603589
 30
223.8620320978114
  0
VERTEX
  5
B6
  8
DEFAULT
 10
-48.46167147983396
 20
323.051642661133
 30
223.8620320978114
  0
VERTEX
  5
B7
  8
DEFAULT
 10
-48.46117875922109
 20
325.6960345486564
 30
223.8620320978115
  0
SEQEND
  5
76
  8
DEFAULT
  0
LINE
  5
B8
  8
DEFAULT
 10
-53.10796434207316
 20
335.6960345486658
 30
223.862794692621
 11
-53.10796434207316
 21
321.0960345486657
 31
223.862794692621
  0
LINE
  5
B9
  8
DEFAULT
 10
-50.65796434232573
 20
335.6960345486658
 30
223.8627595133253
 11
-53.10796434207316
 21
335.6960345486658
 31
223.862794692621
  0
LINE
  5
BA
  8
DEFAULT
 10
-50.65796434232573
 20
343.6960345486658
 30
223.8627595133253
 11
-50.65796434232573
 21
335.6960345486658
 31
223.8627595133253
  0
LINE
  5
BB
  8
DEFAULT
 10
-53.10796434207316
 20
343.6960345486658
 30
223.862794692621
 11
-50.65796434232573
 21
343.6960345486658
 31
223.8627595133253
  0
LINE
  5
BC
  8
DEFAULT
 10
-53.10796434207316
 20
352.6960345486658
 30
223.862794692621
 11
-53.10796434207316
 21
343.6960345486658
 31
223.862794692621
  0
LINE
  5
BD
  8
DEFAULT
 10
-59.30796434143406
 20
352.6960345486658
 30
223.8628837177773
 11
-53.10796434207316
 21
352.6960345486658
 31
223.862794692621
  0
LINE
  5
BE
  8
DEFAULT
 10
-59.30796434143406
 20
343.6960345486658
 30
223.8628837177773
 11
-59.30796434143406
 21
352.6960345486658
 31
223.8628837177773
  0
LINE
  5
BF
  8
DEFAULT
 10
-61.75796434118149
 20
343.6960345486658
 30
223.8629188970729
 11
-59.30796434143406
 21
343.6960345486658
 31
223.8628837177773
  0
LINE
  5
C0
  8
DEFAULT
 10
-61.75796434118149
 20
335.6960345486658
 30
223.8629188970729
 11
-61.75796434118149
 21
343.6960345486658
 31
223.8629188970729
  0
LINE
  5
C1
  8
DEFAULT
 10
-59.30796434143406
 20
335.6960345486658
 30
223.8628837177773
 11
-61.75796434118149
 21
335.6960345486658
 31
223.8629188970729
  0
LINE
  5
C2
  8
DEFAULT
 10
-59.30796434143406
 20
321.0960345486657
 30
223.8628837177773
 11
-59.30796434143406
 21
335.6960345486658
 31
223.8628837177773
  0
POLYLINE
  5
C3
  8
DEFAULT
 66
     1
 10
0.0
 20
0.0
 30
223.8620320977914
210
1.435889618282232E-5
220
-1.681663014395945E-14
230
0.9999999998969112
  0
VERTEX
  5
C5
  8
DEFAULT
 10
-63.96117875922672
 20
325.6960345486695
 30
223.8620320977914
  0
VERTEX
  5
C6
  8
DEFAULT
 10
-63.96068603861385
 20
323.0516426611465
 30
223.8620320977914
  0
VERTEX
  5
C7
  8
DEFAULT
 10
-63.95919037263808
 20
323.0068740603724
 30
223.8620320977915
  0
VERTEX
  5
C8
  8
DEFAULT
 10
-63.95666612507168
 20
322.9617580698909
 30
223.8620320977915
  0
VERTEX
  5
C9
  8
DEFAULT
 10
-63.95308857645251
 20
322.9163256728743
 30
223.8620320977914
  0
VERTEX
  5
CA
  8
DEFAULT
 10
-63.94843403828428
 20
322.870609492702
 30
223.8620320977915
  0
VERTEX
  5
CB
  8
DEFAULT
 10
-63.94267996856325
 20
322.8246437651158
 30
223.8620320977915
  0
VERTEX
  5
CC
  8
DEFAULT
 10
-63.93580508797576
 20
322.7784643016199
 30
223.8620320977915
  0
VERTEX
  5
CD
  8
DEFAULT
 10
-63.92778949605994
 20
322.7321084438454
 30
223.8620320977914
  0
VERTEX
  5
CE
  8
DEFAULT
 10
-63.91861478657914
 20
322.6856150086585
 30
223.8620320977914
  0
VERTEX
  5
CF
  8
DEFAULT
 10
-63.90826416131229
 20
322.6390242238568
 30
223.8620320977914
  0
VERTEX
  5
D0
  8
DEFAULT
 10
-63.89672254143041
 20
322.5923776543726
 30
223.8620320977914
  0
VERTEX
  5
D1
  8
DEFAULT
 10
-63.88397667560088
 20
322.545718118979
 30
223.8620320977914
  0
VERTEX
  5
D2
  8
DEFAULT
 10
-63.8700152439383
 20
322.4990895975776
 30
223.8620320977915
  0
VERTEX
  5
D3
  8
DEFAULT
 10
-63.85482895691019
 20
322.4525371292391
 30
223.8620320977914
  0
VERTEX
  5
D4
  8
DEFAULT
 10
-63.83841064830165
 20
322.4061067012533
 30
223.8620320977914
  0
VERTEX
  5
D5
  8
DEFAULT
 10
-63.82075536135169
 20
322.3598451295459
 30
223.8620320977914
  0
VERTEX
  5
D6
  8
DEFAULT
 10
-63.80186042719085
 20
322.3137999309103
 30
223.8620320977914
  0
VERTEX
  5
D7
  8
DEFAULT
 10
-63.78172553474035
 20
322.2680191876
 30
223.8620320977914
  0
VERTEX
  5
D8
  8
DEFAULT
 10
-63.76035279127275
 20
322.2225514049218
 30
223.8620320977914
  0
VERTEX
  5
D9
  8
DEFAULT
 10
-63.73774677288635
 20
322.1774453625576
 30
223.8620320977914
  0
VERTEX
  5
DA
  8
DEFAULT
 10
-63.71391456420908
 20
322.1327499604335
 30
223.8620320977914
  0
VERTEX
  5
DB
  8
DEFAULT
 10
-63.68886578672172
 20
322.0885140600313
 30
223.8620320977914
  0
VERTEX
  5
DC
  8
DEFAULT
 10
-63.66261261517437
 20
322.0447863221144
 30
223.8620320977914
  0
VERTEX
  5
DD
  8
DEFAULT
 10
-63.63516978166417
 20
322.0016150418994
 30
223.8620320977914
  0
VERTEX
  5
DE
  8
DEFAULT
 10
-63.6065545670445
 20
321.9590479827646
 30
223.8620320977914
  0
VERTEX
  5
DF
  8
DEFAULT
 10
-63.5767867794449
 20
321.9171322096241
 30
223.8620320977914
  0
VERTEX
  5
E0
  8
DEFAULT
 10
-63.54588871979642
 20
321.8759139231282
 30
223.8620320977914
  0
VERTEX
  5
E1
  8
DEFAULT
 10
-63.51388513437657
 20
321.8354382958713
 30
223.8620320977914
  0
VERTEX
  5
E2
  8
DEFAULT
 10
-63.4808031545092
 20
321.7957493117839
 30
223.8620320977914
  0
VERTEX
  5
E3
  8
DEFAULT
 10
-63.44667222367839
 20
321.7568896098853
 30
223.8620320977914
  0
VERTEX
  5
E4
  8
DEFAULT
 10
-63.41152401243571
 20
321.718900333535
 30
223.8620320977914
  0
VERTEX
  5
E5
  8
DEFAULT
 10
-63.37539232159997
 20
321.6818209862965
 30
223.8620320977914
  0
VERTEX
  5
E6
  8
DEFAULT
 10
-63.33831297436155
 20
321.6456892954607
 30
223.8620320977914
  0
VERTEX
  5
E7
  8
DEFAULT
 10
-63.30032369801128
 20
321.610541084218
 30
223.8620320977914
  0
VERTEX
  5
E8
  8
DEFAULT
 10
-63.26146399611254
 20
321.5764101533871
 30
223.8620320977914
  0
VERTEX
  5
E9
  8
DEFAULT
 10
-63.22177501202533
 20
321.5433281735199
 30
223.8620320977914
  0
VERTEX
  5
EA
  8
DEFAULT
 10
-63.18129938476832
 20
321.5113245881
 30
223.8620320977914
  0
VERTEX
  5
EB
  8
DEFAULT
 10
-63.14008109827247
 20
321.4804265284515
 30
223.8620320977914
  0
VERTEX
  5
EC
  8
DEFAULT
 10
-63.09816532513187
 20
321.4506587408518
 30
223.8620320977914
  0
VERTEX
  5
ED
  8
DEFAULT
 10
-63.05559826599715
 20
321.4220435262322
 30
223.8620320977914
  0
VERTEX
  5
EE
  8
DEFAULT
 10
-63.01242698578213
 20
321.394600692722
 30
223.8620320977914
  0
VERTEX
  5
EF
  8
DEFAULT
 10
-62.96869924786514
 20
321.3683475211746
 30
223.8620320977914
  0
VERTEX
  5
F0
  8
DEFAULT
 10
-62.924463347463
 20
321.3432987436873
 30
223.8620320977914
  0
VERTEX
  5
F1
  8
DEFAULT
 10
-62.87976794533884
 20
321.31946653501
 30
223.8620320977914
  0
VERTEX
  5
F2
  8
DEFAULT
 10
-62.83466190297469
 20
321.2968605166235
 30
223.8620320977914
  0
VERTEX
  5
F3
  8
DEFAULT
 10
-62.78919412029652
 20
321.275487773156
 30
223.8620320977914
  0
VERTEX
  5
F4
  8
DEFAULT
 10
-62.74341337698628
 20
321.2553528807055
 30
223.8620320977914
  0
VERTEX
  5
F5
  8
DEFAULT
 10
-62.69736817835057
 20
321.2364579465446
 30
223.8620320977913
  0
VERTEX
  5
F6
  8
DEFAULT
 10
-62.65110660664315
 20
321.2188026595946
 30
223.8620320977913
  0
VERTEX
  5
F7
  8
DEFAULT
 10
-62.60467617865739
 20
321.2023843509861
 30
223.8620320977914
  0
VERTEX
  5
F8
  8
DEFAULT
 10
-62.5581237103189
 20
321.1871980639579
 30
223.8620320977913
  0
VERTEX
  5
F9
  8
DEFAULT
 10
-62.51149518891756
 20
321.1732366322954
 30
223.8620320977913
  0
VERTEX
  5
FA
  8
DEFAULT
 10
-62.46483565352384
 20
321.1604907664658
 30
223.8620320977913
  0
VERTEX
  5
FB
  8
DEFAULT
 10
-62.4181890840397
 20
321.1489491465839
 30
223.8620320977913
  0
VERTEX
  5
FC
  8
DEFAULT
 10
-62.37159829923798
 20
321.138598521317
 30
223.8620320977913
  0
VERTEX
  5
FD
  8
DEFAULT
 10
-62.32510486405109
 20
321.1294238118363
 30
223.8620320977913
  0
VERTEX
  5
FE
  8
DEFAULT
 10
-62.27874900627668
 20
321.1214082199205
 30
223.8620320977914
  0
VERTEX
  5
FF
  8
DEFAULT
 10
-62.23256954278077
 20
321.114533339333
 30
223.8620320977914
  0
VERTEX
  5
100
  8
DEFAULT
 10
-62.18660381519452
 20
321.108779269612
 30
223.8620320977914
  0
VERTEX
  5
101
  8
DEFAULT
 10
-62.14088763502218
 20
321.1041247314437
 30
223.8620320977914
  0
VERTEX
  5
102
  8
DEFAULT
 10
-62.09545523800559
 20
321.1005471828245
 30
223.8620320977914
  0
VERTEX
  5
103
  8
DEFAULT
 10
-62.05033924752409
 20
321.0980229352581
 30
223.8620320977914
  0
VERTEX
  5
104
  8
DEFAULT
 10
-62.00557064674997
 20
321.0965272692824
 30
223.8620320977913
  0
VERTEX
  5
105
  8
DEFAULT
 10
-59.31117875922656
 20
321.0960345486695
 30
223.8620320977914
  0
SEQEND
  5
C4
  8
DEFAULT
  0
LINE
  5
106
  8
DEFAULT
 10
-70.19542219306993
 20
325.6960345486658
 30
223.8630400496543
 11
-63.95796434095485
 21
325.6960345486658
 31
223.8629504866446
  0
LINE
  5
107
  8
DEFAULT
 10
-70.19542219306993
 20
312.5504636445745
 30
223.8630400496543
 11
-70.19542219306993
 21
325.6960345486658
 31
223.8630400496543
  0
LINE
  5
108
  8
DEFAULT
 10
-136.9101483931212
 20
312.5504636445745
 30
223.8639979994816
 11
-70.19542219306993
 21
312.5504636445745
 31
223.8630400496543
  0
LINE
  5
109
  8
DEFAULT
 10
-136.9101483931212
 20
325.6960345486658
 30
223.8639979994816
 11
-136.9101483931212
 21
312.5504636445745
 31
223.8639979994816
  0
LINE
  5
10A
  8
DEFAULT
 10
-143.1476062452363
 20
325.6960345486658
 30
223.8640875624912
 11
-136.9101483931212
 21
325.6960345486658
 31
223.8639979994816
  0
POLYLINE
  5
10B
  8
DEFAULT
 66
     1
 10
0.0
 20
0.0
 30
223.862032097798
210
1.435889619100871E-5
220
8.541254184483924E-15
230
0.9999999998969111
  0
VERTEX
  5
10D
  8
DEFAULT
 10
-147.8008206716737
 20
321.0960345486638
 30
223.862032097798
  0
VERTEX
  5
10E
  8
DEFAULT
 10
-145.1064287841503
 20
321.0965272692767
 30
223.8620320977981
  0
VERTEX
  5
10F
  8
DEFAULT
 10
-145.0616601833762
 20
321.0980229352525
 30
223.8620320977982
  0
VERTEX
  5
110
  8
DEFAULT
 10
-145.0165441928947
 20
321.1005471828188
 30
223.8620320977982
  0
VERTEX
  5
111
  8
DEFAULT
 10
-144.9711117958781
 20
321.104124731438
 30
223.8620320977982
  0
VERTEX
  5
112
  8
DEFAULT
 10
-144.9253956157058
 20
321.1087792696063
 30
223.8620320977982
  0
VERTEX
  5
113
  8
DEFAULT
 10
-144.8794298881195
 20
321.1145333393274
 30
223.8620320977982
  0
VERTEX
  5
114
  8
DEFAULT
 10
-144.8332504246237
 20
321.1214082199148
 30
223.8620320977982
  0
VERTEX
  5
115
  8
DEFAULT
 10
-144.7868945668492
 20
321.1294238118306
 30
223.8620320977981
  0
VERTEX
  5
116
  8
DEFAULT
 10
-144.7404011316623
 20
321.1385985213113
 30
223.8620320977981
  0
VERTEX
  5
117
  8
DEFAULT
 10
-144.6938103468606
 20
321.1489491465782
 30
223.8620320977981
  0
VERTEX
  5
118
  8
DEFAULT
 10
-144.6471637773765
 20
321.1604907664601
 30
223.8620320977981
  0
VERTEX
  5
119
  8
DEFAULT
 10
-144.6005042419828
 20
321.1732366322897
 30
223.8620320977981
  0
VERTEX
  5
11A
  8
DEFAULT
 10
-144.5538757205815
 20
321.1871980639522
 30
223.8620320977982
  0
VERTEX
  5
11B
  8
DEFAULT
 10
-144.507323252243
 20
321.2023843509804
 30
223.8620320977981
  0
VERTEX
  5
11C
  8
DEFAULT
 10
-144.4608928242572
 20
321.218802659589
 30
223.8620320977981
  0
VERTEX
  5
11D
  8
DEFAULT
 10
-144.4146312525498
 20
321.2364579465389
 30
223.8620320977981
  0
VERTEX
  5
11E
  8
DEFAULT
 10
-144.3685860539141
 20
321.2553528806998
 30
223.8620320977981
  0
VERTEX
  5
11F
  8
DEFAULT
 10
-144.3228053106039
 20
321.2754877731503
 30
223.8620320977981
  0
VERTEX
  5
120
  8
DEFAULT
 10
-144.2773375279257
 20
321.2968605166178
 30
223.8620320977981
  0
VERTEX
  5
121
  8
DEFAULT
 10
-144.2322314855615
 20
321.3194665350043
 30
223.8620320977981
  0
VERTEX
  5
122
  8
DEFAULT
 10
-144.1875360834374
 20
321.3432987436816
 30
223.8620320977981
  0
VERTEX
  5
123
  8
DEFAULT
 10
-144.1433001830352
 20
321.3683475211689
 30
223.8620320977981
  0
VERTEX
  5
124
  8
DEFAULT
 10
-144.0995724451183
 20
321.3946006927163
 30
223.8620320977981
  0
VERTEX
  5
125
  8
DEFAULT
 10
-144.0564011649033
 20
321.4220435262266
 30
223.8620320977981
  0
VERTEX
  5
126
  8
DEFAULT
 10
-144.0138341057685
 20
321.4506587408461
 30
223.8620320977981
  0
VERTEX
  5
127
  8
DEFAULT
 10
-143.971918332628
 20
321.4804265284458
 30
223.8620320977981
  0
VERTEX
  5
128
  8
DEFAULT
 10
-143.9307000461321
 20
321.5113245880943
 30
223.8620320977981
  0
VERTEX
  5
129
  8
DEFAULT
 10
-143.8902244188751
 20
321.5433281735142
 30
223.8620320977981
  0
VERTEX
  5
12A
  8
DEFAULT
 10
-143.8505354347879
 20
321.5764101533815
 30
223.8620320977981
  0
VERTEX
  5
12B
  8
DEFAULT
 10
-143.8116757328892
 20
321.6105410842123
 30
223.8620320977981
  0
VERTEX
  5
12C
  8
DEFAULT
 10
-143.7736864565389
 20
321.645689295455
 30
223.8620320977981
  0
VERTEX
  5
12D
  8
DEFAULT
 10
-143.7366071093004
 20
321.6818209862908
 30
223.8620320977981
  0
VERTEX
  5
12E
  8
DEFAULT
 10
-143.7004754184647
 20
321.7189003335293
 30
223.8620320977981
  0
VERTEX
  5
12F
  8
DEFAULT
 10
-143.6653272072221
 20
321.7568896098796
 30
223.8620320977981
  0
VERTEX
  5
130
  8
DEFAULT
 10
-143.6311962763912
 20
321.7957493117783
 30
223.8620320977981
  0
VERTEX
  5
131
  8
DEFAULT
 10
-143.5981142965238
 20
321.8354382958656
 30
223.8620320977981
  0
VERTEX
  5
132
  8
DEFAULT
 10
-143.566110711104
 20
321.8759139231225
 30
223.8620320977981
  0
VERTEX
  5
133
  8
DEFAULT
 10
-143.5352126514555
 20
321.9171322096184
 30
223.8620320977981
  0
VERTEX
  5
134
  8
DEFAULT
 10
-143.5054448638559
 20
321.9590479827589
 30
223.8620320977981
  0
VERTEX
  5
135
  8
DEFAULT
 10
-143.4768296492363
 20
322.0016150418937
 30
223.8620320977981
  0
VERTEX
  5
136
  8
DEFAULT
 10
-143.4493868157261
 20
322.0447863221087
 30
223.8620320977981
  0
VERTEX
  5
137
  8
DEFAULT
 10
-143.4231336441787
 20
322.0885140600257
 30
223.862032097798
  0
VERTEX
  5
138
  8
DEFAULT
 10
-143.3980848666913
 20
322.1327499604278
 30
223.8620320977981
  0
VERTEX
  5
139
  8
DEFAULT
 10
-143.374252658014
 20
322.177445362552
 30
223.8620320977981
  0
VERTEX
  5
13A
  8
DEFAULT
 10
-143.3516466396276
 20
322.2225514049161
 30
223.862032097798
  0
VERTEX
  5
13B
  8
DEFAULT
 10
-143.33027389616
 20
322.2680191875943
 30
223.8620320977981
  0
VERTEX
  5
13C
  8
DEFAULT
 10
-143.3101390037095
 20
322.3137999309046
 30
223.8620320977981
  0
VERTEX
  5
13D
  8
DEFAULT
 10
-143.2912440695487
 20
322.3598451295402
 30
223.862032097798
  0
VERTEX
  5
13E
  8
DEFAULT
 10
-143.2735887825987
 20
322.4061067012477
 30
223.8620320977981
  0
VERTEX
  5
13F
  8
DEFAULT
 10
-143.2571704739902
 20
322.4525371292335
 30
223.8620320977981
  0
VERTEX
  5
140
  8
DEFAULT
 10
-143.2419841869621
 20
322.4990895975719
 30
223.8620320977981
  0
VERTEX
  5
141
  8
DEFAULT
 10
-143.2280227552995
 20
322.5457181189733
 30
223.8620320977981
  0
VERTEX
  5
142
  8
DEFAULT
 10
-143.2152768894699
 20
322.5923776543669
 30
223.862032097798
  0
VERTEX
  5
143
  8
DEFAULT
 10
-143.203735269588
 20
322.6390242238511
 30
223.8620320977981
  0
VERTEX
  5
144
  8
DEFAULT
 10
-143.1933846443212
 20
322.6856150086528
 30
223.8620320977981
  0
VERTEX
  5
145
  8
DEFAULT
 10
-143.1842099348404
 20
322.7321084438398
 30
223.862032097798
  0
VERTEX
  5
146
  8
DEFAULT
 10
-143.1761943429246
 20
322.7784643016142
 30
223.8620320977981
  0
VERTEX
  5
147
  8
DEFAULT
 10
-143.1693194623371
 20
322.8246437651101
 30
223.8620320977981
  0
VERTEX
  5
148
  8
DEFAULT
 10
-143.1635653926161
 20
322.8706094926964
 30
223.8620320977981
  0
VERTEX
  5
149
  8
DEFAULT
 10
-143.1589108544478
 20
322.9163256728686
 30
223.8620320977981
  0
VERTEX
  5
14A
  8
DEFAULT
 10
-143.1553333058286
 20
322.9617580698852
 30
223.8620320977981
  0
VERTEX
  5
14B
  8
DEFAULT
 10
-143.1528090582622
 20
323.0068740603667
 30
223.8620320977981
  0
VERTEX
  5
14C
  8
DEFAULT
 10
-143.1513133922864
 20
323.0516426611408
 30
223.862032097798
  0
VERTEX
  5
14D
  8
DEFAULT
 10
-143.1508206716736
 20
325.6960345486638
 30
223.8620320977981
  0
SEQEND
  5
10C
  8
DEFAULT
  0
LINE
  5
14E
  8
DEFAULT
 10
-147.797606244757
 20
335.6960345486658
 30
223.8641543313586
 11
-147.797606244757
 21
321.0960345486657
 31
223.8641543313586
  0
LINE
  5
14F
  8
DEFAULT
 10
-145.3476062450096
 20
335.6960345486658
 30
223.8641191520628
 11
-147.797606244757
 21
335.6960345486658
 31
223.8641543313586
  0
LINE
  5
150
  8
DEFAULT
 10
-145.3476062450096
 20
343.6960345486658
 30
223.8641191520628
 11
-145.3476062450096
 21
335.6960345486658
 31
223.8641191520628
  0
LINE
  5
151
  8
DEFAULT
 10
-147.797606244757
 20
343.6960345486658
 30
223.8641543313586
 11
-145.3476062450096
 21
343.6960345486658
 31
223.8641191520628
  0
LINE
  5
152
  8
DEFAULT
 10
-147.797606244757
 20
352.6960345486658
 30
223.8641543313586
 11
-147.797606244757
 21
343.6960345486658
 31
223.8641543313586
  0
LINE
  5
153
  8
DEFAULT
 10
-153.9976062441177
 20
352.6960345486658
 30
223.8642433565149
 11
-147.797606244757
 21
352.6960345486658
 31
223.8641543313586
  0
LINE
  5
154
  8
DEFAULT
 10
-153.9976062441177
 20
343.6960345486658
 30
223.8642433565149
 11
-153.9976062441177
 21
352.6960345486658
 31
223.8642433565149
  0
LINE
  5
155
  8
DEFAULT
 10
-156.4476062438654
 20
343.6960345486658
 30
223.8642785358104
 11
-153.9976062441177
 21
343.6960345486658
 31
223.8642433565149
  0
LINE
  5
156
  8
DEFAULT
 10
-156.4476062438654
 20
335.6960345486658
 30
223.8642785358104
 11
-156.4476062438654
 21
343.6960345486658
 31
223.8642785358104
  0
LINE
  5
157
  8
DEFAULT
 10
-153.9976062441177
 20
335.6960345486658
 30
223.8642433565149
 11
-156.4476062438654
 21
335.6960345486658
 31
223.8642785358104
  0
LINE
  5
158
  8
DEFAULT
 10
-153.9976062441177
 20
321.0960345486657
 30
223.8642433565149
 11
-153.9976062441177
 21
335.6960345486658
 31
223.8642433565149
  0
LINE
  5
159
  8
DEFAULT
 10
-61.75788393136293
 20
335.6960345486658
 30
229.4629188964957
 11
-59.30788393161549
 21
335.6960345486658
 31
229.4628837172002
  0
LINE
  5
15A
  8
DEFAULT
 10
-61.75788393136293
 20
343.6960345486658
 30
229.4629188964957
 11
-61.75788393136293
 21
335.6960345486658
 31
229.4629188964957
  0
LINE
  5
15B
  8
DEFAULT
 10
-59.30788393161549
 20
343.6960345486658
 30
229.4628837172002
 11
-61.75788393136293
 21
343.6960345486658
 31
229.4629188964957
  0
LINE
  5
15C
  8
DEFAULT
 10
-59.30788393161549
 20
352.6960345486658
 30
229.4628837172002
 11
-59.30788393161549
 21
343.6960345486658
 31
229.4628837172002
  0
LINE
  5
15D
  8
DEFAULT
 10
-53.10788393225459
 20
352.6960345486658
 30
229.4627946920436
 11
-59.30788393161549
 21
352.6960345486658
 31
229.4628837172002
  0
LINE
  5
15E
  8
DEFAULT
 10
-53.10788393225459
 20
343.6960345486658
 30
229.4627946920436
 11
-53.10788393225459
 21
352.6960345486658
 31
229.4627946920436
  0
LINE
  5
15F
  8
DEFAULT
 10
-50.65788393250716
 20
343.6960345486658
 30
229.4627595127479
 11
-53.10788393225459
 21
343.6960345486658
 31
229.4627946920436
  0
LINE
  5
160
  8
DEFAULT
 10
-50.65788393250716
 20
335.6960345486658
 30
229.4627595127479
 11
-50.65788393250716
 21
343.6960345486658
 31
229.4627595127479
  0
LINE
  5
161
  8
DEFAULT
 10
-53.10788393225459
 20
335.6960345486658
 30
229.4627946920436
 11
-50.65788393250716
 21
335.6960345486658
 31
229.4627595127479
  0
LINE
  5
162
  8
DEFAULT
 10
-53.10788393225459
 20
321.0960345486658
 30
229.4627946920436
 11
-53.10788393225459
 21
335.6960345486658
 31
229.4627946920436
  0
POLYLINE
  5
163
  8
DEFAULT
 66
     1
 10
0.0
 20
0.0
 30
-229.4620320977924
210
-1.435889616660564E-5
220
1.621877749780965E-14
230
-0.9999999998969111
  0
VERTEX
  5
165
  8
DEFAULT
 10
48.46117875922292
 20
325.6960345486695
 30
-229.4620320977924
  0
VERTEX
  5
166
  8
DEFAULT
 10
48.46167147983578
 20
323.0516426611462
 30
-229.4620320977924
  0
VERTEX
  5
167
  8
DEFAULT
 10
48.46316714581157
 20
323.006874060372
 30
-229.4620320977924
  0
VERTEX
  5
168
  8
DEFAULT
 10
48.46569139337797
 20
322.9617580698904
 30
-229.4620320977924
  0
VERTEX
  5
169
  8
DEFAULT
 10
48.46926894199715
 20
322.9163256728739
 30
-229.4620320977924
  0
VERTEX
  5
16A
  8
DEFAULT
 10
48.47392348016539
 20
322.8706094927015
 30
-229.4620320977924
  0
VERTEX
  5
16B
  8
DEFAULT
 10
48.47967754988641
 20
322.8246437651153
 30
-229.4620320977924
  0
VERTEX
  5
16C
  8
DEFAULT
 10
48.4865524304739
 20
322.7784643016194
 30
-229.4620320977924
  0
VERTEX
  5
16D
  8
DEFAULT
 10
48.49456802238974
 20
322.732108443845
 30
-229.4620320977924
  0
VERTEX
  5
16E
  8
DEFAULT
 10
48.50374273187052
 20
322.6856150086581
 30
-229.4620320977924
  0
VERTEX
  5
16F
  8
DEFAULT
 10
48.5140933571374
 20
322.6390242238564
 30
-229.4620320977923
  0
VERTEX
  5
170
  8
DEFAULT
 10
48.52563497701927
 20
322.5923776543722
 30
-229.4620320977924
  0
VERTEX
  5
171
  8
DEFAULT
 10
48.53838084284882
 20
322.5457181189786
 30
-229.4620320977924
  0
VERTEX
  5
172
  8
DEFAULT
 10
48.55234227451142
 20
322.4990895975772
 30
-229.4620320977924
  0
VERTEX
  5
173
  8
DEFAULT
 10
48.56752856153953
 20
322.4525371292387
 30
-229.4620320977924
  0
VERTEX
  5
174
  8
DEFAULT
 10
48.58394687014806
 20
322.406106701253
 30
-229.4620320977924
  0
VERTEX
  5
175
  8
DEFAULT
 10
48.60160215709802
 20
322.3598451295455
 30
-229.4620320977924
  0
VERTEX
  5
176
  8
DEFAULT
 10
48.62049709125888
 20
322.3137999309099
 30
-229.4620320977924
  0
VERTEX
  5
177
  8
DEFAULT
 10
48.64063198370938
 20
322.2680191875997
 30
-229.4620320977924
  0
VERTEX
  5
178
  8
DEFAULT
 10
48.66200472717698
 20
322.2225514049215
 30
-229.4620320977924
  0
VERTEX
  5
179
  8
DEFAULT
 10
48.68461074556338
 20
322.1774453625574
 30
-229.4620320977924
  0
VERTEX
  5
17A
  8
DEFAULT
 10
48.70844295424067
 20
322.1327499604332
 30
-229.4620320977924
  0
VERTEX
  5
17B
  8
DEFAULT
 10
48.73349173172802
 20
322.0885140600311
 30
-229.4620320977924
  0
VERTEX
  5
17C
  8
DEFAULT
 10
48.7597449032754
 20
322.0447863221141
 30
-229.4620320977924
  0
VERTEX
  5
17D
  8
DEFAULT
 10
48.78718773678558
 20
322.0016150418991
 30
-229.4620320977924
  0
VERTEX
  5
17E
  8
DEFAULT
 10
48.81580295140524
 20
321.9590479827643
 30
-229.4620320977923
  0
VERTEX
  5
17F
  8
DEFAULT
 10
48.84557073900487
 20
321.9171322096237
 30
-229.4620320977924
  0
VERTEX
  5
180
  8
DEFAULT
 10
48.87646879865335
 20
321.8759139231279
 30
-229.4620320977924
  0
VERTEX
  5
181
  8
DEFAULT
 10
48.90847238407321
 20
321.8354382958709
 30
-229.4620320977924
  0
VERTEX
  5
182
  8
DEFAULT
 10
48.94155436394059
 20
321.7957493117837
 30
-229.4620320977924
  0
VERTEX
  5
183
  8
DEFAULT
 10
48.9756852947714
 20
321.7568896098849
 30
-229.4620320977924
  0
VERTEX
  5
184
  8
DEFAULT
 10
49.01083350601407
 20
321.7189003335346
 30
-229.4620320977924
  0
VERTEX
  5
185
  8
DEFAULT
 10
49.04696519684982
 20
321.6818209862962
 30
-229.4620320977924
  0
VERTEX
  5
186
  8
DEFAULT
 10
49.08404454408824
 20
321.6456892954604
 30
-229.4620320977924
  0
VERTEX
  5
187
  8
DEFAULT
 10
49.12203382043853
 20
321.6105410842177
 30
-229.4620320977923
  0
VERTEX
  5
188
  8
DEFAULT
 10
49.16089352233727
 20
321.576410153387
 30
-229.4620320977924
  0
VERTEX
  5
189
  8
DEFAULT
 10
49.20058250642447
 20
321.5433281735196
 30
-229.4620320977924
  0
VERTEX
  5
18A
  8
DEFAULT
 10
49.2410581336815
 20
321.5113245880997
 30
-229.4620320977924
  0
VERTEX
  5
18B
  8
DEFAULT
 10
49.28227642017735
 20
321.4804265284513
 30
-229.4620320977924
  0
VERTEX
  5
18C
  8
DEFAULT
 10
49.32419219331794
 20
321.4506587408516
 30
-229.4620320977923
  0
VERTEX
  5
18D
  8
DEFAULT
 10
49.36675925245267
 20
321.422043526232
 30
-229.4620320977923
  0
VERTEX
  5
18E
  8
DEFAULT
 10
49.40993053266768
 20
321.3946006927218
 30
-229.4620320977924
  0
VERTEX
  5
18F
  8
DEFAULT
 10
49.45365827058467
 20
321.3683475211745
 30
-229.4620320977924
  0
VERTEX
  5
190
  8
DEFAULT
 10
49.49789417098683
 20
321.3432987436871
 30
-229.4620320977924
  0
VERTEX
  5
191
  8
DEFAULT
 10
49.54258957311097
 20
321.3194665350098
 30
-229.4620320977923
  0
VERTEX
  5
192
  8
DEFAULT
 10
49.58769561547512
 20
321.2968605166234
 30
-229.4620320977924
  0
VERTEX
  5
193
  8
DEFAULT
 10
49.63316339815331
 20
321.2754877731559
 30
-229.4620320977923
  0
VERTEX
  5
194
  8
DEFAULT
 10
49.67894414146355
 20
321.2553528807053
 30
-229.4620320977923
  0
VERTEX
  5
195
  8
DEFAULT
 10
49.72498934009926
 20
321.2364579465444
 30
-229.4620320977923
  0
VERTEX
  5
196
  8
DEFAULT
 10
49.77125091180667
 20
321.2188026595944
 30
-229.4620320977924
  0
VERTEX
  5
197
  8
DEFAULT
 10
49.81768133979246
 20
321.2023843509859
 30
-229.4620320977923
  0
VERTEX
  5
198
  8
DEFAULT
 10
49.86423380813096
 20
321.1871980639578
 30
-229.4620320977924
  0
VERTEX
  5
199
  8
DEFAULT
 10
49.91086232953231
 20
321.1732366322952
 30
-229.4620320977923
  0
VERTEX
  5
19A
  8
DEFAULT
 10
49.957521864926
 20
321.1604907664657
 30
-229.4620320977924
  0
VERTEX
  5
19B
  8
DEFAULT
 10
50.00416843441015
 20
321.1489491465838
 30
-229.4620320977924
  0
VERTEX
  5
19C
  8
DEFAULT
 10
50.05075921921186
 20
321.1385985213169
 30
-229.4620320977924
  0
VERTEX
  5
19D
  8
DEFAULT
 10
50.09725265439876
 20
321.1294238118361
 30
-229.4620320977923
  0
VERTEX
  5
19E
  8
DEFAULT
 10
50.14360851217318
 20
321.1214082199203
 30
-229.4620320977923
  0
VERTEX
  5
19F
  8
DEFAULT
 10
50.18978797566909
 20
321.1145333393329
 30
-229.4620320977923
  0
VERTEX
  5
1A0
  8
DEFAULT
 10
50.23575370325533
 20
321.1087792696119
 30
-229.4620320977924
  0
VERTEX
  5
1A1
  8
DEFAULT
 10
50.28146988342767
 20
321.1041247314436
 30
-229.4620320977924
  0
VERTEX
  5
1A2
  8
DEFAULT
 10
50.32690228044427
 20
321.1005471828243
 30
-229.4620320977923
  0
VERTEX
  5
1A3
  8
DEFAULT
 10
50.37201827092577
 20
321.098022935258
 30
-229.4620320977924
  0
VERTEX
  5
1A4
  8
DEFAULT
 10
50.41678687169988
 20
321.0965272692822
 30
-229.4620320977924
  0
VERTEX
  5
1A5
  8
DEFAULT
 10
53.11117875922285
 20
321.0960345486695
 30
-229.4620320977924
  0
SEQEND
  5
164
  8
DEFAULT
  0
LINE
  5
1A6
  8
DEFAULT
 10
-40.69180354946059
 20
325.6960345486658
 30
229.4626164108345
 11
-48.45788393273403
 21
325.6960345486658
 31
229.4627279231765
  0
LINE
  5
1A7
  8
DEFAULT
 10
-40.69180354946059
 20
365.366034128453
 30
229.4626164108345
 11
-40.69180354946059
 21
325.6960345486658
 31
229.4626164108345
  0
LINE
  5
1A8
  8
DEFAULT
 10
-75.35270488618414
 20
365.366034128453
 30
229.4631141031184
 11
-40.69180354946059
 21
365.366034128453
 31
229.4626164108345
  0
LINE
  5
1A9
  8
DEFAULT
 10
-131.7527048803698
 20
365.366034128453
 30
229.4639239448627
 11
-131.7527048803698
 21
373.9088419848812
 31
229.4639239448627
  0
LINE
  5
1AA
  8
DEFAULT
 10
-166.4136062170932
 20
365.366034128453
 30
229.4644216371469
 11
-131.7527048803698
 21
365.366034128453
 31
229.4639239448627
  0
LINE
  5
1AB
  8
DEFAULT
 10
-166.4136062170932
 20
325.6960345486658
 30
229.4644216371469
 11
-166.4136062170932
 21
365.366034128453
 31
229.4644216371469
  0
LINE
  5
1AC
  8
DEFAULT
 10
-158.6475258338199
 20
325.6960345486658
 30
229.4643101248048
 11
-166.4136062170932
 21
325.6960345486658
 31
229.4644216371469
  0
POLYLINE
  5
1AD
  8
DEFAULT
 66
     1
 10
0.0
 20
0.0
 30
-229.4620320978057
210
-1.435889617479189E-5
220
-2.449400538605801E-14
230
-0.9999999998969112
  0
VERTEX
  5
1AF
  8
DEFAULT
 10
154.0008206716702
 20
321.0960345486602
 30
-229.4620320978057
  0
VERTEX
  5
1B0
  8
DEFAULT
 10
156.6952125591931
 20
321.0965272692729
 30
-229.4620320978057
  0
VERTEX
  5
1B1
  8
DEFAULT
 10
156.7399811599672
 20
321.0980229352487
 30
-229.4620320978057
  0
VERTEX
  5
1B2
  8
DEFAULT
 10
156.7850971504487
 20
321.100547182815
 30
-229.4620320978057
  0
VERTEX
  5
1B3
  8
DEFAULT
 10
156.8305295474653
 20
321.1041247314343
 30
-229.4620320978057
  0
VERTEX
  5
1B4
  8
DEFAULT
 10
156.8762457276377
 20
321.1087792696026
 30
-229.4620320978057
  0
VERTEX
  5
1B5
  8
DEFAULT
 10
156.9222114552238
 20
321.1145333393235
 30
-229.4620320978057
  0
VERTEX
  5
1B6
  8
DEFAULT
 10
156.9683909187198
 20
321.121408219911
 30
-229.4620320978057
  0
VERTEX
  5
1B7
  8
DEFAULT
 10
157.0147467764942
 20
321.1294238118268
 30
-229.4620320978057
  0
VERTEX
  5
1B8
  8
DEFAULT
 10
157.0612402116811
 20
321.1385985213076
 30
-229.4620320978057
  0
VERTEX
  5
1B9
  8
DEFAULT
 10
157.1078309964828
 20
321.1489491465745
 30
-229.4620320978057
  0
VERTEX
  5
1BA
  8
DEFAULT
 10
157.1544775659669
 20
321.1604907664563
 30
-229.4620320978057
  0
VERTEX
  5
1BB
  8
DEFAULT
 10
157.2011371013606
 20
321.1732366322859
 30
-229.4620320978057
  0
VERTEX
  5
1BC
  8
DEFAULT
 10
157.247765622762
 20
321.1871980639485
 30
-229.4620320978058
  0
VERTEX
  5
1BD
  8
DEFAULT
 10
157.2943180911005
 20
321.2023843509766
 30
-229.4620320978057
  0
VERTEX
  5
1BE
  8
DEFAULT
 10
157.3407485190862
 20
321.2188026595851
 30
-229.4620320978057
  0
VERTEX
  5
1BF
  8
DEFAULT
 10
157.3870100907937
 20
321.2364579465351
 30
-229.4620320978057
  0
VERTEX
  5
1C0
  8
DEFAULT
 10
157.4330552894293
 20
321.255352880696
 30
-229.4620320978057
  0
VERTEX
  5
1C1
  8
DEFAULT
 10
157.4788360327396
 20
321.2754877731466
 30
-229.4620320978058
  0
VERTEX
  5
1C2
  8
DEFAULT
 10
157.5243038154178
 20
321.2968605166141
 30
-229.4620320978057
  0
VERTEX
  5
1C3
  8
DEFAULT
 10
157.5694098577819
 20
321.3194665350005
 30
-229.4620320978057
  0
VERTEX
  5
1C4
  8
DEFAULT
 10
157.6141052599061
 20
321.3432987436778
 30
-229.4620320978058
  0
VERTEX
  5
1C5
  8
DEFAULT
 10
157.6583411603083
 20
321.3683475211652
 30
-229.4620320978058
  0
VERTEX
  5
1C6
  8
DEFAULT
 10
157.7020688982253
 20
321.3946006927125
 30
-229.4620320978058
  0
VERTEX
  5
1C7
  8
DEFAULT
 10
157.7452401784402
 20
321.4220435262227
 30
-229.4620320978057
  0
VERTEX
  5
1C8
  8
DEFAULT
 10
157.7878072375749
 20
321.4506587408423
 30
-229.4620320978057
  0
VERTEX
  5
1C9
  8
DEFAULT
 10
157.8297230107155
 20
321.480426528442
 30
-229.4620320978057
  0
VERTEX
  5
1CA
  8
DEFAULT
 10
157.8709412972114
 20
321.5113245880904
 30
-229.4620320978057
  0
VERTEX
  5
1CB
  8
DEFAULT
 10
157.9114169244684
 20
321.5433281735103
 30
-229.4620320978057
  0
VERTEX
  5
1CC
  8
DEFAULT
 10
157.9511059085556
 20
321.5764101533777
 30
-229.4620320978057
  0
VERTEX
  5
1CD
  8
DEFAULT
 10
157.9899656104543
 20
321.6105410842084
 30
-229.4620320978057
  0
VERTEX
  5
1CE
  8
DEFAULT
 10
158.0279548868046
 20
321.6456892954511
 30
-229.4620320978057
  0
VERTEX
  5
1CF
  8
DEFAULT
 10
158.0650342340431
 20
321.6818209862869
 30
-229.4620320978057
  0
VERTEX
  5
1D0
  8
DEFAULT
 10
158.1011659248788
 20
321.7189003335253
 30
-229.4620320978057
  0
VERTEX
  5
1D1
  8
DEFAULT
 10
158.1363141361215
 20
321.7568896098756
 30
-229.4620320978057
  0
VERTEX
  5
1D2
  8
DEFAULT
 10
158.1704450669524
 20
321.7957493117743
 30
-229.4620320978057
  0
VERTEX
  5
1D3
  8
DEFAULT
 10
158.2035270468197
 20
321.8354382958615
 30
-229.4620320978057
  0
VERTEX
  5
1D4
  8
DEFAULT
 10
158.2355306322395
 20
321.8759139231186
 30
-229.4620320978057
  0
VERTEX
  5
1D5
  8
DEFAULT
 10
158.266428691888
 20
321.9171322096144
 30
-229.4620320978057
  0
VERTEX
  5
1D6
  8
DEFAULT
 10
158.2961964794876
 20
321.959047982755
 30
-229.4620320978057
  0
VERTEX
  5
1D7
  8
DEFAULT
 10
158.3248116941073
 20
322.0016150418897
 30
-229.4620320978057
  0
VERTEX
  5
1D8
  8
DEFAULT
 10
158.3522545276175
 20
322.0447863221048
 30
-229.4620320978058
  0
VERTEX
  5
1D9
  8
DEFAULT
 10
158.3785076991649
 20
322.0885140600217
 30
-229.4620320978057
  0
VERTEX
  5
1DA
  8
DEFAULT
 10
158.4035564766522
 20
322.1327499604239
 30
-229.4620320978057
  0
VERTEX
  5
1DB
  8
DEFAULT
 10
158.4273886853295
 20
322.177445362548
 30
-229.4620320978057
  0
VERTEX
  5
1DC
  8
DEFAULT
 10
158.449994703716
 20
322.2225514049122
 30
-229.4620320978057
  0
VERTEX
  5
1DD
  8
DEFAULT
 10
158.4713674471835
 20
322.2680191875904
 30
-229.4620320978057
  0
VERTEX
  5
1DE
  8
DEFAULT
 10
158.491502339634
 20
322.3137999309006
 30
-229.4620320978057
  0
VERTEX
  5
1DF
  8
DEFAULT
 10
158.5103972737949
 20
322.3598451295362
 30
-229.4620320978057
  0
VERTEX
  5
1E0
  8
DEFAULT
 10
158.5280525607449
 20
322.4061067012436
 30
-229.4620320978057
  0
VERTEX
  5
1E1
  8
DEFAULT
 10
158.5444708693534
 20
322.4525371292294
 30
-229.4620320978057
  0
VERTEX
  5
1E2
  8
DEFAULT
 10
158.5596571563815
 20
322.4990895975679
 30
-229.4620320978057
  0
VERTEX
  5
1E3
  8
DEFAULT
 10
158.5736185880441
 20
322.5457181189693
 30
-229.4620320978057
  0
VERTEX
  5
1E4
  8
DEFAULT
 10
158.5863644538737
 20
322.5923776543629
 30
-229.4620320978057
  0
VERTEX
  5
1E5
  8
DEFAULT
 10
158.5979060737555
 20
322.6390242238471
 30
-229.4620320978057
  0
VERTEX
  5
1E6
  8
DEFAULT
 10
158.6082566990224
 20
322.6856150086488
 30
-229.4620320978057
  0
VERTEX
  5
1E7
  8
DEFAULT
 10
158.6174314085032
 20
322.7321084438357
 30
-229.4620320978057
  0
VERTEX
  5
1E8
  8
DEFAULT
 10
158.625447000419
 20
322.77846430161
 30
-229.4620320978057
  0
VERTEX
  5
1E9
  8
DEFAULT
 10
158.6323218810066
 20
322.824643765106
 30
-229.4620320978057
  0
VERTEX
  5
1EA
  8
DEFAULT
 10
158.6380759507276
 20
322.8706094926922
 30
-229.4620320978057
  0
VERTEX
  5
1EB
  8
DEFAULT
 10
158.6427304888959
 20
322.9163256728646
 30
-229.4620320978057
  0
VERTEX
  5
1EC
  8
DEFAULT
 10
158.646308037515
 20
322.9617580698811
 30
-229.4620320978057
  0
VERTEX
  5
1ED
  8
DEFAULT
 10
158.6488322850814
 20
323.0068740603627
 30
-229.4620320978057
  0
VERTEX
  5
1EE
  8
DEFAULT
 10
158.6503279510572
 20
323.0516426611368
 30
-229.4620320978057
  0
VERTEX
  5
1EF
  8
DEFAULT
 10
158.6508206716701
 20
325.6960345486602
 30
-229.4620320978057
  0
SEQEND
  5
1AE
  8
DEFAULT
  0
LINE
  5
1F0
  8
DEFAULT
 10
-153.9975258342994
 20
335.6960345486658
 30
229.4642433559377
 11
-153.9975258342994
 21
321.0960345486658
 31
229.4642433559377
  0
LINE
  5
1F1
  8
DEFAULT
 10
-156.4475258340466
 20
335.6960345486658
 30
229.4642785352332
 11
-153.9975258342994
 21
335.6960345486658
 31
229.4642433559377
  0
LINE
  5
1F2
  8
DEFAULT
 10
-156.4475258340466
 20
343.6960345486658
 30
229.4642785352332
 11
-156.4475258340466
 21
335.6960345486658
 31
229.4642785352332
  0
LINE
  5
1F3
  8
DEFAULT
 10
-153.9975258342994
 20
343.6960345486658
 30
229.4642433559377
 11
-156.4475258340466
 21
343.6960345486658
 31
229.4642785352332
  0
LINE
  5
1F4
  8
DEFAULT
 10
-153.9975258342994
 20
352.6960345486658
 30
229.4642433559377
 11
-153.9975258342994
 21
343.6960345486658
 31
229.4642433559377
  0
LINE
  5
1F5
  8
DEFAULT
 10
-147.7975258349385
 20
352.6960345486658
 30
229.4641543307812
 11
-153.9975258342994
 21
352.6960345486658
 31
229.4642433559377
  0
LINE
  5
1F6
  8
DEFAULT
 10
-147.7975258349385
 20
343.6960345486658
 30
229.4641543307812
 11
-147.7975258349385
 21
352.6960345486658
 31
229.4641543307812
  0
LINE
  5
1F7
  8
DEFAULT
 10
-145.347525835191
 20
343.6960345486658
 30
229.4641191514856
 11
-147.7975258349385
 21
343.6960345486658
 31
229.4641543307812
  0
LINE
  5
1F8
  8
DEFAULT
 10
-145.347525835191
 20
335.6960345486658
 30
229.4641191514856
 11
-145.347525835191
 21
343.6960345486658
 31
229.4641191514856
  0
LINE
  5
1F9
  8
DEFAULT
 10
-147.7975258349385
 20
335.6960345486658
 30
229.4641543307812
 11
-145.347525835191
 21
335.6960345486658
 31
229.4641191514856
  0
LINE
  5
1FA
  8
DEFAULT
 10
-147.7975258349385
 20
321.0960345486658
 30
229.4641543307812
 11
-147.7975258349385
 21
335.6960345486658
 31
229.4641543307812
  0
POLYLINE
  5
1FB
  8
DEFAULT
 66
     1
 10
0.0
 20
0.0
 30
-229.4620320977898
210
-1.435889617479025E-5
220
2.449234138789754E-14
230
-0.9999999998969111
  0
VERTEX
  5
1FD
  8
DEFAULT
 10
143.1508206716701
 20
325.6960345486714
 30
-229.4620320977898
  0
VERTEX
  5
1FE
  8
DEFAULT
 10
143.1513133922828
 20
323.0516426611484
 30
-229.4620320977898
  0
VERTEX
  5
1FF
  8
DEFAULT
 10
143.1528090582586
 20
323.0068740603743
 30
-229.4620320977899
  0
VERTEX
  5
200
  8
DEFAULT
 10
143.155333305825
 20
322.9617580698929
 30
-229.4620320977898
  0
VERTEX
  5
201
  8
DEFAULT
 10
143.1589108544442
 20
322.9163256728763
 30
-229.4620320977898
  0
VERTEX
  5
202
  8
DEFAULT
 10
143.1635653926124
 20
322.8706094927039
 30
-229.4620320977899
  0
VERTEX
  5
203
  8
DEFAULT
 10
143.1693194623334
 20
322.8246437651177
 30
-229.4620320977898
  0
VERTEX
  5
204
  8
DEFAULT
 10
143.1761943429209
 20
322.7784643016218
 30
-229.4620320977898
  0
VERTEX
  5
205
  8
DEFAULT
 10
143.1842099348368
 20
322.7321084438474
 30
-229.4620320977898
  0
VERTEX
  5
206
  8
DEFAULT
 10
143.1933846443175
 20
322.6856150086604
 30
-229.4620320977897
  0
VERTEX
  5
207
  8
DEFAULT
 10
143.2037352695844
 20
322.6390242238587
 30
-229.4620320977898
  0
VERTEX
  5
208
  8
DEFAULT
 10
143.2152768894663
 20
322.5923776543745
 30
-229.4620320977898
  0
VERTEX
  5
209
  8
DEFAULT
 10
143.2280227552959
 20
322.5457181189809
 30
-229.4620320977898
  0
VERTEX
  5
20A
  8
DEFAULT
 10
143.2419841869584
 20
322.4990895975795
 30
-229.4620320977898
  0
VERTEX
  5
20B
  8
DEFAULT
 10
143.2571704739865
 20
322.452537129241
 30
-229.4620320977898
  0
VERTEX
  5
20C
  8
DEFAULT
 10
143.2735887825951
 20
322.4061067012552
 30
-229.4620320977898
  0
VERTEX
  5
20D
  8
DEFAULT
 10
143.2912440695451
 20
322.3598451295478
 30
-229.4620320977897
  0
VERTEX
  5
20E
  8
DEFAULT
 10
143.3101390037059
 20
322.3137999309122
 30
-229.4620320977898
  0
VERTEX
  5
20F
  8
DEFAULT
 10
143.3302738961564
 20
322.2680191876019
 30
-229.4620320977897
  0
VERTEX
  5
210
  8
DEFAULT
 10
143.351646639624
 20
322.2225514049236
 30
-229.4620320977897
  0
VERTEX
  5
211
  8
DEFAULT
 10
143.3742526580104
 20
322.1774453625595
 30
-229.4620320977897
  0
VERTEX
  5
212
  8
DEFAULT
 10
143.3980848666876
 20
322.1327499604354
 30
-229.4620320977897
  0
VERTEX
  5
213
  8
DEFAULT
 10
143.423133644175
 20
322.0885140600332
 30
-229.4620320977897
  0
VERTEX
  5
214
  8
DEFAULT
 10
143.4493868157224
 20
322.0447863221163
 30
-229.4620320977898
  0
VERTEX
  5
215
  8
DEFAULT
 10
143.4768296492326
 20
322.0016150419013
 30
-229.4620320977898
  0
VERTEX
  5
216
  8
DEFAULT
 10
143.5054448638522
 20
321.9590479827665
 30
-229.4620320977898
  0
VERTEX
  5
217
  8
DEFAULT
 10
143.5352126514518
 20
321.9171322096259
 30
-229.4620320977898
  0
VERTEX
  5
218
  8
DEFAULT
 10
143.5661107111003
 20
321.8759139231301
 30
-229.4620320977898
  0
VERTEX
  5
219
  8
DEFAULT
 10
143.5981142965202
 20
321.8354382958731
 30
-229.4620320977898
  0
VERTEX
  5
21A
  8
DEFAULT
 10
143.6311962763876
 20
321.7957493117858
 30
-229.4620320977897
  0
VERTEX
  5
21B
  8
DEFAULT
 10
143.6653272072184
 20
321.7568896098871
 30
-229.4620320977898
  0
VERTEX
  5
21C
  8
DEFAULT
 10
143.700475418461
 20
321.7189003335369
 30
-229.4620320977898
  0
VERTEX
  5
21D
  8
DEFAULT
 10
143.7366071092967
 20
321.6818209862984
 30
-229.4620320977898
  0
VERTEX
  5
21E
  8
DEFAULT
 10
143.7736864565352
 20
321.6456892954625
 30
-229.4620320977898
  0
VERTEX
  5
21F
  8
DEFAULT
 10
143.8116757328855
 20
321.6105410842199
 30
-229.4620320977898
  0
VERTEX
  5
220
  8
DEFAULT
 10
143.8505354347841
 20
321.576410153389
 30
-229.4620320977898
  0
VERTEX
  5
221
  8
DEFAULT
 10
143.8902244188714
 20
321.5433281735218
 30
-229.4620320977898
  0
VERTEX
  5
222
  8
DEFAULT
 10
143.9307000461284
 20
321.5113245881018
 30
-229.4620320977897
  0
VERTEX
  5
223
  8
DEFAULT
 10
143.9719183326242
 20
321.4804265284534
 30
-229.4620320977897
  0
VERTEX
  5
224
  8
DEFAULT
 10
144.0138341057648
 20
321.4506587408537
 30
-229.4620320977897
  0
VERTEX
  5
225
  8
DEFAULT
 10
144.0564011648996
 20
321.4220435262341
 30
-229.4620320977898
  0
VERTEX
  5
226
  8
DEFAULT
 10
144.0995724451145
 20
321.3946006927239
 30
-229.4620320977898
  0
VERTEX
  5
227
  8
DEFAULT
 10
144.1433001830315
 20
321.3683475211765
 30
-229.4620320977897
  0
VERTEX
  5
228
  8
DEFAULT
 10
144.1875360834337
 20
321.3432987436892
 30
-229.4620320977898
  0
VERTEX
  5
229
  8
DEFAULT
 10
144.2322314855578
 20
321.3194665350118
 30
-229.4620320977897
  0
VERTEX
  5
22A
  8
DEFAULT
 10
144.2773375279219
 20
321.2968605166254
 30
-229.4620320977898
  0
VERTEX
  5
22B
  8
DEFAULT
 10
144.3228053106001
 20
321.2754877731579
 30
-229.4620320977897
  0
VERTEX
  5
22C
  8
DEFAULT
 10
144.3685860539103
 20
321.2553528807073
 30
-229.4620320977897
  0
VERTEX
  5
22D
  8
DEFAULT
 10
144.414631252546
 20
321.2364579465465
 30
-229.4620320977897
  0
VERTEX
  5
22E
  8
DEFAULT
 10
144.4608928242534
 20
321.2188026595965
 30
-229.4620320977898
  0
VERTEX
  5
22F
  8
DEFAULT
 10
144.5073232522392
 20
321.202384350988
 30
-229.4620320977897
  0
VERTEX
  5
230
  8
DEFAULT
 10
144.5538757205777
 20
321.18719806396
 30
-229.4620320977897
  0
VERTEX
  5
231
  8
DEFAULT
 10
144.600504241979
 20
321.1732366322973
 30
-229.4620320977897
  0
VERTEX
  5
232
  8
DEFAULT
 10
144.6471637773727
 20
321.1604907664678
 30
-229.4620320977898
  0
VERTEX
  5
233
  8
DEFAULT
 10
144.6938103468568
 20
321.1489491465859
 30
-229.4620320977897
  0
VERTEX
  5
234
  8
DEFAULT
 10
144.7404011316585
 20
321.138598521319
 30
-229.4620320977897
  0
VERTEX
  5
235
  8
DEFAULT
 10
144.7868945668454
 20
321.1294238118383
 30
-229.4620320977897
  0
VERTEX
  5
236
  8
DEFAULT
 10
144.8332504246198
 20
321.1214082199224
 30
-229.4620320977898
  0
VERTEX
  5
237
  8
DEFAULT
 10
144.8794298881157
 20
321.114533339335
 30
-229.4620320977898
  0
VERTEX
  5
238
  8
DEFAULT
 10
144.925395615702
 20
321.1087792696139
 30
-229.4620320977898
  0
VERTEX
  5
239
  8
DEFAULT
 10
144.9711117958743
 20
321.1041247314457
 30
-229.4620320977898
  0
VERTEX
  5
23A
  8
DEFAULT
 10
145.0165441928909
 20
321.1005471828265
 30
-229.4620320977898
  0
VERTEX
  5
23B
  8
DEFAULT
 10
145.0616601833724
 20
321.0980229352601
 30
-229.4620320977898
  0
VERTEX
  5
23C
  8
DEFAULT
 10
145.1064287841464
 20
321.0965272692843
 30
-229.4620320977898
  0
VERTEX
  5
23D
  8
DEFAULT
 10
147.8008206716701
 20
321.0960345486714
 30
-229.4620320977898
  0
SEQEND
  5
1FC
  8
DEFAULT
  0
LINE
  5
23E
  8
DEFAULT
 10
-136.9100679833026
 20
325.6960345486658
 30
229.4639979989045
 11
-143.1475258354179
 21
325.6960345486658
 31
229.4640875619141
  0
LINE
  5
23F
  8
DEFAULT
 10
-136.9100679833026
 20
312.5504636445745
 30
229.4639979989045
 11
-136.9100679833026
 21
325.6960345486658
 31
229.4639979989045
  0
LINE
  5
240
  8
DEFAULT
 10
-70.19534178325137
 20
312.5504636445745
 30
229.4630400490769
 11
-136.9100679833026
 21
312.5504636445745
 31
229.4639979989045
  0
LINE
  5
241
  8
DEFAULT
 10
-70.19534178325137
 20
325.6960345486658
 30
229.4630400490769
 11
-70.19534178325137
 21
312.5504636445745
 31
229.4630400490769
  0
LINE
  5
242
  8
DEFAULT
 10
-63.95788393113605
 20
325.6960345486658
 30
229.4629504860673
 11
-70.19534178325137
 21
325.6960345486658
 31
229.4630400490769
  0
POLYLINE
  5
243
  8
DEFAULT
 66
     1
 10
0.0
 20
0.0
 30
-229.4620320977966
210
-1.435889614204658E-5
220
8.607231584217016E-15
230
-0.9999999998969112
  0
VERTEX
  5
245
  8
DEFAULT
 10
59.31117875921726
 20
321.0960345486678
 30
-229.4620320977966
  0
VERTEX
  5
246
  8
DEFAULT
 10
62.00557064674067
 20
321.0965272692806
 30
-229.4620320977966
  0
VERTEX
  5
247
  8
DEFAULT
 10
62.05033924751478
 20
321.0980229352564
 30
-229.4620320977966
  0
VERTEX
  5
248
  8
DEFAULT
 10
62.09545523799628
 20
321.1005471828229
 30
-229.4620320977967
  0
VERTEX
  5
249
  8
DEFAULT
 10
62.14088763501289
 20
321.104124731442
 30
-229.4620320977966
  0
VERTEX
  5
24A
  8
DEFAULT
 10
62.18660381518522
 20
321.1087792696103
 30
-229.4620320977967
  0
VERTEX
  5
24B
  8
DEFAULT
 10
62.23256954277146
 20
321.1145333393313
 30
-229.4620320977967
  0
VERTEX
  5
24C
  8
DEFAULT
 10
62.27874900626737
 20
321.1214082199187
 30
-229.4620320977967
  0
VERTEX
  5
24D
  8
DEFAULT
 10
62.32510486404178
 20
321.1294238118346
 30
-229.4620320977966
  0
VERTEX
  5
24E
  8
DEFAULT
 10
62.37159829922867
 20
321.1385985213153
 30
-229.4620320977966
  0
VERTEX
  5
24F
  8
DEFAULT
 10
62.4181890840304
 20
321.1489491465823
 30
-229.4620320977966
  0
VERTEX
  5
250
  8
DEFAULT
 10
62.46483565351456
 20
321.1604907664641
 30
-229.4620320977966
  0
VERTEX
  5
251
  8
DEFAULT
 10
62.51149518890826
 20
321.1732366322937
 30
-229.4620320977966
  0
VERTEX
  5
252
  8
DEFAULT
 10
62.55812371030959
 20
321.1871980639563
 30
-229.4620320977966
  0
VERTEX
  5
253
  8
DEFAULT
 10
62.60467617864808
 20
321.2023843509844
 30
-229.4620320977966
  0
VERTEX
  5
254
  8
DEFAULT
 10
62.65110660663386
 20
321.2188026595929
 30
-229.4620320977966
  0
VERTEX
  5
255
  8
DEFAULT
 10
62.69736817834127
 20
321.2364579465428
 30
-229.4620320977966
  0
VERTEX
  5
256
  8
DEFAULT
 10
62.74341337697699
 20
321.2553528807037
 30
-229.4620320977966
  0
VERTEX
  5
257
  8
DEFAULT
 10
62.78919412028724
 20
321.2754877731542
 30
-229.4620320977966
  0
VERTEX
  5
258
  8
DEFAULT
 10
62.8346619029654
 20
321.2968605166217
 30
-229.4620320977966
  0
VERTEX
  5
259
  8
DEFAULT
 10
62.87976794532956
 20
321.3194665350082
 30
-229.4620320977966
  0
VERTEX
  5
25A
  8
DEFAULT
 10
62.9244633474537
 20
321.3432987436855
 30
-229.4620320977966
  0
VERTEX
  5
25B
  8
DEFAULT
 10
62.96869924785585
 20
321.3683475211728
 30
-229.4620320977966
  0
VERTEX
  5
25C
  8
DEFAULT
 10
63.01242698577284
 20
321.3946006927202
 30
-229.4620320977966
  0
VERTEX
  5
25D
  8
DEFAULT
 10
63.05559826598785
 20
321.4220435262305
 30
-229.4620320977966
  0
VERTEX
  5
25E
  8
DEFAULT
 10
63.09816532512257
 20
321.45065874085
 30
-229.4620320977966
  0
VERTEX
  5
25F
  8
DEFAULT
 10
63.14008109826317
 20
321.4804265284498
 30
-229.4620320977966
  0
VERTEX
  5
260
  8
DEFAULT
 10
63.18129938475901
 20
321.5113245880982
 30
-229.4620320977966
  0
VERTEX
  5
261
  8
DEFAULT
 10
63.22177501201605
 20
321.5433281735181
 30
-229.4620320977966
  0
VERTEX
  5
262
  8
DEFAULT
 10
63.26146399610323
 20
321.5764101533854
 30
-229.4620320977966
  0
VERTEX
  5
263
  8
DEFAULT
 10
63.30032369800197
 20
321.6105410842163
 30
-229.4620320977966
  0
VERTEX
  5
264
  8
DEFAULT
 10
63.33831297435225
 20
321.6456892954589
 30
-229.4620320977966
  0
VERTEX
  5
265
  8
DEFAULT
 10
63.37539232159067
 20
321.6818209862947
 30
-229.4620320977966
  0
VERTEX
  5
266
  8
DEFAULT
 10
63.41152401242641
 20
321.7189003335332
 30
-229.4620320977966
  0
VERTEX
  5
267
  8
DEFAULT
 10
63.4466722236691
 20
321.7568896098835
 30
-229.4620320977966
  0
VERTEX
  5
268
  8
DEFAULT
 10
63.4808031544999
 20
321.7957493117822
 30
-229.4620320977966
  0
VERTEX
  5
269
  8
DEFAULT
 10
63.51388513436727
 20
321.8354382958695
 30
-229.4620320977967
  0
VERTEX
  5
26A
  8
DEFAULT
 10
63.54588871978712
 20
321.8759139231265
 30
-229.4620320977966
  0
VERTEX
  5
26B
  8
DEFAULT
 10
63.5767867794356
 20
321.9171322096223
 30
-229.4620320977966
  0
VERTEX
  5
26C
  8
DEFAULT
 10
63.6065545670352
 20
321.9590479827629
 30
-229.4620320977966
  0
VERTEX
  5
26D
  8
DEFAULT
 10
63.63516978165487
 20
322.0016150418977
 30
-229.4620320977966
  0
VERTEX
  5
26E
  8
DEFAULT
 10
63.66261261516507
 20
322.0447863221127
 30
-229.4620320977966
  0
VERTEX
  5
26F
  8
DEFAULT
 10
63.68886578671242
 20
322.0885140600296
 30
-229.4620320977965
  0
VERTEX
  5
270
  8
DEFAULT
 10
63.71391456419978
 20
322.1327499604317
 30
-229.4620320977966
  0
VERTEX
  5
271
  8
DEFAULT
 10
63.73774677287707
 20
322.1774453625559
 30
-229.4620320977966
  0
VERTEX
  5
272
  8
DEFAULT
 10
63.76035279126346
 20
322.22255140492
 30
-229.4620320977965
  0
VERTEX
  5
273
  8
DEFAULT
 10
63.78172553473106
 20
322.2680191875983
 30
-229.4620320977966
  0
VERTEX
  5
274
  8
DEFAULT
 10
63.80186042718155
 20
322.3137999309085
 30
-229.4620320977966
  0
VERTEX
  5
275
  8
DEFAULT
 10
63.82075536134239
 20
322.3598451295442
 30
-229.4620320977965
  0
VERTEX
  5
276
  8
DEFAULT
 10
63.83841064829235
 20
322.4061067012516
 30
-229.4620320977965
  0
VERTEX
  5
277
  8
DEFAULT
 10
63.85482895690088
 20
322.4525371292374
 30
-229.4620320977966
  0
VERTEX
  5
278
  8
DEFAULT
 10
63.870015243929
 20
322.4990895975758
 30
-229.4620320977966
  0
VERTEX
  5
279
  8
DEFAULT
 10
63.88397667559158
 20
322.5457181189772
 30
-229.4620320977966
  0
VERTEX
  5
27A
  8
DEFAULT
 10
63.89672254142111
 20
322.5923776543709
 30
-229.4620320977966
  0
VERTEX
  5
27B
  8
DEFAULT
 10
63.90826416130299
 20
322.6390242238551
 30
-229.4620320977966
  0
VERTEX
  5
27C
  8
DEFAULT
 10
63.91861478656985
 20
322.6856150086568
 30
-229.4620320977965
  0
VERTEX
  5
27D
  8
DEFAULT
 10
63.92778949605063
 20
322.7321084438437
 30
-229.4620320977966
  0
VERTEX
  5
27E
  8
DEFAULT
 10
63.93580508796646
 20
322.7784643016182
 30
-229.4620320977966
  0
VERTEX
  5
27F
  8
DEFAULT
 10
63.94267996855395
 20
322.824643765114
 30
-229.4620320977966
  0
VERTEX
  5
280
  8
DEFAULT
 10
63.94843403827497
 20
322.8706094927003
 30
-229.4620320977966
  0
VERTEX
  5
281
  8
DEFAULT
 10
63.95308857644321
 20
322.9163256728726
 30
-229.4620320977966
  0
VERTEX
  5
282
  8
DEFAULT
 10
63.95666612506238
 20
322.9617580698892
 30
-229.4620320977966
  0
VERTEX
  5
283
  8
DEFAULT
 10
63.95919037262878
 20
323.0068740603707
 30
-229.4620320977966
  0
VERTEX
  5
284
  8
DEFAULT
 10
63.96068603860456
 20
323.0516426611447
 30
-229.4620320977966
  0
VERTEX
  5
285
  8
DEFAULT
 10
63.96117875921719
 20
325.6960345486678
 30
-229.4620320977966
  0
SEQEND
  5
244
  8
DEFAULT
  0
LINE
  5
286
  8
DEFAULT
 10
-59.30788393161549
 20
335.6960345486658
 30
229.4628837172002
 11
-59.30788393161549
 21
321.0960345486658
 31
229.4628837172002
  0
LINE
  5
287
  8
DEFAULT
 10
-158.6475258338199
 20
325.6960345486658
 30
229.4643101248048
 11
-158.6476062436385
 21
325.6960345486658
 31
223.8643101253822
  0
LINE
  5
288
  8
DEFAULT
 10
-166.4136062170932
 20
325.6960345486658
 30
229.4644216371469
 11
-166.4136866269117
 21
325.6960345486658
 31
223.864421637724
  0
LINE
  5
289
  8
DEFAULT
 10
-166.4136062170932
 20
365.366034128453
 30
229.4644216371469
 11
-166.4136866269117
 21
365.366034128453
 31
223.864421637724
  0
LINE
  5
28A
  8
DEFAULT
 10
-131.7527048803698
 20
365.366034128453
 30
229.4639239448627
 11
-131.7527852901884
 21
365.366034128453
 31
223.8639239454401
  0
LINE
  5
28B
  8
DEFAULT
 10
-75.35270488618414
 20
365.366034128453
 30
229.4631141031184
 11
-75.35278529600248
 21
365.366034128453
 31
223.8631141036956
  0
LINE
  5
28C
  8
DEFAULT
 10
-40.69180354946059
 20
365.366034128453
 30
229.4626164108345
 11
-40.69188395927938
 21
365.366034128453
 31
223.8626164114116
  0
LINE
  5
28D
  8
DEFAULT
 10
-40.69180354946059
 20
325.6960345486658
 30
229.4626164108345
 11
-40.69188395927938
 21
325.6960345486658
 31
223.8626164114116
  0
LINE
  5
28E
  8
DEFAULT
 10
-48.45788393273403
 20
325.6960345486658
 30
229.4627279231765
 11
-48.4579643425526
 21
325.6960345486658
 31
223.8627279237537
  0
LINE
  5
28F
  8
DEFAULT
 10
-53.10788393225459
 20
321.0960345486658
 30
229.4627946920436
 11
-53.10796434207316
 21
321.0960345486657
 31
223.862794692621
  0
LINE
  5
290
  8
DEFAULT
 10
-53.10788393225459
 20
335.6960345486658
 30
229.4627946920436
 11
-53.10796434207316
 21
335.6960345486658
 31
223.862794692621
  0
LINE
  5
291
  8
DEFAULT
 10
-50.65788393250716
 20
335.6960345486658
 30
229.4627595127479
 11
-50.65796434232573
 21
335.6960345486658
 31
223.8627595133253
  0
LINE
  5
292
  8
DEFAULT
 10
-50.65788393250716
 20
343.6960345486658
 30
229.4627595127479
 11
-50.65796434232573
 21
343.6960345486658
 31
223.8627595133253
  0
LINE
  5
293
  8
DEFAULT
 10
-53.10788393225459
 20
343.6960345486658
 30
229.4627946920436
 11
-53.10796434207316
 21
343.6960345486658
 31
223.862794692621
  0
LINE
  5
294
  8
DEFAULT
 10
-53.10788393225459
 20
352.6960345486658
 30
229.4627946920436
 11
-53.10796434207316
 21
352.6960345486658
 31
223.862794692621
  0
LINE
  5
295
  8
DEFAULT
 10
-59.30788393161549
 20
352.6960345486658
 30
229.4628837172002
 11
-59.30796434143406
 21
352.6960345486658
 31
223.8628837177773
  0
LINE
  5
296
  8
DEFAULT
 10
-59.30788393161549
 20
343.6960345486658
 30
229.4628837172002
 11
-59.30796434143406
 21
343.6960345486658
 31
223.8628837177773
  0
LINE
  5
297
  8
DEFAULT
 10
-61.75788393136293
 20
343.6960345486658
 30
229.4629188964957
 11
-61.75796434118149
 21
343.6960345486658
 31
223.8629188970729
  0
LINE
  5
298
  8
DEFAULT
 10
-61.75788393136293
 20
335.6960345486658
 30
229.4629188964957
 11
-61.75796434118149
 21
335.6960345486658
 31
223.8629188970729
  0
LINE
  5
299
  8
DEFAULT
 10
-59.30788393161549
 20
335.6960345486658
 30
229.4628837172002
 11
-59.30796434143406
 21
335.6960345486658
 31
223.8628837177773
  0
LINE
  5
29A
  8
DEFAULT
 10
-59.30788393161549
 20
321.0960345486658
 30
229.4628837172002
 11
-59.30796434143406
 21
321.0960345486657
 31
223.8628837177773
  0
LINE
  5
29B
  8
DEFAULT
 10
-63.95788393113605
 20
325.6960345486658
 30
229.4629504860673
 11
-63.95796434095485
 21
325.6960345486658
 31
223.8629504866446
  0
LINE
  5
29C
  8
DEFAULT
 10
-70.19534178325137
 20
325.6960345486658
 30
229.4630400490769
 11
-70.19542219306993
 21
325.6960345486658
 31
223.8630400496543
  0
LINE
  5
29D
  8
DEFAULT
 10
-70.19534178325137
 20
312.5504636445745
 30
229.4630400490769
 11
-70.19542219306993
 21
312.5504636445745
 31
223.8630400496543
  0
LINE
  5
29E
  8
DEFAULT
 10
-136.9100679833026
 20
312.5504636445745
 30
229.4639979989045
 11
-136.9101483931212
 21
312.5504636445745
 31
223.8639979994816
  0
LINE
  5
29F
  8
DEFAULT
 10
-136.9100679833026
 20
325.6960345486658
 30
229.4639979989045
 11
-136.9101483931212
 21
325.6960345486658
 31
223.8639979994816
  0
LINE
  5
2A0
  8
DEFAULT
 10
-143.1475258354179
 20
325.6960345486658
 30
229.4640875619141
 11
-143.1476062452363
 21
325.6960345486658
 31
223.8640875624912
  0
LINE
  5
2A1
  8
DEFAULT
 10
-147.7975258349385
 20
321.0960345486658
 30
229.4641543307812
 11
-147.797606244757
 21
321.0960345486657
 31
223.8641543313586
  0
LINE
  5
2A2
  8
DEFAULT
 10
-147.7975258349385
 20
335.6960345486658
 30
229.4641543307812
 11
-147.797606244757
 21
335.6960345486658
 31
223.8641543313586
  0
LINE
  5
2A3
  8
DEFAULT
 10
-145.347525835191
 20
335.6960345486658
 30
229.4641191514856
 11
-145.3476062450096
 21
335.6960345486658
 31
223.8641191520628
  0
LINE
  5
2A4
  8
DEFAULT
 10
-145.347525835191
 20
343.6960345486658
 30
229.4641191514856
 11
-145.3476062450096
 21
343.6960345486658
 31
223.8641191520628
  0
LINE
  5
2A5
  8
DEFAULT
 10
-147.7975258349385
 20
343.6960345486658
 30
229.4641543307812
 11
-147.797606244757
 21
343.6960345486658
 31
223.8641543313586
  0
LINE
  5
2A6
  8
DEFAULT
 10
-147.7975258349385
 20
352.6960345486658
 30
229.4641543307812
 11
-147.797606244757
 21
352.6960345486658
 31
223.8641543313586
  0
LINE
  5
2A7
  8
DEFAULT
 10
-153.9975258342994
 20
352.6960345486658
 30
229.4642433559377
 11
-153.9976062441177
 21
352.6960345486658
 31
223.8642433565149
  0
LINE
  5
2A8
  8
DEFAULT
 10
-153.9975258342994
 20
343.6960345486658
 30
229.4642433559377
 11
-153.9976062441177
 21
343.6960345486658
 31
223.8642433565149
  0
LINE
  5
2A9
  8
DEFAULT
 10
-156.4475258340466
 20
343.6960345486658
 30
229.4642785352332
 11
-156.4476062438654
 21
343.6960345486658
 31
223.8642785358104
  0
LINE
  5
2AA
  8
DEFAULT
 10
-156.4475258340466
 20
335.6960345486658
 30
229.4642785352332
 11
-156.4476062438654
 21
335.6960345486658
 31
223.8642785358104
  0
LINE
  5
2AB
  8
DEFAULT
 10
-153.9975258342994
 20
335.6960345486658
 30
229.4642433559377
 11
-153.9976062441177
 21
335.6960345486658
 31
223.8642433565149
  0
LINE
  5
2AC
  8
DEFAULT
 10
-153.9975258342994
 20
321.0960345486658
 30
229.4642433559377
 11
-153.9976062441177
 21
321.0960345486657
 31
223.8642433565149
  0
CIRCLE
  5
2AD
  8
DEFAULT
 10
-103.5559997154492
 20
345.516034548666
 30
223.862032097796
 40
19.00000000000001
210
1.435889618350256E-5
220
-1.495970744941061E-15
230
0.9999999998969111
  0
CIRCLE
  5
2AE
  8
DEFAULT
 10
-103.5559997154485
 20
345.5160345486647
 30
229.4620320977986
 40
19.00000000000001
210
1.435889617901491E-5
220
4.487536217892431E-15
230
0.9999999998969111
  0
LINE
  5
2AF
  8
DEFAULT
 10
-122.5527048813184
 20
345.5160345486657
 30
229.463791843018
 11
-122.5527852911367
 21
345.5160345486657
 31
223.8637918435954
  0
CIRCLE
  5
2B0
  8
DEFAULT
 10
-79.98599971544851
 20
321.9460345486572
 30
223.8620320978091
 40
2.59999999999998
210
1.435889617941779E-5
220
3.826066066534195E-14
230
0.9999999998969111
  0
CIRCLE
  5
2B1
  8
DEFAULT
 10
-79.98599971544957
 20
321.9460345486507
 30
229.4620320978176
 40
2.59999999999998
210
1.435889618488338E-5
220
6.558926551676893E-14
230
0.9999999998969111
  0
LINE
  5
2B2
  8
DEFAULT
 10
-82.5827048854386
 20
321.9460345486658
 30
229.4632179179378
 11
-82.5827852952574
 21
321.9460345486658
 31
223.8632179185149
  0
CIRCLE
  5
2B3
  8
DEFAULT
 10
-79.98599971544968
 20
369.0860345486535
 30
223.8620320978166
 40
2.600000000000037
210
1.435889618488350E-5
220
5.465780112230765E-14
230
0.9999999998969111
  0
CIRCLE
  5
2B4
  8
DEFAULT
 10
-79.98599971544837
 20
369.086034548652
 30
229.4620320978191
 40
2.599999999999923
210
1.435889617941779E-5
220
6.012335689610747E-14
230
0.9999999998969111
  0
LINE
  5
2B5
  8
DEFAULT
 10
-82.5827048854386
 20
369.0860345486658
 30
229.4632179179378
 11
-82.5827852952574
 21
369.0860345486658
 31
223.8632179185149
  0
CIRCLE
  5
2B6
  8
DEFAULT
 10
-127.1259997154497
 20
321.9460345486534
 30
223.8620320978138
 40
2.600000000000037
210
1.435889618488347E-5
220
5.465760465075878E-14
230
0.9999999998969112
  0
CIRCLE
  5
2B7
  8
DEFAULT
 10
-127.1259997154509
 20
321.9460345486544
 30
229.4620320978115
 40
2.59999999999998
210
1.435889619034914E-5
220
4.919224334369519E-14
230
0.9999999998969111
  0
LINE
  5
2B8
  8
DEFAULT
 10
-129.722704880579
 20
321.9460345486658
 30
229.4638947963037
 11
-129.7227852903978
 21
321.9460345486658
 31
223.8638947968809
  0
CIRCLE
  5
2B9
  8
DEFAULT
 10
-127.1259997154497
 20
369.0860345486536
 30
223.8620320978164
 40
2.600000000000037
210
1.435889618488342E-5
220
5.465787930996342E-14
230
0.9999999998969111
  0
CIRCLE
  5
2BA
  8
DEFAULT
 10
-127.1259997154509
 20
369.0860345486544
 30
229.4620320978138
 40
2.59999999999998
210
1.435889619034914E-5
220
4.919177321534986E-14
230
0.9999999998969111
  0
LINE
  5
2BB
  8
DEFAULT
 10
-129.722704880579
 20
369.0860345486658
 30
229.4638947963037
 11
-129.7227852903978
 21
369.0860345486658
 31
223.8638947968809
  0
LINE
  5
2BC
  8
DEFAULT
 10
-75.35278529600248
 20
373.9088419848812
 30
223.8631141036956
 11
-131.7527852901884
 21
373.9088419848812
 31
223.8639239454401
  0
LINE
  5
2BD
  8
DEFAULT
 10
-131.7527048803698
 20
373.9088419848812
 30
229.4639239448627
 11
-75.35270488618414
 21
373.9088419848812
 31
229.4631141031184
  0
LINE
  5
2BE
  8
DEFAULT
 10
-131.7527048803698
 20
373.9088419848812
 30
229.4639239448627
 11
-131.7527852901884
 21
373.9088419848812
 31
223.8639239454401
  0
LINE
  5
2BF
  8
DEFAULT
 10
-75.35278529600248
 20
373.9088419848812
 30
223.8631141036956
 11
-75.35270488618414
 21
373.9088419848812
 31
229.4631141031184
  0
LINE
  5
2C0
  8
DEFAULT
 10
-131.7527852901884
 20
373.9088419848812
 30
223.8639239454401
 11
-131.7527852901884
 21
365.366034128453
 31
223.8639239454401
  0
LINE
  5
2C1
  8
DEFAULT
 10
-75.35270488618414
 20
373.9088419848812
 30
229.4631141031184
 11
-75.35270488618414
 21
365.366034128453
 31
229.4631141031184
  0
LINE
  5
2C2
  8
DEFAULT
 10
-166.4136866269117
 20
344.3332488865137
 30
223.8644216377242
 11
-153.9976062441178
 21
344.3332488865137
 31
223.864243356515
  0
LINE
  5
2C3
  8
DEFAULT
 10
-147.797606244757
 20
344.3332488865137
 30
223.8641543313587
 11
-122.5159317466548
 21
344.3332488865137
 31
223.8637913144192
  0
LINE
  5
2C4
  8
DEFAULT
 10
-84.58963655813409
 20
344.3332488865137
 30
223.8632467346841
 11
-59.30796434143388
 21
344.3332488865137
 31
223.8628837177774
  0
LINE
  5
2C5
  8
DEFAULT
 10
-53.10796434207307
 20
344.3332488865137
 30
223.862794692621
 11
-40.69188395927914
 21
344.3332488865137
 31
223.8626164114118
  0
LINE
  5
2C6
  8
DEFAULT
 10
-103.5527852930954
 20
312.5504636445745
 30
223.863519024568
 11
-103.5527852930954
 21
326.5160345486657
 31
223.863519024568
  0
LINE
  5
2C7
  8
DEFAULT
 10
-103.5527852930954
 20
364.5160345486657
 30
223.863519024568
 11
-103.5527852930954
 21
373.9088419848812
 31
223.863519024568
  0
LINE
  5
2C8
  8
DEFAULT
 10
-166.4136062170934
 20
344.3332488865138
 30
229.4644216371468
 11
-153.9975258342994
 21
344.3332488865138
 31
229.4642433559376
  0
LINE
  5
2C9
  8
DEFAULT
 10
-147.7975258349386
 20
344.3332488865138
 30
229.4641543307814
 11
-122.5158513368364
 21
344.3332488865138
 31
229.4637913138419
  0
LINE
  5
2CA
  8
DEFAULT
 10
-84.58955614831561
 20
344.3332488865138
 30
229.4632467341067
 11
-59.30788393161539
 21
344.3332488865138
 31
229.4628837172
  0
LINE
  5
2CB
  8
DEFAULT
 10
-53.10788393225454
 20
344.3332488865138
 30
229.4627946920437
 11
-40.69180354946059
 21
344.3332488865138
 31
229.4626164108345
  0
LINE
  5
2CC
  8
DEFAULT
 10
-103.552704883277
 20
373.9088419848812
 30
229.4635190239907
 11
-103.552704883277
 21
364.5160345486657
 31
229.4635190239907
  0
LINE
  5
2CD
  8
DEFAULT
 10
-103.552704883277
 20
326.5160345486657
 30
229.4635190239907
 11
-103.552704883277
 21
312.5504636445746
 31
229.4635190239907
  0
LINE
  5
2CE
  8
DEFAULT
 10
-158.6475660387291
 20
325.6960345486658
 30
226.664310125093
 11
-166.4136464220023
 21
325.6960345486658
 31
226.6644216374351
  0
LINE
  5
2CF
  8
DEFAULT
 10
-162.5305660254566
 20
325.6960345486658
 30
229.4643658809754
 11
-162.5306464352749
 21
325.6960345486658
 31
223.8643658815528
  0
LINE
  5
2D0
  8
DEFAULT
 10
-166.4136464220023
 20
325.6960345486658
 30
226.6644216374351
 11
-166.4136464220023
 21
365.366034128453
 31
226.6644216374351
  0
LINE
  5
2D1
  8
DEFAULT
 10
-166.4136062170932
 20
345.5310343385594
 30
229.4644216371464
 11
-166.4136866269115
 21
345.5310343385593
 31
223.8644216377238
  0
LINE
  5
2D2
  8
DEFAULT
 10
-166.4136464220023
 20
365.3660341284531
 30
226.6644216374351
 11
-131.752745085279
 21
365.3660341284531
 31
226.6639239451509
  0
LINE
  5
2D3
  8
DEFAULT
 10
-149.0831555487315
 20
365.3660341284531
 30
229.4641727910043
 11
-149.0832359585498
 21
365.366034128453
 31
223.8641727915817
  0
LINE
  5
2D4
  8
DEFAULT
 10
-131.752745085279
 20
365.3660341284531
 30
226.6639239451514
 11
-131.752745085279
 21
373.9088419848813
 31
226.6639239451514
  0
LINE
  5
2D5
  8
DEFAULT
 10
-131.7527048803698
 20
370.7410341284531
 30
229.4639239448627
 11
-131.7527852901882
 21
370.741034128453
 31
223.8639239454401
  0
LINE
  5
2D6
  8
DEFAULT
 10
-75.35274509109331
 20
373.9088419848813
 30
226.6631141034082
 11
-75.35274509109331
 21
365.3660341284531
 31
226.6631141034082
  0
LINE
  5
2D7
  8
DEFAULT
 10
-75.35270488618414
 20
370.7410341284531
 30
229.4631141031196
 11
-75.35278529600248
 21
370.741034128453
 31
223.8631141036969
  0
LINE
  5
2D8
  8
DEFAULT
 10
-75.35274509109331
 20
365.3660341284531
 30
226.6631141034082
 11
-40.69184375436976
 21
365.3660341284531
 31
226.6626164111243
  0
LINE
  5
2D9
  8
DEFAULT
 10
-58.02225421782236
 20
365.3660341284531
 30
229.4628652569776
 11
-58.0223346276407
 21
365.366034128453
 31
223.862865257555
  0
LINE
  5
2DA
  8
DEFAULT
 10
-40.69184375436953
 20
365.3660341284531
 30
226.6626164111232
 11
-40.69184375436953
 21
325.6960345486659
 31
226.6626164111232
  0
LINE
  5
2DB
  8
DEFAULT
 10
-40.69180354946036
 20
345.5310343385594
 30
229.4626164108345
 11
-40.6918839592787
 21
345.5310343385594
 31
223.8626164114119
  0
LINE
  5
2DC
  8
DEFAULT
 10
-40.69184375436953
 20
325.6960345486658
 30
226.6626164111232
 11
-48.45792413764298
 21
325.6960345486658
 31
226.6627279234652
  0
LINE
  5
2DD
  8
DEFAULT
 10
-44.57484374109708
 20
325.6960345486658
 30
229.4626721670055
 11
-44.57492415091542
 21
325.6960345486658
 31
223.8626721675829
  0
POLYLINE
  5
2DE
  8
DEFAULT
 66
     1
 10
0.0
 20
0.0
 30
-226.6620320977924
210
-1.435889616660564E-5
220
1.621877749780965E-14
230
-0.9999999998969111
  0
VERTEX
  5
2E0
  8
DEFAULT
 10
48.46117875922283
 20
325.6960345486695
 30
-226.6620320977924
  0
VERTEX
  5
2E1
  8
DEFAULT
 10
48.46167147983569
 20
323.0516426611462
 30
-226.6620320977925
  0
VERTEX
  5
2E2
  8
DEFAULT
 10
48.46316714581148
 20
323.006874060372
 30
-226.6620320977925
  0
VERTEX
  5
2E3
  8
DEFAULT
 10
48.46569139337787
 20
322.9617580698904
 30
-226.6620320977924
  0
VERTEX
  5
2E4
  8
DEFAULT
 10
48.46926894199705
 20
322.9163256728739
 30
-226.6620320977925
  0
VERTEX
  5
2E5
  8
DEFAULT
 10
48.4739234801653
 20
322.8706094927015
 30
-226.6620320977925
  0
VERTEX
  5
2E6
  8
DEFAULT
 10
48.47967754988631
 20
322.8246437651153
 30
-226.6620320977924
  0
VERTEX
  5
2E7
  8
DEFAULT
 10
48.48655243047381
 20
322.7784643016194
 30
-226.6620320977925
  0
VERTEX
  5
2E8
  8
DEFAULT
 10
48.49456802238964
 20
322.732108443845
 30
-226.6620320977924
  0
VERTEX
  5
2E9
  8
DEFAULT
 10
48.50374273187043
 20
322.6856150086581
 30
-226.6620320977925
  0
VERTEX
  5
2EA
  8
DEFAULT
 10
48.51409335713729
 20
322.6390242238564
 30
-226.6620320977925
  0
VERTEX
  5
2EB
  8
DEFAULT
 10
48.52563497701918
 20
322.5923776543722
 30
-226.6620320977925
  0
VERTEX
  5
2EC
  8
DEFAULT
 10
48.53838084284872
 20
322.5457181189786
 30
-226.6620320977924
  0
VERTEX
  5
2ED
  8
DEFAULT
 10
48.55234227451131
 20
322.4990895975772
 30
-226.6620320977924
  0
VERTEX
  5
2EE
  8
DEFAULT
 10
48.56752856153943
 20
322.4525371292387
 30
-226.6620320977924
  0
VERTEX
  5
2EF
  8
DEFAULT
 10
48.58394687014796
 20
322.406106701253
 30
-226.6620320977924
  0
VERTEX
  5
2F0
  8
DEFAULT
 10
48.60160215709791
 20
322.3598451295455
 30
-226.6620320977924
  0
VERTEX
  5
2F1
  8
DEFAULT
 10
48.62049709125877
 20
322.3137999309099
 30
-226.6620320977924
  0
VERTEX
  5
2F2
  8
DEFAULT
 10
48.64063198370926
 20
322.2680191875997
 30
-226.6620320977924
  0
VERTEX
  5
2F3
  8
DEFAULT
 10
48.66200472717686
 20
322.2225514049215
 30
-226.6620320977925
  0
VERTEX
  5
2F4
  8
DEFAULT
 10
48.68461074556326
 20
322.1774453625574
 30
-226.6620320977924
  0
VERTEX
  5
2F5
  8
DEFAULT
 10
48.70844295424055
 20
322.1327499604332
 30
-226.6620320977924
  0
VERTEX
  5
2F6
  8
DEFAULT
 10
48.73349173172793
 20
322.0885140600311
 30
-226.6620320977924
  0
VERTEX
  5
2F7
  8
DEFAULT
 10
48.7597449032753
 20
322.0447863221141
 30
-226.6620320977925
  0
VERTEX
  5
2F8
  8
DEFAULT
 10
48.78718773678548
 20
322.0016150418991
 30
-226.6620320977924
  0
VERTEX
  5
2F9
  8
DEFAULT
 10
48.81580295140515
 20
321.9590479827643
 30
-226.6620320977924
  0
VERTEX
  5
2FA
  8
DEFAULT
 10
48.84557073900477
 20
321.9171322096237
 30
-226.6620320977924
  0
VERTEX
  5
2FB
  8
DEFAULT
 10
48.87646879865325
 20
321.8759139231279
 30
-226.6620320977924
  0
VERTEX
  5
2FC
  8
DEFAULT
 10
48.90847238407311
 20
321.8354382958709
 30
-226.6620320977924
  0
VERTEX
  5
2FD
  8
DEFAULT
 10
48.94155436394048
 20
321.7957493117837
 30
-226.6620320977925
  0
VERTEX
  5
2FE
  8
DEFAULT
 10
48.97568529477129
 20
321.7568896098849
 30
-226.6620320977924
  0
VERTEX
  5
2FF
  8
DEFAULT
 10
49.01083350601396
 20
321.7189003335346
 30
-226.6620320977924
  0
VERTEX
  5
300
  8
DEFAULT
 10
49.04696519684973
 20
321.6818209862962
 30
-226.6620320977924
  0
VERTEX
  5
301
  8
DEFAULT
 10
49.08404454408814
 20
321.6456892954604
 30
-226.6620320977924
  0
VERTEX
  5
302
  8
DEFAULT
 10
49.12203382043843
 20
321.6105410842177
 30
-226.6620320977924
  0
VERTEX
  5
303
  8
DEFAULT
 10
49.16089352233716
 20
321.576410153387
 30
-226.6620320977924
  0
VERTEX
  5
304
  8
DEFAULT
 10
49.20058250642437
 20
321.5433281735196
 30
-226.6620320977924
  0
VERTEX
  5
305
  8
DEFAULT
 10
49.24105813368139
 20
321.5113245880997
 30
-226.6620320977925
  0
VERTEX
  5
306
  8
DEFAULT
 10
49.28227642017724
 20
321.4804265284513
 30
-226.6620320977925
  0
VERTEX
  5
307
  8
DEFAULT
 10
49.32419219331784
 20
321.4506587408516
 30
-226.6620320977924
  0
VERTEX
  5
308
  8
DEFAULT
 10
49.36675925245257
 20
321.422043526232
 30
-226.6620320977924
  0
VERTEX
  5
309
  8
DEFAULT
 10
49.40993053266759
 20
321.3946006927218
 30
-226.6620320977925
  0
VERTEX
  5
30A
  8
DEFAULT
 10
49.45365827058457
 20
321.3683475211745
 30
-226.6620320977925
  0
VERTEX
  5
30B
  8
DEFAULT
 10
49.49789417098672
 20
321.3432987436871
 30
-226.6620320977924
  0
VERTEX
  5
30C
  8
DEFAULT
 10
49.54258957311086
 20
321.3194665350098
 30
-226.6620320977924
  0
VERTEX
  5
30D
  8
DEFAULT
 10
49.58769561547503
 20
321.2968605166234
 30
-226.6620320977924
  0
VERTEX
  5
30E
  8
DEFAULT
 10
49.63316339815319
 20
321.2754877731559
 30
-226.6620320977924
  0
VERTEX
  5
30F
  8
DEFAULT
 10
49.67894414146345
 20
321.2553528807053
 30
-226.6620320977924
  0
VERTEX
  5
310
  8
DEFAULT
 10
49.72498934009916
 20
321.2364579465444
 30
-226.6620320977924
  0
VERTEX
  5
311
  8
DEFAULT
 10
49.7712509118066
 20
321.2188026595944
 30
-226.6620320977924
  0
VERTEX
  5
312
  8
DEFAULT
 10
49.81768133979237
 20
321.2023843509859
 30
-226.6620320977924
  0
VERTEX
  5
313
  8
DEFAULT
 10
49.86423380813086
 20
321.1871980639578
 30
-226.6620320977924
  0
VERTEX
  5
314
  8
DEFAULT
 10
49.91086232953219
 20
321.1732366322952
 30
-226.6620320977924
  0
VERTEX
  5
315
  8
DEFAULT
 10
49.95752186492589
 20
321.1604907664657
 30
-226.6620320977924
  0
VERTEX
  5
316
  8
DEFAULT
 10
50.00416843441005
 20
321.1489491465838
 30
-226.6620320977924
  0
VERTEX
  5
317
  8
DEFAULT
 10
50.05075921921176
 20
321.1385985213169
 30
-226.6620320977924
  0
VERTEX
  5
318
  8
DEFAULT
 10
50.09725265439866
 20
321.1294238118361
 30
-226.6620320977924
  0
VERTEX
  5
319
  8
DEFAULT
 10
50.14360851217308
 20
321.1214082199203
 30
-226.6620320977924
  0
VERTEX
  5
31A
  8
DEFAULT
 10
50.18978797566899
 20
321.1145333393329
 30
-226.6620320977924
  0
VERTEX
  5
31B
  8
DEFAULT
 10
50.23575370325525
 20
321.1087792696119
 30
-226.6620320977925
  0
VERTEX
  5
31C
  8
DEFAULT
 10
50.28146988342757
 20
321.1041247314436
 30
-226.6620320977924
  0
VERTEX
  5
31D
  8
DEFAULT
 10
50.32690228044417
 20
321.1005471828243
 30
-226.6620320977924
  0
VERTEX
  5
31E
  8
DEFAULT
 10
50.37201827092567
 20
321.098022935258
 30
-226.6620320977924
  0
VERTEX
  5
31F
  8
DEFAULT
 10
50.4167868716998
 20
321.0965272692822
 30
-226.6620320977924
  0
VERTEX
  5
320
  8
DEFAULT
 10
53.11117875922275
 20
321.0960345486695
 30
-226.6620320977924
  0
SEQEND
  5
2DF
  8
DEFAULT
  0
LINE
  5
321
  8
DEFAULT
 10
-48.45788393273403
 20
323.0960345486656
 30
229.4627279231765
 11
-48.45796434255237
 21
323.0960345486656
 31
223.8627279237539
  0
LINE
  5
322
  8
DEFAULT
 10
-50.45788393252803
 20
321.0960345486657
 30
229.4627566409688
 11
-50.45796434234637
 21
321.0960345486656
 31
223.8627566415462
  0
LINE
  5
323
  8
DEFAULT
 10
-53.10792413716422
 20
321.0960345486658
 30
226.6627946923319
 11
-53.10792413716422
 21
335.6960345486658
 31
226.6627946923319
  0
LINE
  5
324
  8
DEFAULT
 10
-53.10788393225505
 20
325.6960345486658
 30
229.4627946920432
 11
-53.10796434207339
 21
325.6960345486658
 31
223.8627946926206
  0
LINE
  5
325
  8
DEFAULT
 10
-53.10792413716422
 20
335.6960345486658
 30
226.6627946923319
 11
-50.65792413741679
 21
335.6960345486658
 31
226.6627595130361
  0
LINE
  5
326
  8
DEFAULT
 10
-51.88288393238133
 20
335.6960345486658
 30
229.4627771023954
 11
-51.88296434219967
 21
335.6960345486658
 31
223.8627771029728
  0
LINE
  5
327
  8
DEFAULT
 10
-50.65792413741656
 20
335.6960345486658
 30
226.6627595130366
 11
-50.65792413741656
 21
343.6960345486658
 31
226.6627595130366
  0
LINE
  5
328
  8
DEFAULT
 10
-50.65788393250739
 20
339.6960345486658
 30
229.4627595127479
 11
-50.65796434232573
 21
339.6960345486658
 31
223.8627595133253
  0
LINE
  5
329
  8
DEFAULT
 10
-50.65792413741656
 20
343.6960345486658
 30
226.6627595130366
 11
-53.10792413716399
 21
343.6960345486658
 31
226.6627946923323
  0
LINE
  5
32A
  8
DEFAULT
 10
-51.88288393238111
 20
343.6960345486658
 30
229.4627771023958
 11
-51.88296434219944
 21
343.6960345486658
 31
223.8627771029732
  0
LINE
  5
32B
  8
DEFAULT
 10
-53.10792413716422
 20
343.6960345486658
 30
226.6627946923319
 11
-53.10792413716422
 21
352.6960345486658
 31
226.6627946923319
  0
LINE
  5
32C
  8
DEFAULT
 10
-53.10788393225505
 20
349.4460345486658
 30
229.4627946920432
 11
-53.10796434207339
 21
349.4460345486658
 31
223.8627946926206
  0
LINE
  5
32D
  8
DEFAULT
 10
-53.10792413716422
 20
352.6960345486658
 30
226.6627946923319
 11
-59.30792413652512
 21
352.6960345486658
 31
226.6628837174884
  0
LINE
  5
32E
  8
DEFAULT
 10
-57.75788393177572
 20
352.6960345486658
 30
229.4628614609106
 11
-57.75796434159406
 21
352.6960345486658
 31
223.862861461488
  0
LINE
  5
32F
  8
DEFAULT
 10
-59.30792413652443
 20
352.6960345486658
 30
226.6628837174889
 11
-59.30792413652443
 21
343.6960345486658
 31
226.6628837174889
  0
LINE
  5
330
  8
DEFAULT
 10
-59.30788393161528
 20
349.4460345486659
 30
229.4628837172002
 11
-59.30796434143362
 21
349.4460345486659
 31
223.8628837177776
  0
LINE
  5
331
  8
DEFAULT
 10
-59.30792413652443
 20
343.6960345486658
 30
226.6628837174889
 11
-61.75792413627187
 21
343.6960345486658
 31
226.6629188967844
  0
LINE
  5
332
  8
DEFAULT
 10
-60.53288393148898
 20
343.6960345486658
 30
229.4629013068478
 11
-60.53296434130732
 21
343.6960345486658
 31
223.8629013074252
  0
LINE
  5
333
  8
DEFAULT
 10
-61.75792413627187
 20
343.6960345486658
 30
226.6629188967835
 11
-61.75792413627187
 21
335.6960345486658
 31
226.6629188967835
  0
LINE
  5
334
  8
DEFAULT
 10
-61.7578839313627
 20
339.6960345486658
 30
229.4629188964948
 11
-61.75796434118104
 21
339.6960345486658
 31
223.8629188970722
  0
LINE
  5
335
  8
DEFAULT
 10
-61.75792413627187
 20
335.6960345486658
 30
226.6629188967835
 11
-59.30792413652443
 21
335.6960345486658
 31
226.6628837174879
  0
LINE
  5
336
  8
DEFAULT
 10
-60.53288393148898
 20
335.6960345486658
 30
229.4629013068469
 11
-60.53296434130732
 21
335.6960345486658
 31
223.8629013074243
  0
LINE
  5
337
  8
DEFAULT
 10
-59.30792413652443
 20
335.6960345486658
 30
226.6628837174889
 11
-59.30792413652443
 21
321.0960345486658
 31
226.6628837174889
  0
LINE
  5
338
  8
DEFAULT
 10
-59.30788393161527
 20
325.6960345486658
 30
229.4628837172002
 11
-59.3079643414336
 21
325.6960345486658
 31
223.8628837177775
  0
POLYLINE
  5
339
  8
DEFAULT
 66
     1
 10
0.0
 20
0.0
 30
-226.6620320977966
210
-1.435889614204658E-5
220
8.607231584217016E-15
230
-0.9999999998969112
  0
VERTEX
  5
33B
  8
DEFAULT
 10
59.31117875921701
 20
321.0960345486677
 30
-226.6620320977966
  0
VERTEX
  5
33C
  8
DEFAULT
 10
62.00557064674042
 20
321.0965272692806
 30
-226.6620320977967
  0
VERTEX
  5
33D
  8
DEFAULT
 10
62.05033924751454
 20
321.0980229352564
 30
-226.6620320977967
  0
VERTEX
  5
33E
  8
DEFAULT
 10
62.09545523799603
 20
321.1005471828228
 30
-226.6620320977967
  0
VERTEX
  5
33F
  8
DEFAULT
 10
62.14088763501264
 20
321.104124731442
 30
-226.6620320977967
  0
VERTEX
  5
340
  8
DEFAULT
 10
62.18660381518498
 20
321.1087792696102
 30
-226.6620320977967
  0
VERTEX
  5
341
  8
DEFAULT
 10
62.23256954277121
 20
321.1145333393313
 30
-226.6620320977967
  0
VERTEX
  5
342
  8
DEFAULT
 10
62.27874900626711
 20
321.1214082199187
 30
-226.6620320977967
  0
VERTEX
  5
343
  8
DEFAULT
 10
62.32510486404153
 20
321.1294238118346
 30
-226.6620320977967
  0
VERTEX
  5
344
  8
DEFAULT
 10
62.37159829922842
 20
321.1385985213153
 30
-226.6620320977966
  0
VERTEX
  5
345
  8
DEFAULT
 10
62.41818908403015
 20
321.1489491465822
 30
-226.6620320977966
  0
VERTEX
  5
346
  8
DEFAULT
 10
62.46483565351429
 20
321.1604907664641
 30
-226.6620320977966
  0
VERTEX
  5
347
  8
DEFAULT
 10
62.511495188908
 20
321.1732366322936
 30
-226.6620320977966
  0
VERTEX
  5
348
  8
DEFAULT
 10
62.55812371030935
 20
321.1871980639563
 30
-226.6620320977967
  0
VERTEX
  5
349
  8
DEFAULT
 10
62.60467617864782
 20
321.2023843509843
 30
-226.6620320977967
  0
VERTEX
  5
34A
  8
DEFAULT
 10
62.6511066066336
 20
321.2188026595928
 30
-226.6620320977966
  0
VERTEX
  5
34B
  8
DEFAULT
 10
62.69736817834102
 20
321.2364579465428
 30
-226.6620320977966
  0
VERTEX
  5
34C
  8
DEFAULT
 10
62.74341337697673
 20
321.2553528807036
 30
-226.6620320977967
  0
VERTEX
  5
34D
  8
DEFAULT
 10
62.78919412028697
 20
321.2754877731542
 30
-226.6620320977967
  0
VERTEX
  5
34E
  8
DEFAULT
 10
62.83466190296514
 20
321.2968605166217
 30
-226.6620320977966
  0
VERTEX
  5
34F
  8
DEFAULT
 10
62.8797679453293
 20
321.3194665350081
 30
-226.6620320977967
  0
VERTEX
  5
350
  8
DEFAULT
 10
62.92446334745346
 20
321.3432987436855
 30
-226.6620320977967
  0
VERTEX
  5
351
  8
DEFAULT
 10
62.9686992478556
 20
321.3683475211728
 30
-226.6620320977966
  0
VERTEX
  5
352
  8
DEFAULT
 10
63.01242698577259
 20
321.3946006927202
 30
-226.6620320977966
  0
VERTEX
  5
353
  8
DEFAULT
 10
63.05559826598759
 20
321.4220435262304
 30
-226.6620320977967
  0
VERTEX
  5
354
  8
DEFAULT
 10
63.0981653251223
 20
321.45065874085
 30
-226.6620320977966
  0
VERTEX
  5
355
  8
DEFAULT
 10
63.14008109826291
 20
321.4804265284497
 30
-226.6620320977966
  0
VERTEX
  5
356
  8
DEFAULT
 10
63.18129938475876
 20
321.5113245880981
 30
-226.6620320977966
  0
VERTEX
  5
357
  8
DEFAULT
 10
63.22177501201578
 20
321.5433281735181
 30
-226.6620320977967
  0
VERTEX
  5
358
  8
DEFAULT
 10
63.26146399610299
 20
321.5764101533853
 30
-226.6620320977967
  0
VERTEX
  5
359
  8
DEFAULT
 10
63.3003236980017
 20
321.6105410842162
 30
-226.6620320977967
  0
VERTEX
  5
35A
  8
DEFAULT
 10
63.33831297435199
 20
321.6456892954589
 30
-226.6620320977967
  0
VERTEX
  5
35B
  8
DEFAULT
 10
63.37539232159041
 20
321.6818209862947
 30
-226.6620320977966
  0
VERTEX
  5
35C
  8
DEFAULT
 10
63.41152401242616
 20
321.7189003335332
 30
-226.6620320977966
  0
VERTEX
  5
35D
  8
DEFAULT
 10
63.44667222366883
 20
321.7568896098834
 30
-226.6620320977966
  0
VERTEX
  5
35E
  8
DEFAULT
 10
63.48080315449964
 20
321.7957493117821
 30
-226.6620320977966
  0
VERTEX
  5
35F
  8
DEFAULT
 10
63.51388513436701
 20
321.8354382958694
 30
-226.6620320977967
  0
VERTEX
  5
360
  8
DEFAULT
 10
63.54588871978687
 20
321.8759139231264
 30
-226.6620320977966
  0
VERTEX
  5
361
  8
DEFAULT
 10
63.57678677943534
 20
321.9171322096223
 30
-226.6620320977967
  0
VERTEX
  5
362
  8
DEFAULT
 10
63.60655456703496
 20
321.9590479827628
 30
-226.6620320977966
  0
VERTEX
  5
363
  8
DEFAULT
 10
63.63516978165462
 20
322.0016150418976
 30
-226.6620320977967
  0
VERTEX
  5
364
  8
DEFAULT
 10
63.66261261516481
 20
322.0447863221126
 30
-226.6620320977966
  0
VERTEX
  5
365
  8
DEFAULT
 10
63.68886578671216
 20
322.0885140600295
 30
-226.6620320977966
  0
VERTEX
  5
366
  8
DEFAULT
 10
63.71391456419954
 20
322.1327499604317
 30
-226.6620320977966
  0
VERTEX
  5
367
  8
DEFAULT
 10
63.7377467728768
 20
322.1774453625558
 30
-226.6620320977966
  0
VERTEX
  5
368
  8
DEFAULT
 10
63.76035279126321
 20
322.22255140492
 30
-226.6620320977966
  0
VERTEX
  5
369
  8
DEFAULT
 10
63.7817255347308
 20
322.2680191875982
 30
-226.6620320977966
  0
VERTEX
  5
36A
  8
DEFAULT
 10
63.8018604271813
 20
322.3137999309085
 30
-226.6620320977967
  0
VERTEX
  5
36B
  8
DEFAULT
 10
63.82075536134214
 20
322.3598451295441
 30
-226.6620320977966
  0
VERTEX
  5
36C
  8
DEFAULT
 10
63.8384106482921
 20
322.4061067012515
 30
-226.6620320977966
  0
VERTEX
  5
36D
  8
DEFAULT
 10
63.85482895690062
 20
322.4525371292373
 30
-226.6620320977966
  0
VERTEX
  5
36E
  8
DEFAULT
 10
63.87001524392875
 20
322.4990895975758
 30
-226.6620320977966
  0
VERTEX
  5
36F
  8
DEFAULT
 10
63.88397667559132
 20
322.5457181189772
 30
-226.6620320977966
  0
VERTEX
  5
370
  8
DEFAULT
 10
63.89672254142086
 20
322.5923776543708
 30
-226.6620320977966
  0
VERTEX
  5
371
  8
DEFAULT
 10
63.90826416130273
 20
322.639024223855
 30
-226.6620320977966
  0
VERTEX
  5
372
  8
DEFAULT
 10
63.91861478656959
 20
322.6856150086567
 30
-226.6620320977966
  0
VERTEX
  5
373
  8
DEFAULT
 10
63.92778949605038
 20
322.7321084438437
 30
-226.6620320977966
  0
VERTEX
  5
374
  8
DEFAULT
 10
63.93580508796622
 20
322.7784643016181
 30
-226.6620320977967
  0
VERTEX
  5
375
  8
DEFAULT
 10
63.94267996855371
 20
322.824643765114
 30
-226.6620320977967
  0
VERTEX
  5
376
  8
DEFAULT
 10
63.94843403827472
 20
322.8706094927002
 30
-226.6620320977967
  0
VERTEX
  5
377
  8
DEFAULT
 10
63.95308857644296
 20
322.9163256728726
 30
-226.6620320977966
  0
VERTEX
  5
378
  8
DEFAULT
 10
63.95666612506214
 20
322.9617580698892
 30
-226.6620320977967
  0
VERTEX
  5
379
  8
DEFAULT
 10
63.95919037262852
 20
323.0068740603706
 30
-226.6620320977966
  0
VERTEX
  5
37A
  8
DEFAULT
 10
63.9606860386043
 20
323.0516426611447
 30
-226.6620320977966
  0
VERTEX
  5
37B
  8
DEFAULT
 10
63.96117875921693
 20
325.6960345486677
 30
-226.6620320977966
  0
SEQEND
  5
33A
  8
DEFAULT
  0
LINE
  5
37C
  8
DEFAULT
 10
-61.95788393134228
 20
321.0960345486658
 30
229.462921768275
 11
-61.95796434116062
 21
321.0960345486657
 31
223.8629217688524
  0
LINE
  5
37D
  8
DEFAULT
 10
-63.95788393113605
 20
323.096034548666
 30
229.4629504860673
 11
-63.95796434095439
 21
323.096034548666
 31
223.8629504866446
  0
LINE
  5
37E
  8
DEFAULT
 10
-63.95792413604545
 20
325.6960345486658
 30
226.6629504863555
 11
-70.19538198816076
 21
325.6960345486658
 31
226.6630400493651
  0
LINE
  5
37F
  8
DEFAULT
 10
-67.07661285719394
 20
325.6960345486658
 30
229.4629952675716
 11
-67.07669326701227
 21
325.6960345486658
 31
223.862995268149
  0
LINE
  5
380
  8
DEFAULT
 10
-70.19538198816053
 20
325.6960345486658
 30
226.6630400493653
 11
-70.19538198816053
 21
312.5504636445745
 31
226.6630400493653
  0
LINE
  5
381
  8
DEFAULT
 10
-70.19534178325137
 20
319.1232490966202
 30
229.4630400490767
 11
-70.1954221930697
 21
319.1232490966201
 31
223.863040049654
  0
LINE
  5
382
  8
DEFAULT
 10
-70.19538198816053
 20
312.5504636445746
 30
226.6630400493653
 11
-136.9101081882118
 21
312.5504636445746
 31
226.6639979991929
  0
LINE
  5
383
  8
DEFAULT
 10
-103.552704883277
 20
312.5504636445746
 30
229.4635190239904
 11
-103.5527852930953
 21
312.5504636445745
 31
223.8635190245678
  0
LINE
  5
384
  8
DEFAULT
 10
-136.9101081882116
 20
312.5504636445746
 30
226.6639979991932
 11
-136.9101081882116
 21
325.6960345486659
 31
226.6639979991932
  0
LINE
  5
385
  8
DEFAULT
 10
-136.9100679833024
 20
319.1232490966202
 30
229.4639979989045
 11
-136.9101483931207
 21
319.1232490966202
 31
223.8639979994819
  0
LINE
  5
386
  8
DEFAULT
 10
-136.9101081882116
 20
325.6960345486658
 30
226.6639979991932
 11
-143.1475660403269
 21
325.6960345486658
 31
226.6640875622028
  0
LINE
  5
387
  8
DEFAULT
 10
-140.02879690936
 20
325.6960345486658
 30
229.4640427804093
 11
-140.0288773191784
 21
325.6960345486658
 31
223.8640427809867
  0
POLYLINE
  5
388
  8
DEFAULT
 66
     1
 10
0.0
 20
0.0
 30
-226.6620320977898
210
-1.435889617479025E-5
220
2.449234138789754E-14
230
-0.9999999998969111
  0
VERTEX
  5
38A
  8
DEFAULT
 10
143.1508206716698
 20
325.6960345486714
 30
-226.6620320977898
  0
VERTEX
  5
38B
  8
DEFAULT
 10
143.1513133922824
 20
323.0516426611483
 30
-226.6620320977898
  0
VERTEX
  5
38C
  8
DEFAULT
 10
143.1528090582583
 20
323.0068740603743
 30
-226.6620320977899
  0
VERTEX
  5
38D
  8
DEFAULT
 10
143.1553333058247
 20
322.9617580698928
 30
-226.6620320977899
  0
VERTEX
  5
38E
  8
DEFAULT
 10
143.1589108544438
 20
322.9163256728762
 30
-226.6620320977899
  0
VERTEX
  5
38F
  8
DEFAULT
 10
143.1635653926121
 20
322.8706094927039
 30
-226.6620320977899
  0
VERTEX
  5
390
  8
DEFAULT
 10
143.1693194623331
 20
322.8246437651176
 30
-226.6620320977899
  0
VERTEX
  5
391
  8
DEFAULT
 10
143.1761943429206
 20
322.7784643016217
 30
-226.6620320977899
  0
VERTEX
  5
392
  8
DEFAULT
 10
143.1842099348364
 20
322.7321084438473
 30
-226.6620320977898
  0
VERTEX
  5
393
  8
DEFAULT
 10
143.1933846443172
 20
322.6856150086604
 30
-226.6620320977898
  0
VERTEX
  5
394
  8
DEFAULT
 10
143.2037352695841
 20
322.6390242238587
 30
-226.6620320977898
  0
VERTEX
  5
395
  8
DEFAULT
 10
143.2152768894659
 20
322.5923776543744
 30
-226.6620320977898
  0
VERTEX
  5
396
  8
DEFAULT
 10
143.2280227552955
 20
322.5457181189808
 30
-226.6620320977898
  0
VERTEX
  5
397
  8
DEFAULT
 10
143.2419841869581
 20
322.4990895975794
 30
-226.6620320977899
  0
VERTEX
  5
398
  8
DEFAULT
 10
143.2571704739862
 20
322.452537129241
 30
-226.6620320977899
  0
VERTEX
  5
399
  8
DEFAULT
 10
143.2735887825947
 20
322.4061067012552
 30
-226.6620320977898
  0
VERTEX
  5
39A
  8
DEFAULT
 10
143.2912440695447
 20
322.3598451295478
 30
-226.6620320977898
  0
VERTEX
  5
39B
  8
DEFAULT
 10
143.3101390037056
 20
322.3137999309121
 30
-226.6620320977898
  0
VERTEX
  5
39C
  8
DEFAULT
 10
143.3302738961561
 20
322.2680191876019
 30
-226.6620320977898
  0
VERTEX
  5
39D
  8
DEFAULT
 10
143.3516466396237
 20
322.2225514049236
 30
-226.6620320977898
  0
VERTEX
  5
39E
  8
DEFAULT
 10
143.3742526580101
 20
322.1774453625595
 30
-226.6620320977898
  0
VERTEX
  5
39F
  8
DEFAULT
 10
143.3980848666873
 20
322.1327499604353
 30
-226.6620320977899
  0
VERTEX
  5
3A0
  8
DEFAULT
 10
143.4231336441746
 20
322.0885140600332
 30
-226.6620320977898
  0
VERTEX
  5
3A1
  8
DEFAULT
 10
143.4493868157221
 20
322.0447863221162
 30
-226.6620320977899
  0
VERTEX
  5
3A2
  8
DEFAULT
 10
143.4768296492323
 20
322.0016150419012
 30
-226.6620320977898
  0
VERTEX
  5
3A3
  8
DEFAULT
 10
143.5054448638519
 20
321.9590479827664
 30
-226.6620320977898
  0
VERTEX
  5
3A4
  8
DEFAULT
 10
143.5352126514515
 20
321.9171322096259
 30
-226.6620320977898
  0
VERTEX
  5
3A5
  8
DEFAULT
 10
143.5661107111
 20
321.87591392313
 30
-226.6620320977898
  0
VERTEX
  5
3A6
  8
DEFAULT
 10
143.5981142965199
 20
321.8354382958731
 30
-226.6620320977898
  0
VERTEX
  5
3A7
  8
DEFAULT
 10
143.6311962763872
 20
321.7957493117858
 30
-226.6620320977898
  0
VERTEX
  5
3A8
  8
DEFAULT
 10
143.665327207218
 20
321.7568896098871
 30
-226.6620320977898
  0
VERTEX
  5
3A9
  8
DEFAULT
 10
143.7004754184607
 20
321.7189003335368
 30
-226.6620320977898
  0
VERTEX
  5
3AA
  8
DEFAULT
 10
143.7366071092964
 20
321.6818209862983
 30
-226.6620320977898
  0
VERTEX
  5
3AB
  8
DEFAULT
 10
143.7736864565348
 20
321.6456892954625
 30
-226.6620320977898
  0
VERTEX
  5
3AC
  8
DEFAULT
 10
143.8116757328851
 20
321.6105410842198
 30
-226.6620320977898
  0
VERTEX
  5
3AD
  8
DEFAULT
 10
143.8505354347838
 20
321.576410153389
 30
-226.6620320977898
  0
VERTEX
  5
3AE
  8
DEFAULT
 10
143.8902244188711
 20
321.5433281735217
 30
-226.6620320977898
  0
VERTEX
  5
3AF
  8
DEFAULT
 10
143.930700046128
 20
321.5113245881018
 30
-226.6620320977898
  0
VERTEX
  5
3B0
  8
DEFAULT
 10
143.9719183326239
 20
321.4804265284533
 30
-226.6620320977898
  0
VERTEX
  5
3B1
  8
DEFAULT
 10
144.0138341057645
 20
321.4506587408536
 30
-226.6620320977898
  0
VERTEX
  5
3B2
  8
DEFAULT
 10
144.0564011648992
 20
321.4220435262341
 30
-226.6620320977898
  0
VERTEX
  5
3B3
  8
DEFAULT
 10
144.0995724451142
 20
321.3946006927238
 30
-226.6620320977898
  0
VERTEX
  5
3B4
  8
DEFAULT
 10
144.1433001830312
 20
321.3683475211764
 30
-226.6620320977898
  0
VERTEX
  5
3B5
  8
DEFAULT
 10
144.1875360834333
 20
321.3432987436891
 30
-226.6620320977898
  0
VERTEX
  5
3B6
  8
DEFAULT
 10
144.2322314855575
 20
321.3194665350118
 30
-226.6620320977898
  0
VERTEX
  5
3B7
  8
DEFAULT
 10
144.2773375279216
 20
321.2968605166253
 30
-226.6620320977898
  0
VERTEX
  5
3B8
  8
DEFAULT
 10
144.3228053105998
 20
321.2754877731578
 30
-226.6620320977898
  0
VERTEX
  5
3B9
  8
DEFAULT
 10
144.36858605391
 20
321.2553528807073
 30
-226.6620320977898
  0
VERTEX
  5
3BA
  8
DEFAULT
 10
144.4146312525457
 20
321.2364579465464
 30
-226.6620320977898
  0
VERTEX
  5
3BB
  8
DEFAULT
 10
144.4608928242531
 20
321.2188026595965
 30
-226.6620320977898
  0
VERTEX
  5
3BC
  8
DEFAULT
 10
144.5073232522389
 20
321.202384350988
 30
-226.6620320977898
  0
VERTEX
  5
3BD
  8
DEFAULT
 10
144.5538757205773
 20
321.1871980639599
 30
-226.6620320977898
  0
VERTEX
  5
3BE
  8
DEFAULT
 10
144.6005042419787
 20
321.1732366322972
 30
-226.6620320977898
  0
VERTEX
  5
3BF
  8
DEFAULT
 10
144.6471637773724
 20
321.1604907664677
 30
-226.6620320977898
  0
VERTEX
  5
3C0
  8
DEFAULT
 10
144.6938103468565
 20
321.1489491465858
 30
-226.6620320977898
  0
VERTEX
  5
3C1
  8
DEFAULT
 10
144.7404011316582
 20
321.1385985213189
 30
-226.6620320977898
  0
VERTEX
  5
3C2
  8
DEFAULT
 10
144.7868945668451
 20
321.1294238118382
 30
-226.6620320977898
  0
VERTEX
  5
3C3
  8
DEFAULT
 10
144.8332504246196
 20
321.1214082199223
 30
-226.6620320977899
  0
VERTEX
  5
3C4
  8
DEFAULT
 10
144.8794298881154
 20
321.1145333393349
 30
-226.6620320977898
  0
VERTEX
  5
3C5
  8
DEFAULT
 10
144.9253956157016
 20
321.1087792696139
 30
-226.6620320977899
  0
VERTEX
  5
3C6
  8
DEFAULT
 10
144.971111795874
 20
321.1041247314456
 30
-226.6620320977898
  0
VERTEX
  5
3C7
  8
DEFAULT
 10
145.0165441928905
 20
321.1005471828265
 30
-226.6620320977898
  0
VERTEX
  5
3C8
  8
DEFAULT
 10
145.061660183372
 20
321.09802293526
 30
-226.6620320977898
  0
VERTEX
  5
3C9
  8
DEFAULT
 10
145.1064287841461
 20
321.0965272692842
 30
-226.6620320977898
  0
VERTEX
  5
3CA
  8
DEFAULT
 10
147.8008206716697
 20
321.0960345486714
 30
-226.6620320977898
  0
SEQEND
  5
389
  8
DEFAULT
  0
LINE
  5
3CB
  8
DEFAULT
 10
-143.1475258354175
 20
323.096034548666
 30
229.4640875619141
 11
-143.1476062452358
 21
323.096034548666
 31
223.8640875624915
  0
LINE
  5
3CC
  8
DEFAULT
 10
-145.147525835211
 20
321.0960345486658
 30
229.4641162797063
 11
-145.1476062450294
 21
321.0960345486657
 31
223.8641162802837
  0
LINE
  5
3CD
  8
DEFAULT
 10
-147.7975660398477
 20
321.0960345486658
 30
226.6641543310694
 11
-147.7975660398477
 21
335.6960345486658
 31
226.6641543310694
  0
LINE
  5
3CE
  8
DEFAULT
 10
-147.7975258349385
 20
325.6960345486658
 30
229.4641543307807
 11
-147.7976062447568
 21
325.6960345486658
 31
223.8641543313581
  0
LINE
  5
3CF
  8
DEFAULT
 10
-147.7975660398477
 20
335.6960345486658
 30
226.6641543310694
 11
-145.3475660401002
 21
335.6960345486658
 31
226.6641191517739
  0
LINE
  5
3D0
  8
DEFAULT
 10
-146.5725258350648
 20
335.6960345486658
 30
229.464136741133
 11
-146.5726062448831
 21
335.6960345486658
 31
223.8641367417104
  0
LINE
  5
3D1
  8
DEFAULT
 10
-145.3475660401004
 20
335.6960345486658
 30
226.6641191517755
 11
-145.3475660401004
 21
343.6960345486658
 31
226.6641191517755
  0
LINE
  5
3D2
  8
DEFAULT
 10
-145.3475258351913
 20
339.6960345486658
 30
229.4641191514868
 11
-145.3476062450096
 21
339.6960345486658
 31
223.8641191520642
  0
LINE
  5
3D3
  8
DEFAULT
 10
-145.3475660401004
 20
343.6960345486658
 30
226.6641191517755
 11
-147.7975660398479
 21
343.6960345486658
 31
226.664154331071
  0
LINE
  5
3D4
  8
DEFAULT
 10
-146.572525835065
 20
343.6960345486658
 30
229.4641367411346
 11
-146.5726062448833
 21
343.6960345486658
 31
223.8641367417119
  0
LINE
  5
3D5
  8
DEFAULT
 10
-147.7975660398477
 20
343.6960345486658
 30
226.6641543310694
 11
-147.7975660398477
 21
352.6960345486658
 31
226.6641543310694
  0
LINE
  5
3D6
  8
DEFAULT
 10
-147.7975258349385
 20
349.4460345486658
 30
229.4641543307807
 11
-147.7976062447568
 21
349.4460345486658
 31
223.8641543313581
  0
LINE
  5
3D7
  8
DEFAULT
 10
-147.7975660398477
 20
352.6960345486658
 30
226.6641543310694
 11
-153.9975660392086
 21
352.6960345486658
 31
226.6642433562259
  0
LINE
  5
3D8
  8
DEFAULT
 10
-149.3475258347787
 20
352.6960345486658
 30
229.4641765870699
 11
-149.347606244597
 21
352.6960345486658
 31
223.8641765876473
  0
LINE
  5
3D9
  8
DEFAULT
 10
-153.9975660392083
 20
352.6960345486658
 30
226.6642433562264
 11
-153.9975660392083
 21
343.6960345486658
 31
226.6642433562264
  0
LINE
  5
3DA
  8
DEFAULT
 10
-153.9975258342992
 20
349.4460345486658
 30
229.4642433559377
 11
-153.9976062441175
 21
349.4460345486658
 31
223.8642433565151
  0
LINE
  5
3DB
  8
DEFAULT
 10
-153.9975660392083
 20
343.6960345486658
 30
226.6642433562264
 11
-156.4475660389555
 21
343.6960345486658
 31
226.6642785355219
  0
LINE
  5
3DC
  8
DEFAULT
 10
-155.2225258341727
 20
343.6960345486658
 30
229.4642609455854
 11
-155.222606243991
 21
343.6960345486658
 31
223.8642609461627
  0
LINE
  5
3DD
  8
DEFAULT
 10
-156.4475660389558
 20
343.6960345486658
 30
226.6642785355231
 11
-156.4475660389558
 21
335.6960345486658
 31
226.6642785355231
  0
LINE
  5
3DE
  8
DEFAULT
 10
-156.4475258340466
 20
339.6960345486658
 30
229.4642785352344
 11
-156.4476062438649
 21
339.6960345486658
 31
223.8642785358118
  0
LINE
  5
3DF
  8
DEFAULT
 10
-156.4475660389558
 20
335.6960345486658
 30
226.6642785355231
 11
-153.9975660392086
 21
335.6960345486658
 31
226.6642433562275
  0
LINE
  5
3E0
  8
DEFAULT
 10
-155.222525834173
 20
335.6960345486658
 30
229.4642609455865
 11
-155.2226062439913
 21
335.6960345486658
 31
223.8642609461639
  0
LINE
  5
3E1
  8
DEFAULT
 10
-153.9975660392083
 20
335.6960345486658
 30
226.6642433562264
 11
-153.9975660392083
 21
321.0960345486658
 31
226.6642433562264
  0
LINE
  5
3E2
  8
DEFAULT
 10
-153.9975258342992
 20
325.6960345486658
 30
229.4642433559377
 11
-153.9976062441175
 21
325.6960345486658
 31
223.8642433565151
  0
POLYLINE
  5
3E3
  8
DEFAULT
 66
     1
 10
0.0
 20
0.0
 30
-226.6620320978044
210
-1.435889616660594E-5
220
-1.621907448881240E-14
230
-0.9999999998969112
  0
VERTEX
  5
3E5
  8
DEFAULT
 10
154.0008206716679
 20
321.0960345486621
 30
-226.6620320978044
  0
VERTEX
  5
3E6
  8
DEFAULT
 10
156.6952125591909
 20
321.0965272692748
 30
-226.6620320978044
  0
VERTEX
  5
3E7
  8
DEFAULT
 10
156.739981159965
 20
321.0980229352506
 30
-226.6620320978044
  0
VERTEX
  5
3E8
  8
DEFAULT
 10
156.7850971504465
 20
321.1005471828169
 30
-226.6620320978044
  0
VERTEX
  5
3E9
  8
DEFAULT
 10
156.8305295474631
 20
321.1041247314362
 30
-226.6620320978044
  0
VERTEX
  5
3EA
  8
DEFAULT
 10
156.8762457276354
 20
321.1087792696045
 30
-226.6620320978045
  0
VERTEX
  5
3EB
  8
DEFAULT
 10
156.9222114552217
 20
321.1145333393255
 30
-226.6620320978044
  0
VERTEX
  5
3EC
  8
DEFAULT
 10
156.9683909187175
 20
321.121408219913
 30
-226.6620320978044
  0
VERTEX
  5
3ED
  8
DEFAULT
 10
157.014746776492
 20
321.1294238118288
 30
-226.6620320978044
  0
VERTEX
  5
3EE
  8
DEFAULT
 10
157.0612402116789
 20
321.1385985213095
 30
-226.6620320978044
  0
VERTEX
  5
3EF
  8
DEFAULT
 10
157.1078309964806
 20
321.1489491465764
 30
-226.6620320978044
  0
VERTEX
  5
3F0
  8
DEFAULT
 10
157.1544775659648
 20
321.1604907664583
 30
-226.6620320978045
  0
VERTEX
  5
3F1
  8
DEFAULT
 10
157.2011371013584
 20
321.1732366322879
 30
-226.6620320978044
  0
VERTEX
  5
3F2
  8
DEFAULT
 10
157.2477656227597
 20
321.1871980639504
 30
-226.6620320978044
  0
VERTEX
  5
3F3
  8
DEFAULT
 10
157.2943180910982
 20
321.2023843509785
 30
-226.6620320978044
  0
VERTEX
  5
3F4
  8
DEFAULT
 10
157.340748519084
 20
321.218802659587
 30
-226.6620320978044
  0
VERTEX
  5
3F5
  8
DEFAULT
 10
157.3870100907914
 20
321.236457946537
 30
-226.6620320978044
  0
VERTEX
  5
3F6
  8
DEFAULT
 10
157.4330552894271
 20
321.2553528806979
 30
-226.6620320978044
  0
VERTEX
  5
3F7
  8
DEFAULT
 10
157.4788360327374
 20
321.2754877731485
 30
-226.6620320978044
  0
VERTEX
  5
3F8
  8
DEFAULT
 10
157.5243038154156
 20
321.2968605166161
 30
-226.6620320978044
  0
VERTEX
  5
3F9
  8
DEFAULT
 10
157.5694098577798
 20
321.3194665350024
 30
-226.6620320978044
  0
VERTEX
  5
3FA
  8
DEFAULT
 10
157.6141052599039
 20
321.3432987436797
 30
-226.6620320978044
  0
VERTEX
  5
3FB
  8
DEFAULT
 10
157.6583411603061
 20
321.3683475211671
 30
-226.6620320978044
  0
VERTEX
  5
3FC
  8
DEFAULT
 10
157.702068898223
 20
321.3946006927144
 30
-226.6620320978044
  0
VERTEX
  5
3FD
  8
DEFAULT
 10
157.745240178438
 20
321.4220435262246
 30
-226.6620320978044
  0
VERTEX
  5
3FE
  8
DEFAULT
 10
157.7878072375727
 20
321.4506587408442
 30
-226.6620320978044
  0
VERTEX
  5
3FF
  8
DEFAULT
 10
157.8297230107134
 20
321.4804265284439
 30
-226.6620320978044
  0
VERTEX
  5
400
  8
DEFAULT
 10
157.8709412972092
 20
321.5113245880924
 30
-226.6620320978044
  0
VERTEX
  5
401
  8
DEFAULT
 10
157.9114169244662
 20
321.5433281735122
 30
-226.6620320978044
  0
VERTEX
  5
402
  8
DEFAULT
 10
157.9511059085534
 20
321.5764101533796
 30
-226.6620320978044
  0
VERTEX
  5
403
  8
DEFAULT
 10
157.9899656104521
 20
321.6105410842104
 30
-226.6620320978044
  0
VERTEX
  5
404
  8
DEFAULT
 10
158.0279548868025
 20
321.645689295453
 30
-226.6620320978044
  0
VERTEX
  5
405
  8
DEFAULT
 10
158.0650342340409
 20
321.6818209862888
 30
-226.6620320978044
  0
VERTEX
  5
406
  8
DEFAULT
 10
158.1011659248766
 20
321.7189003335272
 30
-226.6620320978044
  0
VERTEX
  5
407
  8
DEFAULT
 10
158.1363141361193
 20
321.7568896098775
 30
-226.6620320978044
  0
VERTEX
  5
408
  8
DEFAULT
 10
158.1704450669502
 20
321.7957493117763
 30
-226.6620320978044
  0
VERTEX
  5
409
  8
DEFAULT
 10
158.2035270468175
 20
321.8354382958635
 30
-226.6620320978044
  0
VERTEX
  5
40A
  8
DEFAULT
 10
158.2355306322374
 20
321.8759139231205
 30
-226.6620320978044
  0
VERTEX
  5
40B
  8
DEFAULT
 10
158.2664286918858
 20
321.9171322096163
 30
-226.6620320978044
  0
VERTEX
  5
40C
  8
DEFAULT
 10
158.2961964794854
 20
321.9590479827569
 30
-226.6620320978043
  0
VERTEX
  5
40D
  8
DEFAULT
 10
158.3248116941051
 20
322.0016150418917
 30
-226.6620320978044
  0
VERTEX
  5
40E
  8
DEFAULT
 10
158.3522545276153
 20
322.0447863221067
 30
-226.6620320978044
  0
VERTEX
  5
40F
  8
DEFAULT
 10
158.3785076991627
 20
322.0885140600237
 30
-226.6620320978044
  0
VERTEX
  5
410
  8
DEFAULT
 10
158.4035564766501
 20
322.1327499604258
 30
-226.6620320978044
  0
VERTEX
  5
411
  8
DEFAULT
 10
158.4273886853273
 20
322.17744536255
 30
-226.6620320978044
  0
VERTEX
  5
412
  8
DEFAULT
 10
158.4499947037138
 20
322.2225514049141
 30
-226.6620320978044
  0
VERTEX
  5
413
  8
DEFAULT
 10
158.4713674471814
 20
322.2680191875923
 30
-226.6620320978044
  0
VERTEX
  5
414
  8
DEFAULT
 10
158.4915023396318
 20
322.3137999309025
 30
-226.6620320978043
  0
VERTEX
  5
415
  8
DEFAULT
 10
158.5103972737927
 20
322.3598451295381
 30
-226.6620320978044
  0
VERTEX
  5
416
  8
DEFAULT
 10
158.5280525607427
 20
322.4061067012456
 30
-226.6620320978044
  0
VERTEX
  5
417
  8
DEFAULT
 10
158.5444708693512
 20
322.4525371292314
 30
-226.6620320978044
  0
VERTEX
  5
418
  8
DEFAULT
 10
158.5596571563793
 20
322.4990895975698
 30
-226.6620320978044
  0
VERTEX
  5
419
  8
DEFAULT
 10
158.5736185880419
 20
322.5457181189712
 30
-226.6620320978044
  0
VERTEX
  5
41A
  8
DEFAULT
 10
158.5863644538715
 20
322.5923776543648
 30
-226.6620320978044
  0
VERTEX
  5
41B
  8
DEFAULT
 10
158.5979060737533
 20
322.639024223849
 30
-226.6620320978044
  0
VERTEX
  5
41C
  8
DEFAULT
 10
158.6082566990202
 20
322.6856150086508
 30
-226.6620320978044
  0
VERTEX
  5
41D
  8
DEFAULT
 10
158.6174314085009
 20
322.7321084438376
 30
-226.6620320978043
  0
VERTEX
  5
41E
  8
DEFAULT
 10
158.6254470004168
 20
322.778464301612
 30
-226.6620320978043
  0
VERTEX
  5
41F
  8
DEFAULT
 10
158.6323218810043
 20
322.8246437651079
 30
-226.6620320978043
  0
VERTEX
  5
420
  8
DEFAULT
 10
158.6380759507254
 20
322.8706094926941
 30
-226.6620320978043
  0
VERTEX
  5
421
  8
DEFAULT
 10
158.6427304888936
 20
322.9163256728665
 30
-226.6620320978044
  0
VERTEX
  5
422
  8
DEFAULT
 10
158.6463080375128
 20
322.961758069883
 30
-226.6620320978043
  0
VERTEX
  5
423
  8
DEFAULT
 10
158.6488322850792
 20
323.0068740603646
 30
-226.6620320978044
  0
VERTEX
  5
424
  8
DEFAULT
 10
158.650327951055
 20
323.0516426611388
 30
-226.6620320978043
  0
VERTEX
  5
425
  8
DEFAULT
 10
158.6508206716678
 20
325.6960345486621
 30
-226.6620320978044
  0
SEQEND
  5
3E4
  8
DEFAULT
  0
LINE
  5
426
  8
DEFAULT
 10
-156.6475258340257
 20
321.0960345486657
 30
229.4642814070125
 11
-156.6476062438441
 21
321.0960345486656
 31
223.8642814075899
  0
LINE
  5
427
  8
DEFAULT
 10
-158.6475258338197
 20
323.0960345486656
 30
229.4643101248048
 11
-158.6476062436381
 21
323.0960345486655
 31
223.8643101253822
  0
LINE
  5
428
  8
DEFAULT
 10
-103.5527048832766
 20
326.5160345486657
 30
229.4635190239921
 11
-103.5527852930952
 21
326.5160345486657
 31
223.8635190245695
  0
LINE
  5
429
  8
DEFAULT
 10
-84.55270488523524
 20
345.5160345486657
 30
229.4632462049647
 11
-84.55278529505387
 21
345.5160345486657
 31
223.863246205542
  0
LINE
  5
42A
  8
DEFAULT
 10
-103.5527048832766
 20
364.5160345486657
 30
229.4635190239921
 11
-103.5527852930952
 21
364.5160345486657
 31
223.8635190245695
  0
LINE
  5
42B
  8
DEFAULT
 10
-79.98270488570691
 20
319.3460345486658
 30
229.4631805848079
 11
-79.98278529552553
 21
319.3460345486658
 31
223.8631805853852
  0
LINE
  5
42C
  8
DEFAULT
 10
-77.38270488597495
 20
321.9460345486658
 30
229.4631432516778
 11
-77.38278529579357
 21
321.9460345486658
 31
223.8631432522551
  0
LINE
  5
42D
  8
DEFAULT
 10
-79.98270488570691
 20
324.5460345486658
 30
229.4631805848079
 11
-79.98278529552553
 21
324.5460345486658
 31
223.8631805853852
  0
LINE
  5
42E
  8
DEFAULT
 10
-79.98270488570691
 20
366.4860345486658
 30
229.4631805848079
 11
-79.98278529552553
 21
366.4860345486658
 31
223.8631805853852
  0
LINE
  5
42F
  8
DEFAULT
 10
-77.38270488597495
 20
369.0860345486658
 30
229.4631432516778
 11
-77.38278529579357
 21
369.0860345486658
 31
223.8631432522551
  0
LINE
  5
430
  8
DEFAULT
 10
-79.98270488570691
 20
371.6860345486658
 30
229.4631805848079
 11
-79.98278529552553
 21
371.6860345486658
 31
223.8631805853852
  0
LINE
  5
431
  8
DEFAULT
 10
-127.1227048808472
 20
319.3460345486657
 30
229.4638574631734
 11
-127.1227852906659
 21
319.3460345486657
 31
223.8638574637508
  0
LINE
  5
432
  8
DEFAULT
 10
-124.5227048811153
 20
321.9460345486658
 30
229.4638201300434
 11
-124.5227852909339
 21
321.9460345486658
 31
223.8638201306207
  0
LINE
  5
433
  8
DEFAULT
 10
-127.1227048808472
 20
324.5460345486658
 30
229.4638574631734
 11
-127.1227852906659
 21
324.5460345486658
 31
223.8638574637508
  0
LINE
  5
434
  8
DEFAULT
 10
-127.1227048808472
 20
366.4860345486658
 30
229.4638574631734
 11
-127.1227852906659
 21
366.4860345486658
 31
223.8638574637508
  0
LINE
  5
435
  8
DEFAULT
 10
-124.5227048811153
 20
369.0860345486658
 30
229.4638201300434
 11
-124.5227852909339
 21
369.0860345486658
 31
223.8638201306207
  0
LINE
  5
436
  8
DEFAULT
 10
-127.1227048808472
 20
371.6860345486658
 30
229.4638574631734
 11
-127.1227852906659
 21
371.6860345486658
 31
223.8638574637508
  0
LINE
  5
437
  8
DEFAULT
 10
-101.9643839064738
 20
373.9088419848812
 30
229.4634962174546
 11
-101.9644643162924
 21
373.9088419848812
 31
223.8634962180319
  0
ENDSEC
  0
EOF
