0
SECTION
2
HEADER
9
$INSUNITS
70
1
9
$ACADVER
1
AC1014
9
$HANDSEED
5
FFFF
0
ENDSEC
0
SECTION
2
TABLES
0
TABLE
2
VPORT
5
8
100
AcDbSymbolTable
0
ENDTAB
0
TABLE
2
LTYPE
5
5
100
AcDbSymbolTable
0
LTYPE
5
14
100
AcDbSymbolTableRecord
100
AcDbLinetypeTableRecord
2
BYBLOCK
70
0
0
LTYPE
5
15
100
AcDbSymbolTableRecord
100
AcDbLinetypeTableRecord
2
BYLAYER
70
0
0
ENDTAB
0
TABLE
2
LAYER
5
2
100
AcDbSymbolTable
70
2
0
LAYER
5
50
100
AcDbSymbolTableRecord
100
AcDbLayerTableRecord
2
0
70
0
6
CONTINUOUS
0
ENDTAB
0
TABLE
2
STYLE
5
3
100
AcDbSymbolTable
70
1
0
STYLE
5
11
100
AcDbSymbolTableRecord
100
AcDbTextStyleTableRecord
2
STANDARD
70
0
0
ENDTAB
0
TABLE
2
VIEW
5
6
100
AcDbSymbolTable
70
0
0
ENDTAB
0
TABLE
2
UCS
5
7
100
AcDbSymbolTable
70
0
0
ENDTAB
0
TABLE
2
APPID
5
9
100
AcDbSymbolTable
70
2
0
APPID
5
12
100
AcDbSymbolTableRecord
100
AcDbRegAppTableRecord
2
ACAD
70
0
0
ENDTAB
0
TABLE
2
DIMSTYLE
5
A
100
AcDbSymbolTable
70
1
0
ENDTAB
0
TABLE
2
BLOCK_RECORD
5
1
100
AcDbSymbolTable
70
1
0
BLOCK_RECORD
5
1F
100
AcDbSymbolTableRecord
100
AcDbBlockTableRecord
2
*MODEL_SPACE
0
BLOCK_RECORD
5
1B
100
AcDbSymbolTableRecord
100
AcDbBlockTableRecord
2
*PAPER_SPACE
0
ENDTAB
0
ENDSEC
0
SECTION
2
BLOCKS
0
BLOCK
5
20
100
AcDbEntity
100
AcDbBlockBegin
2
*MODEL_SPACE
0
ENDBLK
5
21
100
AcDbEntity
100
AcDbBlockEnd
0
BLOCK
5
1C
100
AcDbEntity
100
AcDbBlockBegin
2
*PAPER_SPACE
0
ENDBLK
5
1D
100
AcDbEntity
100
AcDbBlockEnd
0
ENDSEC
0
SECTION
2
ENTITIES
0
LWPOLYLINE
5
100
100
AcDbEntity
8
0
100
AcDbPolyline
90
4
70
1
43
0.0
10
254.12139849893057
20
-144.56732329945675
10
254.12139849893057
20
-96.567323299456731
10
350.12139849893055
20
-96.567323299456731
10
350.12139849893055
20
-144.56732329945675
0
ARC
5
101
100
AcDbEntity
8
0
100
AcDbCircle
10
321.91978018454233
20
-97.455030817110639
30
-2.5119779196583027e-46
40
0.12499999999997298
100
AcDbArc
50
-134.99999998620982
51
45.000000013790164
0
LINE
5
102
100
AcDbEntity
8
0
100
AcDbLine
10
321.83139183691532
20
-97.543419164780204
30
-9.5694644091034886e-34
11
319.18494522746613
21
-97.54341916478019
31
-2.5845071481994271e-27
0
ARC
5
103
100
AcDbEntity
8
0
100
AcDbCircle
10
319.0965568798394
20
-97.455030817110327
30
1.1044621416192002e-47
40
0.12499999999999674
100
AcDbArc
50
134.99999999941505
51
314.99999998602101
0
LINE
5
104
100
AcDbEntity
8
0
100
AcDbLine
10
319.00816853219197
20
-97.366642469461098
30
-2.0463005639016294e-34
11
319.00816853219203
21
-97.043419164759129
31
-2.7766340129440482e-34
0
LINE
5
105
100
AcDbEntity
8
0
100
AcDbLine
10
319.00816853219203
20
-97.043419164759129
30
-2.7766340129440482e-34
11
297.00816853218771
21
-97.043419164759158
31
1.6984579037115779e-31
0
LINE
5
106
100
AcDbEntity
8
0
100
AcDbLine
10
297.00816853218771
20
-97.043419164759158
30
1.6984579037115779e-31
11
297.00816853218765
21
-97.366642469462917
31
2.7766340129596037e-34
0
ARC
5
107
100
AcDbEntity
8
0
100
AcDbCircle
10
296.91978018453847
20
-97.455030817110369
30
-8.0073505267392011e-47
40
0.12499999999997298
100
AcDbArc
50
-134.99999998601641
51
44.999999999438067
0
LINE
5
108
100
AcDbEntity
8
0
100
AcDbLine
10
296.83139183691173
20
-97.543419164780246
30
2.5277830509674327e-34
11
293.50816853218799
21
-97.543419164780246
31
-7.0395014187760217e-30
0
LINE
5
109
100
AcDbEntity
8
0
100
AcDbLine
10
293.50816853218799
20
-97.543419164780246
30
-7.0395014187760217e-30
11
293.50816853219618
21
-119.0434191647802
31
3.5415564359798434e-30
0
LINE
5
110
100
AcDbEntity
8
0
100
AcDbLine
10
293.50816853219618
20
-119.0434191647802
30
3.5415564359798434e-30
11
293.83139183689815
21
-119.0434191647802
31
4.435704793175326e-33
0
ARC
5
111
100
AcDbEntity
8
0
100
AcDbCircle
10
293.91978018454705
20
-119.13180751242794
30
-7.1073485718246284e-45
40
0.12499999999998883
100
AcDbArc
50
-44.999999999461089
51
135.0000000003777
0
LINE
5
112
100
AcDbEntity
8
0
100
AcDbLine
10
294.00816853219618
20
-119.22019586007541
30
-5.608067256812682e-32
11
294.00816853219618
21
-121.86664246948381
31
-1.3033720337191795e-36
0
ARC
5
113
100
AcDbEntity
8
0
100
AcDbCircle
10
293.91978018454705
20
-121.95503081713127
30
-1.5852533685367484e-44
40
0.12499999999998883
100
AcDbArc
50
-134.99999999963154
51
44.999999999461103
0
LINE
5
114
100
AcDbEntity
8
0
100
AcDbLine
10
293.83139183689929
20
-122.04341916478018
30
-6.2689019689808304e-32
11
293.50816853219618
21
-122.04341916478018
31
-4.435704793175326e-33
0
LINE
5
115
100
AcDbEntity
8
0
100
AcDbLine
10
293.50816853219618
20
-122.04341916478018
30
-4.435704793175326e-33
11
293.50816853219624
21
-143.54341916477995
31
-3.158931302100841e-35
0
LINE
5
116
100
AcDbEntity
8
0
100
AcDbLine
10
293.50816853219624
20
-143.54341916477995
30
-3.158931302100841e-35
11
296.83139183691014
21
-143.54341916477992
31
-1.1525250060899993e-32
0
ARC
5
117
100
AcDbEntity
8
0
100
AcDbCircle
10
296.91978018453835
20
-143.63180751244835
30
-3.0372708894528004e-47
40
0.12500000000002046
100
AcDbArc
50
-44.999999999272241
51
134.99999998696524
0
LINE
5
118
100
AcDbEntity
8
0
100
AcDbLine
10
297.00816853218782
20
-143.72019586009557
30
-2.4675977422444877e-34
11
297.00816853218782
21
-144.04341916480101
31
2.7766340129741067e-34
0
LINE
5
119
100
AcDbEntity
8
0
100
AcDbLine
10
297.00816853218782
20
-144.04341916480101
30
2.7766340129741067e-34
11
319.00816853219209
21
-144.04341916480098
31
-1.6984579037115779e-31
0
LINE
5
120
100
AcDbEntity
8
0
100
AcDbLine
10
319.00816853219209
20
-144.04341916480098
30
-1.6984579037115779e-31
11
319.00816853219209
21
-143.72019586009787
31
-2.7040318351690939e-33
0
ARC
5
121
100
AcDbEntity
8
0
100
AcDbCircle
10
319.09655687983951
20
-143.63180751244863
30
-1.158338343649405e-46
40
0.12499999999998883
100
AcDbArc
50
45.00000001324667
51
225.00000000058955
0
LINE
5
122
100
AcDbEntity
8
0
100
AcDbLine
10
319.18494522746738
20
-143.54341916477989
30
-3.972230509728672e-34
11
321.83139183691361
21
-143.54341916477989
31
1.1070305979548678e-32
0
ARC
5
123
100
AcDbEntity
8
0
100
AcDbCircle
10
321.91978018454222
20
-143.63180751244792
30
-3.3672626268878053e-50
40
0.12499999999998883
100
AcDbArc
50
-44.999999998986702
51
134.99999998722316
0
LINE
5
124
100
AcDbEntity
8
0
100
AcDbLine
10
322.00816853219209
20
-143.72019586009466
30
-2.5879683637398827e-34
11
322.00816853219209
21
-144.04341916480095
31
2.7766340129815083e-34
0
LINE
5
125
100
AcDbEntity
8
0
100
AcDbLine
10
322.00816853219209
20
-144.04341916480095
30
2.7766340129815083e-34
11
344.00816853219641
21
-144.04341916480092
31
-1.7469852723890517e-31
0
LINE
5
126
100
AcDbEntity
8
0
100
AcDbLine
10
344.00816853219641
20
-144.04341916480092
30
-1.7469852723890517e-31
11
344.00816853219641
21
-143.72019586009682
31
-2.7766340129627383e-34
0
ARC
5
127
100
AcDbEntity
8
0
100
AcDbCircle
10
344.09655687984423
20
-143.63180751244803
30
-6.4584097183708108e-47
40
0.12499999999998883
100
AcDbArc
50
45.000000012859772
51
225.00000000031321
0
LINE
5
128
100
AcDbEntity
8
0
100
AcDbLine
10
344.18494522747272
20
-143.54341916477986
30
-3.9120451989820481e-34
11
347.50816853220425
21
-143.54341916477983
31
-1.346634480799894e-31
0
LINE
5
129
100
AcDbEntity
8
0
100
AcDbLine
10
347.50816853220425
20
-143.54341916477983
30
-1.346634480799894e-31
11
347.50816853219601
21
-122.04341916478009
31
1.7745978104004469e-31
0
LINE
5
130
100
AcDbEntity
8
0
100
AcDbLine
10
347.50816853219601
20
-122.04341916478009
30
1.7745978104004469e-31
11
347.18494522749114
21
-122.04341916478009
31
-2.0093363593016436e-33
0
ARC
5
131
100
AcDbEntity
8
0
100
AcDbCircle
10
347.09655687984338
20
-121.95503081713119
30
2.2153894274820247e-45
40
0.12499999999998883
100
AcDbArc
50
134.99999999936901
51
314.99999999963154
0
LINE
5
132
100
AcDbEntity
8
0
100
AcDbLine
10
347.00816853219607
20
-121.86664246948193
30
1.7544018087151984e-32
11
347.00816853219607
21
-119.2201958600772
31
1.3033720368623171e-36
0
ARC
5
133
100
AcDbEntity
8
0
100
AcDbCircle
10
347.09655687984338
20
-119.13180751242787
30
4.4975853454815039e-45
40
0.12500000000000464
100
AcDbArc
50
44.999999999645347
51
225.00000000065401
0
LINE
5
134
100
AcDbEntity
8
0
100
AcDbLine
10
347.18494522749222
20
-119.04341916478012
30
3.6297760920613043e-32
11
347.50816853219601
21
-119.04341916478012
31
2.0093363593016436e-33
0
LINE
5
135
100
AcDbEntity
8
0
100
AcDbLine
10
347.50816853219601
20
-119.04341916478012
30
2.0093363593016436e-33
11
347.50816853219601
21
-97.543419164780147
31
3.1589313020814453e-35
0
LINE
5
136
100
AcDbEntity
8
0
100
AcDbLine
10
347.50816853219601
20
-97.543419164780147
30
3.1589313020814453e-35
11
344.18494522747091
21
-97.543419164780147
31
3.3969158074231556e-32
0
ARC
5
137
100
AcDbEntity
8
0
100
AcDbCircle
10
344.09655687984383
20
-97.455030817110554
30
-1.3334360002475708e-46
40
0.12499999999999674
100
AcDbArc
50
134.99999999949796
51
314.99999998621905
0
LINE
5
138
100
AcDbEntity
8
0
100
AcDbLine
10
344.00816853219629
20
-97.366642469461468
30
-6.5601988756536386e-34
11
344.00816853219629
21
-97.043419164759072
31
-2.7766340129476485e-34
0
LINE
5
139
100
AcDbEntity
8
0
100
AcDbLine
10
344.00816853219629
20
-97.043419164759072
30
-2.7766340129476485e-34
11
322.00816853219203
21
-97.043419164759115
31
1.7227215880503147e-31
0
LINE
5
140
100
AcDbEntity
8
0
100
AcDbLine
10
322.00816853219203
20
-97.043419164759115
30
1.7227215880503147e-31
11
322.00816853216935
21
-97.366642469441075
31
9.5694644090984664e-34
0
CIRCLE
5
141
100
AcDbEntity
8
0
100
AcDbCircle
10
293.75816853218805
20
-118.7934191647802
30
0
40
0.062499999999999813
0
CIRCLE
5
142
100
AcDbEntity
8
0
100
AcDbCircle
10
293.75816853219629
20
-143.29341916478145
30
0
40
0.062499999999999813
0
CIRCLE
5
143
100
AcDbEntity
8
0
100
AcDbCircle
10
318.75816853219209
20
-143.79341916480098
30
0
40
0.062499999999999813
0
CIRCLE
5
144
100
AcDbEntity
8
0
100
AcDbCircle
10
343.75816853219641
20
-143.79341916482204
30
0
40
0.062499999999999813
0
CIRCLE
5
145
100
AcDbEntity
8
0
100
AcDbCircle
10
347.25816853219607
20
-122.29341916478009
30
0
40
0.062499999999999813
0
CIRCLE
5
146
100
AcDbEntity
8
0
100
AcDbCircle
10
347.25816853218782
20
-97.793419164778825
30
0
40
0.062499999999999813
0
CIRCLE
5
147
100
AcDbEntity
8
0
100
AcDbCircle
10
322.25816853219203
20
-97.2934191647593
30
0
40
0.062499999999999813
0
CIRCLE
5
148
100
AcDbEntity
8
0
100
AcDbCircle
10
297.25816853218771
20
-97.293419164738268
30
0
40
0.062499999999999813
0
CIRCLE
5
149
100
AcDbEntity
8
0
100
AcDbCircle
10
293.75816853219618
20
-97.793419164778925
30
0
40
0.062499999999999813
0
CIRCLE
5
150
100
AcDbEntity
8
0
100
AcDbCircle
10
318.75816853219197
20
-97.293419164759314
30
0
40
0.062499999999999813
0
CIRCLE
5
151
100
AcDbEntity
8
0
100
AcDbCircle
10
343.75816853219629
20
-97.293419164738168
30
0
40
0.062499999999999813
0
CIRCLE
5
152
100
AcDbEntity
8
0
100
AcDbCircle
10
347.25816853219607
20
-118.79341916478009
30
0
40
0.062499999999999813
0
CIRCLE
5
153
100
AcDbEntity
8
0
100
AcDbCircle
10
347.25816853218788
20
-143.29341916478134
30
0
40
0.062499999999999813
0
CIRCLE
5
154
100
AcDbEntity
8
0
100
AcDbCircle
10
322.25816853219209
20
-143.79341916480098
30
0
40
0.062499999999999813
0
CIRCLE
5
155
100
AcDbEntity
8
0
100
AcDbCircle
10
297.25816853218782
20
-143.79341916482213
30
0
40
0.062499999999999813
0
CIRCLE
5
156
100
AcDbEntity
8
0
100
AcDbCircle
10
293.75816853218805
20
-122.29341916478018
30
0
40
0.062499999999999813
0
CIRCLE
5
157
100
AcDbEntity
8
0
100
AcDbCircle
10
283.0240801526981
20
-120.55890356697644
30
0
40
0.49999999999999789
0
CIRCLE
5
158
100
AcDbEntity
8
0
100
AcDbCircle
10
283.02408015269822
20
-122.18390356696764
30
0
40
0.21875000000000214
0
CIRCLE
5
159
100
AcDbEntity
8
0
100
AcDbCircle
10
283.02408015269822
20
-118.93390356696764
30
0
40
0.21875000000000214
0
CIRCLE
5
160
100
AcDbEntity
8
0
100
AcDbCircle
10
283.25408015269818
20
-103.05890356697763
30
0
40
0.37499999999999978
0
CIRCLE
5
161
100
AcDbEntity
8
0
100
AcDbCircle
10
283.25408015269824
20
-141.05890356697759
30
0
40
0.37499999999999978
0
CIRCLE
5
162
100
AcDbEntity
8
0
100
AcDbCircle
10
292.13908015269811
20
-142.0589035669768
30
0
40
0.062499999999999035
0
CIRCLE
5
163
100
AcDbEntity
8
0
100
AcDbCircle
10
292.139080152698
20
-99.058903566976909
30
0
40
0.06250000000000043
0
CIRCLE
5
164
100
AcDbEntity
8
0
100
AcDbCircle
10
292.13908015269817
20
-120.55890356697687
30
0
40
0.062499999999999035
0
CIRCLE
5
165
100
AcDbEntity
8
0
100
AcDbCircle
10
274.92908015269808
20
-142.55890356697546
30
0
40
0.20699999999999877
0
CIRCLE
5
166
100
AcDbEntity
8
0
100
AcDbCircle
10
291.34908015269815
20
-98.558903566978231
30
0
40
0.20700000000000088
0
CIRCLE
5
167
100
AcDbEntity
8
0
100
AcDbCircle
10
291.34908015269826
20
-142.55890356697543
30
0
40
0.20699999999999877
0
CIRCLE
5
168
100
AcDbEntity
8
0
100
AcDbCircle
10
274.92908015269796
20
-98.558903566978259
30
0
40
0.20700000000000088
0
CIRCLE
5
169
100
AcDbEntity
8
0
100
AcDbCircle
10
289.139080152698
20
-97.308903566976753
30
0
40
0.062499999999999931
0
CIRCLE
5
170
100
AcDbEntity
8
0
100
AcDbCircle
10
273.90908015269821
20
-120.55890356697691
30
0
40
0.062499999999999931
0
CIRCLE
5
171
100
AcDbEntity
8
0
100
AcDbCircle
10
275.90908015269838
20
-143.80890356697702
30
0
40
0.062499999999999931
0
CIRCLE
5
172
100
AcDbEntity
8
0
100
AcDbCircle
10
289.13908015269834
20
-143.80890356697699
30
0
40
0.062499999999999931
0
CIRCLE
5
173
100
AcDbEntity
8
0
100
AcDbCircle
10
275.90908015269804
20
-97.308903566976895
30
0
40
0.062499999999999931
0
ARC
5
174
100
AcDbEntity
8
0
100
AcDbCircle
10
275.5706918050488
20
-143.64729191462487
30
-1.1482365557687417e-47
40
0.12499999999998883
100
AcDbArc
50
-44.999999999143284
51
135.00000000086592
0
LINE
5
175
100
AcDbEntity
8
0
100
AcDbLine
10
275.65908015269844
20
-143.73568026227187
30
-3.6111186457934076e-34
11
275.65908015269838
21
-144.05890356697702
31
3.8164933205097352e-34
0
LINE
5
176
100
AcDbEntity
8
0
100
AcDbLine
10
275.65908015269838
20
-144.05890356697702
30
3.8164933205097352e-34
11
289.38908015269834
21
-144.05890356697697
31
-4.97405528944105e-32
0
LINE
5
177
100
AcDbEntity
8
0
100
AcDbLine
10
289.38908015269834
20
-144.05890356697697
30
-4.97405528944105e-32
11
289.38908015269834
21
-143.73568026227451
31
-3.8164933204773653e-34
0
ARC
5
178
100
AcDbEntity
8
0
100
AcDbCircle
10
289.47746850034531
20
-143.64729191462482
30
-1.2485809820499981e-46
40
0.12499999999998883
100
AcDbArc
50
44.999999999834188
51
225.00000000088431
0
LINE
5
179
100
AcDbEntity
8
0
100
AcDbLine
10
289.56585684799387
20
-143.55890356697677
30
6.6805694947541265e-34
11
292.38908042182027
21
-143.5589035669768
31
-3.0329605423421034e-34
0
LINE
5
180
100
AcDbEntity
8
0
100
AcDbLine
10
292.38908015269811
20
-143.5589035669768
30
0
11
292.38908015269811
21
-140.5589035669768
31
-3.5422816965419018e-33
0
LINE
5
181
100
AcDbEntity
8
0
100
AcDbLine
10
292.38908042182027
20
-140.5589035669768
30
0
11
292.0658568479929
21
-140.5589035669768
31
3.2983445897970377e-33
0
ARC
5
182
100
AcDbEntity
8
0
100
AcDbCircle
10
291.97746850034497
20
-140.47051521932804
30
4.6973313645084884e-48
40
0.12500000000000464
100
AcDbArc
50
134.99999999908806
51
314.99999999973289
0
LINE
5
183
100
AcDbEntity
8
0
100
AcDbLine
10
291.88908015269806
20
-140.38212687167831
30
3.4907480241406416e-34
11
291.88908015269806
21
-122.23568026227426
31
-2.1426608560588904e-32
0
ARC
5
184
100
AcDbEntity
8
0
100
AcDbCircle
10
291.97746850034525
20
-122.14729191462483
30
2.5187124449120786e-47
40
0.12500000000002046
100
AcDbArc
50
44.999999999751275
51
225.00000000072311
0
LINE
5
185
100
AcDbEntity
8
0
100
AcDbLine
10
292.06585684799398
20
-122.05890356697687
30
-5.5370485901702017e-34
11
292.38908015269823
21
-122.05890356697685
31
-8.7197615592335481e-34
0
LINE
5
186
100
AcDbEntity
8
0
100
AcDbLine
10
292.38908015269823
20
-122.05890356697685
30
-8.7197615592335481e-34
11
292.38908015269794
21
-119.05890356697684
31
-3.5422816965411799e-33
0
LINE
5
187
100
AcDbEntity
8
0
100
AcDbLine
10
292.38908015269794
20
-119.05890356697684
30
-3.5422816965411799e-33
11
292.06585684799296
21
-119.05890356697687
31
-2.7675764948871695e-33
0
ARC
5
188
100
AcDbEntity
8
0
100
AcDbCircle
10
291.97746850034497
20
-118.97051521932823
30
4.6619751069261666e-47
40
0.12499999999995716
100
AcDbArc
50
134.99999999909264
51
314.99999999979275
0
LINE
5
189
100
AcDbEntity
8
0
100
AcDbLine
10
291.88908015269806
20
-118.88212687167852
30
3.671303956422134e-34
11
291.889080152698
21
-100.73568026227474
31
1.7395286381390283e-32
0
ARC
5
190
100
AcDbEntity
8
0
100
AcDbCircle
10
291.97746850034491
20
-100.64729191462496
30
5.4010892535280401e-47
40
0.12499999999999674
100
AcDbArc
50
44.999999999838792
51
225.00000000093041
0
LINE
5
191
100
AcDbEntity
8
0
100
AcDbLine
10
292.06585684799347
20
-100.55890356697689
30
-2.467597741369874e-34
11
292.38908015269806
21
-100.55890356697689
31
3.4120806101348666e-34
0
LINE
5
192
100
AcDbEntity
8
0
100
AcDbLine
10
292.38908015269806
20
-100.55890356697689
30
3.4120806101348666e-34
11
292.38908015269806
21
-97.558903566976909
31
-4.7554659134787329e-33
0
LINE
5
193
100
AcDbEntity
8
0
100
AcDbLine
10
292.38908015269806
20
-97.558903566976909
30
-4.7554659134787329e-33
11
289.5658568479929
21
-97.558903566976923
31
3.0632901477655245e-32
0
ARC
5
194
100
AcDbEntity
8
0
100
AcDbCircle
10
289.47746850034491
20
-97.470515219328291
30
-1.5422062831146148e-47
40
0.12499999999999674
100
AcDbArc
50
134.99999999909264
51
314.99999999979275
0
LINE
5
195
100
AcDbEntity
8
0
100
AcDbLine
10
289.389080152698
20
-97.38212687167858
30
6.6805694945616344e-34
11
289.389080152698
21
-97.058903566976866
31
2.0447191018267994e-33
0
LINE
5
196
100
AcDbEntity
8
0
100
AcDbLine
10
289.389080152698
20
-97.058903566976866
30
2.0447191018267994e-33
11
275.6590801526981
21
-97.058903566976909
31
7.4004237233147319e-32
0
LINE
5
197
100
AcDbEntity
8
0
100
AcDbLine
10
275.6590801526981
20
-97.058903566976909
30
7.4004237233147319e-32
11
275.6590801526981
21
-97.382126871681365
31
3.8164933205011554e-34
0
ARC
5
198
100
AcDbEntity
8
0
100
AcDbCircle
10
275.5706918050484
20
-97.470515219328348
30
1.6688153578855962e-46
40
0.12499999999998089
100
AcDbArc
50
-134.99999999982498
51
44.999999999120263
0
LINE
5
199
100
AcDbEntity
8
0
100
AcDbLine
10
275.48230345740035
20
-97.558903566976937
30
3.9120451994457784e-34
11
274.15908015269815
21
-97.558903566976937
31
1.0789757129382033e-31
0
LINE
5
200
100
AcDbEntity
8
0
100
AcDbLine
10
274.15908015269815
20
-97.558903566976937
30
1.0789757129382033e-31
11
274.15908015269815
21
-118.88212687168129
31
2.5177621207843354e-32
0
ARC
5
201
100
AcDbEntity
8
0
100
AcDbCircle
10
274.07069180504857
20
-118.97051521932832
30
-4.4986628695221082e-47
40
0.12500000000000464
100
AcDbArc
50
-134.99999999981577
51
44.999999999170932
0
LINE
5
202
100
AcDbEntity
8
0
100
AcDbLine
10
273.98230345740052
20
-119.05890356697694
30
5.4166779685240026e-34
11
273.65908015269821
21
-119.05890356697695
31
3.2983445897970377e-33
0
LINE
5
203
100
AcDbEntity
8
0
100
AcDbLine
10
273.65908015269821
20
-119.05890356697695
30
3.2983445897970377e-33
11
273.65908015269821
21
-122.05890356697695
31
3.5422816965419018e-33
0
LINE
5
204
100
AcDbEntity
8
0
100
AcDbLine
10
273.65908015269821
20
-122.05890356697695
30
3.5422816965419018e-33
11
273.98230345739989
21
-122.05890356697695
31
3.9807607118240105e-33
0
ARC
5
205
100
AcDbEntity
8
0
100
AcDbCircle
10
274.07069180504857
20
-122.14729191462492
30
-1.080217850705608e-46
40
0.12499999999998883
100
AcDbArc
50
-44.999999999170917
51
135.0000000002303
0
LINE
5
206
100
AcDbEntity
8
0
100
AcDbLine
10
274.15908015269815
20
-122.23568026227194
30
-3.671303956545945e-34
11
274.15908015269827
21
-143.55890356697699
31
2.5177621207844154e-32
0
LINE
5
207
100
AcDbEntity
8
0
100
AcDbLine
10
274.15908015269827
20
-143.55890356697699
30
2.5177621207844154e-32
11
275.48230345739915
21
-143.5589035669779
31
3.611118645793178e-34
0
ARC
5
208
100
AcDbEntity
8
0
100
AcDbCircle
10
256.40400522643148
20
-97.497959426228419
30
-1.8843201660064158e-46
40
0.12499999999998089
100
AcDbArc
50
-135.00000000013358
51
44.999999999861821
0
LINE
5
209
100
AcDbEntity
8
0
100
AcDbLine
10
256.31561687878298
20
-97.586347773876511
30
6.5000135622022196e-34
11
254.99239357408101
21
-97.586347773876312
31
-1.6681282982881568e-33
0
LINE
5
210
100
AcDbEntity
8
0
100
AcDbLine
10
254.99239357408101
20
-97.586347773876312
30
-1.6681282982881568e-33
11
254.99239357408095
21
-118.90957107858117
31
-2.205748911168228e-32
0
ARC
5
211
100
AcDbEntity
8
0
100
AcDbCircle
10
254.90400522643131
20
-118.99795942622819
30
2.4136538509531786e-46
40
0.12500000000000464
100
AcDbArc
50
-135.00000000024411
51
44.999999999152507
0
LINE
5
212
100
AcDbEntity
8
0
100
AcDbLine
10
254.81561687878261
20
-119.08634777387614
30
6.4398282514553665e-34
11
254.49239357408098
21
-119.08634777387616
31
-4.7390008474095363e-34
0
LINE
5
213
100
AcDbEntity
8
0
100
AcDbLine
10
254.49239357408098
20
-119.08634777387616
30
-4.7390008474095363e-34
11
254.49239357408098
21
-122.08634777387614
31
-3.1033050861707945e-33
0
LINE
5
214
100
AcDbEntity
8
0
100
AcDbLine
10
254.49239357408098
20
-122.08634777387614
30
-3.1033050861707945e-33
11
254.81561687878332
21
-122.08634777387611
31
-1.952468349132729e-33
0
ARC
5
215
100
AcDbEntity
8
0
100
AcDbCircle
10
254.90400522643131
20
-122.17473612152477
30
-4.613149798836293e-48
40
0.12500000000002046
100
AcDbArc
50
-44.999999999152493
51
134.99999999978351
0
LINE
5
216
100
AcDbEntity
8
0
100
AcDbLine
10
254.99239357408095
20
-122.2631244691718
30
-8.66668474985836e-34
11
254.99239357408092
21
-143.58634777387599
31
-2.205748911168158e-32
0
LINE
5
217
100
AcDbEntity
8
0
100
AcDbLine
10
254.99239357408092
20
-143.58634777387599
30
-2.205748911168158e-32
11
256.31561687878315
21
-143.58634777387596
31
-1.1237118809377492e-31
0
ARC
5
218
100
AcDbEntity
8
0
100
AcDbCircle
10
256.40400522643114
20
-143.67473612152452
30
3.8656174956672003e-47
40
0.1250000000000363
100
AcDbArc
50
-44.999999999134076
51
134.99999999981577
0
LINE
5
219
100
AcDbEntity
8
0
100
AcDbLine
10
256.49239357408084
20
-143.76312446917154
30
-1.0833355935319726e-34
11
256.49239357408078
21
-144.08634777387599
31
-3.3435350848608039e-34
0
LINE
5
220
100
AcDbEntity
8
0
100
AcDbLine
10
256.49239357408078
20
-144.08634777387599
30
-3.3435350848608039e-34
11
270.22239357408063
21
-144.08634777387604
31
3.5182342291168401e-32
0
LINE
5
221
100
AcDbEntity
8
0
100
AcDbLine
10
270.22239357408063
20
-144.08634777387604
30
3.5182342291168401e-32
11
270.22239357408063
21
-143.76312446917433
31
2.760721942356911e-33
0
ARC
5
222
100
AcDbEntity
8
0
100
AcDbCircle
10
270.3107819217276
20
-143.67473612152463
30
-3.9262282229511808e-46
40
0.12499999999998883
100
AcDbArc
50
45.000000000230287
51
225.00000000088431
0
LINE
5
223
100
AcDbEntity
8
0
100
AcDbLine
10
270.39917026937553
20
-143.58634777387599
30
-1.9259299445520368e-34
11
273.22239357408063
21
-143.58634777387599
31
1.0615361898197361e-33
0
LINE
5
224
100
AcDbEntity
8
0
100
AcDbLine
10
273.22239357408063
20
-143.58634777387599
30
1.0615361898197361e-33
11
273.22239357408063
21
-140.58634777387601
31
4.3164893031076168e-33
0
LINE
5
225
100
AcDbEntity
8
0
100
AcDbLine
10
273.22239357408063
20
-140.58634777387601
30
4.3164893031076168e-33
11
272.89917026937604
21
-140.58634777387601
31
7.3928413219588775e-34
0
ARC
5
226
100
AcDbEntity
8
0
100
AcDbCircle
10
272.81078192172754
20
-140.49795942622796
30
-2.1173347397870518e-46
40
0.12500000000000464
100
AcDbArc
50
134.99999999906038
51
315.00000000014739
0
LINE
5
227
100
AcDbEntity
8
0
100
AcDbLine
10
272.72239357408068
20
-140.40957107857821
30
2.0463005659220905e-33
11
272.72239357408068
21
-122.26312446917457
31
1.8771320019629857e-32
0
ARC
5
228
100
AcDbEntity
8
0
100
AcDbCircle
10
272.81078192172754
20
-122.17473612152486
30
-4.3383811684822486e-46
40
0.12500000000002046
100
AcDbArc
50
45.000000000188848
51
225.00000000092578
0
LINE
5
229
100
AcDbEntity
8
0
100
AcDbLine
10
272.89917026937559
20
-122.08634777387623
30
-6.620384183639241e-34
11
273.22239357408057
21
-122.08634777387626
31
1.6870843016777951e-33
0
LINE
5
230
100
AcDbEntity
8
0
100
AcDbLine
10
273.22239357408057
20
-122.08634777387626
30
1.6870843016777951e-33
11
273.2223935740808
21
-119.08634777387627
31
-3.571858985580976e-32
0
LINE
5
231
100
AcDbEntity
8
0
100
AcDbLine
10
273.2223935740808
20
-119.08634777387627
30
-3.571858985580976e-32
11
272.89917026937655
21
-119.08634777387627
31
1.952468349132729e-33
0
ARC
5
232
100
AcDbEntity
8
0
100
AcDbCircle
10
272.81078192172794
20
-118.99795942622829
30
3.232572121812293e-48
40
0.12500000000000464
100
AcDbArc
50
134.99999999929531
51
315.00000000020725
0
LINE
5
233
100
AcDbEntity
8
0
100
AcDbLine
10
272.72239357408068
20
-118.90957107857886
30
1.4444474582896351e-33
11
272.72239357408074
21
-100.76312446917501
31
1.8771320019630086e-32
0
ARC
5
234
100
AcDbEntity
8
0
100
AcDbCircle
10
272.8107819217276
20
-100.67473612152526
30
-2.5146717297598131e-46
40
0.12500000000000464
100
AcDbArc
50
45.000000000280956
51
225.00000000093962
0
LINE
5
235
100
AcDbEntity
8
0
100
AcDbLine
10
272.89917026937547
20
-100.58634777387651
30
-6.6805694944136796e-34
11
273.22239384320289
21
-100.58634777387651
31
4.7390008474095363e-34
0
LINE
5
236
100
AcDbEntity
8
0
100
AcDbLine
10
273.22239357408068
20
-100.58634777387651
30
0
11
273.22239357408068
21
-97.58634777387654
31
3.1033050861707945e-33
0
LINE
5
237
100
AcDbEntity
8
0
100
AcDbLine
10
273.22239384320289
20
-97.58634777387654
30
0
11
270.39917026937655
21
-97.586347773876525
31
9.857121762611836e-33
0
ARC
5
238
100
AcDbEntity
8
0
100
AcDbCircle
10
270.31078192172794
20
-97.497959426228476
30
-2.5119779196583027e-46
40
0.12499999999999674
100
AcDbArc
50
134.99999999912029
51
315.00000000018429
0
LINE
5
239
100
AcDbEntity
8
0
100
AcDbLine
10
270.22239357408097
20
-97.409571078578793
30
-1.5949107352082192e-33
11
270.22239357408102
21
-97.086347773876355
31
3.3435350848399619e-34
0
LINE
5
240
100
AcDbEntity
8
0
100
AcDbLine
10
270.22239357408102
20
-97.086347773876355
30
3.3435350848399619e-34
11
256.49239357408118
21
-97.086347773876284
31
-5.9446026629905226e-32
0
LINE
5
241
100
AcDbEntity
8
0
100
AcDbLine
10
256.49239357408118
20
-97.086347773876284
30
-5.9446026629905226e-32
11
256.49239357407998
21
-97.409571078580342
31
-6.5000135622059897e-34
0
CIRCLE
5
242
100
AcDbEntity
8
0
100
AcDbCircle
10
264.08739357408092
20
-100.0863477738757
30
0
40
0.37499999999999645
0
CIRCLE
5
243
100
AcDbEntity
8
0
100
AcDbCircle
10
264.08739357408086
20
-138.0863477738753
30
0
40
0.37499999999999645
0
CIRCLE
5
244
100
AcDbEntity
8
0
100
AcDbCircle
10
263.8573935740809
20
-122.21134777388545
30
0
40
0.21875000000000025
0
CIRCLE
5
245
100
AcDbEntity
8
0
100
AcDbCircle
10
263.8573935740809
20
-118.96134777388546
30
0
40
0.21875000000000025
0
CIRCLE
5
246
100
AcDbEntity
8
0
100
AcDbCircle
10
263.85739357408079
20
-120.58634777387665
30
0
40
0.49999999999999334
0
CIRCLE
5
247
100
AcDbEntity
8
0
100
AcDbCircle
10
272.97239357408074
20
-99.08634777387654
30
0
40
0.062499999999998473
0
CIRCLE
5
248
100
AcDbEntity
8
0
100
AcDbCircle
10
272.97239357408063
20
-142.08634777387604
30
0
40
0.062499999999999875
0
CIRCLE
5
249
100
AcDbEntity
8
0
100
AcDbCircle
10
272.9723935740808
20
-120.58634777387626
30
0
40
0.062499999999998473
0
CIRCLE
5
250
100
AcDbEntity
8
0
100
AcDbCircle
10
255.76239357408082
20
-98.586347773877847
30
0
40
0.20699999999999694
0
CIRCLE
5
251
100
AcDbEntity
8
0
100
AcDbCircle
10
272.18239357408078
20
-142.58634777387468
30
0
40
0.20699999999999902
0
CIRCLE
5
252
100
AcDbEntity
8
0
100
AcDbCircle
10
272.18239357408089
20
-98.586347773877876
30
0
40
0.20699999999999694
0
CIRCLE
5
253
100
AcDbEntity
8
0
100
AcDbCircle
10
255.7623935740807
20
-142.58634777387465
30
0
40
0.20699999999999902
0
ENDSEC
0
SECTION
2
OBJECTS
0
DICTIONARY
5
C
100
AcDbDictionary
3
ACAD_GROUP
350
D
3
ACAD_MLINESTYLE
350
17
0
DICTIONARY
5
D
100
AcDbDictionary
0
DICTIONARY
5
1A
330
C
100
AcDbDictionary
0
DICTIONARY
5
17
100
AcDbDictionary
0
ENDSEC
0
EOF
