  0
SECTION
  2
HEADER
  9
$ACADVER
  1
AC1014
  9
$HANDSEED
  5
FFFF
  9
$MEASUREMENT
 70
     1
  0
ENDSEC
  0
SECTION
  2
TABLES
  0
TABLE
  2
VPORT
  5
8
330
0
100
AcDbSymbolTable
 70
     4
  0
VPORT
  5
2E
330
8
100
AcDbSymbolTableRecord
100
AcDbViewportTableRecord
  2
*ACTIVE
 70
     0
 10
0.0
 20
0.0
 11
1.0
 21
1.0
 12
210.0
 22
148.5
 13
0.0
 23
0.0
 14
10.0
 24
10.0
 15
10.0
 25
10.0
 16
0.0
 26
0.0
 36
1.0
 17
0.0
 27
0.0
 37
0.0
 40
341.0
 41
1.24
 42
50.0
 43
0.0
 44
0.0
 50
0.0
 51
0.0
 71
     0
 72
   100
 73
     1
 74
     3
 75
     0
 76
     0
 77
     0
 78
     0
  0
ENDTAB
  0
TABLE
  2
LTYPE
  5
5
330
0
100
AcDbSymbolTable
 70
     1
  0
LTYPE
  5
14
330
5
100
AcDbSymbolTableRecord
100
AcDbLinetypeTableRecord
  2
BYBLOCK
 70
     0
  3

 72
    65
 73
     0
 40
0.0
  0
LTYPE
  5
15
330
5
100
AcDbSymbolTableRecord
100
AcDbLinetypeTableRecord
  2
BYLAYER
 70
     0
  3

 72
    65
 73
     0
 40
0.0
  0
LTYPE
  5
16
330
5
100
AcDbSymbolTableRecord
100
AcDbLinetypeTableRecord
  2
CONTINUOUS
 70
     0
  3
Solid line
 72
    65
 73
     0
 40
0.0
  0
ENDTAB
  0
TABLE
  2
LAYER
  5
2
100
AcDbSymbolTable
 70
2
  0
LAYER
  5
50
100
AcDbSymbolTableRecord
100
AcDbLayerTableRecord
  2
0
 70
0
  6
CONTINUOUS
  0
LAYER
  5
51
100
AcDbSymbolTableRecord
100
AcDbLayerTableRecord
  2
Layer_1
 70
0
  6
CONTINUOUS
  0
ENDTAB
  0
TABLE
  2
STYLE
  5
3
330
0
100
AcDbSymbolTable
 70
     1
  0
STYLE
  5
11
330
3
100
AcDbSymbolTableRecord
100
AcDbTextStyleTableRecord
  2
STANDARD
 70
     0
 40
0.0
 41
1.0
 50
0.0
 71
     0
 42
2.5
  3
txt
  4

  0
ENDTAB
  0
TABLE
  2
VIEW
  5
6
330
0
100
AcDbSymbolTable
 70
     0
  0
ENDTAB
  0
TABLE
  2
UCS
  5
7
330
0
100
AcDbSymbolTable
 70
     0
  0
ENDTAB
  0
TABLE
  2
APPID
  5
9
330
0
100
AcDbSymbolTable
 70
     2
  0
APPID
  5
12
330
9
100
AcDbSymbolTableRecord
100
AcDbRegAppTableRecord
  2
ACAD
 70
     0
  0
ENDTAB
  0
TABLE
  2
DIMSTYLE
  5
A
330
0
100
AcDbSymbolTable
 70
     1
  0
DIMSTYLE
105
27
330
A
100
AcDbSymbolTableRecord
100
AcDbDimStyleTableRecord
  2
ISO-25
 70
     0
  3

  4

  5

  6

  7

 40
1.0
 41
2.5
 42
0.625
 43
3.75
 44
1.25
 45
0.0
 46
0.0
 47
0.0
 48
0.0
140
2.5
141
2.5
142
0.0
143
0.03937007874016
144
1.0
145
0.0
146
1.0
147
0.625
 71
     0
 72
     0
 73
     0
 74
     0
 75
     0
 76
     0
 77
     1
 78
     8
170
     0
171
     3
172
     1
173
     0
174
     0
175
     0
176
     0
177
     0
178
     0
270
     2
271
     2
272
     2
273
     2
274
     3
340
11
275
     0
280
     0
281
     0
282
     0
283
     0
284
     8
285
     0
286
     0
287
     3
288
     0
  0
ENDTAB
  0
TABLE
  2
BLOCK_RECORD
  5
1
330
0
100
AcDbSymbolTable
 70
     1
  0
BLOCK_RECORD
  5
1F
330
1
100
AcDbSymbolTableRecord
100
AcDbBlockTableRecord
  2
*MODEL_SPACE
  0
BLOCK_RECORD
  5
1B
330
1
100
AcDbSymbolTableRecord
100
AcDbBlockTableRecord
  2
*PAPER_SPACE
  0
ENDTAB
  0
ENDSEC
  0
SECTION
  2
BLOCKS
  0
BLOCK
  5
20
330
1F
100
AcDbEntity
  8
0
100
AcDbBlockBegin
  2
*MODEL_SPACE
 70
     0
 10
0.0
 20
0.0
 30
0.0
  3
*MODEL_SPACE
  1

  0
ENDBLK
  5
21
330
1F
100
AcDbEntity
  8
0
100
AcDbBlockEnd
  0
BLOCK
  5
1C
330
1B
100
AcDbEntity
 67
     1
  8
0
100
AcDbBlockBegin
  2
*PAPER_SPACE
  1

  0
ENDBLK
  5
1D
330
1B
100
AcDbEntity
 67
     1
  8
0
100
AcDbBlockEnd
  0
ENDSEC
  0
SECTION
  2
ENTITIES
  0
SPLINE
  5
100
100
AcDbEntity
  8
Layer_1
 62
3
100
AcDbSpline
 70
8
 71
3
 72
8
 73
4
 74
0
 40
0
 40
0
 40
0
 40
0
 40
1
 40
1
 40
1
 40
1
 10
615.670051
 20
327.131209
 30
0.0
 10
615.670051
 20
327.012638
 30
0.0
 10
615.627698
 20
326.913832
 30
0.0
 10
615.542994
 20
326.834791
 30
0.0
  0
SPLINE
  5
101
100
AcDbEntity
  8
Layer_1
 62
3
100
AcDbSpline
 70
8
 71
3
 72
8
 73
4
 74
0
 40
0
 40
0
 40
0
 40
0
 40
1
 40
1
 40
1
 40
1
 10
615.542994
 20
326.834791
 30
0.0
 10
615.463953
 20
326.750106
 30
0.0
 10
615.365157
 20
326.707763
 30
0.0
 10
615.246604
 20
326.707763
 30
0.0
  0
SPLINE
  5
102
100
AcDbEntity
  8
Layer_1
 62
3
100
AcDbSpline
 70
8
 71
3
 72
8
 73
4
 74
0
 40
0
 40
0
 40
0
 40
0
 40
1
 40
1
 40
1
 40
1
 10
615.246604
 20
326.707763
 30
0.0
 10
615.128033
 20
326.707763
 30
0.0
 10
615.026405
 20
326.750106
 30
0.0
 10
614.941720
 20
326.834791
 30
0.0
  0
SPLINE
  5
103
100
AcDbEntity
  8
Layer_1
 62
3
100
AcDbSpline
 70
8
 71
3
 72
8
 73
4
 74
0
 40
0
 40
0
 40
0
 40
0
 40
1
 40
1
 40
1
 40
1
 10
614.941720
 20
326.834791
 30
0.0
 10
614.862679
 20
326.913832
 30
0.0
 10
614.823158
 20
327.012638
 30
0.0
 10
614.823158
 20
327.131209
 30
0.0
  0
LINE
  5
104
100
AcDbEntity
  8
Layer_1
 62
3
100
AcDbLine
 10
614.823158
 20
327.131209
 30
0.0
 11
614.823158
 21
327.978074
 31
0.0
  0
LINE
  5
105
100
AcDbEntity
  8
Layer_1
 62
3
100
AcDbLine
 10
614.823158
 20
327.978074
 30
0.0
 11
613.552848
 21
327.978074
 31
0.0
  0
SPLINE
  5
106
100
AcDbEntity
  8
Layer_1
 62
3
100
AcDbSpline
 70
8
 71
3
 72
8
 73
4
 74
0
 40
0
 40
0
 40
0
 40
0
 40
1
 40
1
 40
1
 40
1
 10
613.552848
 20
327.978074
 30
0.0
 10
613.434277
 20
327.978074
 30
0.0
 10
613.332648
 20
328.020426
 30
0.0
 10
613.247963
 20
328.105130
 30
0.0
  0
SPLINE
  5
107
100
AcDbEntity
  8
Layer_1
 62
3
100
AcDbSpline
 70
8
 71
3
 72
8
 73
4
 74
0
 40
0
 40
0
 40
0
 40
0
 40
1
 40
1
 40
1
 40
1
 10
613.247963
 20
328.105130
 30
0.0
 10
613.168922
 20
328.184171
 30
0.0
 10
613.129401
 20
328.282968
 30
0.0
 10
613.129401
 20
328.401520
 30
0.0
  0
SPLINE
  5
108
100
AcDbEntity
  8
Layer_1
 62
3
100
AcDbSpline
 70
8
 71
3
 72
8
 73
4
 74
0
 40
0
 40
0
 40
0
 40
0
 40
1
 40
1
 40
1
 40
1
 10
613.129401
 20
328.401520
 30
0.0
 10
613.129401
 20
328.520091
 30
0.0
 10
613.168922
 20
328.621719
 30
0.0
 10
613.247963
 20
328.706404
 30
0.0
  0
SPLINE
  5
109
100
AcDbEntity
  8
Layer_1
 62
3
100
AcDbSpline
 70
8
 71
3
 72
8
 73
4
 74
0
 40
0
 40
0
 40
0
 40
0
 40
1
 40
1
 40
1
 40
1
 10
613.247963
 20
328.706404
 30
0.0
 10
613.332648
 20
328.785445
 30
0.0
 10
613.434277
 20
328.824966
 30
0.0
 10
613.552848
 20
328.824966
 30
0.0
  0
LINE
  5
10a
100
AcDbEntity
  8
Layer_1
 62
3
100
AcDbLine
 10
613.552848
 20
328.824966
 30
0.0
 11
614.823158
 21
328.824966
 31
0.0
  0
LINE
  5
10b
100
AcDbEntity
  8
Layer_1
 62
3
100
AcDbLine
 10
614.823158
 20
328.824966
 30
0.0
 11
614.823158
 21
331.365587
 31
0.0
  0
SPLINE
  5
10c
100
AcDbEntity
  8
Layer_1
 62
3
100
AcDbSpline
 70
8
 71
3
 72
8
 73
4
 74
0
 40
0
 40
0
 40
0
 40
0
 40
1
 40
1
 40
1
 40
1
 10
614.823158
 20
331.365587
 30
0.0
 10
614.823158
 20
331.512380
 30
0.0
 10
614.879621
 20
331.625297
 30
0.0
 10
614.992548
 20
331.704338
 30
0.0
  0
SPLINE
  5
10d
100
AcDbEntity
  8
Layer_1
 62
3
100
AcDbSpline
 70
8
 71
3
 72
8
 73
4
 74
0
 40
0
 40
0
 40
0
 40
0
 40
1
 40
1
 40
1
 40
1
 10
614.992548
 20
331.704338
 30
0.0
 10
615.099811
 20
331.789043
 30
0.0
 10
615.224017
 20
331.811630
 30
0.0
 10
615.365166
 20
331.772100
 30
0.0
  0
LINE
  5
10e
100
AcDbEntity
  8
Layer_1
 62
3
100
AcDbLine
 10
615.365166
 20
331.772100
 30
0.0
 11
621.293300
 21
330.078343
 31
0.0
  0
SPLINE
  5
10f
100
AcDbEntity
  8
Layer_1
 62
3
100
AcDbSpline
 70
8
 71
3
 72
8
 73
4
 74
0
 40
0
 40
0
 40
0
 40
0
 40
1
 40
1
 40
1
 40
1
 10
621.293300
 20
330.078343
 30
0.0
 10
621.406227
 20
330.050121
 30
0.0
 10
621.490922
 20
329.985191
 30
0.0
 10
621.547385
 20
329.883553
 30
0.0
  0
SPLINE
  5
110
100
AcDbEntity
  8
Layer_1
 62
3
100
AcDbSpline
 70
8
 71
3
 72
8
 73
4
 74
0
 40
0
 40
0
 40
0
 40
0
 40
1
 40
1
 40
1
 40
1
 10
621.547385
 20
329.883553
 30
0.0
 10
621.603829
 20
329.776290
 30
0.0
 10
621.615118
 20
329.666195
 30
0.0
 10
621.581252
 20
329.553269
 30
0.0
  0
SPLINE
  5
111
100
AcDbEntity
  8
Layer_1
 62
3
100
AcDbSpline
 70
8
 71
3
 72
8
 73
4
 74
0
 40
0
 40
0
 40
0
 40
0
 40
1
 40
1
 40
1
 40
1
 10
621.581252
 20
329.553269
 30
0.0
 10
621.547366
 20
329.440361
 30
0.0
 10
621.479614
 20
329.355676
 30
0.0
 10
621.377995
 20
329.299212
 30
0.0
  0
SPLINE
  5
112
100
AcDbEntity
  8
Layer_1
 62
3
100
AcDbSpline
 70
8
 71
3
 72
8
 73
4
 74
0
 40
0
 40
0
 40
0
 40
0
 40
1
 40
1
 40
1
 40
1
 10
621.377995
 20
329.299212
 30
0.0
 10
621.276376
 20
329.242749
 30
0.0
 10
621.169104
 20
329.231460
 30
0.0
 10
621.056177
 20
329.265346
 30
0.0
  0
LINE
  5
113
100
AcDbEntity
  8
Layer_1
 62
3
100
AcDbLine
 10
621.056177
 20
329.265346
 30
0.0
 11
615.670051
 21
330.806646
 31
0.0
  0
LINE
  5
114
100
AcDbEntity
  8
Layer_1
 62
3
100
AcDbLine
 10
615.670051
 20
330.806646
 30
0.0
 11
615.670051
 21
328.824966
 31
0.0
  0
LINE
  5
115
100
AcDbEntity
  8
Layer_1
 62
3
100
AcDbLine
 10
615.670051
 20
328.824966
 30
0.0
 11
616.940361
 21
328.824966
 31
0.0
  0
SPLINE
  5
116
100
AcDbEntity
  8
Layer_1
 62
3
100
AcDbSpline
 70
8
 71
3
 72
8
 73
4
 74
0
 40
0
 40
0
 40
0
 40
0
 40
1
 40
1
 40
1
 40
1
 10
616.940361
 20
328.824966
 30
0.0
 10
617.058913
 20
328.824966
 30
0.0
 10
617.157710
 20
328.785445
 30
0.0
 10
617.236751
 20
328.706404
 30
0.0
  0
SPLINE
  5
117
100
AcDbEntity
  8
Layer_1
 62
3
100
AcDbSpline
 70
8
 71
3
 72
8
 73
4
 74
0
 40
0
 40
0
 40
0
 40
0
 40
1
 40
1
 40
1
 40
1
 10
617.236751
 20
328.706404
 30
0.0
 10
617.321455
 20
328.621719
 30
0.0
 10
617.363807
 20
328.520091
 30
0.0
 10
617.363807
 20
328.401520
 30
0.0
  0
SPLINE
  5
118
100
AcDbEntity
  8
Layer_1
 62
3
100
AcDbSpline
 70
8
 71
3
 72
8
 73
4
 74
0
 40
0
 40
0
 40
0
 40
0
 40
1
 40
1
 40
1
 40
1
 10
617.363807
 20
328.401520
 30
0.0
 10
617.363807
 20
328.282968
 30
0.0
 10
617.321455
 20
328.184171
 30
0.0
 10
617.236751
 20
328.105130
 30
0.0
  0
SPLINE
  5
119
100
AcDbEntity
  8
Layer_1
 62
3
100
AcDbSpline
 70
8
 71
3
 72
8
 73
4
 74
0
 40
0
 40
0
 40
0
 40
0
 40
1
 40
1
 40
1
 40
1
 10
617.236751
 20
328.105130
 30
0.0
 10
617.157710
 20
328.020426
 30
0.0
 10
617.058913
 20
327.978074
 30
0.0
 10
616.940361
 20
327.978074
 30
0.0
  0
LINE
  5
11a
100
AcDbEntity
  8
Layer_1
 62
3
100
AcDbLine
 10
616.940361
 20
327.978074
 30
0.0
 11
615.670051
 21
327.978074
 31
0.0
  0
LINE
  5
11b
100
AcDbEntity
  8
Layer_1
 62
3
100
AcDbLine
 10
615.670051
 20
327.978074
 30
0.0
 11
615.670051
 21
327.131209
 31
0.0
  0
LINE
  5
11c
100
AcDbEntity
  8
Layer_1
 62
3
100
AcDbLine
 10
615.670051
 20
327.131209
 30
0.0
 11
615.670051
 21
327.131209
 31
0.0
  0
LINE
  5
11d
100
AcDbEntity
  8
Layer_1
 62
3
100
AcDbLine
 10
615.670051
 20
327.131209
 30
0.0
 11
615.670051
 21
327.131209
 31
0.0
  0
SPLINE
  5
11e
100
AcDbEntity
  8
Layer_1
 62
5
100
AcDbSpline
 70
8
 71
3
 72
8
 73
4
 74
0
 40
0
 40
0
 40
0
 40
0
 40
1
 40
1
 40
1
 40
1
 10
592.351524
 20
338.928381
 30
0.0
 10
586.760334
 20
338.928381
 30
0.0
 10
582.227761
 20
343.460954
 30
0.0
 10
582.227761
 20
349.052144
 30
0.0
  0
LINE
  5
11f
100
AcDbEntity
  8
Layer_1
 62
5
100
AcDbLine
 10
582.227761
 20
349.052144
 30
0.0
 11
582.125060
 21
363.326267
 31
0.0
  0
SPLINE
  5
120
100
AcDbEntity
  8
Layer_1
 62
5
100
AcDbSpline
 70
8
 71
3
 72
8
 73
4
 74
0
 40
0
 40
0
 40
0
 40
0
 40
1
 40
1
 40
1
 40
1
 10
582.125060
 20
363.326267
 30
0.0
 10
582.125060
 20
368.917456
 30
0.0
 10
586.657634
 20
373.450030
 30
0.0
 10
592.248823
 20
373.450030
 30
0.0
  0
SPLINE
  5
121
100
AcDbEntity
  8
Layer_1
 62
5
100
AcDbSpline
 70
8
 71
3
 72
8
 73
4
 74
0
 40
0
 40
0
 40
0
 40
0
 40
1
 40
1
 40
1
 40
1
 10
592.248823
 20
373.450030
 30
0.0
 10
594.204341
 20
373.450030
 30
0.0
 10
596.030347
 20
372.895604
 30
0.0
 10
597.543143
 20
371.998222
 30
0.0
  0
SPLINE
  5
122
100
AcDbEntity
  8
Layer_1
 62
5
100
AcDbSpline
 70
8
 71
3
 72
8
 73
4
 74
0
 40
0
 40
0
 40
0
 40
0
 40
1
 40
1
 40
1
 40
1
 10
597.543143
 20
371.998222
 30
0.0
 10
604.704842
 20
367.818991
 30
0.0
 10
610.738386
 20
361.813951
 30
0.0
 10
615.007647
 20
354.687868
 30
0.0
  0
SPLINE
  5
123
100
AcDbEntity
  8
Layer_1
 62
5
100
AcDbSpline
 70
8
 71
3
 72
8
 73
4
 74
0
 40
0
 40
0
 40
0
 40
0
 40
1
 40
1
 40
1
 40
1
 10
615.007647
 20
354.687868
 30
0.0
 10
615.978463
 20
353.178148
 30
0.0
 10
616.544036
 20
351.335237
 30
0.0
 10
616.544036
 20
349.360217
 30
0.0
  0
SPLINE
  5
124
100
AcDbEntity
  8
Layer_1
 62
5
100
AcDbSpline
 70
8
 71
3
 72
8
 73
4
 74
0
 40
0
 40
0
 40
0
 40
0
 40
1
 40
1
 40
1
 40
1
 10
616.544036
 20
349.360217
 30
0.0
 10
616.544036
 20
343.769028
 30
0.0
 10
612.011463
 20
339.236454
 30
0.0
 10
606.420245
 20
339.236454
 30
0.0
  0
LINE
  5
125
100
AcDbEntity
  8
Layer_1
 62
5
100
AcDbLine
 10
606.420245
 20
339.236454
 30
0.0
 11
592.351524
 21
338.928381
 31
0.0
  0
SPLINE
  5
126
100
AcDbEntity
  8
Layer_1
 62
5
100
AcDbSpline
 70
8
 71
3
 72
8
 73
4
 74
0
 40
0
 40
0
 40
0
 40
0
 40
1
 40
1
 40
1
 40
1
 10
582.073724
 20
309.105168
 30
0.0
 10
582.073724
 20
314.696357
 30
0.0
 10
586.606269
 20
319.228930
 30
0.0
 10
592.197487
 20
319.228930
 30
0.0
  0
LINE
  5
127
100
AcDbEntity
  8
Layer_1
 62
5
100
AcDbLine
 10
592.197487
 20
319.228930
 30
0.0
 11
606.471610
 21
319.331631
 31
0.0
  0
SPLINE
  5
128
100
AcDbEntity
  8
Layer_1
 62
5
100
AcDbSpline
 70
8
 71
3
 72
8
 73
4
 74
0
 40
0
 40
0
 40
0
 40
0
 40
1
 40
1
 40
1
 40
1
 10
606.471610
 20
319.331631
 30
0.0
 10
612.062799
 20
319.331631
 30
0.0
 10
616.595373
 20
314.799057
 30
0.0
 10
616.595373
 20
309.207840
 30
0.0
  0
SPLINE
  5
129
100
AcDbEntity
  8
Layer_1
 62
5
100
AcDbSpline
 70
8
 71
3
 72
8
 73
4
 74
0
 40
0
 40
0
 40
0
 40
0
 40
1
 40
1
 40
1
 40
1
 10
616.595373
 20
309.207840
 30
0.0
 10
616.595373
 20
307.252350
 30
0.0
 10
616.040919
 20
305.426344
 30
0.0
 10
615.143565
 20
303.913549
 30
0.0
  0
SPLINE
  5
12a
100
AcDbEntity
  8
Layer_1
 62
5
100
AcDbSpline
 70
8
 71
3
 72
8
 73
4
 74
0
 40
0
 40
0
 40
0
 40
0
 40
1
 40
1
 40
1
 40
1
 10
615.143565
 20
303.913549
 30
0.0
 10
610.964334
 20
296.751849
 30
0.0
 10
604.959294
 20
290.718305
 30
0.0
 10
597.833211
 20
286.449044
 30
0.0
  0
SPLINE
  5
12b
100
AcDbEntity
  8
Layer_1
 62
5
100
AcDbSpline
 70
8
 71
3
 72
8
 73
4
 74
0
 40
0
 40
0
 40
0
 40
0
 40
1
 40
1
 40
1
 40
1
 10
597.833211
 20
286.449044
 30
0.0
 10
596.323491
 20
285.478200
 30
0.0
 10
594.480552
 20
284.912655
 30
0.0
 10
592.505560
 20
284.912655
 30
0.0
  0
SPLINE
  5
12c
100
AcDbEntity
  8
Layer_1
 62
5
100
AcDbSpline
 70
8
 71
3
 72
8
 73
4
 74
0
 40
0
 40
0
 40
0
 40
0
 40
1
 40
1
 40
1
 40
1
 10
592.505560
 20
284.912655
 30
0.0
 10
586.914343
 20
284.912655
 30
0.0
 10
582.381798
 20
289.445228
 30
0.0
 10
582.381798
 20
295.036418
 30
0.0
  0
LINE
  5
12d
100
AcDbEntity
  8
Layer_1
 62
5
100
AcDbLine
 10
582.381798
 20
295.036418
 30
0.0
 11
582.073724
 21
309.105168
 31
0.0
  0
SPLINE
  5
12e
100
AcDbEntity
  8
Layer_1
 62
5
100
AcDbSpline
 70
8
 71
3
 72
8
 73
4
 74
0
 40
0
 40
0
 40
0
 40
0
 40
1
 40
1
 40
1
 40
1
 10
552.199146
 20
319.382967
 30
0.0
 10
557.790364
 20
319.382967
 30
0.0
 10
562.322909
 20
314.850394
 30
0.0
 10
562.322909
 20
309.259204
 30
0.0
  0
LINE
  5
12f
100
AcDbEntity
  8
Layer_1
 62
5
100
AcDbLine
 10
562.322909
 20
309.259204
 30
0.0
 11
562.425610
 21
294.985081
 31
0.0
  0
SPLINE
  5
130
100
AcDbEntity
  8
Layer_1
 62
5
100
AcDbSpline
 70
8
 71
3
 72
8
 73
4
 74
0
 40
0
 40
0
 40
0
 40
0
 40
1
 40
1
 40
1
 40
1
 10
562.425610
 20
294.985081
 30
0.0
 10
562.425610
 20
289.393892
 30
0.0
 10
557.893036
 20
284.861318
 30
0.0
 10
552.301847
 20
284.861318
 30
0.0
  0
SPLINE
  5
131
100
AcDbEntity
  8
Layer_1
 62
5
100
AcDbSpline
 70
8
 71
3
 72
8
 73
4
 74
0
 40
0
 40
0
 40
0
 40
0
 40
1
 40
1
 40
1
 40
1
 10
552.301847
 20
284.861318
 30
0.0
 10
550.346329
 20
284.861318
 30
0.0
 10
548.520323
 20
285.415744
 30
0.0
 10
547.007527
 20
286.313126
 30
0.0
  0
SPLINE
  5
132
100
AcDbEntity
  8
Layer_1
 62
5
100
AcDbSpline
 70
8
 71
3
 72
8
 73
4
 74
0
 40
0
 40
0
 40
0
 40
0
 40
1
 40
1
 40
1
 40
1
 10
547.007527
 20
286.313126
 30
0.0
 10
539.845828
 20
290.492358
 30
0.0
 10
533.812312
 20
296.497369
 30
0.0
 10
529.543023
 20
303.623481
 30
0.0
  0
SPLINE
  5
133
100
AcDbEntity
  8
Layer_1
 62
5
100
AcDbSpline
 70
8
 71
3
 72
8
 73
4
 74
0
 40
0
 40
0
 40
0
 40
0
 40
1
 40
1
 40
1
 40
1
 10
529.543023
 20
303.623481
 30
0.0
 10
528.572207
 20
305.133200
 30
0.0
 10
528.006662
 20
306.976111
 30
0.0
 10
528.006662
 20
308.951131
 30
0.0
  0
SPLINE
  5
134
100
AcDbEntity
  8
Layer_1
 62
5
100
AcDbSpline
 70
8
 71
3
 72
8
 73
4
 74
0
 40
0
 40
0
 40
0
 40
0
 40
1
 40
1
 40
1
 40
1
 10
528.006662
 20
308.951131
 30
0.0
 10
528.006662
 20
314.542320
 30
0.0
 10
532.539207
 20
319.074894
 30
0.0
 10
538.130424
 20
319.074894
 30
0.0
  0
LINE
  5
135
100
AcDbEntity
  8
Layer_1
 62
5
100
AcDbLine
 10
538.130424
 20
319.074894
 30
0.0
 11
552.199146
 21
319.382967
 31
0.0
  0
SPLINE
  5
136
100
AcDbEntity
  8
Layer_1
 62
5
100
AcDbSpline
 70
8
 71
3
 72
8
 73
4
 74
0
 40
0
 40
0
 40
0
 40
0
 40
1
 40
1
 40
1
 40
1
 10
562.476946
 20
349.360217
 30
0.0
 10
562.476946
 20
343.769028
 30
0.0
 10
557.944401
 20
339.236454
 30
0.0
 10
552.353183
 20
339.236454
 30
0.0
  0
LINE
  5
137
100
AcDbEntity
  8
Layer_1
 62
5
100
AcDbLine
 10
552.353183
 20
339.236454
 30
0.0
 11
538.079060
 21
339.133754
 31
0.0
  0
SPLINE
  5
138
100
AcDbEntity
  8
Layer_1
 62
5
100
AcDbSpline
 70
8
 71
3
 72
8
 73
4
 74
0
 40
0
 40
0
 40
0
 40
0
 40
1
 40
1
 40
1
 40
1
 10
538.079060
 20
339.133754
 30
0.0
 10
532.487871
 20
339.133754
 30
0.0
 10
527.955297
 20
343.666327
 30
0.0
 10
527.955297
 20
349.257517
 30
0.0
  0
SPLINE
  5
139
100
AcDbEntity
  8
Layer_1
 62
5
100
AcDbSpline
 70
8
 71
3
 72
8
 73
4
 74
0
 40
0
 40
0
 40
0
 40
0
 40
1
 40
1
 40
1
 40
1
 10
527.955297
 20
349.257517
 30
0.0
 10
527.955297
 20
351.213035
 30
0.0
 10
528.509751
 20
353.039041
 30
0.0
 10
529.407105
 20
354.551836
 30
0.0
  0
SPLINE
  5
13a
100
AcDbEntity
  8
Layer_1
 62
5
100
AcDbSpline
 70
8
 71
3
 72
8
 73
4
 74
0
 40
0
 40
0
 40
0
 40
0
 40
1
 40
1
 40
1
 40
1
 10
529.407105
 20
354.551836
 30
0.0
 10
533.586336
 20
361.713536
 30
0.0
 10
539.591376
 20
367.747080
 30
0.0
 10
546.717459
 20
372.016341
 30
0.0
  0
SPLINE
  5
13b
100
AcDbEntity
  8
Layer_1
 62
5
100
AcDbSpline
 70
8
 71
3
 72
8
 73
4
 74
0
 40
0
 40
0
 40
0
 40
0
 40
1
 40
1
 40
1
 40
1
 10
546.717459
 20
372.016341
 30
0.0
 10
548.227179
 20
372.987157
 30
0.0
 10
550.070118
 20
373.552730
 30
0.0
 10
552.045109
 20
373.552730
 30
0.0
  0
SPLINE
  5
13c
100
AcDbEntity
  8
Layer_1
 62
5
100
AcDbSpline
 70
8
 71
3
 72
8
 73
4
 74
0
 40
0
 40
0
 40
0
 40
0
 40
1
 40
1
 40
1
 40
1
 10
552.045109
 20
373.552730
 30
0.0
 10
557.636327
 20
373.552730
 30
0.0
 10
562.168872
 20
369.020157
 30
0.0
 10
562.168872
 20
363.428939
 30
0.0
  0
LINE
  5
13d
100
AcDbEntity
  8
Layer_1
 62
5
100
AcDbLine
 10
562.168872
 20
363.428939
 30
0.0
 11
562.476946
 21
349.360217
 31
0.0
  0
LINE
  5
13e
100
AcDbEntity
  8
Layer_1
 62
5
100
AcDbLine
 10
578.942017
 20
264.726089
 30
0.0
 11
579.320110
 21
261.038347
 31
0.0
  0
LINE
  5
13f
100
AcDbEntity
  8
Layer_1
 62
5
100
AcDbLine
 10
579.320110
 20
261.038347
 30
0.0
 11
578.686295
 21
256.557928
 31
0.0
  0
LINE
  5
140
100
AcDbEntity
  8
Layer_1
 62
5
100
AcDbLine
 10
578.686295
 20
256.557928
 30
0.0
 11
575.089486
 21
248.219757
 31
0.0
  0
LINE
  5
141
100
AcDbEntity
  8
Layer_1
 62
5
100
AcDbLine
 10
575.089486
 20
248.219757
 30
0.0
 11
569.563885
 21
248.219757
 31
0.0
  0
LINE
  5
142
100
AcDbEntity
  8
Layer_1
 62
5
100
AcDbLine
 10
569.563885
 20
248.219757
 30
0.0
 11
565.967075
 21
256.557928
 31
0.0
  0
LINE
  5
143
100
AcDbEntity
  8
Layer_1
 62
5
100
AcDbLine
 10
565.967075
 20
256.557928
 30
0.0
 11
565.333232
 21
261.038347
 31
0.0
  0
LINE
  5
144
100
AcDbEntity
  8
Layer_1
 62
5
100
AcDbLine
 10
565.333232
 20
261.038347
 30
0.0
 11
565.711326
 21
264.726089
 31
0.0
  0
LINE
  5
145
100
AcDbEntity
  8
Layer_1
 62
5
100
AcDbLine
 10
565.711326
 20
264.726089
 30
0.0
 11
556.475095
 21
266.354680
 31
0.0
  0
LINE
  5
146
100
AcDbEntity
  8
Layer_1
 62
5
100
AcDbLine
 10
556.475095
 20
266.354680
 30
0.0
 11
555.569134
 21
262.760044
 31
0.0
  0
LINE
  5
147
100
AcDbEntity
  8
Layer_1
 62
5
100
AcDbLine
 10
555.569134
 20
262.760044
 30
0.0
 11
553.441122
 21
258.766600
 31
0.0
  0
LINE
  5
148
100
AcDbEntity
  8
Layer_1
 62
5
100
AcDbLine
 10
553.441122
 20
258.766600
 30
0.0
 11
547.209401
 21
252.161471
 31
0.0
  0
LINE
  5
149
100
AcDbEntity
  8
Layer_1
 62
5
100
AcDbLine
 10
547.209401
 20
252.161471
 30
0.0
 11
542.017048
 21
254.051315
 31
0.0
  0
LINE
  5
14a
100
AcDbEntity
  8
Layer_1
 62
5
100
AcDbLine
 10
542.017048
 20
254.051315
 30
0.0
 11
541.488982
 21
263.116801
 31
0.0
  0
LINE
  5
14b
100
AcDbEntity
  8
Layer_1
 62
5
100
AcDbLine
 10
541.488982
 20
263.116801
 30
0.0
 11
542.425762
 21
267.543824
 31
0.0
  0
LINE
  5
14c
100
AcDbEntity
  8
Layer_1
 62
5
100
AcDbLine
 10
542.425762
 20
267.543824
 30
0.0
 11
544.042331
 21
270.879832
 31
0.0
  0
LINE
  5
14d
100
AcDbEntity
  8
Layer_1
 62
5
100
AcDbLine
 10
544.042331
 20
270.879832
 30
0.0
 11
535.920116
 21
275.569208
 31
0.0
  0
LINE
  5
14e
100
AcDbEntity
  8
Layer_1
 62
5
100
AcDbLine
 10
535.920116
 20
275.569208
 30
0.0
 11
533.839320
 21
272.501198
 31
0.0
  0
LINE
  5
14f
100
AcDbEntity
  8
Layer_1
 62
5
100
AcDbLine
 10
533.839320
 20
272.501198
 30
0.0
 11
530.473820
 21
269.476425
 31
0.0
  0
LINE
  5
150
100
AcDbEntity
  8
Layer_1
 62
5
100
AcDbLine
 10
530.473820
 20
269.476425
 30
0.0
 11
522.358830
 21
265.400995
 31
0.0
  0
LINE
  5
151
100
AcDbEntity
  8
Layer_1
 62
5
100
AcDbLine
 10
522.358830
 20
265.400995
 30
0.0
 11
518.126005
 21
268.952762
 31
0.0
  0
LINE
  5
152
100
AcDbEntity
  8
Layer_1
 62
5
100
AcDbLine
 10
518.126005
 20
268.952762
 30
0.0
 11
520.730352
 21
277.652149
 31
0.0
  0
LINE
  5
153
100
AcDbEntity
  8
Layer_1
 62
5
100
AcDbLine
 10
520.730352
 20
277.652149
 30
0.0
 11
523.124753
 21
281.491783
 31
0.0
  0
LINE
  5
154
100
AcDbEntity
  8
Layer_1
 62
5
100
AcDbLine
 10
523.124753
 20
281.491783
 30
0.0
 11
525.784811
 21
284.073721
 31
0.0
  0
LINE
  5
155
100
AcDbEntity
  8
Layer_1
 62
5
100
AcDbLine
 10
525.784811
 20
284.073721
 30
0.0
 11
519.756318
 21
291.258224
 31
0.0
  0
LINE
  5
156
100
AcDbEntity
  8
Layer_1
 62
5
100
AcDbLine
 10
519.756318
 20
291.258224
 30
0.0
 11
516.751696
 21
289.086919
 31
0.0
  0
LINE
  5
157
100
AcDbEntity
  8
Layer_1
 62
5
100
AcDbLine
 10
516.751696
 20
289.086919
 30
0.0
 11
512.554599
 21
287.395646
 31
0.0
  0
LINE
  5
158
100
AcDbEntity
  8
Layer_1
 62
5
100
AcDbLine
 10
512.554599
 20
287.395646
 30
0.0
 11
503.535144
 21
286.341489
 31
0.0
  0
LINE
  5
159
100
AcDbEntity
  8
Layer_1
 62
5
100
AcDbLine
 10
503.535144
 20
286.341489
 30
0.0
 11
500.772358
 21
291.126765
 31
0.0
  0
LINE
  5
15a
100
AcDbEntity
  8
Layer_1
 62
5
100
AcDbLine
 10
500.772358
 20
291.126765
 30
0.0
 11
506.195004
 21
298.410779
 31
0.0
  0
LINE
  5
15b
100
AcDbEntity
  8
Layer_1
 62
5
100
AcDbLine
 10
506.195004
 20
298.410779
 30
0.0
 11
509.758257
 21
301.199925
 31
0.0
  0
LINE
  5
15c
100
AcDbEntity
  8
Layer_1
 62
5
100
AcDbLine
 10
509.758257
 20
301.199925
 30
0.0
 11
513.140973
 21
302.716334
 31
0.0
  0
LINE
  5
15d
100
AcDbEntity
  8
Layer_1
 62
5
100
AcDbLine
 10
513.140973
 20
302.716334
 30
0.0
 11
509.933263
 21
311.529456
 31
0.0
  0
LINE
  5
15e
100
AcDbEntity
  8
Layer_1
 62
5
100
AcDbLine
 10
509.933263
 20
311.529456
 30
0.0
 11
506.367216
 21
310.516730
 31
0.0
  0
LINE
  5
15f
100
AcDbEntity
  8
Layer_1
 62
5
100
AcDbLine
 10
506.367216
 20
310.516730
 30
0.0
 11
501.844774
 21
310.362919
 31
0.0
  0
LINE
  5
160
100
AcDbEntity
  8
Layer_1
 62
5
100
AcDbLine
 10
501.844774
 20
310.362919
 30
0.0
 11
493.008706
 21
312.457177
 31
0.0
  0
LINE
  5
161
100
AcDbEntity
  8
Layer_1
 62
5
100
AcDbLine
 10
493.008706
 20
312.457177
 30
0.0
 11
492.049207
 21
317.898817
 31
0.0
  0
LINE
  5
162
100
AcDbEntity
  8
Layer_1
 62
5
100
AcDbLine
 10
492.049207
 20
317.898817
 30
0.0
 11
499.636103
 21
322.888901
 31
0.0
  0
LINE
  5
163
100
AcDbEntity
  8
Layer_1
 62
5
100
AcDbLine
 10
499.636103
 20
322.888901
 30
0.0
 11
503.938411
 21
324.291122
 31
0.0
  0
LINE
  5
164
100
AcDbEntity
  8
Layer_1
 62
5
100
AcDbLine
 10
503.938411
 20
324.291122
 30
0.0
 11
507.635776
 21
324.559149
 31
0.0
  0
LINE
  5
165
100
AcDbEntity
  8
Layer_1
 62
5
100
AcDbLine
 10
507.635776
 20
324.559149
 30
0.0
 11
507.635776
 21
333.937845
 31
0.0
  0
LINE
  5
166
100
AcDbEntity
  8
Layer_1
 62
5
100
AcDbLine
 10
507.635776
 20
333.937845
 30
0.0
 11
503.938411
 21
334.205871
 31
0.0
  0
LINE
  5
167
100
AcDbEntity
  8
Layer_1
 62
5
100
AcDbLine
 10
503.938411
 20
334.205871
 30
0.0
 11
499.636103
 21
335.608093
 31
0.0
  0
LINE
  5
168
100
AcDbEntity
  8
Layer_1
 62
5
100
AcDbLine
 10
499.636103
 20
335.608093
 30
0.0
 11
492.049207
 21
340.598177
 31
0.0
  0
LINE
  5
169
100
AcDbEntity
  8
Layer_1
 62
5
100
AcDbLine
 10
492.049207
 20
340.598177
 30
0.0
 11
493.008706
 21
346.039816
 31
0.0
  0
LINE
  5
16a
100
AcDbEntity
  8
Layer_1
 62
5
100
AcDbLine
 10
493.008706
 20
346.039816
 30
0.0
 11
501.844774
 21
348.134075
 31
0.0
  0
LINE
  5
16b
100
AcDbEntity
  8
Layer_1
 62
5
100
AcDbLine
 10
501.844774
 20
348.134075
 30
0.0
 11
506.367216
 21
347.980264
 31
0.0
  0
LINE
  5
16c
100
AcDbEntity
  8
Layer_1
 62
5
100
AcDbLine
 10
506.367216
 20
347.980264
 30
0.0
 11
509.933263
 21
346.967537
 31
0.0
  0
LINE
  5
16d
100
AcDbEntity
  8
Layer_1
 62
5
100
AcDbLine
 10
509.933263
 20
346.967537
 30
0.0
 11
513.140973
 21
355.780660
 31
0.0
  0
LINE
  5
16e
100
AcDbEntity
  8
Layer_1
 62
5
100
AcDbLine
 10
513.140973
 20
355.780660
 30
0.0
 11
509.758257
 21
357.297068
 31
0.0
  0
LINE
  5
16f
100
AcDbEntity
  8
Layer_1
 62
5
100
AcDbLine
 10
509.758257
 20
357.297068
 30
0.0
 11
506.195004
 21
360.086214
 31
0.0
  0
LINE
  5
170
100
AcDbEntity
  8
Layer_1
 62
5
100
AcDbLine
 10
506.195004
 20
360.086214
 30
0.0
 11
500.772358
 21
367.370229
 31
0.0
  0
LINE
  5
171
100
AcDbEntity
  8
Layer_1
 62
5
100
AcDbLine
 10
500.772358
 20
367.370229
 30
0.0
 11
503.535144
 21
372.155504
 31
0.0
  0
LINE
  5
172
100
AcDbEntity
  8
Layer_1
 62
5
100
AcDbLine
 10
503.535144
 20
372.155504
 30
0.0
 11
512.554599
 21
371.101348
 31
0.0
  0
LINE
  5
173
100
AcDbEntity
  8
Layer_1
 62
5
100
AcDbLine
 10
512.554599
 20
371.101348
 30
0.0
 11
516.751696
 21
369.410075
 31
0.0
  0
LINE
  5
174
100
AcDbEntity
  8
Layer_1
 62
5
100
AcDbLine
 10
516.751696
 20
369.410075
 30
0.0
 11
519.756318
 21
367.238770
 31
0.0
  0
LINE
  5
175
100
AcDbEntity
  8
Layer_1
 62
5
100
AcDbLine
 10
519.756318
 20
367.238770
 30
0.0
 11
525.784811
 21
374.423273
 31
0.0
  0
LINE
  5
176
100
AcDbEntity
  8
Layer_1
 62
5
100
AcDbLine
 10
525.784811
 20
374.423273
 30
0.0
 11
523.124753
 21
377.005211
 31
0.0
  0
LINE
  5
177
100
AcDbEntity
  8
Layer_1
 62
5
100
AcDbLine
 10
523.124753
 20
377.005211
 30
0.0
 11
520.730352
 21
380.844845
 31
0.0
  0
LINE
  5
178
100
AcDbEntity
  8
Layer_1
 62
5
100
AcDbLine
 10
520.730352
 20
380.844845
 30
0.0
 11
518.126005
 21
389.544232
 31
0.0
  0
LINE
  5
179
100
AcDbEntity
  8
Layer_1
 62
5
100
AcDbLine
 10
518.126005
 20
389.544232
 30
0.0
 11
522.358830
 21
393.095999
 31
0.0
  0
LINE
  5
17a
100
AcDbEntity
  8
Layer_1
 62
5
100
AcDbLine
 10
522.358830
 20
393.095999
 30
0.0
 11
530.473820
 21
389.020569
 31
0.0
  0
LINE
  5
17b
100
AcDbEntity
  8
Layer_1
 62
5
100
AcDbLine
 10
530.473820
 20
389.020569
 30
0.0
 11
533.839320
 21
385.995795
 31
0.0
  0
LINE
  5
17c
100
AcDbEntity
  8
Layer_1
 62
5
100
AcDbLine
 10
533.839320
 20
385.995795
 30
0.0
 11
535.920116
 21
382.927786
 31
0.0
  0
LINE
  5
17d
100
AcDbEntity
  8
Layer_1
 62
5
100
AcDbLine
 10
535.920116
 20
382.927786
 30
0.0
 11
544.042331
 21
387.617162
 31
0.0
  0
LINE
  5
17e
100
AcDbEntity
  8
Layer_1
 62
5
100
AcDbLine
 10
544.042331
 20
387.617162
 30
0.0
 11
542.425762
 21
390.953170
 31
0.0
  0
LINE
  5
17f
100
AcDbEntity
  8
Layer_1
 62
5
100
AcDbLine
 10
542.425762
 20
390.953170
 30
0.0
 11
541.488982
 21
395.380193
 31
0.0
  0
LINE
  5
180
100
AcDbEntity
  8
Layer_1
 62
5
100
AcDbLine
 10
541.488982
 20
395.380193
 30
0.0
 11
542.017048
 21
404.445679
 31
0.0
  0
LINE
  5
181
100
AcDbEntity
  8
Layer_1
 62
5
100
AcDbLine
 10
542.017048
 20
404.445679
 30
0.0
 11
547.209401
 21
406.335523
 31
0.0
  0
LINE
  5
182
100
AcDbEntity
  8
Layer_1
 62
5
100
AcDbLine
 10
547.209401
 20
406.335523
 30
0.0
 11
553.441122
 21
399.730394
 31
0.0
  0
LINE
  5
183
100
AcDbEntity
  8
Layer_1
 62
5
100
AcDbLine
 10
553.441122
 20
399.730394
 30
0.0
 11
555.569134
 21
395.736950
 31
0.0
  0
LINE
  5
184
100
AcDbEntity
  8
Layer_1
 62
5
100
AcDbLine
 10
555.569134
 20
395.736950
 30
0.0
 11
556.475095
 21
392.142313
 31
0.0
  0
LINE
  5
185
100
AcDbEntity
  8
Layer_1
 62
5
100
AcDbLine
 10
556.475095
 20
392.142313
 30
0.0
 11
565.711326
 21
393.770905
 31
0.0
  0
LINE
  5
186
100
AcDbEntity
  8
Layer_1
 62
5
100
AcDbLine
 10
565.711326
 20
393.770905
 30
0.0
 11
565.333232
 21
397.458646
 31
0.0
  0
LINE
  5
187
100
AcDbEntity
  8
Layer_1
 62
5
100
AcDbLine
 10
565.333232
 20
397.458646
 30
0.0
 11
565.967075
 21
401.939065
 31
0.0
  0
LINE
  5
188
100
AcDbEntity
  8
Layer_1
 62
5
100
AcDbLine
 10
565.967075
 20
401.939065
 30
0.0
 11
569.563885
 21
410.277236
 31
0.0
  0
LINE
  5
189
100
AcDbEntity
  8
Layer_1
 62
5
100
AcDbLine
 10
569.563885
 20
410.277236
 30
0.0
 11
575.089486
 21
410.277236
 31
0.0
  0
LINE
  5
18a
100
AcDbEntity
  8
Layer_1
 62
5
100
AcDbLine
 10
575.089486
 20
410.277236
 30
0.0
 11
578.686295
 21
401.939065
 31
0.0
  0
LINE
  5
18b
100
AcDbEntity
  8
Layer_1
 62
5
100
AcDbLine
 10
578.686295
 20
401.939065
 30
0.0
 11
579.320110
 21
397.458646
 31
0.0
  0
LINE
  5
18c
100
AcDbEntity
  8
Layer_1
 62
5
100
AcDbLine
 10
579.320110
 20
397.458646
 30
0.0
 11
578.942017
 21
393.770905
 31
0.0
  0
LINE
  5
18d
100
AcDbEntity
  8
Layer_1
 62
5
100
AcDbLine
 10
578.942017
 20
393.770905
 30
0.0
 11
588.178247
 21
392.142313
 31
0.0
  0
LINE
  5
18e
100
AcDbEntity
  8
Layer_1
 62
5
100
AcDbLine
 10
588.178247
 20
392.142313
 30
0.0
 11
589.084237
 21
395.736950
 31
0.0
  0
LINE
  5
18f
100
AcDbEntity
  8
Layer_1
 62
5
100
AcDbLine
 10
589.084237
 20
395.736950
 30
0.0
 11
591.212249
 21
399.730394
 31
0.0
  0
LINE
  5
190
100
AcDbEntity
  8
Layer_1
 62
5
100
AcDbLine
 10
591.212249
 20
399.730394
 30
0.0
 11
597.443970
 21
406.335523
 31
0.0
  0
LINE
  5
191
100
AcDbEntity
  8
Layer_1
 62
5
100
AcDbLine
 10
597.443970
 20
406.335523
 30
0.0
 11
602.636323
 21
404.445679
 31
0.0
  0
LINE
  5
192
100
AcDbEntity
  8
Layer_1
 62
5
100
AcDbLine
 10
602.636323
 20
404.445679
 30
0.0
 11
603.164389
 21
395.380193
 31
0.0
  0
LINE
  5
193
100
AcDbEntity
  8
Layer_1
 62
5
100
AcDbLine
 10
603.164389
 20
395.380193
 30
0.0
 11
602.227608
 21
390.953170
 31
0.0
  0
LINE
  5
194
100
AcDbEntity
  8
Layer_1
 62
5
100
AcDbLine
 10
602.227608
 20
390.953170
 30
0.0
 11
600.611039
 21
387.617162
 31
0.0
  0
LINE
  5
195
100
AcDbEntity
  8
Layer_1
 62
5
100
AcDbLine
 10
600.611039
 20
387.617162
 30
0.0
 11
608.733254
 21
382.927786
 31
0.0
  0
LINE
  5
196
100
AcDbEntity
  8
Layer_1
 62
5
100
AcDbLine
 10
608.733254
 20
382.927786
 30
0.0
 11
610.814022
 21
385.995795
 31
0.0
  0
LINE
  5
197
100
AcDbEntity
  8
Layer_1
 62
5
100
AcDbLine
 10
610.814022
 20
385.995795
 30
0.0
 11
614.179550
 21
389.020569
 31
0.0
  0
LINE
  5
198
100
AcDbEntity
  8
Layer_1
 62
5
100
AcDbLine
 10
614.179550
 20
389.020569
 30
0.0
 11
622.294540
 21
393.095999
 31
0.0
  0
LINE
  5
199
100
AcDbEntity
  8
Layer_1
 62
5
100
AcDbLine
 10
622.294540
 20
393.095999
 30
0.0
 11
626.527366
 21
389.544232
 31
0.0
  0
LINE
  5
19a
100
AcDbEntity
  8
Layer_1
 62
5
100
AcDbLine
 10
626.527366
 20
389.544232
 30
0.0
 11
623.923019
 21
380.844845
 31
0.0
  0
LINE
  5
19b
100
AcDbEntity
  8
Layer_1
 62
5
100
AcDbLine
 10
623.923019
 20
380.844845
 30
0.0
 11
621.528617
 21
377.005211
 31
0.0
  0
LINE
  5
19c
100
AcDbEntity
  8
Layer_1
 62
5
100
AcDbLine
 10
621.528617
 20
377.005211
 30
0.0
 11
618.868532
 21
374.423273
 31
0.0
  0
LINE
  5
19d
100
AcDbEntity
  8
Layer_1
 62
5
100
AcDbLine
 10
618.868532
 20
374.423273
 30
0.0
 11
624.897052
 21
367.238770
 31
0.0
  0
LINE
  5
19e
100
AcDbEntity
  8
Layer_1
 62
5
100
AcDbLine
 10
624.897052
 20
367.238770
 30
0.0
 11
627.901675
 21
369.410075
 31
0.0
  0
LINE
  5
19f
100
AcDbEntity
  8
Layer_1
 62
5
100
AcDbLine
 10
627.901675
 20
369.410075
 30
0.0
 11
632.098771
 21
371.101348
 31
0.0
  0
LINE
  5
1a0
100
AcDbEntity
  8
Layer_1
 62
5
100
AcDbLine
 10
632.098771
 20
371.101348
 30
0.0
 11
641.118227
 21
372.155504
 31
0.0
  0
LINE
  5
1a1
100
AcDbEntity
  8
Layer_1
 62
5
100
AcDbLine
 10
641.118227
 20
372.155504
 30
0.0
 11
643.881013
 21
367.370229
 31
0.0
  0
LINE
  5
1a2
100
AcDbEntity
  8
Layer_1
 62
5
100
AcDbLine
 10
643.881013
 20
367.370229
 30
0.0
 11
638.458367
 21
360.086214
 31
0.0
  0
LINE
  5
1a3
100
AcDbEntity
  8
Layer_1
 62
5
100
AcDbLine
 10
638.458367
 20
360.086214
 30
0.0
 11
634.895114
 21
357.297068
 31
0.0
  0
LINE
  5
1a4
100
AcDbEntity
  8
Layer_1
 62
5
100
AcDbLine
 10
634.895114
 20
357.297068
 30
0.0
 11
631.512398
 21
355.780660
 31
0.0
  0
LINE
  5
1a5
100
AcDbEntity
  8
Layer_1
 62
5
100
AcDbLine
 10
631.512398
 20
355.780660
 30
0.0
 11
634.720108
 21
346.967537
 31
0.0
  0
LINE
  5
1a6
100
AcDbEntity
  8
Layer_1
 62
5
100
AcDbLine
 10
634.720108
 20
346.967537
 30
0.0
 11
638.286155
 21
347.980264
 31
0.0
  0
LINE
  5
1a7
100
AcDbEntity
  8
Layer_1
 62
5
100
AcDbLine
 10
638.286155
 20
347.980264
 30
0.0
 11
642.808597
 21
348.134075
 31
0.0
  0
LINE
  5
1a8
100
AcDbEntity
  8
Layer_1
 62
5
100
AcDbLine
 10
642.808597
 20
348.134075
 30
0.0
 11
651.644664
 21
346.039816
 31
0.0
  0
LINE
  5
1a9
100
AcDbEntity
  8
Layer_1
 62
5
100
AcDbLine
 10
651.644664
 20
346.039816
 30
0.0
 11
652.604163
 21
340.598177
 31
0.0
  0
LINE
  5
1aa
100
AcDbEntity
  8
Layer_1
 62
5
100
AcDbLine
 10
652.604163
 20
340.598177
 30
0.0
 11
645.017268
 21
335.608093
 31
0.0
  0
LINE
  5
1ab
100
AcDbEntity
  8
Layer_1
 62
5
100
AcDbLine
 10
645.017268
 20
335.608093
 30
0.0
 11
640.714959
 21
334.205871
 31
0.0
  0
LINE
  5
1ac
100
AcDbEntity
  8
Layer_1
 62
5
100
AcDbLine
 10
640.714959
 20
334.205871
 30
0.0
 11
637.017594
 21
333.937845
 31
0.0
  0
LINE
  5
1ad
100
AcDbEntity
  8
Layer_1
 62
5
100
AcDbLine
 10
637.017594
 20
333.937845
 30
0.0
 11
637.017594
 21
324.559149
 31
0.0
  0
LINE
  5
1ae
100
AcDbEntity
  8
Layer_1
 62
5
100
AcDbLine
 10
637.017594
 20
324.559149
 30
0.0
 11
640.714959
 21
324.291122
 31
0.0
  0
LINE
  5
1af
100
AcDbEntity
  8
Layer_1
 62
5
100
AcDbLine
 10
640.714959
 20
324.291122
 30
0.0
 11
645.017268
 21
322.888901
 31
0.0
  0
LINE
  5
1b0
100
AcDbEntity
  8
Layer_1
 62
5
100
AcDbLine
 10
645.017268
 20
322.888901
 30
0.0
 11
652.604163
 21
317.898817
 31
0.0
  0
LINE
  5
1b1
100
AcDbEntity
  8
Layer_1
 62
5
100
AcDbLine
 10
652.604163
 20
317.898817
 30
0.0
 11
651.644664
 21
312.457177
 31
0.0
  0
LINE
  5
1b2
100
AcDbEntity
  8
Layer_1
 62
5
100
AcDbLine
 10
651.644664
 20
312.457177
 30
0.0
 11
642.808597
 21
310.362919
 31
0.0
  0
LINE
  5
1b3
100
AcDbEntity
  8
Layer_1
 62
5
100
AcDbLine
 10
642.808597
 20
310.362919
 30
0.0
 11
638.286155
 21
310.516730
 31
0.0
  0
LINE
  5
1b4
100
AcDbEntity
  8
Layer_1
 62
5
100
AcDbLine
 10
638.286155
 20
310.516730
 30
0.0
 11
634.720108
 21
311.529456
 31
0.0
  0
LINE
  5
1b5
100
AcDbEntity
  8
Layer_1
 62
5
100
AcDbLine
 10
634.720108
 20
311.529456
 30
0.0
 11
631.512398
 21
302.716334
 31
0.0
  0
LINE
  5
1b6
100
AcDbEntity
  8
Layer_1
 62
5
100
AcDbLine
 10
631.512398
 20
302.716334
 30
0.0
 11
634.895114
 21
301.199925
 31
0.0
  0
LINE
  5
1b7
100
AcDbEntity
  8
Layer_1
 62
5
100
AcDbLine
 10
634.895114
 20
301.199925
 30
0.0
 11
638.458367
 21
298.410779
 31
0.0
  0
LINE
  5
1b8
100
AcDbEntity
  8
Layer_1
 62
5
100
AcDbLine
 10
638.458367
 20
298.410779
 30
0.0
 11
643.881013
 21
291.126765
 31
0.0
  0
LINE
  5
1b9
100
AcDbEntity
  8
Layer_1
 62
5
100
AcDbLine
 10
643.881013
 20
291.126765
 30
0.0
 11
641.118227
 21
286.341489
 31
0.0
  0
LINE
  5
1ba
100
AcDbEntity
  8
Layer_1
 62
5
100
AcDbLine
 10
641.118227
 20
286.341489
 30
0.0
 11
632.098771
 21
287.395646
 31
0.0
  0
LINE
  5
1bb
100
AcDbEntity
  8
Layer_1
 62
5
100
AcDbLine
 10
632.098771
 20
287.395646
 30
0.0
 11
627.901675
 21
289.086919
 31
0.0
  0
LINE
  5
1bc
100
AcDbEntity
  8
Layer_1
 62
5
100
AcDbLine
 10
627.901675
 20
289.086919
 30
0.0
 11
624.897052
 21
291.258224
 31
0.0
  0
LINE
  5
1bd
100
AcDbEntity
  8
Layer_1
 62
5
100
AcDbLine
 10
624.897052
 20
291.258224
 30
0.0
 11
618.868532
 21
284.073721
 31
0.0
  0
LINE
  5
1be
100
AcDbEntity
  8
Layer_1
 62
5
100
AcDbLine
 10
618.868532
 20
284.073721
 30
0.0
 11
621.528617
 21
281.491783
 31
0.0
  0
LINE
  5
1bf
100
AcDbEntity
  8
Layer_1
 62
5
100
AcDbLine
 10
621.528617
 20
281.491783
 30
0.0
 11
623.923019
 21
277.652149
 31
0.0
  0
LINE
  5
1c0
100
AcDbEntity
  8
Layer_1
 62
5
100
AcDbLine
 10
623.923019
 20
277.652149
 30
0.0
 11
626.527366
 21
268.952762
 31
0.0
  0
LINE
  5
1c1
100
AcDbEntity
  8
Layer_1
 62
5
100
AcDbLine
 10
626.527366
 20
268.952762
 30
0.0
 11
622.294540
 21
265.400995
 31
0.0
  0
LINE
  5
1c2
100
AcDbEntity
  8
Layer_1
 62
5
100
AcDbLine
 10
622.294540
 20
265.400995
 30
0.0
 11
614.179550
 21
269.476425
 31
0.0
  0
LINE
  5
1c3
100
AcDbEntity
  8
Layer_1
 62
5
100
AcDbLine
 10
614.179550
 20
269.476425
 30
0.0
 11
610.814022
 21
272.501198
 31
0.0
  0
LINE
  5
1c4
100
AcDbEntity
  8
Layer_1
 62
5
100
AcDbLine
 10
610.814022
 20
272.501198
 30
0.0
 11
608.733254
 21
275.569208
 31
0.0
  0
LINE
  5
1c5
100
AcDbEntity
  8
Layer_1
 62
5
100
AcDbLine
 10
608.733254
 20
275.569208
 30
0.0
 11
600.611039
 21
270.879832
 31
0.0
  0
LINE
  5
1c6
100
AcDbEntity
  8
Layer_1
 62
5
100
AcDbLine
 10
600.611039
 20
270.879832
 30
0.0
 11
602.227608
 21
267.543824
 31
0.0
  0
LINE
  5
1c7
100
AcDbEntity
  8
Layer_1
 62
5
100
AcDbLine
 10
602.227608
 20
267.543824
 30
0.0
 11
603.164389
 21
263.116801
 31
0.0
  0
LINE
  5
1c8
100
AcDbEntity
  8
Layer_1
 62
5
100
AcDbLine
 10
603.164389
 20
263.116801
 30
0.0
 11
602.636323
 21
254.051315
 31
0.0
  0
LINE
  5
1c9
100
AcDbEntity
  8
Layer_1
 62
5
100
AcDbLine
 10
602.636323
 20
254.051315
 30
0.0
 11
597.443970
 21
252.161471
 31
0.0
  0
LINE
  5
1ca
100
AcDbEntity
  8
Layer_1
 62
5
100
AcDbLine
 10
597.443970
 20
252.161471
 30
0.0
 11
591.212249
 21
258.766600
 31
0.0
  0
LINE
  5
1cb
100
AcDbEntity
  8
Layer_1
 62
5
100
AcDbLine
 10
591.212249
 20
258.766600
 30
0.0
 11
589.084237
 21
262.760044
 31
0.0
  0
LINE
  5
1cc
100
AcDbEntity
  8
Layer_1
 62
5
100
AcDbLine
 10
589.084237
 20
262.760044
 30
0.0
 11
588.178247
 21
266.354680
 31
0.0
  0
LINE
  5
1cd
100
AcDbEntity
  8
Layer_1
 62
5
100
AcDbLine
 10
588.178247
 20
266.354680
 30
0.0
 11
578.942017
 21
264.726089
 31
0.0
  0
LINE
  5
1ce
100
AcDbEntity
  8
Layer_1
 62
1
100
AcDbLine
 10
570.828026
 20
342.910955
 30
0.0
 11
570.828026
 21
330.749493
 31
0.0
  0
LINE
  5
1cf
100
AcDbEntity
  8
Layer_1
 62
1
100
AcDbLine
 10
570.828026
 20
330.749493
 30
0.0
 11
558.664360
 21
330.749493
 31
0.0
  0
LINE
  5
1d0
100
AcDbEntity
  8
Layer_1
 62
1
100
AcDbLine
 10
558.664360
 20
330.749493
 30
0.0
 11
558.664360
 21
327.749779
 31
0.0
  0
LINE
  5
1d1
100
AcDbEntity
  8
Layer_1
 62
1
100
AcDbLine
 10
558.664360
 20
327.749779
 30
0.0
 11
570.828026
 21
327.749779
 31
0.0
  0
LINE
  5
1d2
100
AcDbEntity
  8
Layer_1
 62
1
100
AcDbLine
 10
570.828026
 20
327.749779
 30
0.0
 11
570.828026
 21
327.465352
 31
0.0
  0
LINE
  5
1d3
100
AcDbEntity
  8
Layer_1
 62
1
100
AcDbLine
 10
570.828026
 20
327.465352
 30
0.0
 11
570.828026
 21
315.586663
 31
0.0
  0
LINE
  5
1d4
100
AcDbEntity
  8
Layer_1
 62
1
100
AcDbLine
 10
570.828026
 20
315.586663
 30
0.0
 11
573.827737
 21
315.586663
 31
0.0
  0
LINE
  5
1d5
100
AcDbEntity
  8
Layer_1
 62
1
100
AcDbLine
 10
573.827737
 20
315.586663
 30
0.0
 11
573.827737
 21
327.465352
 31
0.0
  0
LINE
  5
1d6
100
AcDbEntity
  8
Layer_1
 62
1
100
AcDbLine
 10
573.827737
 20
327.465352
 30
0.0
 11
573.827737
 21
327.749779
 31
0.0
  0
LINE
  5
1d7
100
AcDbEntity
  8
Layer_1
 62
1
100
AcDbLine
 10
573.827737
 20
327.749779
 30
0.0
 11
574.109960
 21
327.749779
 31
0.0
  0
LINE
  5
1d8
100
AcDbEntity
  8
Layer_1
 62
1
100
AcDbLine
 10
574.109960
 20
327.749779
 30
0.0
 11
585.988665
 21
327.749779
 31
0.0
  0
LINE
  5
1d9
100
AcDbEntity
  8
Layer_1
 62
1
100
AcDbLine
 10
585.988665
 20
327.749779
 30
0.0
 11
585.988665
 21
330.749493
 31
0.0
  0
LINE
  5
1da
100
AcDbEntity
  8
Layer_1
 62
1
100
AcDbLine
 10
585.988665
 20
330.749493
 30
0.0
 11
574.109960
 21
330.749493
 31
0.0
  0
LINE
  5
1db
100
AcDbEntity
  8
Layer_1
 62
1
100
AcDbLine
 10
574.109960
 20
330.749493
 30
0.0
 11
573.827737
 21
330.749493
 31
0.0
  0
LINE
  5
1dc
100
AcDbEntity
  8
Layer_1
 62
1
100
AcDbLine
 10
573.827737
 20
330.749493
 30
0.0
 11
573.827737
 21
342.910955
 31
0.0
  0
LINE
  5
1dd
100
AcDbEntity
  8
Layer_1
 62
1
100
AcDbLine
 10
573.827737
 20
342.910955
 30
0.0
 11
570.828026
 21
342.910955
 31
0.0
  0
LINE
  5
1de
100
AcDbEntity
  8
Layer_1
 62
1
100
AcDbLine
 10
570.828026
 20
342.910955
 30
0.0
 11
570.828026
 21
342.910955
 31
0.0
  0
LINE
  5
1df
100
AcDbEntity
  8
Layer_1
 62
1
100
AcDbLine
 10
573.827811
 20
295.586350
 30
0.0
 11
573.827811
 21
305.586355
 31
0.0
  0
LINE
  5
1e0
100
AcDbEntity
  8
Layer_1
 62
1
100
AcDbLine
 10
573.827811
 20
305.586355
 30
0.0
 11
570.827817
 21
305.586355
 31
0.0
  0
LINE
  5
1e1
100
AcDbEntity
  8
Layer_1
 62
1
100
AcDbLine
 10
570.827817
 20
305.586355
 30
0.0
 11
570.827817
 21
295.586350
 31
0.0
  0
LINE
  5
1e2
100
AcDbEntity
  8
Layer_1
 62
1
100
AcDbLine
 10
570.827817
 20
295.586350
 30
0.0
 11
573.827811
 21
295.586350
 31
0.0
  0
SPLINE
  5
1e3
100
AcDbEntity
  8
Layer_1
 62
1
100
AcDbSpline
 70
8
 71
3
 72
8
 73
4
 74
0
 40
0
 40
0
 40
0
 40
0
 40
1
 40
1
 40
1
 40
1
 10
572.326671
 20
312.136313
 30
0.0
 10
571.470635
 20
312.136309
 30
0.0
 10
570.776678
 20
311.442351
 30
0.0
 10
570.776678
 20
310.586312
 30
0.0
  0
SPLINE
  5
1e4
100
AcDbEntity
  8
Layer_1
 62
1
100
AcDbSpline
 70
8
 71
3
 72
8
 73
4
 74
0
 40
0
 40
0
 40
0
 40
0
 40
1
 40
1
 40
1
 40
1
 10
570.776678
 20
310.586312
 30
0.0
 10
570.776678
 20
309.730274
 30
0.0
 10
571.470635
 20
309.036317
 30
0.0
 10
572.326671
 20
309.036313
 30
0.0
  0
SPLINE
  5
1e5
100
AcDbEntity
  8
Layer_1
 62
1
100
AcDbSpline
 70
8
 71
3
 72
8
 73
4
 74
0
 40
0
 40
0
 40
0
 40
0
 40
1
 40
1
 40
1
 40
1
 10
572.326671
 20
309.036313
 30
0.0
 10
573.182708
 20
309.036317
 30
0.0
 10
573.876664
 20
309.730274
 30
0.0
 10
573.876664
 20
310.586312
 30
0.0
  0
SPLINE
  5
1e6
100
AcDbEntity
  8
Layer_1
 62
1
100
AcDbSpline
 70
8
 71
3
 72
8
 73
4
 74
0
 40
0
 40
0
 40
0
 40
0
 40
1
 40
1
 40
1
 40
1
 10
573.876664
 20
310.586312
 30
0.0
 10
573.876664
 20
311.442351
 30
0.0
 10
573.182708
 20
312.136309
 30
0.0
 10
572.326671
 20
312.136313
 30
0.0
  0
LINE
  5
1e7
100
AcDbEntity
  8
Layer_1
 62
1
100
AcDbLine
 10
572.326671
 20
312.136313
 30
0.0
 11
572.326671
 21
312.136313
 31
0.0
  0
LINE
  5
1e8
100
AcDbEntity
  8
Layer_1
 62
1
100
AcDbLine
 10
573.827811
 20
352.910639
 30
0.0
 11
573.827811
 21
362.910644
 31
0.0
  0
LINE
  5
1e9
100
AcDbEntity
  8
Layer_1
 62
1
100
AcDbLine
 10
573.827811
 20
362.910644
 30
0.0
 11
570.827817
 21
362.910644
 31
0.0
  0
LINE
  5
1ea
100
AcDbEntity
  8
Layer_1
 62
1
100
AcDbLine
 10
570.827817
 20
362.910644
 30
0.0
 11
570.827817
 21
352.910639
 31
0.0
  0
LINE
  5
1eb
100
AcDbEntity
  8
Layer_1
 62
1
100
AcDbLine
 10
570.827817
 20
352.910639
 30
0.0
 11
573.827811
 21
352.910639
 31
0.0
  0
SPLINE
  5
1ec
100
AcDbEntity
  8
Layer_1
 62
1
100
AcDbSpline
 70
8
 71
3
 72
8
 73
4
 74
0
 40
0
 40
0
 40
0
 40
0
 40
1
 40
1
 40
1
 40
1
 10
572.326671
 20
349.460650
 30
0.0
 10
571.470635
 20
349.460647
 30
0.0
 10
570.776678
 20
348.766691
 30
0.0
 10
570.776678
 20
347.910651
 30
0.0
  0
SPLINE
  5
1ed
100
AcDbEntity
  8
Layer_1
 62
1
100
AcDbSpline
 70
8
 71
3
 72
8
 73
4
 74
0
 40
0
 40
0
 40
0
 40
0
 40
1
 40
1
 40
1
 40
1
 10
570.776678
 20
347.910651
 30
0.0
 10
570.776678
 20
347.054612
 30
0.0
 10
571.470635
 20
346.360656
 30
0.0
 10
572.326671
 20
346.360653
 30
0.0
  0
SPLINE
  5
1ee
100
AcDbEntity
  8
Layer_1
 62
1
100
AcDbSpline
 70
8
 71
3
 72
8
 73
4
 74
0
 40
0
 40
0
 40
0
 40
0
 40
1
 40
1
 40
1
 40
1
 10
572.326671
 20
346.360653
 30
0.0
 10
573.182708
 20
346.360656
 30
0.0
 10
573.876664
 20
347.054612
 30
0.0
 10
573.876664
 20
347.910651
 30
0.0
  0
SPLINE
  5
1ef
100
AcDbEntity
  8
Layer_1
 62
1
100
AcDbSpline
 70
8
 71
3
 72
8
 73
4
 74
0
 40
0
 40
0
 40
0
 40
0
 40
1
 40
1
 40
1
 40
1
 10
573.876664
 20
347.910651
 30
0.0
 10
573.876664
 20
348.766691
 30
0.0
 10
573.182708
 20
349.460647
 30
0.0
 10
572.326671
 20
349.460650
 30
0.0
  0
LINE
  5
1f0
100
AcDbEntity
  8
Layer_1
 62
1
100
AcDbLine
 10
572.326671
 20
349.460650
 30
0.0
 11
572.326671
 21
349.460650
 31
0.0
  0
LINE
  5
1f1
100
AcDbEntity
  8
Layer_1
 62
1
100
AcDbLine
 10
605.988840
 20
330.749640
 30
0.0
 11
595.988832
 21
330.749640
 31
0.0
  0
LINE
  5
1f2
100
AcDbEntity
  8
Layer_1
 62
1
100
AcDbLine
 10
595.988832
 20
330.749640
 30
0.0
 11
595.988832
 21
327.749646
 31
0.0
  0
LINE
  5
1f3
100
AcDbEntity
  8
Layer_1
 62
1
100
AcDbLine
 10
595.988832
 20
327.749646
 30
0.0
 11
605.988840
 21
327.749646
 31
0.0
  0
LINE
  5
1f4
100
AcDbEntity
  8
Layer_1
 62
1
100
AcDbLine
 10
605.988840
 20
327.749646
 30
0.0
 11
605.988840
 21
330.749640
 31
0.0
  0
SPLINE
  5
1f5
100
AcDbEntity
  8
Layer_1
 62
1
100
AcDbSpline
 70
8
 71
3
 72
8
 73
4
 74
0
 40
0
 40
0
 40
0
 40
0
 40
1
 40
1
 40
1
 40
1
 10
589.438877
 20
329.248500
 30
0.0
 10
589.438877
 20
328.392464
 30
0.0
 10
590.132834
 20
327.698508
 30
0.0
 10
590.988870
 20
327.698508
 30
0.0
  0
SPLINE
  5
1f6
100
AcDbEntity
  8
Layer_1
 62
1
100
AcDbSpline
 70
8
 71
3
 72
8
 73
4
 74
0
 40
0
 40
0
 40
0
 40
0
 40
1
 40
1
 40
1
 40
1
 10
590.988870
 20
327.698508
 30
0.0
 10
591.844906
 20
327.698508
 30
0.0
 10
592.538863
 20
328.392464
 30
0.0
 10
592.538863
 20
329.248500
 30
0.0
  0
SPLINE
  5
1f7
100
AcDbEntity
  8
Layer_1
 62
1
100
AcDbSpline
 70
8
 71
3
 72
8
 73
4
 74
0
 40
0
 40
0
 40
0
 40
0
 40
1
 40
1
 40
1
 40
1
 10
592.538863
 20
329.248500
 30
0.0
 10
592.538863
 20
330.104537
 30
0.0
 10
591.844906
 20
330.798493
 30
0.0
 10
590.988870
 20
330.798493
 30
0.0
  0
SPLINE
  5
1f8
100
AcDbEntity
  8
Layer_1
 62
1
100
AcDbSpline
 70
8
 71
3
 72
8
 73
4
 74
0
 40
0
 40
0
 40
0
 40
0
 40
1
 40
1
 40
1
 40
1
 10
590.988870
 20
330.798493
 30
0.0
 10
590.132834
 20
330.798493
 30
0.0
 10
589.438877
 20
330.104537
 30
0.0
 10
589.438877
 20
329.248500
 30
0.0
  0
LINE
  5
1f9
100
AcDbEntity
  8
Layer_1
 62
1
100
AcDbLine
 10
589.438877
 20
329.248500
 30
0.0
 11
589.438877
 21
329.248500
 31
0.0
  0
LINE
  5
1fa
100
AcDbEntity
  8
Layer_1
 62
1
100
AcDbLine
 10
548.664539
 20
330.749640
 30
0.0
 11
538.664530
 21
330.749640
 31
0.0
  0
LINE
  5
1fb
100
AcDbEntity
  8
Layer_1
 62
1
100
AcDbLine
 10
538.664530
 20
330.749640
 30
0.0
 11
538.664530
 21
327.749646
 31
0.0
  0
LINE
  5
1fc
100
AcDbEntity
  8
Layer_1
 62
1
100
AcDbLine
 10
538.664530
 20
327.749646
 30
0.0
 11
548.664539
 21
327.749646
 31
0.0
  0
LINE
  5
1fd
100
AcDbEntity
  8
Layer_1
 62
1
100
AcDbLine
 10
548.664539
 20
327.749646
 30
0.0
 11
548.664539
 21
330.749640
 31
0.0
  0
SPLINE
  5
1fe
100
AcDbEntity
  8
Layer_1
 62
1
100
AcDbSpline
 70
8
 71
3
 72
8
 73
4
 74
0
 40
0
 40
0
 40
0
 40
0
 40
1
 40
1
 40
1
 40
1
 10
552.114536
 20
329.248500
 30
0.0
 10
552.114536
 20
328.392464
 30
0.0
 10
552.808492
 20
327.698508
 30
0.0
 10
553.664529
 20
327.698508
 30
0.0
  0
SPLINE
  5
1ff
100
AcDbEntity
  8
Layer_1
 62
1
100
AcDbSpline
 70
8
 71
3
 72
8
 73
4
 74
0
 40
0
 40
0
 40
0
 40
0
 40
1
 40
1
 40
1
 40
1
 10
553.664529
 20
327.698508
 30
0.0
 10
554.520565
 20
327.698508
 30
0.0
 10
555.214521
 20
328.392464
 30
0.0
 10
555.214521
 20
329.248500
 30
0.0
  0
SPLINE
  5
200
100
AcDbEntity
  8
Layer_1
 62
1
100
AcDbSpline
 70
8
 71
3
 72
8
 73
4
 74
0
 40
0
 40
0
 40
0
 40
0
 40
1
 40
1
 40
1
 40
1
 10
555.214521
 20
329.248500
 30
0.0
 10
555.214521
 20
330.104537
 30
0.0
 10
554.520565
 20
330.798493
 30
0.0
 10
553.664529
 20
330.798493
 30
0.0
  0
SPLINE
  5
201
100
AcDbEntity
  8
Layer_1
 62
1
100
AcDbSpline
 70
8
 71
3
 72
8
 73
4
 74
0
 40
0
 40
0
 40
0
 40
0
 40
1
 40
1
 40
1
 40
1
 10
553.664529
 20
330.798493
 30
0.0
 10
552.808492
 20
330.798493
 30
0.0
 10
552.114536
 20
330.104537
 30
0.0
 10
552.114536
 20
329.248500
 30
0.0
  0
LINE
  5
202
100
AcDbEntity
  8
Layer_1
 62
1
100
AcDbLine
 10
552.114536
 20
329.248500
 30
0.0
 11
552.114536
 21
329.248500
 31
0.0
  0
SPLINE
  5
203
100
AcDbEntity
  8
Layer_1
 62
3
100
AcDbSpline
 70
8
 71
3
 72
8
 73
4
 74
0
 40
0
 40
0
 40
0
 40
0
 40
1
 40
1
 40
1
 40
1
 10
388.087569
 20
388.279189
 30
0.0
 10
388.127080
 20
388.250959
 30
0.0
 10
388.163778
 20
388.219907
 30
0.0
 10
388.197664
 20
388.186033
 30
0.0
  0
SPLINE
  5
204
100
AcDbEntity
  8
Layer_1
 62
3
100
AcDbSpline
 70
8
 71
3
 72
8
 73
4
 74
0
 40
0
 40
0
 40
0
 40
0
 40
1
 40
1
 40
1
 40
1
 10
388.197664
 20
388.186033
 30
0.0
 10
388.237175
 20
388.152157
 30
0.0
 10
388.276696
 20
388.118281
 30
0.0
 10
388.316225
 20
388.084407
 30
0.0
  0
SPLINE
  5
205
100
AcDbEntity
  8
Layer_1
 62
3
100
AcDbSpline
 70
8
 71
3
 72
8
 73
4
 74
0
 40
0
 40
0
 40
0
 40
0
 40
1
 40
1
 40
1
 40
1
 10
388.316225
 20
388.084407
 30
0.0
 10
388.513838
 20
387.886803
 30
0.0
 10
388.666275
 20
387.658145
 30
0.0
 10
388.773538
 20
387.398435
 30
0.0
  0
SPLINE
  5
206
100
AcDbEntity
  8
Layer_1
 62
3
100
AcDbSpline
 70
8
 71
3
 72
8
 73
4
 74
0
 40
0
 40
0
 40
0
 40
0
 40
1
 40
1
 40
1
 40
1
 10
388.773538
 20
387.398435
 30
0.0
 10
388.880802
 20
387.144371
 30
0.0
 10
388.934433
 20
386.873370
 30
0.0
 10
388.934433
 20
386.585432
 30
0.0
  0
LINE
  5
207
100
AcDbEntity
  8
Layer_1
 62
3
100
AcDbLine
 10
388.934433
 20
386.585432
 30
0.0
 11
388.934433
 21
385.738553
 31
0.0
  0
SPLINE
  5
208
100
AcDbEntity
  8
Layer_1
 62
3
100
AcDbSpline
 70
8
 71
3
 72
8
 73
4
 74
0
 40
0
 40
0
 40
0
 40
0
 40
1
 40
1
 40
1
 40
1
 10
388.934433
 20
385.738553
 30
0.0
 10
388.934433
 20
385.450615
 30
0.0
 10
388.880802
 20
385.176791
 30
0.0
 10
388.773538
 20
384.917081
 30
0.0
  0
SPLINE
  5
209
100
AcDbEntity
  8
Layer_1
 62
3
100
AcDbSpline
 70
8
 71
3
 72
8
 73
4
 74
0
 40
0
 40
0
 40
0
 40
0
 40
1
 40
1
 40
1
 40
1
 10
388.773538
 20
384.917081
 30
0.0
 10
388.666275
 20
384.663019
 30
0.0
 10
388.513838
 20
384.437184
 30
0.0
 10
388.316225
 20
384.239578
 30
0.0
  0
SPLINE
  5
20a
100
AcDbEntity
  8
Layer_1
 62
3
100
AcDbSpline
 70
8
 71
3
 72
8
 73
4
 74
0
 40
0
 40
0
 40
0
 40
0
 40
1
 40
1
 40
1
 40
1
 10
388.316225
 20
384.239578
 30
0.0
 10
388.118613
 20
384.041974
 30
0.0
 10
387.889957
 20
383.889536
 30
0.0
 10
387.630256
 20
383.782265
 30
0.0
  0
SPLINE
  5
20b
100
AcDbEntity
  8
Layer_1
 62
3
100
AcDbSpline
 70
8
 71
3
 72
8
 73
4
 74
0
 40
0
 40
0
 40
0
 40
0
 40
1
 40
1
 40
1
 40
1
 10
387.630256
 20
383.782265
 30
0.0
 10
387.376181
 20
383.674994
 30
0.0
 10
387.105182
 20
383.621359
 30
0.0
 10
386.817259
 20
383.621359
 30
0.0
  0
LINE
  5
20c
100
AcDbEntity
  8
Layer_1
 62
3
100
AcDbLine
 10
386.817259
 20
383.621359
 30
0.0
 11
385.123502
 21
383.621359
 31
0.0
  0
SPLINE
  5
20d
100
AcDbEntity
  8
Layer_1
 62
3
100
AcDbSpline
 70
8
 71
3
 72
8
 73
4
 74
0
 40
0
 40
0
 40
0
 40
0
 40
1
 40
1
 40
1
 40
1
 10
385.123502
 20
383.621359
 30
0.0
 10
385.004931
 20
383.621359
 30
0.0
 10
384.903303
 20
383.660880
 30
0.0
 10
384.818617
 20
383.739921
 30
0.0
  0
SPLINE
  5
20e
100
AcDbEntity
  8
Layer_1
 62
3
100
AcDbSpline
 70
8
 71
3
 72
8
 73
4
 74
0
 40
0
 40
0
 40
0
 40
0
 40
1
 40
1
 40
1
 40
1
 10
384.818617
 20
383.739921
 30
0.0
 10
384.739576
 20
383.824608
 30
0.0
 10
384.700056
 20
383.926233
 30
0.0
 10
384.700056
 20
384.044797
 30
0.0
  0
SPLINE
  5
20f
100
AcDbEntity
  8
Layer_1
 62
3
100
AcDbSpline
 70
8
 71
3
 72
8
 73
4
 74
0
 40
0
 40
0
 40
0
 40
0
 40
1
 40
1
 40
1
 40
1
 10
384.700056
 20
384.044797
 30
0.0
 10
384.700056
 20
384.163360
 30
0.0
 10
384.739576
 20
384.262162
 30
0.0
 10
384.818617
 20
384.341204
 30
0.0
  0
SPLINE
  5
210
100
AcDbEntity
  8
Layer_1
 62
3
100
AcDbSpline
 70
8
 71
3
 72
8
 73
4
 74
0
 40
0
 40
0
 40
0
 40
0
 40
1
 40
1
 40
1
 40
1
 10
384.818617
 20
384.341204
 30
0.0
 10
384.903303
 20
384.425893
 30
0.0
 10
385.004931
 20
384.468237
 30
0.0
 10
385.123502
 20
384.468237
 30
0.0
  0
LINE
  5
211
100
AcDbEntity
  8
Layer_1
 62
3
100
AcDbLine
 10
385.123502
 20
384.468237
 30
0.0
 11
386.817259
 21
384.468237
 31
0.0
  0
SPLINE
  5
212
100
AcDbEntity
  8
Layer_1
 62
3
100
AcDbSpline
 70
8
 71
3
 72
8
 73
4
 74
0
 40
0
 40
0
 40
0
 40
0
 40
1
 40
1
 40
1
 40
1
 10
386.817259
 20
384.468237
 30
0.0
 10
386.992274
 20
384.468237
 30
0.0
 10
387.156001
 20
384.502113
 30
0.0
 10
387.308438
 20
384.569863
 30
0.0
  0
SPLINE
  5
213
100
AcDbEntity
  8
Layer_1
 62
3
100
AcDbSpline
 70
8
 71
3
 72
8
 73
4
 74
0
 40
0
 40
0
 40
0
 40
0
 40
1
 40
1
 40
1
 40
1
 10
387.308438
 20
384.569863
 30
0.0
 10
387.466520
 20
384.637613
 30
0.0
 10
387.602025
 20
384.727947
 30
0.0
 10
387.714951
 20
384.840864
 30
0.0
  0
SPLINE
  5
214
100
AcDbEntity
  8
Layer_1
 62
3
100
AcDbSpline
 70
8
 71
3
 72
8
 73
4
 74
0
 40
0
 40
0
 40
0
 40
0
 40
1
 40
1
 40
1
 40
1
 10
387.714951
 20
384.840864
 30
0.0
 10
387.827859
 20
384.953781
 30
0.0
 10
387.918189
 20
385.086458
 30
0.0
 10
387.985941
 20
385.238896
 30
0.0
  0
SPLINE
  5
215
100
AcDbEntity
  8
Layer_1
 62
3
100
AcDbSpline
 70
8
 71
3
 72
8
 73
4
 74
0
 40
0
 40
0
 40
0
 40
0
 40
1
 40
1
 40
1
 40
1
 10
387.985941
 20
385.238896
 30
0.0
 10
388.053693
 20
385.396980
 30
0.0
 10
388.087569
 20
385.563532
 30
0.0
 10
388.087569
 20
385.738553
 30
0.0
  0
LINE
  5
216
100
AcDbEntity
  8
Layer_1
 62
3
100
AcDbLine
 10
388.087569
 20
385.738553
 30
0.0
 11
388.087569
 21
386.585432
 31
0.0
  0
SPLINE
  5
217
100
AcDbEntity
  8
Layer_1
 62
3
100
AcDbSpline
 70
8
 71
3
 72
8
 73
4
 74
0
 40
0
 40
0
 40
0
 40
0
 40
1
 40
1
 40
1
 40
1
 10
388.087569
 20
386.585432
 30
0.0
 10
388.087569
 20
386.760453
 30
0.0
 10
388.053693
 20
386.924183
 30
0.0
 10
387.985941
 20
387.076623
 30
0.0
  0
SPLINE
  5
218
100
AcDbEntity
  8
Layer_1
 62
3
100
AcDbSpline
 70
8
 71
3
 72
8
 73
4
 74
0
 40
0
 40
0
 40
0
 40
0
 40
1
 40
1
 40
1
 40
1
 10
387.985941
 20
387.076623
 30
0.0
 10
387.918189
 20
387.234707
 30
0.0
 10
387.827859
 20
387.370207
 30
0.0
 10
387.714951
 20
387.483124
 30
0.0
  0
SPLINE
  5
219
100
AcDbEntity
  8
Layer_1
 62
3
100
AcDbSpline
 70
8
 71
3
 72
8
 73
4
 74
0
 40
0
 40
0
 40
0
 40
0
 40
1
 40
1
 40
1
 40
1
 10
387.714951
 20
387.483124
 30
0.0
 10
387.602025
 20
387.596041
 30
0.0
 10
387.466520
 20
387.686375
 30
0.0
 10
387.308438
 20
387.754125
 30
0.0
  0
SPLINE
  5
21a
100
AcDbEntity
  8
Layer_1
 62
3
100
AcDbSpline
 70
8
 71
3
 72
8
 73
4
 74
0
 40
0
 40
0
 40
0
 40
0
 40
1
 40
1
 40
1
 40
1
 10
387.308438
 20
387.754125
 30
0.0
 10
387.156001
 20
387.821876
 30
0.0
 10
386.992274
 20
387.855751
 30
0.0
 10
386.817259
 20
387.855751
 30
0.0
  0
LINE
  5
21b
100
AcDbEntity
  8
Layer_1
 62
3
100
AcDbLine
 10
386.817259
 20
387.855751
 30
0.0
 11
385.970366
 21
387.855751
 31
0.0
  0
SPLINE
  5
21c
100
AcDbEntity
  8
Layer_1
 62
3
100
AcDbSpline
 70
8
 71
3
 72
8
 73
4
 74
0
 40
0
 40
0
 40
0
 40
0
 40
1
 40
1
 40
1
 40
1
 10
385.970366
 20
387.855751
 30
0.0
 10
385.851814
 20
387.855751
 30
0.0
 10
385.750186
 20
387.895271
 30
0.0
 10
385.665481
 20
387.974312
 30
0.0
  0
SPLINE
  5
21d
100
AcDbEntity
  8
Layer_1
 62
3
100
AcDbSpline
 70
8
 71
3
 72
8
 73
4
 74
0
 40
0
 40
0
 40
0
 40
0
 40
1
 40
1
 40
1
 40
1
 10
385.665481
 20
387.974312
 30
0.0
 10
385.586440
 20
388.059000
 30
0.0
 10
385.546920
 20
388.160625
 30
0.0
 10
385.546920
 20
388.279189
 30
0.0
  0
SPLINE
  5
21e
100
AcDbEntity
  8
Layer_1
 62
3
100
AcDbSpline
 70
8
 71
3
 72
8
 73
4
 74
0
 40
0
 40
0
 40
0
 40
0
 40
1
 40
1
 40
1
 40
1
 10
385.546920
 20
388.279189
 30
0.0
 10
385.546920
 20
388.397752
 30
0.0
 10
385.586440
 20
388.496554
 30
0.0
 10
385.665481
 20
388.575595
 30
0.0
  0
SPLINE
  5
21f
100
AcDbEntity
  8
Layer_1
 62
3
100
AcDbSpline
 70
8
 71
3
 72
8
 73
4
 74
0
 40
0
 40
0
 40
0
 40
0
 40
1
 40
1
 40
1
 40
1
 10
385.665481
 20
388.575595
 30
0.0
 10
385.750186
 20
388.660285
 30
0.0
 10
385.851814
 20
388.702629
 30
0.0
 10
385.970366
 20
388.702629
 30
0.0
  0
LINE
  5
220
100
AcDbEntity
  8
Layer_1
 62
3
100
AcDbLine
 10
385.970366
 20
388.702629
 30
0.0
 11
386.817259
 21
388.702629
 31
0.0
  0
SPLINE
  5
221
100
AcDbEntity
  8
Layer_1
 62
3
100
AcDbSpline
 70
8
 71
3
 72
8
 73
4
 74
0
 40
0
 40
0
 40
0
 40
0
 40
1
 40
1
 40
1
 40
1
 10
386.817259
 20
388.702629
 30
0.0
 10
386.992274
 20
388.702629
 30
0.0
 10
387.156001
 20
388.736504
 30
0.0
 10
387.308438
 20
388.804255
 30
0.0
  0
SPLINE
  5
222
100
AcDbEntity
  8
Layer_1
 62
3
100
AcDbSpline
 70
8
 71
3
 72
8
 73
4
 74
0
 40
0
 40
0
 40
0
 40
0
 40
1
 40
1
 40
1
 40
1
 10
387.308438
 20
388.804255
 30
0.0
 10
387.466520
 20
388.872005
 30
0.0
 10
387.602025
 20
388.962339
 30
0.0
 10
387.714951
 20
389.075256
 30
0.0
  0
SPLINE
  5
223
100
AcDbEntity
  8
Layer_1
 62
3
100
AcDbSpline
 70
8
 71
3
 72
8
 73
4
 74
0
 40
0
 40
0
 40
0
 40
0
 40
1
 40
1
 40
1
 40
1
 10
387.714951
 20
389.075256
 30
0.0
 10
387.827859
 20
389.188173
 30
0.0
 10
387.918189
 20
389.320850
 30
0.0
 10
387.985941
 20
389.473288
 30
0.0
  0
SPLINE
  5
224
100
AcDbEntity
  8
Layer_1
 62
3
100
AcDbSpline
 70
8
 71
3
 72
8
 73
4
 74
0
 40
0
 40
0
 40
0
 40
0
 40
1
 40
1
 40
1
 40
1
 10
387.985941
 20
389.473288
 30
0.0
 10
388.053693
 20
389.631372
 30
0.0
 10
388.087569
 20
389.797924
 30
0.0
 10
388.087569
 20
389.972945
 30
0.0
  0
SPLINE
  5
225
100
AcDbEntity
  8
Layer_1
 62
3
100
AcDbSpline
 70
8
 71
3
 72
8
 73
4
 74
0
 40
0
 40
0
 40
0
 40
0
 40
1
 40
1
 40
1
 40
1
 10
388.087569
 20
389.972945
 30
0.0
 10
388.087569
 20
390.147968
 30
0.0
 10
388.053693
 20
390.311698
 30
0.0
 10
387.985941
 20
390.464136
 30
0.0
  0
SPLINE
  5
226
100
AcDbEntity
  8
Layer_1
 62
3
100
AcDbSpline
 70
8
 71
3
 72
8
 73
4
 74
0
 40
0
 40
0
 40
0
 40
0
 40
1
 40
1
 40
1
 40
1
 10
387.985941
 20
390.464136
 30
0.0
 10
387.918189
 20
390.622220
 30
0.0
 10
387.827859
 20
390.757721
 30
0.0
 10
387.714951
 20
390.870638
 30
0.0
  0
SPLINE
  5
227
100
AcDbEntity
  8
Layer_1
 62
3
100
AcDbSpline
 70
8
 71
3
 72
8
 73
4
 74
0
 40
0
 40
0
 40
0
 40
0
 40
1
 40
1
 40
1
 40
1
 10
387.714951
 20
390.870638
 30
0.0
 10
387.602025
 20
390.983555
 30
0.0
 10
387.466520
 20
391.073889
 30
0.0
 10
387.308438
 20
391.141639
 30
0.0
  0
SPLINE
  5
228
100
AcDbEntity
  8
Layer_1
 62
3
100
AcDbSpline
 70
8
 71
3
 72
8
 73
4
 74
0
 40
0
 40
0
 40
0
 40
0
 40
1
 40
1
 40
1
 40
1
 10
387.308438
 20
391.141639
 30
0.0
 10
387.156001
 20
391.209389
 30
0.0
 10
386.992274
 20
391.243264
 30
0.0
 10
386.817259
 20
391.243264
 30
0.0
  0
LINE
  5
229
100
AcDbEntity
  8
Layer_1
 62
3
100
AcDbLine
 10
386.817259
 20
391.243264
 30
0.0
 11
385.123502
 21
391.243264
 31
0.0
  0
SPLINE
  5
22a
100
AcDbEntity
  8
Layer_1
 62
3
100
AcDbSpline
 70
8
 71
3
 72
8
 73
4
 74
0
 40
0
 40
0
 40
0
 40
0
 40
1
 40
1
 40
1
 40
1
 10
385.123502
 20
391.243264
 30
0.0
 10
385.004931
 20
391.243264
 30
0.0
 10
384.903303
 20
391.282785
 30
0.0
 10
384.818617
 20
391.361826
 30
0.0
  0
SPLINE
  5
22b
100
AcDbEntity
  8
Layer_1
 62
3
100
AcDbSpline
 70
8
 71
3
 72
8
 73
4
 74
0
 40
0
 40
0
 40
0
 40
0
 40
1
 40
1
 40
1
 40
1
 10
384.818617
 20
391.361826
 30
0.0
 10
384.739576
 20
391.446515
 30
0.0
 10
384.700056
 20
391.548140
 30
0.0
 10
384.700056
 20
391.666702
 30
0.0
  0
SPLINE
  5
22c
100
AcDbEntity
  8
Layer_1
 62
3
100
AcDbSpline
 70
8
 71
3
 72
8
 73
4
 74
0
 40
0
 40
0
 40
0
 40
0
 40
1
 40
1
 40
1
 40
1
 10
384.700056
 20
391.666702
 30
0.0
 10
384.700056
 20
391.785265
 30
0.0
 10
384.739576
 20
391.884069
 30
0.0
 10
384.818617
 20
391.963112
 30
0.0
  0
SPLINE
  5
22d
100
AcDbEntity
  8
Layer_1
 62
3
100
AcDbSpline
 70
8
 71
3
 72
8
 73
4
 74
0
 40
0
 40
0
 40
0
 40
0
 40
1
 40
1
 40
1
 40
1
 10
384.818617
 20
391.963112
 30
0.0
 10
384.903303
 20
392.047799
 30
0.0
 10
385.004931
 20
392.090143
 30
0.0
 10
385.123502
 20
392.090143
 30
0.0
  0
LINE
  5
22e
100
AcDbEntity
  8
Layer_1
 62
3
100
AcDbLine
 10
385.123502
 20
392.090143
 30
0.0
 11
386.817259
 21
392.090143
 31
0.0
  0
SPLINE
  5
22f
100
AcDbEntity
  8
Layer_1
 62
3
100
AcDbSpline
 70
8
 71
3
 72
8
 73
4
 74
0
 40
0
 40
0
 40
0
 40
0
 40
1
 40
1
 40
1
 40
1
 10
386.817259
 20
392.090143
 30
0.0
 10
387.105182
 20
392.090143
 30
0.0
 10
387.376181
 20
392.036507
 30
0.0
 10
387.630256
 20
391.929236
 30
0.0
  0
SPLINE
  5
230
100
AcDbEntity
  8
Layer_1
 62
3
100
AcDbSpline
 70
8
 71
3
 72
8
 73
4
 74
0
 40
0
 40
0
 40
0
 40
0
 40
1
 40
1
 40
1
 40
1
 10
387.630256
 20
391.929236
 30
0.0
 10
387.889957
 20
391.821964
 30
0.0
 10
388.118613
 20
391.669525
 30
0.0
 10
388.316225
 20
391.471921
 30
0.0
  0
SPLINE
  5
231
100
AcDbEntity
  8
Layer_1
 62
3
100
AcDbSpline
 70
8
 71
3
 72
8
 73
4
 74
0
 40
0
 40
0
 40
0
 40
0
 40
1
 40
1
 40
1
 40
1
 10
388.316225
 20
391.471921
 30
0.0
 10
388.513838
 20
391.274316
 30
0.0
 10
388.666275
 20
391.045659
 30
0.0
 10
388.773538
 20
390.785948
 30
0.0
  0
SPLINE
  5
232
100
AcDbEntity
  8
Layer_1
 62
3
100
AcDbSpline
 70
8
 71
3
 72
8
 73
4
 74
0
 40
0
 40
0
 40
0
 40
0
 40
1
 40
1
 40
1
 40
1
 10
388.773538
 20
390.785948
 30
0.0
 10
388.880802
 20
390.531886
 30
0.0
 10
388.934433
 20
390.260885
 30
0.0
 10
388.934433
 20
389.972945
 30
0.0
  0
SPLINE
  5
233
100
AcDbEntity
  8
Layer_1
 62
3
100
AcDbSpline
 70
8
 71
3
 72
8
 73
4
 74
0
 40
0
 40
0
 40
0
 40
0
 40
1
 40
1
 40
1
 40
1
 10
388.934433
 20
389.972945
 30
0.0
 10
388.934433
 20
389.685007
 30
0.0
 10
388.880802
 20
389.411184
 30
0.0
 10
388.773538
 20
389.151475
 30
0.0
  0
SPLINE
  5
234
100
AcDbEntity
  8
Layer_1
 62
3
100
AcDbSpline
 70
8
 71
3
 72
8
 73
4
 74
0
 40
0
 40
0
 40
0
 40
0
 40
1
 40
1
 40
1
 40
1
 10
388.773538
 20
389.151475
 30
0.0
 10
388.666275
 20
388.897411
 30
0.0
 10
388.513838
 20
388.671576
 30
0.0
 10
388.316225
 20
388.473970
 30
0.0
  0
SPLINE
  5
235
100
AcDbEntity
  8
Layer_1
 62
3
100
AcDbSpline
 70
8
 71
3
 72
8
 73
4
 74
0
 40
0
 40
0
 40
0
 40
0
 40
1
 40
1
 40
1
 40
1
 10
388.316225
 20
388.473970
 30
0.0
 10
388.276696
 20
388.440096
 30
0.0
 10
388.237175
 20
388.406221
 30
0.0
 10
388.197664
 20
388.372344
 30
0.0
  0
SPLINE
  5
236
100
AcDbEntity
  8
Layer_1
 62
3
100
AcDbSpline
 70
8
 71
3
 72
8
 73
4
 74
0
 40
0
 40
0
 40
0
 40
0
 40
1
 40
1
 40
1
 40
1
 10
388.197664
 20
388.372344
 30
0.0
 10
388.163778
 20
388.338470
 30
0.0
 10
388.127080
 20
388.307418
 30
0.0
 10
388.087569
 20
388.279189
 30
0.0
  0
LINE
  5
237
100
AcDbEntity
  8
Layer_1
 62
3
100
AcDbLine
 10
388.087569
 20
388.279189
 30
0.0
 11
388.087569
 21
388.279189
 31
0.0
  0
LINE
  5
238
100
AcDbEntity
  8
Layer_1
 62
5
100
AcDbLine
 10
452.531971
 20
349.555666
 30
0.0
 11
456.287841
 21
349.940749
 31
0.0
  0
LINE
  5
239
100
AcDbEntity
  8
Layer_1
 62
5
100
AcDbLine
 10
456.287841
 20
349.940749
 30
0.0
 11
460.851064
 21
349.295197
 31
0.0
  0
LINE
  5
23a
100
AcDbEntity
  8
Layer_1
 62
5
100
AcDbLine
 10
460.851064
 20
349.295197
 30
0.0
 11
469.343300
 21
345.631919
 31
0.0
  0
LINE
  5
23b
100
AcDbEntity
  8
Layer_1
 62
5
100
AcDbLine
 10
469.343300
 20
345.631919
 30
0.0
 11
469.343300
 21
340.004234
 31
0.0
  0
LINE
  5
23c
100
AcDbEntity
  8
Layer_1
 62
5
100
AcDbLine
 10
469.343300
 20
340.004234
 30
0.0
 11
460.851064
 21
336.340955
 31
0.0
  0
LINE
  5
23d
100
AcDbEntity
  8
Layer_1
 62
5
100
AcDbLine
 10
460.851064
 20
336.340955
 30
0.0
 11
456.287841
 21
335.695404
 31
0.0
  0
LINE
  5
23e
100
AcDbEntity
  8
Layer_1
 62
5
100
AcDbLine
 10
456.287841
 20
335.695404
 30
0.0
 11
452.531971
 21
336.080486
 31
0.0
  0
LINE
  5
23f
100
AcDbEntity
  8
Layer_1
 62
5
100
AcDbLine
 10
452.531971
 20
336.080486
 30
0.0
 11
450.873266
 21
326.673579
 31
0.0
  0
LINE
  5
240
100
AcDbEntity
  8
Layer_1
 62
5
100
AcDbLine
 10
450.873266
 20
326.673579
 30
0.0
 11
454.534338
 21
325.750850
 31
0.0
  0
LINE
  5
241
100
AcDbEntity
  8
Layer_1
 62
5
100
AcDbLine
 10
454.534338
 20
325.750850
 30
0.0
 11
458.601583
 21
323.583518
 31
0.0
  0
LINE
  5
242
100
AcDbEntity
  8
Layer_1
 62
5
100
AcDbLine
 10
458.601583
 20
323.583518
 30
0.0
 11
465.328773
 21
317.236642
 31
0.0
  0
LINE
  5
243
100
AcDbEntity
  8
Layer_1
 62
5
100
AcDbLine
 10
465.328773
 20
317.236642
 30
0.0
 11
463.403990
 21
311.948350
 31
0.0
  0
LINE
  5
244
100
AcDbEntity
  8
Layer_1
 62
5
100
AcDbLine
 10
463.403990
 20
311.948350
 30
0.0
 11
454.170976
 21
311.410511
 31
0.0
  0
LINE
  5
245
100
AcDbEntity
  8
Layer_1
 62
5
100
AcDbLine
 10
454.170976
 20
311.410511
 30
0.0
 11
449.662138
 21
312.364606
 31
0.0
  0
LINE
  5
246
100
AcDbEntity
  8
Layer_1
 62
5
100
AcDbLine
 10
449.662138
 20
312.364606
 30
0.0
 11
446.264492
 21
314.011048
 31
0.0
  0
LINE
  5
247
100
AcDbEntity
  8
Layer_1
 62
5
100
AcDbLine
 10
446.264492
 20
314.011048
 30
0.0
 11
441.488474
 21
305.738753
 31
0.0
  0
LINE
  5
248
100
AcDbEntity
  8
Layer_1
 62
5
100
AcDbLine
 10
441.488474
 20
305.738753
 30
0.0
 11
444.613182
 21
303.619512
 31
0.0
  0
LINE
  5
249
100
AcDbEntity
  8
Layer_1
 62
5
100
AcDbLine
 10
444.613182
 20
303.619512
 30
0.0
 11
447.693863
 21
300.191808
 31
0.0
  0
LINE
  5
24a
100
AcDbEntity
  8
Layer_1
 62
5
100
AcDbLine
 10
447.693863
 20
300.191808
 30
0.0
 11
451.844562
 21
291.926864
 31
0.0
  0
LINE
  5
24b
100
AcDbEntity
  8
Layer_1
 62
5
100
AcDbLine
 10
451.844562
 20
291.926864
 30
0.0
 11
448.227179
 21
287.615808
 31
0.0
  0
LINE
  5
24c
100
AcDbEntity
  8
Layer_1
 62
5
100
AcDbLine
 10
448.227179
 20
287.615808
 30
0.0
 11
439.367038
 21
290.268281
 31
0.0
  0
LINE
  5
24d
100
AcDbEntity
  8
Layer_1
 62
5
100
AcDbLine
 10
439.367038
 20
290.268281
 30
0.0
 11
435.456425
 21
292.706945
 31
0.0
  0
LINE
  5
24e
100
AcDbEntity
  8
Layer_1
 62
5
100
AcDbLine
 10
435.456425
 20
292.706945
 30
0.0
 11
432.826791
 21
295.416163
 31
0.0
  0
LINE
  5
24f
100
AcDbEntity
  8
Layer_1
 62
5
100
AcDbLine
 10
432.826791
 20
295.416163
 30
0.0
 11
425.509531
 21
289.276242
 31
0.0
  0
LINE
  5
250
100
AcDbEntity
  8
Layer_1
 62
5
100
AcDbLine
 10
425.509531
 20
289.276242
 30
0.0
 11
427.720940
 21
286.216102
 31
0.0
  0
LINE
  5
251
100
AcDbEntity
  8
Layer_1
 62
5
100
AcDbLine
 10
427.720940
 20
286.216102
 30
0.0
 11
429.443511
 21
281.941457
 31
0.0
  0
LINE
  5
252
100
AcDbEntity
  8
Layer_1
 62
5
100
AcDbLine
 10
429.443511
 20
281.941457
 30
0.0
 11
430.517113
 21
272.755318
 31
0.0
  0
LINE
  5
253
100
AcDbEntity
  8
Layer_1
 62
5
100
AcDbLine
 10
430.517113
 20
272.755318
 30
0.0
 11
425.643417
 21
269.941475
 31
0.0
  0
LINE
  5
254
100
AcDbEntity
  8
Layer_1
 62
5
100
AcDbLine
 10
425.643417
 20
269.941475
 30
0.0
 11
418.224783
 21
275.464335
 31
0.0
  0
LINE
  5
255
100
AcDbEntity
  8
Layer_1
 62
5
100
AcDbLine
 10
418.224783
 20
275.464335
 30
0.0
 11
415.384131
 21
279.093428
 31
0.0
  0
LINE
  5
256
100
AcDbEntity
  8
Layer_1
 62
5
100
AcDbLine
 10
415.384131
 20
279.093428
 30
0.0
 11
413.839670
 21
282.538653
 31
0.0
  0
LINE
  5
257
100
AcDbEntity
  8
Layer_1
 62
5
100
AcDbLine
 10
413.839670
 20
282.538653
 30
0.0
 11
404.863705
 21
279.271665
 31
0.0
  0
LINE
  5
258
100
AcDbEntity
  8
Layer_1
 62
5
100
AcDbLine
 10
404.863705
 20
279.271665
 30
0.0
 11
405.895143
 21
275.639722
 31
0.0
  0
LINE
  5
259
100
AcDbEntity
  8
Layer_1
 62
5
100
AcDbLine
 10
405.895143
 20
275.639722
 30
0.0
 11
406.051776
 21
271.033723
 31
0.0
  0
LINE
  5
25a
100
AcDbEntity
  8
Layer_1
 62
5
100
AcDbLine
 10
406.051776
 20
271.033723
 30
0.0
 11
403.918825
 21
262.034373
 31
0.0
  0
LINE
  5
25b
100
AcDbEntity
  8
Layer_1
 62
5
100
AcDbLine
 10
403.918825
 20
262.034373
 30
0.0
 11
398.376630
 21
261.057139
 31
0.0
  0
LINE
  5
25c
100
AcDbEntity
  8
Layer_1
 62
5
100
AcDbLine
 10
398.376630
 20
261.057139
 30
0.0
 11
393.294343
 21
268.784242
 31
0.0
  0
LINE
  5
25d
100
AcDbEntity
  8
Layer_1
 62
5
100
AcDbLine
 10
393.294343
 20
268.784242
 30
0.0
 11
391.866214
 21
273.166041
 31
0.0
  0
LINE
  5
25e
100
AcDbEntity
  8
Layer_1
 62
5
100
AcDbLine
 10
391.866214
 20
273.166041
 30
0.0
 11
391.593249
 21
276.931724
 31
0.0
  0
LINE
  5
25f
100
AcDbEntity
  8
Layer_1
 62
5
100
AcDbLine
 10
391.593249
 20
276.931724
 30
0.0
 11
382.041212
 21
276.931724
 31
0.0
  0
LINE
  5
260
100
AcDbEntity
  8
Layer_1
 62
5
100
AcDbLine
 10
382.041212
 20
276.931724
 30
0.0
 11
381.768246
 21
273.166041
 31
0.0
  0
LINE
  5
261
100
AcDbEntity
  8
Layer_1
 62
5
100
AcDbLine
 10
381.768246
 20
273.166041
 30
0.0
 11
380.340117
 21
268.784242
 31
0.0
  0
LINE
  5
262
100
AcDbEntity
  8
Layer_1
 62
5
100
AcDbLine
 10
380.340117
 20
268.784242
 30
0.0
 11
375.257831
 21
261.057139
 31
0.0
  0
LINE
  5
263
100
AcDbEntity
  8
Layer_1
 62
5
100
AcDbLine
 10
375.257831
 20
261.057139
 30
0.0
 11
369.715636
 21
262.034373
 31
0.0
  0
LINE
  5
264
100
AcDbEntity
  8
Layer_1
 62
5
100
AcDbLine
 10
369.715636
 20
262.034373
 30
0.0
 11
367.582685
 21
271.033723
 31
0.0
  0
LINE
  5
265
100
AcDbEntity
  8
Layer_1
 62
5
100
AcDbLine
 10
367.582685
 20
271.033723
 30
0.0
 11
367.739318
 21
275.639722
 31
0.0
  0
LINE
  5
266
100
AcDbEntity
  8
Layer_1
 62
5
100
AcDbLine
 10
367.739318
 20
275.639722
 30
0.0
 11
368.770756
 21
279.271665
 31
0.0
  0
LINE
  5
267
100
AcDbEntity
  8
Layer_1
 62
5
100
AcDbLine
 10
368.770756
 20
279.271665
 30
0.0
 11
359.794791
 21
282.538653
 31
0.0
  0
LINE
  5
268
100
AcDbEntity
  8
Layer_1
 62
5
100
AcDbLine
 10
359.794791
 20
282.538653
 30
0.0
 11
358.250329
 21
279.093428
 31
0.0
  0
LINE
  5
269
100
AcDbEntity
  8
Layer_1
 62
5
100
AcDbLine
 10
358.250329
 20
279.093428
 30
0.0
 11
355.409678
 21
275.464335
 31
0.0
  0
LINE
  5
26a
100
AcDbEntity
  8
Layer_1
 62
5
100
AcDbLine
 10
355.409678
 20
275.464335
 30
0.0
 11
347.991043
 21
269.941475
 31
0.0
  0
LINE
  5
26b
100
AcDbEntity
  8
Layer_1
 62
5
100
AcDbLine
 10
347.991043
 20
269.941475
 30
0.0
 11
343.117348
 21
272.755318
 31
0.0
  0
LINE
  5
26c
100
AcDbEntity
  8
Layer_1
 62
5
100
AcDbLine
 10
343.117348
 20
272.755318
 30
0.0
 11
344.190949
 21
281.941457
 31
0.0
  0
LINE
  5
26d
100
AcDbEntity
  8
Layer_1
 62
5
100
AcDbLine
 10
344.190949
 20
281.941457
 30
0.0
 11
345.913521
 21
286.216102
 31
0.0
  0
LINE
  5
26e
100
AcDbEntity
  8
Layer_1
 62
5
100
AcDbLine
 10
345.913521
 20
286.216102
 30
0.0
 11
348.124930
 21
289.276242
 31
0.0
  0
LINE
  5
26f
100
AcDbEntity
  8
Layer_1
 62
5
100
AcDbLine
 10
348.124930
 20
289.276242
 30
0.0
 11
340.807669
 21
295.416163
 31
0.0
  0
LINE
  5
270
100
AcDbEntity
  8
Layer_1
 62
5
100
AcDbLine
 10
340.807669
 20
295.416163
 30
0.0
 11
338.178035
 21
292.706945
 31
0.0
  0
LINE
  5
271
100
AcDbEntity
  8
Layer_1
 62
5
100
AcDbLine
 10
338.178035
 20
292.706945
 30
0.0
 11
334.267423
 21
290.268281
 31
0.0
  0
LINE
  5
272
100
AcDbEntity
  8
Layer_1
 62
5
100
AcDbLine
 10
334.267423
 20
290.268281
 30
0.0
 11
325.407282
 21
287.615808
 31
0.0
  0
LINE
  5
273
100
AcDbEntity
  8
Layer_1
 62
5
100
AcDbLine
 10
325.407282
 20
287.615808
 30
0.0
 11
321.789899
 21
291.926864
 31
0.0
  0
LINE
  5
274
100
AcDbEntity
  8
Layer_1
 62
5
100
AcDbLine
 10
321.789899
 20
291.926864
 30
0.0
 11
325.940597
 21
300.191808
 31
0.0
  0
LINE
  5
275
100
AcDbEntity
  8
Layer_1
 62
5
100
AcDbLine
 10
325.940597
 20
300.191808
 30
0.0
 11
329.021279
 21
303.619512
 31
0.0
  0
LINE
  5
276
100
AcDbEntity
  8
Layer_1
 62
5
100
AcDbLine
 10
329.021279
 20
303.619512
 30
0.0
 11
332.145987
 21
305.738753
 31
0.0
  0
LINE
  5
277
100
AcDbEntity
  8
Layer_1
 62
5
100
AcDbLine
 10
332.145987
 20
305.738753
 30
0.0
 11
327.369968
 21
314.011048
 31
0.0
  0
LINE
  5
278
100
AcDbEntity
  8
Layer_1
 62
5
100
AcDbLine
 10
327.369968
 20
314.011048
 30
0.0
 11
323.972323
 21
312.364606
 31
0.0
  0
LINE
  5
279
100
AcDbEntity
  8
Layer_1
 62
5
100
AcDbLine
 10
323.972323
 20
312.364606
 30
0.0
 11
319.463484
 21
311.410511
 31
0.0
  0
LINE
  5
27a
100
AcDbEntity
  8
Layer_1
 62
5
100
AcDbLine
 10
319.463484
 20
311.410511
 30
0.0
 11
310.230471
 21
311.948350
 31
0.0
  0
LINE
  5
27b
100
AcDbEntity
  8
Layer_1
 62
5
100
AcDbLine
 10
310.230471
 20
311.948350
 30
0.0
 11
308.305687
 21
317.236642
 31
0.0
  0
LINE
  5
27c
100
AcDbEntity
  8
Layer_1
 62
5
100
AcDbLine
 10
308.305687
 20
317.236642
 30
0.0
 11
315.032877
 21
323.583518
 31
0.0
  0
LINE
  5
27d
100
AcDbEntity
  8
Layer_1
 62
5
100
AcDbLine
 10
315.032877
 20
323.583518
 30
0.0
 11
319.100123
 21
325.750850
 31
0.0
  0
LINE
  5
27e
100
AcDbEntity
  8
Layer_1
 62
5
100
AcDbLine
 10
319.100123
 20
325.750850
 30
0.0
 11
322.761195
 21
326.673579
 31
0.0
  0
LINE
  5
27f
100
AcDbEntity
  8
Layer_1
 62
5
100
AcDbLine
 10
322.761195
 20
326.673579
 30
0.0
 11
321.102490
 21
336.080486
 31
0.0
  0
LINE
  5
280
100
AcDbEntity
  8
Layer_1
 62
5
100
AcDbLine
 10
321.102490
 20
336.080486
 30
0.0
 11
317.346620
 21
335.695404
 31
0.0
  0
LINE
  5
281
100
AcDbEntity
  8
Layer_1
 62
5
100
AcDbLine
 10
317.346620
 20
335.695404
 30
0.0
 11
312.783397
 21
336.340955
 31
0.0
  0
LINE
  5
282
100
AcDbEntity
  8
Layer_1
 62
5
100
AcDbLine
 10
312.783397
 20
336.340955
 30
0.0
 11
304.291161
 21
340.004234
 31
0.0
  0
LINE
  5
283
100
AcDbEntity
  8
Layer_1
 62
5
100
AcDbLine
 10
304.291161
 20
340.004234
 30
0.0
 11
304.291161
 21
345.631919
 31
0.0
  0
LINE
  5
284
100
AcDbEntity
  8
Layer_1
 62
5
100
AcDbLine
 10
304.291161
 20
345.631919
 30
0.0
 11
312.783397
 21
349.295197
 31
0.0
  0
LINE
  5
285
100
AcDbEntity
  8
Layer_1
 62
5
100
AcDbLine
 10
312.783397
 20
349.295197
 30
0.0
 11
317.346620
 21
349.940749
 31
0.0
  0
LINE
  5
286
100
AcDbEntity
  8
Layer_1
 62
5
100
AcDbLine
 10
317.346620
 20
349.940749
 30
0.0
 11
321.102490
 21
349.555666
 31
0.0
  0
LINE
  5
287
100
AcDbEntity
  8
Layer_1
 62
5
100
AcDbLine
 10
321.102490
 20
349.555666
 30
0.0
 11
322.761195
 21
358.962573
 31
0.0
  0
LINE
  5
288
100
AcDbEntity
  8
Layer_1
 62
5
100
AcDbLine
 10
322.761195
 20
358.962573
 30
0.0
 11
319.100123
 21
359.885301
 31
0.0
  0
LINE
  5
289
100
AcDbEntity
  8
Layer_1
 62
5
100
AcDbLine
 10
319.100123
 20
359.885301
 30
0.0
 11
315.032877
 21
362.052635
 31
0.0
  0
LINE
  5
28a
100
AcDbEntity
  8
Layer_1
 62
5
100
AcDbLine
 10
315.032877
 20
362.052635
 30
0.0
 11
308.305687
 21
368.399511
 31
0.0
  0
LINE
  5
28b
100
AcDbEntity
  8
Layer_1
 62
5
100
AcDbLine
 10
308.305687
 20
368.399511
 30
0.0
 11
310.230471
 21
373.687803
 31
0.0
  0
LINE
  5
28c
100
AcDbEntity
  8
Layer_1
 62
5
100
AcDbLine
 10
310.230471
 20
373.687803
 30
0.0
 11
319.463484
 21
374.225642
 31
0.0
  0
LINE
  5
28d
100
AcDbEntity
  8
Layer_1
 62
5
100
AcDbLine
 10
319.463484
 20
374.225642
 30
0.0
 11
323.972323
 21
373.271545
 31
0.0
  0
LINE
  5
28e
100
AcDbEntity
  8
Layer_1
 62
5
100
AcDbLine
 10
323.972323
 20
373.271545
 30
0.0
 11
327.369968
 21
371.625105
 31
0.0
  0
LINE
  5
28f
100
AcDbEntity
  8
Layer_1
 62
5
100
AcDbLine
 10
327.369968
 20
371.625105
 30
0.0
 11
332.145987
 21
379.897400
 31
0.0
  0
LINE
  5
290
100
AcDbEntity
  8
Layer_1
 62
5
100
AcDbLine
 10
332.145987
 20
379.897400
 30
0.0
 11
329.021279
 21
382.016641
 31
0.0
  0
LINE
  5
291
100
AcDbEntity
  8
Layer_1
 62
5
100
AcDbLine
 10
329.021279
 20
382.016641
 30
0.0
 11
325.940597
 21
385.444345
 31
0.0
  0
LINE
  5
292
100
AcDbEntity
  8
Layer_1
 62
5
100
AcDbLine
 10
325.940597
 20
385.444345
 30
0.0
 11
321.789899
 21
393.709288
 31
0.0
  0
LINE
  5
293
100
AcDbEntity
  8
Layer_1
 62
5
100
AcDbLine
 10
321.789899
 20
393.709288
 30
0.0
 11
325.407282
 21
398.020346
 31
0.0
  0
LINE
  5
294
100
AcDbEntity
  8
Layer_1
 62
5
100
AcDbLine
 10
325.407282
 20
398.020346
 30
0.0
 11
334.267423
 21
395.367872
 31
0.0
  0
LINE
  5
295
100
AcDbEntity
  8
Layer_1
 62
5
100
AcDbLine
 10
334.267423
 20
395.367872
 30
0.0
 11
338.178035
 21
392.929206
 31
0.0
  0
LINE
  5
296
100
AcDbEntity
  8
Layer_1
 62
5
100
AcDbLine
 10
338.178035
 20
392.929206
 30
0.0
 11
340.807669
 21
390.219988
 31
0.0
  0
LINE
  5
297
100
AcDbEntity
  8
Layer_1
 62
5
100
AcDbLine
 10
340.807669
 20
390.219988
 30
0.0
 11
348.124930
 21
396.359911
 31
0.0
  0
LINE
  5
298
100
AcDbEntity
  8
Layer_1
 62
5
100
AcDbLine
 10
348.124930
 20
396.359911
 30
0.0
 11
345.913521
 21
399.420052
 31
0.0
  0
LINE
  5
299
100
AcDbEntity
  8
Layer_1
 62
5
100
AcDbLine
 10
345.913521
 20
399.420052
 30
0.0
 11
344.190949
 21
403.694697
 31
0.0
  0
LINE
  5
29a
100
AcDbEntity
  8
Layer_1
 62
5
100
AcDbLine
 10
344.190949
 20
403.694697
 30
0.0
 11
343.117348
 21
412.880833
 31
0.0
  0
LINE
  5
29b
100
AcDbEntity
  8
Layer_1
 62
5
100
AcDbLine
 10
343.117348
 20
412.880833
 30
0.0
 11
347.991043
 21
415.694676
 31
0.0
  0
LINE
  5
29c
100
AcDbEntity
  8
Layer_1
 62
5
100
AcDbLine
 10
347.991043
 20
415.694676
 30
0.0
 11
355.409678
 21
410.171819
 31
0.0
  0
LINE
  5
29d
100
AcDbEntity
  8
Layer_1
 62
5
100
AcDbLine
 10
355.409678
 20
410.171819
 30
0.0
 11
358.250329
 21
406.542723
 31
0.0
  0
LINE
  5
29e
100
AcDbEntity
  8
Layer_1
 62
5
100
AcDbLine
 10
358.250329
 20
406.542723
 30
0.0
 11
359.794791
 21
403.097501
 31
0.0
  0
LINE
  5
29f
100
AcDbEntity
  8
Layer_1
 62
5
100
AcDbLine
 10
359.794791
 20
403.097501
 30
0.0
 11
368.770756
 21
406.364486
 31
0.0
  0
LINE
  5
2a0
100
AcDbEntity
  8
Layer_1
 62
5
100
AcDbLine
 10
368.770756
 20
406.364486
 30
0.0
 11
367.739318
 21
409.996429
 31
0.0
  0
LINE
  5
2a1
100
AcDbEntity
  8
Layer_1
 62
5
100
AcDbLine
 10
367.739318
 20
409.996429
 30
0.0
 11
367.582685
 21
414.602428
 31
0.0
  0
LINE
  5
2a2
100
AcDbEntity
  8
Layer_1
 62
5
100
AcDbLine
 10
367.582685
 20
414.602428
 30
0.0
 11
369.715636
 21
423.601778
 31
0.0
  0
LINE
  5
2a3
100
AcDbEntity
  8
Layer_1
 62
5
100
AcDbLine
 10
369.715636
 20
423.601778
 30
0.0
 11
375.257831
 21
424.579015
 31
0.0
  0
LINE
  5
2a4
100
AcDbEntity
  8
Layer_1
 62
5
100
AcDbLine
 10
375.257831
 20
424.579015
 30
0.0
 11
380.340117
 21
416.851909
 31
0.0
  0
LINE
  5
2a5
100
AcDbEntity
  8
Layer_1
 62
5
100
AcDbLine
 10
380.340117
 20
416.851909
 30
0.0
 11
381.768246
 21
412.470110
 31
0.0
  0
LINE
  5
2a6
100
AcDbEntity
  8
Layer_1
 62
5
100
AcDbLine
 10
381.768246
 20
412.470110
 30
0.0
 11
382.041212
 21
408.704427
 31
0.0
  0
LINE
  5
2a7
100
AcDbEntity
  8
Layer_1
 62
5
100
AcDbLine
 10
382.041212
 20
408.704427
 30
0.0
 11
391.593249
 21
408.704427
 31
0.0
  0
LINE
  5
2a8
100
AcDbEntity
  8
Layer_1
 62
5
100
AcDbLine
 10
391.593249
 20
408.704427
 30
0.0
 11
391.866214
 21
412.470110
 31
0.0
  0
LINE
  5
2a9
100
AcDbEntity
  8
Layer_1
 62
5
100
AcDbLine
 10
391.866214
 20
412.470110
 30
0.0
 11
393.294343
 21
416.851909
 31
0.0
  0
LINE
  5
2aa
100
AcDbEntity
  8
Layer_1
 62
5
100
AcDbLine
 10
393.294343
 20
416.851909
 30
0.0
 11
398.376630
 21
424.579015
 31
0.0
  0
LINE
  5
2ab
100
AcDbEntity
  8
Layer_1
 62
5
100
AcDbLine
 10
398.376630
 20
424.579015
 30
0.0
 11
403.918825
 21
423.601778
 31
0.0
  0
LINE
  5
2ac
100
AcDbEntity
  8
Layer_1
 62
5
100
AcDbLine
 10
403.918825
 20
423.601778
 30
0.0
 11
406.051776
 21
414.602428
 31
0.0
  0
LINE
  5
2ad
100
AcDbEntity
  8
Layer_1
 62
5
100
AcDbLine
 10
406.051776
 20
414.602428
 30
0.0
 11
405.895143
 21
409.996429
 31
0.0
  0
LINE
  5
2ae
100
AcDbEntity
  8
Layer_1
 62
5
100
AcDbLine
 10
405.895143
 20
409.996429
 30
0.0
 11
404.863705
 21
406.364486
 31
0.0
  0
LINE
  5
2af
100
AcDbEntity
  8
Layer_1
 62
5
100
AcDbLine
 10
404.863705
 20
406.364486
 30
0.0
 11
413.839670
 21
403.097501
 31
0.0
  0
LINE
  5
2b0
100
AcDbEntity
  8
Layer_1
 62
5
100
AcDbLine
 10
413.839670
 20
403.097501
 30
0.0
 11
415.384131
 21
406.542723
 31
0.0
  0
LINE
  5
2b1
100
AcDbEntity
  8
Layer_1
 62
5
100
AcDbLine
 10
415.384131
 20
406.542723
 30
0.0
 11
418.224783
 21
410.171819
 31
0.0
  0
LINE
  5
2b2
100
AcDbEntity
  8
Layer_1
 62
5
100
AcDbLine
 10
418.224783
 20
410.171819
 30
0.0
 11
425.643417
 21
415.694676
 31
0.0
  0
LINE
  5
2b3
100
AcDbEntity
  8
Layer_1
 62
5
100
AcDbLine
 10
425.643417
 20
415.694676
 30
0.0
 11
430.517113
 21
412.880833
 31
0.0
  0
LINE
  5
2b4
100
AcDbEntity
  8
Layer_1
 62
5
100
AcDbLine
 10
430.517113
 20
412.880833
 30
0.0
 11
429.443511
 21
403.694697
 31
0.0
  0
LINE
  5
2b5
100
AcDbEntity
  8
Layer_1
 62
5
100
AcDbLine
 10
429.443511
 20
403.694697
 30
0.0
 11
427.720940
 21
399.420052
 31
0.0
  0
LINE
  5
2b6
100
AcDbEntity
  8
Layer_1
 62
5
100
AcDbLine
 10
427.720940
 20
399.420052
 30
0.0
 11
425.509531
 21
396.359911
 31
0.0
  0
LINE
  5
2b7
100
AcDbEntity
  8
Layer_1
 62
5
100
AcDbLine
 10
425.509531
 20
396.359911
 30
0.0
 11
432.826791
 21
390.219988
 31
0.0
  0
LINE
  5
2b8
100
AcDbEntity
  8
Layer_1
 62
5
100
AcDbLine
 10
432.826791
 20
390.219988
 30
0.0
 11
435.456425
 21
392.929206
 31
0.0
  0
LINE
  5
2b9
100
AcDbEntity
  8
Layer_1
 62
5
100
AcDbLine
 10
435.456425
 20
392.929206
 30
0.0
 11
439.367038
 21
395.367872
 31
0.0
  0
LINE
  5
2ba
100
AcDbEntity
  8
Layer_1
 62
5
100
AcDbLine
 10
439.367038
 20
395.367872
 30
0.0
 11
448.227179
 21
398.020346
 31
0.0
  0
LINE
  5
2bb
100
AcDbEntity
  8
Layer_1
 62
5
100
AcDbLine
 10
448.227179
 20
398.020346
 30
0.0
 11
451.844562
 21
393.709288
 31
0.0
  0
LINE
  5
2bc
100
AcDbEntity
  8
Layer_1
 62
5
100
AcDbLine
 10
451.844562
 20
393.709288
 30
0.0
 11
447.693863
 21
385.444345
 31
0.0
  0
LINE
  5
2bd
100
AcDbEntity
  8
Layer_1
 62
5
100
AcDbLine
 10
447.693863
 20
385.444345
 30
0.0
 11
444.613182
 21
382.016641
 31
0.0
  0
LINE
  5
2be
100
AcDbEntity
  8
Layer_1
 62
5
100
AcDbLine
 10
444.613182
 20
382.016641
 30
0.0
 11
441.488474
 21
379.897400
 31
0.0
  0
LINE
  5
2bf
100
AcDbEntity
  8
Layer_1
 62
5
100
AcDbLine
 10
441.488474
 20
379.897400
 30
0.0
 11
446.264492
 21
371.625105
 31
0.0
  0
LINE
  5
2c0
100
AcDbEntity
  8
Layer_1
 62
5
100
AcDbLine
 10
446.264492
 20
371.625105
 30
0.0
 11
449.662138
 21
373.271545
 31
0.0
  0
LINE
  5
2c1
100
AcDbEntity
  8
Layer_1
 62
5
100
AcDbLine
 10
449.662138
 20
373.271545
 30
0.0
 11
454.170976
 21
374.225642
 31
0.0
  0
LINE
  5
2c2
100
AcDbEntity
  8
Layer_1
 62
5
100
AcDbLine
 10
454.170976
 20
374.225642
 30
0.0
 11
463.403990
 21
373.687803
 31
0.0
  0
LINE
  5
2c3
100
AcDbEntity
  8
Layer_1
 62
5
100
AcDbLine
 10
463.403990
 20
373.687803
 30
0.0
 11
465.328773
 21
368.399511
 31
0.0
  0
LINE
  5
2c4
100
AcDbEntity
  8
Layer_1
 62
5
100
AcDbLine
 10
465.328773
 20
368.399511
 30
0.0
 11
458.601583
 21
362.052635
 31
0.0
  0
LINE
  5
2c5
100
AcDbEntity
  8
Layer_1
 62
5
100
AcDbLine
 10
458.601583
 20
362.052635
 30
0.0
 11
454.534338
 21
359.885301
 31
0.0
  0
LINE
  5
2c6
100
AcDbEntity
  8
Layer_1
 62
5
100
AcDbLine
 10
454.534338
 20
359.885301
 30
0.0
 11
450.873266
 21
358.962573
 31
0.0
  0
LINE
  5
2c7
100
AcDbEntity
  8
Layer_1
 62
5
100
AcDbLine
 10
450.873266
 20
358.962573
 30
0.0
 11
452.531971
 21
349.555666
 31
0.0
  0
SPLINE
  5
2c8
100
AcDbEntity
  8
Layer_1
 62
5
100
AcDbSpline
 70
8
 71
3
 72
8
 73
4
 74
0
 40
0
 40
0
 40
0
 40
0
 40
1
 40
1
 40
1
 40
1
 10
376.958474
 20
363.212961
 30
0.0
 10
376.958474
 20
357.518436
 30
0.0
 10
372.342137
 20
352.902110
 30
0.0
 10
366.647626
 20
352.902110
 30
0.0
  0
LINE
  5
2c9
100
AcDbEntity
  8
Layer_1
 62
5
100
AcDbLine
 10
366.647626
 20
352.902110
 30
0.0
 11
352.109738
 21
352.797518
 31
0.0
  0
SPLINE
  5
2ca
100
AcDbEntity
  8
Layer_1
 62
5
100
AcDbSpline
 70
8
 71
3
 72
8
 73
4
 74
0
 40
0
 40
0
 40
0
 40
0
 40
1
 40
1
 40
1
 40
1
 10
352.109738
 20
352.797518
 30
0.0
 10
346.415199
 20
352.797518
 30
0.0
 10
341.798890
 20
357.413844
 30
0.0
 10
341.798890
 20
363.108369
 30
0.0
  0
SPLINE
  5
2cb
100
AcDbEntity
  8
Layer_1
 62
5
100
AcDbSpline
 70
8
 71
3
 72
8
 73
4
 74
0
 40
0
 40
0
 40
0
 40
0
 40
1
 40
1
 40
1
 40
1
 10
341.798890
 20
363.108369
 30
0.0
 10
341.798890
 20
365.100012
 30
0.0
 10
342.363560
 20
366.959769
 30
0.0
 10
343.277509
 20
368.500521
 30
0.0
  0
SPLINE
  5
2cc
100
AcDbEntity
  8
Layer_1
 62
5
100
AcDbSpline
 70
8
 71
3
 72
8
 73
4
 74
0
 40
0
 40
0
 40
0
 40
0
 40
1
 40
1
 40
1
 40
1
 10
343.277509
 20
368.500521
 30
0.0
 10
347.533985
 20
375.794560
 30
0.0
 10
353.649966
 20
381.939583
 30
0.0
 10
360.907762
 20
386.287744
 30
0.0
  0
SPLINE
  5
2cd
100
AcDbEntity
  8
Layer_1
 62
5
100
AcDbSpline
 70
8
 71
3
 72
8
 73
4
 74
0
 40
0
 40
0
 40
0
 40
0
 40
1
 40
1
 40
1
 40
1
 10
360.907762
 20
386.287744
 30
0.0
 10
362.445365
 20
387.276515
 30
0.0
 10
364.322341
 20
387.852517
 30
0.0
 10
366.333851
 20
387.852517
 30
0.0
  0
SPLINE
  5
2ce
100
AcDbEntity
  8
Layer_1
 62
5
100
AcDbSpline
 70
8
 71
3
 72
8
 73
4
 74
0
 40
0
 40
0
 40
0
 40
0
 40
1
 40
1
 40
1
 40
1
 10
366.333851
 20
387.852517
 30
0.0
 10
372.028390
 20
387.852517
 30
0.0
 10
376.644699
 20
383.236191
 30
0.0
 10
376.644699
 20
377.541668
 30
0.0
  0
LINE
  5
2cf
100
AcDbEntity
  8
Layer_1
 62
5
100
AcDbLine
 10
376.644699
 20
377.541668
 30
0.0
 11
376.958474
 21
363.212961
 31
0.0
  0
SPLINE
  5
2d0
100
AcDbEntity
  8
Layer_1
 62
5
100
AcDbSpline
 70
8
 71
3
 72
8
 73
4
 74
0
 40
0
 40
0
 40
0
 40
0
 40
1
 40
1
 40
1
 40
1
 10
407.332811
 20
352.745223
 30
0.0
 10
401.638272
 20
352.745223
 30
0.0
 10
397.021935
 20
357.361549
 30
0.0
 10
397.021935
 20
363.056071
 30
0.0
  0
LINE
  5
2d1
100
AcDbEntity
  8
Layer_1
 62
5
100
AcDbLine
 10
397.021935
 20
363.056071
 30
0.0
 11
396.917343
 21
377.593959
 31
0.0
  0
SPLINE
  5
2d2
100
AcDbEntity
  8
Layer_1
 62
5
100
AcDbSpline
 70
8
 71
3
 72
8
 73
4
 74
0
 40
0
 40
0
 40
0
 40
0
 40
1
 40
1
 40
1
 40
1
 10
396.917343
 20
377.593959
 30
0.0
 10
396.917343
 20
383.288484
 30
0.0
 10
401.533680
 20
387.904807
 30
0.0
 10
407.228219
 20
387.904807
 30
0.0
  0
SPLINE
  5
2d3
100
AcDbEntity
  8
Layer_1
 62
5
100
AcDbSpline
 70
8
 71
3
 72
8
 73
4
 74
0
 40
0
 40
0
 40
0
 40
0
 40
1
 40
1
 40
1
 40
1
 10
407.228219
 20
387.904807
 30
0.0
 10
409.219862
 20
387.904807
 30
0.0
 10
411.079593
 20
387.340125
 30
0.0
 10
412.620357
 20
386.426174
 30
0.0
  0
SPLINE
  5
2d4
100
AcDbEntity
  8
Layer_1
 62
5
100
AcDbSpline
 70
8
 71
3
 72
8
 73
4
 74
0
 40
0
 40
0
 40
0
 40
0
 40
1
 40
1
 40
1
 40
1
 10
412.620357
 20
386.426174
 30
0.0
 10
419.914391
 20
382.169704
 30
0.0
 10
426.059413
 20
376.053717
 30
0.0
 10
430.407583
 20
368.795943
 30
0.0
  0
SPLINE
  5
2d5
100
AcDbEntity
  8
Layer_1
 62
5
100
AcDbSpline
 70
8
 71
3
 72
8
 73
4
 74
0
 40
0
 40
0
 40
0
 40
0
 40
1
 40
1
 40
1
 40
1
 10
430.407583
 20
368.795943
 30
0.0
 10
431.396348
 20
367.258317
 30
0.0
 10
431.972364
 20
365.381342
 30
0.0
 10
431.972364
 20
363.369837
 30
0.0
  0
SPLINE
  5
2d6
100
AcDbEntity
  8
Layer_1
 62
5
100
AcDbSpline
 70
8
 71
3
 72
8
 73
4
 74
0
 40
0
 40
0
 40
0
 40
0
 40
1
 40
1
 40
1
 40
1
 10
431.972364
 20
363.369837
 30
0.0
 10
431.972364
 20
357.675312
 30
0.0
 10
427.356026
 20
353.058986
 30
0.0
 10
421.661516
 20
353.058986
 30
0.0
  0
LINE
  5
2d7
100
AcDbEntity
  8
Layer_1
 62
5
100
AcDbLine
 10
421.661516
 20
353.058986
 30
0.0
 11
407.332811
 21
352.745223
 31
0.0
  0
SPLINE
  5
2d8
100
AcDbEntity
  8
Layer_1
 62
5
100
AcDbSpline
 70
8
 71
3
 72
8
 73
4
 74
0
 40
0
 40
0
 40
0
 40
0
 40
1
 40
1
 40
1
 40
1
 10
396.865075
 20
322.318604
 30
0.0
 10
396.865075
 20
328.013128
 30
0.0
 10
401.481384
 20
332.629453
 30
0.0
 10
407.175924
 20
332.629453
 30
0.0
  0
LINE
  5
2d9
100
AcDbEntity
  8
Layer_1
 62
5
100
AcDbLine
 10
407.175924
 20
332.629453
 30
0.0
 11
421.713811
 21
332.734045
 31
0.0
  0
SPLINE
  5
2da
100
AcDbEntity
  8
Layer_1
 62
5
100
AcDbSpline
 70
8
 71
3
 72
8
 73
4
 74
0
 40
0
 40
0
 40
0
 40
0
 40
1
 40
1
 40
1
 40
1
 10
421.713811
 20
332.734045
 30
0.0
 10
427.408322
 20
332.734045
 30
0.0
 10
432.024659
 20
328.117719
 30
0.0
 10
432.024659
 20
322.423195
 30
0.0
  0
SPLINE
  5
2db
100
AcDbEntity
  8
Layer_1
 62
5
100
AcDbSpline
 70
8
 71
3
 72
8
 73
4
 74
0
 40
0
 40
0
 40
0
 40
0
 40
1
 40
1
 40
1
 40
1
 10
432.024659
 20
322.423195
 30
0.0
 10
432.024659
 20
320.431552
 30
0.0
 10
431.459961
 20
318.571796
 30
0.0
 10
430.546013
 20
317.031044
 30
0.0
  0
SPLINE
  5
2dc
100
AcDbEntity
  8
Layer_1
 62
5
100
AcDbSpline
 70
8
 71
3
 72
8
 73
4
 74
0
 40
0
 40
0
 40
0
 40
0
 40
1
 40
1
 40
1
 40
1
 10
430.546013
 20
317.031044
 30
0.0
 10
426.289537
 20
309.737005
 30
0.0
 10
420.173555
 20
303.591981
 30
0.0
 10
412.915787
 20
299.243822
 30
0.0
  0
SPLINE
  5
2dd
100
AcDbEntity
  8
Layer_1
 62
5
100
AcDbSpline
 70
8
 71
3
 72
8
 73
4
 74
0
 40
0
 40
0
 40
0
 40
0
 40
1
 40
1
 40
1
 40
1
 10
412.915787
 20
299.243822
 30
0.0
 10
411.378156
 20
298.255050
 30
0.0
 10
409.501181
 20
297.679047
 30
0.0
 10
407.489670
 20
297.679047
 30
0.0
  0
SPLINE
  5
2de
100
AcDbEntity
  8
Layer_1
 62
5
100
AcDbSpline
 70
8
 71
3
 72
8
 73
4
 74
0
 40
0
 40
0
 40
0
 40
0
 40
1
 40
1
 40
1
 40
1
 10
407.489670
 20
297.679047
 30
0.0
 10
401.795159
 20
297.679047
 30
0.0
 10
397.178822
 20
302.295373
 30
0.0
 10
397.178822
 20
307.989897
 30
0.0
  0
LINE
  5
2df
100
AcDbEntity
  8
Layer_1
 62
5
100
AcDbLine
 10
397.178822
 20
307.989897
 30
0.0
 11
396.865075
 21
322.318604
 31
0.0
  0
SPLINE
  5
2e0
100
AcDbEntity
  8
Layer_1
 62
5
100
AcDbSpline
 70
8
 71
3
 72
8
 73
4
 74
0
 40
0
 40
0
 40
0
 40
0
 40
1
 40
1
 40
1
 40
1
 10
366.333851
 20
332.786336
 30
0.0
 10
372.028390
 20
332.786336
 30
0.0
 10
376.644699
 20
328.170011
 30
0.0
 10
376.644699
 20
322.475486
 30
0.0
  0
LINE
  5
2e1
100
AcDbEntity
  8
Layer_1
 62
5
100
AcDbLine
 10
376.644699
 20
322.475486
 30
0.0
 11
376.749291
 21
307.937599
 31
0.0
  0
SPLINE
  5
2e2
100
AcDbEntity
  8
Layer_1
 62
5
100
AcDbSpline
 70
8
 71
3
 72
8
 73
4
 74
0
 40
0
 40
0
 40
0
 40
0
 40
1
 40
1
 40
1
 40
1
 10
376.749291
 20
307.937599
 30
0.0
 10
376.749291
 20
302.243075
 30
0.0
 10
372.132982
 20
297.626750
 30
0.0
 10
366.438443
 20
297.626750
 30
0.0
  0
SPLINE
  5
2e3
100
AcDbEntity
  8
Layer_1
 62
5
100
AcDbSpline
 70
8
 71
3
 72
8
 73
4
 74
0
 40
0
 40
0
 40
0
 40
0
 40
1
 40
1
 40
1
 40
1
 10
366.438443
 20
297.626750
 30
0.0
 10
364.446801
 20
297.626750
 30
0.0
 10
362.587041
 20
298.191434
 30
0.0
 10
361.046305
 20
299.105386
 30
0.0
  0
SPLINE
  5
2e4
100
AcDbEntity
  8
Layer_1
 62
5
100
AcDbSpline
 70
8
 71
3
 72
8
 73
4
 74
0
 40
0
 40
0
 40
0
 40
0
 40
1
 40
1
 40
1
 40
1
 10
361.046305
 20
299.105386
 30
0.0
 10
353.752243
 20
303.361855
 30
0.0
 10
347.607221
 20
309.477842
 30
0.0
 10
343.259080
 20
316.735614
 30
0.0
  0
SPLINE
  5
2e5
100
AcDbEntity
  8
Layer_1
 62
5
100
AcDbSpline
 70
8
 71
3
 72
8
 73
4
 74
0
 40
0
 40
0
 40
0
 40
0
 40
1
 40
1
 40
1
 40
1
 10
343.259080
 20
316.735614
 30
0.0
 10
342.270286
 20
318.273242
 30
0.0
 10
341.694299
 20
320.150217
 30
0.0
 10
341.694299
 20
322.161721
 30
0.0
  0
SPLINE
  5
2e6
100
AcDbEntity
  8
Layer_1
 62
5
100
AcDbSpline
 70
8
 71
3
 72
8
 73
4
 74
0
 40
0
 40
0
 40
0
 40
0
 40
1
 40
1
 40
1
 40
1
 10
341.694299
 20
322.161721
 30
0.0
 10
341.694299
 20
327.856246
 30
0.0
 10
346.310608
 20
332.472571
 30
0.0
 10
352.005147
 20
332.472571
 30
0.0
  0
LINE
  5
2e7
100
AcDbEntity
  8
Layer_1
 62
5
100
AcDbLine
 10
352.005147
 20
332.472571
 30
0.0
 11
366.333851
 21
332.786336
 31
0.0
  0
LINE
  5
2e8
100
AcDbEntity
  8
Layer_1
 62
1
100
AcDbLine
 10
385.318571
 20
356.480535
 30
0.0
 11
385.318571
 21
344.319073
 31
0.0
  0
LINE
  5
2e9
100
AcDbEntity
  8
Layer_1
 62
1
100
AcDbLine
 10
385.318571
 20
344.319073
 30
0.0
 11
373.154906
 21
344.319073
 31
0.0
  0
LINE
  5
2ea
100
AcDbEntity
  8
Layer_1
 62
1
100
AcDbLine
 10
373.154906
 20
344.319073
 30
0.0
 11
373.154906
 21
341.319359
 31
0.0
  0
LINE
  5
2eb
100
AcDbEntity
  8
Layer_1
 62
1
100
AcDbLine
 10
373.154906
 20
341.319359
 30
0.0
 11
385.318571
 21
341.319359
 31
0.0
  0
LINE
  5
2ec
100
AcDbEntity
  8
Layer_1
 62
1
100
AcDbLine
 10
385.318571
 20
341.319359
 30
0.0
 11
385.318571
 21
341.034932
 31
0.0
  0
LINE
  5
2ed
100
AcDbEntity
  8
Layer_1
 62
1
100
AcDbLine
 10
385.318571
 20
341.034932
 30
0.0
 11
385.318571
 21
329.156243
 31
0.0
  0
LINE
  5
2ee
100
AcDbEntity
  8
Layer_1
 62
1
100
AcDbLine
 10
385.318571
 20
329.156243
 30
0.0
 11
388.318283
 21
329.156243
 31
0.0
  0
LINE
  5
2ef
100
AcDbEntity
  8
Layer_1
 62
1
100
AcDbLine
 10
388.318283
 20
329.156243
 30
0.0
 11
388.318283
 21
341.034932
 31
0.0
  0
LINE
  5
2f0
100
AcDbEntity
  8
Layer_1
 62
1
100
AcDbLine
 10
388.318283
 20
341.034932
 30
0.0
 11
388.318283
 21
341.319359
 31
0.0
  0
LINE
  5
2f1
100
AcDbEntity
  8
Layer_1
 62
1
100
AcDbLine
 10
388.318283
 20
341.319359
 30
0.0
 11
388.600505
 21
341.319359
 31
0.0
  0
LINE
  5
2f2
100
AcDbEntity
  8
Layer_1
 62
1
100
AcDbLine
 10
388.600505
 20
341.319359
 30
0.0
 11
400.479210
 21
341.319359
 31
0.0
  0
LINE
  5
2f3
100
AcDbEntity
  8
Layer_1
 62
1
100
AcDbLine
 10
400.479210
 20
341.319359
 30
0.0
 11
400.479210
 21
344.319073
 31
0.0
  0
LINE
  5
2f4
100
AcDbEntity
  8
Layer_1
 62
1
100
AcDbLine
 10
400.479210
 20
344.319073
 30
0.0
 11
388.600505
 21
344.319073
 31
0.0
  0
LINE
  5
2f5
100
AcDbEntity
  8
Layer_1
 62
1
100
AcDbLine
 10
388.600505
 20
344.319073
 30
0.0
 11
388.318283
 21
344.319073
 31
0.0
  0
LINE
  5
2f6
100
AcDbEntity
  8
Layer_1
 62
1
100
AcDbLine
 10
388.318283
 20
344.319073
 30
0.0
 11
388.318283
 21
356.480535
 31
0.0
  0
LINE
  5
2f7
100
AcDbEntity
  8
Layer_1
 62
1
100
AcDbLine
 10
388.318283
 20
356.480535
 30
0.0
 11
385.318571
 21
356.480535
 31
0.0
  0
LINE
  5
2f8
100
AcDbEntity
  8
Layer_1
 62
1
100
AcDbLine
 10
385.318571
 20
356.480535
 30
0.0
 11
385.318571
 21
356.480535
 31
0.0
  0
LINE
  5
2f9
100
AcDbEntity
  8
Layer_1
 62
1
100
AcDbLine
 10
388.318356
 20
309.155930
 30
0.0
 11
388.318356
 21
319.155935
 31
0.0
  0
LINE
  5
2fa
100
AcDbEntity
  8
Layer_1
 62
1
100
AcDbLine
 10
388.318356
 20
319.155935
 30
0.0
 11
385.318362
 21
319.155935
 31
0.0
  0
LINE
  5
2fb
100
AcDbEntity
  8
Layer_1
 62
1
100
AcDbLine
 10
385.318362
 20
319.155935
 30
0.0
 11
385.318362
 21
309.155930
 31
0.0
  0
LINE
  5
2fc
100
AcDbEntity
  8
Layer_1
 62
1
100
AcDbLine
 10
385.318362
 20
309.155930
 30
0.0
 11
388.318356
 21
309.155930
 31
0.0
  0
SPLINE
  5
2fd
100
AcDbEntity
  8
Layer_1
 62
1
100
AcDbSpline
 70
8
 71
3
 72
8
 73
4
 74
0
 40
0
 40
0
 40
0
 40
0
 40
1
 40
1
 40
1
 40
1
 10
386.817216
 20
325.705893
 30
0.0
 10
385.961180
 20
325.705889
 30
0.0
 10
385.267224
 20
325.011931
 30
0.0
 10
385.267224
 20
324.155892
 30
0.0
  0
SPLINE
  5
2fe
100
AcDbEntity
  8
Layer_1
 62
1
100
AcDbSpline
 70
8
 71
3
 72
8
 73
4
 74
0
 40
0
 40
0
 40
0
 40
0
 40
1
 40
1
 40
1
 40
1
 10
385.267224
 20
324.155892
 30
0.0
 10
385.267224
 20
323.299854
 30
0.0
 10
385.961180
 20
322.605897
 30
0.0
 10
386.817216
 20
322.605893
 30
0.0
  0
SPLINE
  5
2ff
100
AcDbEntity
  8
Layer_1
 62
1
100
AcDbSpline
 70
8
 71
3
 72
8
 73
4
 74
0
 40
0
 40
0
 40
0
 40
0
 40
1
 40
1
 40
1
 40
1
 10
386.817216
 20
322.605893
 30
0.0
 10
387.673253
 20
322.605897
 30
0.0
 10
388.367209
 20
323.299854
 30
0.0
 10
388.367209
 20
324.155892
 30
0.0
  0
SPLINE
  5
300
100
AcDbEntity
  8
Layer_1
 62
1
100
AcDbSpline
 70
8
 71
3
 72
8
 73
4
 74
0
 40
0
 40
0
 40
0
 40
0
 40
1
 40
1
 40
1
 40
1
 10
388.367209
 20
324.155892
 30
0.0
 10
388.367209
 20
325.011931
 30
0.0
 10
387.673253
 20
325.705889
 30
0.0
 10
386.817216
 20
325.705893
 30
0.0
  0
LINE
  5
301
100
AcDbEntity
  8
Layer_1
 62
1
100
AcDbLine
 10
386.817216
 20
325.705893
 30
0.0
 11
386.817216
 21
325.705893
 31
0.0
  0
LINE
  5
302
100
AcDbEntity
  8
Layer_1
 62
1
100
AcDbLine
 10
388.318356
 20
366.480219
 30
0.0
 11
388.318356
 21
376.480224
 31
0.0
  0
LINE
  5
303
100
AcDbEntity
  8
Layer_1
 62
1
100
AcDbLine
 10
388.318356
 20
376.480224
 30
0.0
 11
385.318362
 21
376.480224
 31
0.0
  0
LINE
  5
304
100
AcDbEntity
  8
Layer_1
 62
1
100
AcDbLine
 10
385.318362
 20
376.480224
 30
0.0
 11
385.318362
 21
366.480219
 31
0.0
  0
LINE
  5
305
100
AcDbEntity
  8
Layer_1
 62
1
100
AcDbLine
 10
385.318362
 20
366.480219
 30
0.0
 11
388.318356
 21
366.480219
 31
0.0
  0
SPLINE
  5
306
100
AcDbEntity
  8
Layer_1
 62
1
100
AcDbSpline
 70
8
 71
3
 72
8
 73
4
 74
0
 40
0
 40
0
 40
0
 40
0
 40
1
 40
1
 40
1
 40
1
 10
386.817216
 20
363.030230
 30
0.0
 10
385.961180
 20
363.030227
 30
0.0
 10
385.267224
 20
362.336271
 30
0.0
 10
385.267224
 20
361.480231
 30
0.0
  0
SPLINE
  5
307
100
AcDbEntity
  8
Layer_1
 62
1
100
AcDbSpline
 70
8
 71
3
 72
8
 73
4
 74
0
 40
0
 40
0
 40
0
 40
0
 40
1
 40
1
 40
1
 40
1
 10
385.267224
 20
361.480231
 30
0.0
 10
385.267224
 20
360.624192
 30
0.0
 10
385.961180
 20
359.930236
 30
0.0
 10
386.817216
 20
359.930233
 30
0.0
  0
SPLINE
  5
308
100
AcDbEntity
  8
Layer_1
 62
1
100
AcDbSpline
 70
8
 71
3
 72
8
 73
4
 74
0
 40
0
 40
0
 40
0
 40
0
 40
1
 40
1
 40
1
 40
1
 10
386.817216
 20
359.930233
 30
0.0
 10
387.673253
 20
359.930236
 30
0.0
 10
388.367209
 20
360.624192
 30
0.0
 10
388.367209
 20
361.480231
 30
0.0
  0
SPLINE
  5
309
100
AcDbEntity
  8
Layer_1
 62
1
100
AcDbSpline
 70
8
 71
3
 72
8
 73
4
 74
0
 40
0
 40
0
 40
0
 40
0
 40
1
 40
1
 40
1
 40
1
 10
388.367209
 20
361.480231
 30
0.0
 10
388.367209
 20
362.336271
 30
0.0
 10
387.673253
 20
363.030227
 30
0.0
 10
386.817216
 20
363.030230
 30
0.0
  0
LINE
  5
30a
100
AcDbEntity
  8
Layer_1
 62
1
100
AcDbLine
 10
386.817216
 20
363.030230
 30
0.0
 11
386.817216
 21
363.030230
 31
0.0
  0
LINE
  5
30b
100
AcDbEntity
  8
Layer_1
 62
1
100
AcDbLine
 10
420.479386
 20
344.319220
 30
0.0
 11
410.479377
 21
344.319220
 31
0.0
  0
LINE
  5
30c
100
AcDbEntity
  8
Layer_1
 62
1
100
AcDbLine
 10
410.479377
 20
344.319220
 30
0.0
 11
410.479377
 21
341.319226
 31
0.0
  0
LINE
  5
30d
100
AcDbEntity
  8
Layer_1
 62
1
100
AcDbLine
 10
410.479377
 20
341.319226
 30
0.0
 11
420.479386
 21
341.319226
 31
0.0
  0
LINE
  5
30e
100
AcDbEntity
  8
Layer_1
 62
1
100
AcDbLine
 10
420.479386
 20
341.319226
 30
0.0
 11
420.479386
 21
344.319220
 31
0.0
  0
SPLINE
  5
30f
100
AcDbEntity
  8
Layer_1
 62
1
100
AcDbSpline
 70
8
 71
3
 72
8
 73
4
 74
0
 40
0
 40
0
 40
0
 40
0
 40
1
 40
1
 40
1
 40
1
 10
403.929422
 20
342.818080
 30
0.0
 10
403.929422
 20
341.962044
 30
0.0
 10
404.623379
 20
341.268088
 30
0.0
 10
405.479415
 20
341.268088
 30
0.0
  0
SPLINE
  5
310
100
AcDbEntity
  8
Layer_1
 62
1
100
AcDbSpline
 70
8
 71
3
 72
8
 73
4
 74
0
 40
0
 40
0
 40
0
 40
0
 40
1
 40
1
 40
1
 40
1
 10
405.479415
 20
341.268088
 30
0.0
 10
406.335452
 20
341.268088
 30
0.0
 10
407.029408
 20
341.962044
 30
0.0
 10
407.029408
 20
342.818080
 30
0.0
  0
SPLINE
  5
311
100
AcDbEntity
  8
Layer_1
 62
1
100
AcDbSpline
 70
8
 71
3
 72
8
 73
4
 74
0
 40
0
 40
0
 40
0
 40
0
 40
1
 40
1
 40
1
 40
1
 10
407.029408
 20
342.818080
 30
0.0
 10
407.029408
 20
343.674117
 30
0.0
 10
406.335452
 20
344.368073
 30
0.0
 10
405.479415
 20
344.368073
 30
0.0
  0
SPLINE
  5
312
100
AcDbEntity
  8
Layer_1
 62
1
100
AcDbSpline
 70
8
 71
3
 72
8
 73
4
 74
0
 40
0
 40
0
 40
0
 40
0
 40
1
 40
1
 40
1
 40
1
 10
405.479415
 20
344.368073
 30
0.0
 10
404.623379
 20
344.368073
 30
0.0
 10
403.929422
 20
343.674117
 30
0.0
 10
403.929422
 20
342.818080
 30
0.0
  0
LINE
  5
313
100
AcDbEntity
  8
Layer_1
 62
1
100
AcDbLine
 10
403.929422
 20
342.818080
 30
0.0
 11
403.929422
 21
342.818080
 31
0.0
  0
LINE
  5
314
100
AcDbEntity
  8
Layer_1
 62
1
100
AcDbLine
 10
363.155084
 20
344.319220
 30
0.0
 11
353.155075
 21
344.319220
 31
0.0
  0
LINE
  5
315
100
AcDbEntity
  8
Layer_1
 62
1
100
AcDbLine
 10
353.155075
 20
344.319220
 30
0.0
 11
353.155075
 21
341.319226
 31
0.0
  0
LINE
  5
316
100
AcDbEntity
  8
Layer_1
 62
1
100
AcDbLine
 10
353.155075
 20
341.319226
 30
0.0
 11
363.155084
 21
341.319226
 31
0.0
  0
LINE
  5
317
100
AcDbEntity
  8
Layer_1
 62
1
100
AcDbLine
 10
363.155084
 20
341.319226
 30
0.0
 11
363.155084
 21
344.319220
 31
0.0
  0
SPLINE
  5
318
100
AcDbEntity
  8
Layer_1
 62
1
100
AcDbSpline
 70
8
 71
3
 72
8
 73
4
 74
0
 40
0
 40
0
 40
0
 40
0
 40
1
 40
1
 40
1
 40
1
 10
366.605081
 20
342.818080
 30
0.0
 10
366.605081
 20
341.962044
 30
0.0
 10
367.299037
 20
341.268088
 30
0.0
 10
368.155074
 20
341.268088
 30
0.0
  0
SPLINE
  5
319
100
AcDbEntity
  8
Layer_1
 62
1
100
AcDbSpline
 70
8
 71
3
 72
8
 73
4
 74
0
 40
0
 40
0
 40
0
 40
0
 40
1
 40
1
 40
1
 40
1
 10
368.155074
 20
341.268088
 30
0.0
 10
369.011110
 20
341.268088
 30
0.0
 10
369.705066
 20
341.962044
 30
0.0
 10
369.705066
 20
342.818080
 30
0.0
  0
SPLINE
  5
31a
100
AcDbEntity
  8
Layer_1
 62
1
100
AcDbSpline
 70
8
 71
3
 72
8
 73
4
 74
0
 40
0
 40
0
 40
0
 40
0
 40
1
 40
1
 40
1
 40
1
 10
369.705066
 20
342.818080
 30
0.0
 10
369.705066
 20
343.674117
 30
0.0
 10
369.011110
 20
344.368073
 30
0.0
 10
368.155074
 20
344.368073
 30
0.0
  0
SPLINE
  5
31b
100
AcDbEntity
  8
Layer_1
 62
1
100
AcDbSpline
 70
8
 71
3
 72
8
 73
4
 74
0
 40
0
 40
0
 40
0
 40
0
 40
1
 40
1
 40
1
 40
1
 10
368.155074
 20
344.368073
 30
0.0
 10
367.299037
 20
344.368073
 30
0.0
 10
366.605081
 20
343.674117
 30
0.0
 10
366.605081
 20
342.818080
 30
0.0
  0
LINE
  5
31c
100
AcDbEntity
  8
Layer_1
 62
1
100
AcDbLine
 10
366.605081
 20
342.818080
 30
0.0
 11
366.605081
 21
342.818080
 31
0.0
  0
SPLINE
  5
31d
100
AcDbEntity
  8
Layer_1
 62
3
100
AcDbSpline
 70
8
 71
3
 72
8
 73
4
 74
0
 40
0
 40
0
 40
0
 40
0
 40
1
 40
1
 40
1
 40
1
 10
245.042958
 20
333.390594
 30
0.0
 10
245.042958
 20
333.272031
 30
0.0
 10
245.000614
 20
333.173229
 30
0.0
 10
244.915925
 20
333.094188
 30
0.0
  0
SPLINE
  5
31e
100
AcDbEntity
  8
Layer_1
 62
3
100
AcDbSpline
 70
8
 71
3
 72
8
 73
4
 74
0
 40
0
 40
0
 40
0
 40
0
 40
1
 40
1
 40
1
 40
1
 10
244.915925
 20
333.094188
 30
0.0
 10
244.836884
 20
333.009498
 30
0.0
 10
244.738081
 20
332.967154
 30
0.0
 10
244.619518
 20
332.967154
 30
0.0
  0
SPLINE
  5
31f
100
AcDbEntity
  8
Layer_1
 62
3
100
AcDbSpline
 70
8
 71
3
 72
8
 73
4
 74
0
 40
0
 40
0
 40
0
 40
0
 40
1
 40
1
 40
1
 40
1
 10
244.619518
 20
332.967154
 30
0.0
 10
244.500954
 20
332.967154
 30
0.0
 10
244.399329
 20
333.009498
 30
0.0
 10
244.314642
 20
333.094188
 30
0.0
  0
SPLINE
  5
320
100
AcDbEntity
  8
Layer_1
 62
3
100
AcDbSpline
 70
8
 71
3
 72
8
 73
4
 74
0
 40
0
 40
0
 40
0
 40
0
 40
1
 40
1
 40
1
 40
1
 10
244.314642
 20
333.094188
 30
0.0
 10
244.235601
 20
333.173229
 30
0.0
 10
244.196080
 20
333.272031
 30
0.0
 10
244.196080
 20
333.390594
 30
0.0
  0
LINE
  5
321
100
AcDbEntity
  8
Layer_1
 62
3
100
AcDbLine
 10
244.196080
 20
333.390594
 30
0.0
 11
244.196080
 21
336.778108
 31
0.0
  0
SPLINE
  5
322
100
AcDbEntity
  8
Layer_1
 62
3
100
AcDbSpline
 70
8
 71
3
 72
8
 73
4
 74
0
 40
0
 40
0
 40
0
 40
0
 40
1
 40
1
 40
1
 40
1
 10
244.196080
 20
336.778108
 30
0.0
 10
244.196080
 20
336.941838
 30
0.0
 10
244.269476
 20
337.066047
 30
0.0
 10
244.416267
 20
337.150734
 30
0.0
  0
SPLINE
  5
323
100
AcDbEntity
  8
Layer_1
 62
3
100
AcDbSpline
 70
8
 71
3
 72
8
 73
4
 74
0
 40
0
 40
0
 40
0
 40
0
 40
1
 40
1
 40
1
 40
1
 10
244.416267
 20
337.150734
 30
0.0
 10
244.484017
 20
337.190255
 30
0.0
 10
244.554591
 20
337.210015
 30
0.0
 10
244.627987
 20
337.210015
 30
0.0
  0
SPLINE
  5
324
100
AcDbEntity
  8
Layer_1
 62
3
100
AcDbSpline
 70
8
 71
3
 72
8
 73
4
 74
0
 40
0
 40
0
 40
0
 40
0
 40
1
 40
1
 40
1
 40
1
 10
244.627987
 20
337.210015
 30
0.0
 10
244.707028
 20
337.204371
 30
0.0
 10
244.777602
 20
337.181787
 30
0.0
 10
244.839708
 20
337.142265
 30
0.0
  0
LINE
  5
325
100
AcDbEntity
  8
Layer_1
 62
3
100
AcDbLine
 10
244.839708
 20
337.142265
 30
0.0
 11
249.870164
 21
334.008816
 31
0.0
  0
SPLINE
  5
326
100
AcDbEntity
  8
Layer_1
 62
3
100
AcDbSpline
 70
8
 71
3
 72
8
 73
4
 74
0
 40
0
 40
0
 40
0
 40
0
 40
1
 40
1
 40
1
 40
1
 10
249.870164
 20
334.008816
 30
0.0
 10
250.079061
 20
333.878962
 30
0.0
 10
250.304895
 20
333.814035
 30
0.0
 10
250.547666
 20
333.814035
 30
0.0
  0
SPLINE
  5
327
100
AcDbEntity
  8
Layer_1
 62
3
100
AcDbSpline
 70
8
 71
3
 72
8
 73
4
 74
0
 40
0
 40
0
 40
0
 40
0
 40
1
 40
1
 40
1
 40
1
 10
250.547666
 20
333.814035
 30
0.0
 10
250.717043
 20
333.814035
 30
0.0
 10
250.877950
 20
333.847909
 30
0.0
 10
251.030388
 20
333.915658
 30
0.0
  0
SPLINE
  5
328
100
AcDbEntity
  8
Layer_1
 62
3
100
AcDbSpline
 70
8
 71
3
 72
8
 73
4
 74
0
 40
0
 40
0
 40
0
 40
0
 40
1
 40
1
 40
1
 40
1
 10
251.030388
 20
333.915658
 30
0.0
 10
251.188472
 20
333.977763
 30
0.0
 10
251.326795
 20
334.068097
 30
0.0
 10
251.445359
 20
334.186659
 30
0.0
  0
SPLINE
  5
329
100
AcDbEntity
  8
Layer_1
 62
3
100
AcDbSpline
 70
8
 71
3
 72
8
 73
4
 74
0
 40
0
 40
0
 40
0
 40
0
 40
1
 40
1
 40
1
 40
1
 10
251.445359
 20
334.186659
 30
0.0
 10
251.693776
 20
334.435076
 30
0.0
 10
251.817985
 20
334.734307
 30
0.0
 10
251.817985
 20
335.084351
 30
0.0
  0
SPLINE
  5
32a
100
AcDbEntity
  8
Layer_1
 62
3
100
AcDbSpline
 70
8
 71
3
 72
8
 73
4
 74
0
 40
0
 40
0
 40
0
 40
0
 40
1
 40
1
 40
1
 40
1
 10
251.817985
 20
335.084351
 30
0.0
 10
251.817985
 20
335.377936
 30
0.0
 10
251.730475
 20
335.637645
 30
0.0
 10
251.555454
 20
335.863479
 30
0.0
  0
SPLINE
  5
32b
100
AcDbEntity
  8
Layer_1
 62
3
100
AcDbSpline
 70
8
 71
3
 72
8
 73
4
 74
0
 40
0
 40
0
 40
0
 40
0
 40
1
 40
1
 40
1
 40
1
 10
251.555454
 20
335.863479
 30
0.0
 10
251.380431
 20
336.089313
 30
0.0
 10
251.148950
 20
336.238929
 30
0.0
 10
250.861012
 20
336.312325
 30
0.0
  0
SPLINE
  5
32c
100
AcDbEntity
  8
Layer_1
 62
3
100
AcDbSpline
 70
8
 71
3
 72
8
 73
4
 74
0
 40
0
 40
0
 40
0
 40
0
 40
1
 40
1
 40
1
 40
1
 10
250.861012
 20
336.312325
 30
0.0
 10
250.748095
 20
336.340555
 30
0.0
 10
250.663408
 20
336.405482
 30
0.0
 10
250.606950
 20
336.507107
 30
0.0
  0
SPLINE
  5
32d
100
AcDbEntity
  8
Layer_1
 62
3
100
AcDbSpline
 70
8
 71
3
 72
8
 73
4
 74
0
 40
0
 40
0
 40
0
 40
0
 40
1
 40
1
 40
1
 40
1
 10
250.606950
 20
336.507107
 30
0.0
 10
250.550490
 20
336.608731
 30
0.0
 10
250.536376
 20
336.716002
 30
0.0
 10
250.564605
 20
336.828919
 30
0.0
  0
SPLINE
  5
32e
100
AcDbEntity
  8
Layer_1
 62
3
100
AcDbSpline
 70
8
 71
3
 72
8
 73
4
 74
0
 40
0
 40
0
 40
0
 40
0
 40
1
 40
1
 40
1
 40
1
 10
250.564605
 20
336.828919
 30
0.0
 10
250.592835
 20
336.941836
 30
0.0
 10
250.654939
 20
337.029348
 30
0.0
 10
250.750917
 20
337.091453
 30
0.0
  0
SPLINE
  5
32f
100
AcDbEntity
  8
Layer_1
 62
3
100
AcDbSpline
 70
8
 71
3
 72
8
 73
4
 74
0
 40
0
 40
0
 40
0
 40
0
 40
1
 40
1
 40
1
 40
1
 10
250.750917
 20
337.091453
 30
0.0
 10
250.852543
 20
337.147911
 30
0.0
 10
250.959815
 20
337.162025
 30
0.0
 10
251.072732
 20
337.133795
 30
0.0
  0
SPLINE
  5
330
100
AcDbEntity
  8
Layer_1
 62
3
100
AcDbSpline
 70
8
 71
3
 72
8
 73
4
 74
0
 40
0
 40
0
 40
0
 40
0
 40
1
 40
1
 40
1
 40
1
 10
251.072732
 20
337.133795
 30
0.0
 10
251.309857
 20
337.077338
 30
0.0
 10
251.524400
 20
336.984182
 30
0.0
 10
251.716360
 20
336.854328
 30
0.0
  0
SPLINE
  5
331
100
AcDbEntity
  8
Layer_1
 62
3
100
AcDbSpline
 70
8
 71
3
 72
8
 73
4
 74
0
 40
0
 40
0
 40
0
 40
0
 40
1
 40
1
 40
1
 40
1
 10
251.716360
 20
336.854328
 30
0.0
 10
251.913964
 20
336.718827
 30
0.0
 10
252.080517
 20
336.560743
 30
0.0
 10
252.216017
 20
336.380076
 30
0.0
  0
SPLINE
  5
332
100
AcDbEntity
  8
Layer_1
 62
3
100
AcDbSpline
 70
8
 71
3
 72
8
 73
4
 74
0
 40
0
 40
0
 40
0
 40
0
 40
1
 40
1
 40
1
 40
1
 10
252.216017
 20
336.380076
 30
0.0
 10
252.357164
 20
336.199408
 30
0.0
 10
252.467258
 20
335.998980
 30
0.0
 10
252.546299
 20
335.778790
 30
0.0
  0
SPLINE
  5
333
100
AcDbEntity
  8
Layer_1
 62
3
100
AcDbSpline
 70
8
 71
3
 72
8
 73
4
 74
0
 40
0
 40
0
 40
0
 40
0
 40
1
 40
1
 40
1
 40
1
 10
252.546299
 20
335.778790
 30
0.0
 10
252.625342
 20
335.558602
 30
0.0
 10
252.664864
 20
335.327122
 30
0.0
 10
252.664864
 20
335.084351
 30
0.0
  0
SPLINE
  5
334
100
AcDbEntity
  8
Layer_1
 62
3
100
AcDbSpline
 70
8
 71
3
 72
8
 73
4
 74
0
 40
0
 40
0
 40
0
 40
0
 40
1
 40
1
 40
1
 40
1
 10
252.664864
 20
335.084351
 30
0.0
 10
252.664864
 20
334.796413
 30
0.0
 10
252.611228
 20
334.525412
 30
0.0
 10
252.503957
 20
334.271348
 30
0.0
  0
SPLINE
  5
335
100
AcDbEntity
  8
Layer_1
 62
3
100
AcDbSpline
 70
8
 71
3
 72
8
 73
4
 74
0
 40
0
 40
0
 40
0
 40
0
 40
1
 40
1
 40
1
 40
1
 10
252.503957
 20
334.271348
 30
0.0
 10
252.396685
 20
334.011638
 30
0.0
 10
252.244246
 20
333.782980
 30
0.0
 10
252.046642
 20
333.585376
 30
0.0
  0
SPLINE
  5
336
100
AcDbEntity
  8
Layer_1
 62
3
100
AcDbSpline
 70
8
 71
3
 72
8
 73
4
 74
0
 40
0
 40
0
 40
0
 40
0
 40
1
 40
1
 40
1
 40
1
 10
252.046642
 20
333.585376
 30
0.0
 10
251.849037
 20
333.387771
 30
0.0
 10
251.620380
 20
333.235334
 30
0.0
 10
251.360670
 20
333.128063
 30
0.0
  0
SPLINE
  5
337
100
AcDbEntity
  8
Layer_1
 62
3
100
AcDbSpline
 70
8
 71
3
 72
8
 73
4
 74
0
 40
0
 40
0
 40
0
 40
0
 40
1
 40
1
 40
1
 40
1
 10
251.360670
 20
333.128063
 30
0.0
 10
251.106607
 20
333.020790
 30
0.0
 10
250.835606
 20
332.967154
 30
0.0
 10
250.547666
 20
332.967154
 30
0.0
  0
SPLINE
  5
338
100
AcDbEntity
  8
Layer_1
 62
3
100
AcDbSpline
 70
8
 71
3
 72
8
 73
4
 74
0
 40
0
 40
0
 40
0
 40
0
 40
1
 40
1
 40
1
 40
1
 10
250.547666
 20
332.967154
 30
0.0
 10
250.141165
 20
332.967154
 30
0.0
 10
249.765715
 20
333.074426
 30
0.0
 10
249.421317
 20
333.288969
 30
0.0
  0
LINE
  5
339
100
AcDbEntity
  8
Layer_1
 62
3
100
AcDbLine
 10
249.421317
 20
333.288969
 30
0.0
 11
245.042958
 21
336.015916
 31
0.0
  0
LINE
  5
33a
100
AcDbEntity
  8
Layer_1
 62
3
100
AcDbLine
 10
245.042958
 20
336.015916
 30
0.0
 11
245.042958
 21
333.390594
 31
0.0
  0
LINE
  5
33b
100
AcDbEntity
  8
Layer_1
 62
3
100
AcDbLine
 10
245.042958
 20
333.390594
 30
0.0
 11
245.042958
 21
333.390594
 31
0.0
  0
LINE
  5
33c
100
AcDbEntity
  8
Layer_1
 62
3
100
AcDbLine
 10
245.042958
 20
333.390594
 30
0.0
 11
245.042958
 21
333.390594
 31
0.0
  0
LINE
  5
33d
100
AcDbEntity
  8
Layer_1
 62
5
100
AcDbLine
 10
210.252631
 20
268.181531
 30
0.0
 11
210.644701
 21
264.357513
 31
0.0
  0
LINE
  5
33e
100
AcDbEntity
  8
Layer_1
 62
5
100
AcDbLine
 10
210.644701
 20
264.357513
 30
0.0
 11
209.987436
 21
259.711495
 31
0.0
  0
LINE
  5
33f
100
AcDbEntity
  8
Layer_1
 62
5
100
AcDbLine
 10
209.987436
 20
259.711495
 30
0.0
 11
206.257691
 21
251.065165
 31
0.0
  0
LINE
  5
340
100
AcDbEntity
  8
Layer_1
 62
5
100
AcDbLine
 10
206.257691
 20
251.065165
 30
0.0
 11
200.527900
 21
251.065165
 31
0.0
  0
LINE
  5
341
100
AcDbEntity
  8
Layer_1
 62
5
100
AcDbLine
 10
200.527900
 20
251.065165
 30
0.0
 11
196.798155
 21
259.711495
 31
0.0
  0
LINE
  5
342
100
AcDbEntity
  8
Layer_1
 62
5
100
AcDbLine
 10
196.798155
 20
259.711495
 30
0.0
 11
196.140890
 21
264.357513
 31
0.0
  0
LINE
  5
343
100
AcDbEntity
  8
Layer_1
 62
5
100
AcDbLine
 10
196.140890
 20
264.357513
 30
0.0
 11
196.532960
 21
268.181531
 31
0.0
  0
LINE
  5
344
100
AcDbEntity
  8
Layer_1
 62
5
100
AcDbLine
 10
196.532960
 20
268.181531
 30
0.0
 11
186.955374
 21
269.870318
 31
0.0
  0
LINE
  5
345
100
AcDbEntity
  8
Layer_1
 62
5
100
AcDbLine
 10
186.955374
 20
269.870318
 30
0.0
 11
186.015904
 21
266.142820
 31
0.0
  0
LINE
  5
346
100
AcDbEntity
  8
Layer_1
 62
5
100
AcDbLine
 10
186.015904
 20
266.142820
 30
0.0
 11
183.809248
 21
262.001787
 31
0.0
  0
LINE
  5
347
100
AcDbEntity
  8
Layer_1
 62
5
100
AcDbLine
 10
183.809248
 20
262.001787
 30
0.0
 11
177.347215
 21
255.152533
 31
0.0
  0
LINE
  5
348
100
AcDbEntity
  8
Layer_1
 62
5
100
AcDbLine
 10
177.347215
 20
255.152533
 30
0.0
 11
171.962973
 21
257.112250
 31
0.0
  0
LINE
  5
349
100
AcDbEntity
  8
Layer_1
 62
5
100
AcDbLine
 10
171.962973
 20
257.112250
 30
0.0
 11
171.415376
 21
266.512788
 31
0.0
  0
LINE
  5
34a
100
AcDbEntity
  8
Layer_1
 62
5
100
AcDbLine
 10
171.415376
 20
266.512788
 30
0.0
 11
172.386782
 21
271.103415
 31
0.0
  0
LINE
  5
34b
100
AcDbEntity
  8
Layer_1
 62
5
100
AcDbLine
 10
172.386782
 20
271.103415
 30
0.0
 11
174.063096
 21
274.562723
 31
0.0
  0
LINE
  5
34c
100
AcDbEntity
  8
Layer_1
 62
5
100
AcDbLine
 10
174.063096
 20
274.562723
 30
0.0
 11
165.640710
 21
279.425392
 31
0.0
  0
LINE
  5
34d
100
AcDbEntity
  8
Layer_1
 62
5
100
AcDbLine
 10
165.640710
 20
279.425392
 30
0.0
 11
163.483018
 21
276.244005
 31
0.0
  0
LINE
  5
34e
100
AcDbEntity
  8
Layer_1
 62
5
100
AcDbLine
 10
163.483018
 20
276.244005
 30
0.0
 11
159.993121
 21
273.107430
 31
0.0
  0
LINE
  5
34f
100
AcDbEntity
  8
Layer_1
 62
5
100
AcDbLine
 10
159.993121
 20
273.107430
 30
0.0
 11
151.578221
 21
268.881394
 31
0.0
  0
LINE
  5
350
100
AcDbEntity
  8
Layer_1
 62
5
100
AcDbLine
 10
151.578221
 20
268.881394
 30
0.0
 11
147.188945
 21
272.564431
 31
0.0
  0
LINE
  5
351
100
AcDbEntity
  8
Layer_1
 62
5
100
AcDbLine
 10
147.188945
 20
272.564431
 30
0.0
 11
149.889544
 21
281.585334
 31
0.0
  0
LINE
  5
352
100
AcDbEntity
  8
Layer_1
 62
5
100
AcDbLine
 10
149.889544
 20
281.585334
 30
0.0
 11
152.372453
 21
285.566875
 31
0.0
  0
LINE
  5
353
100
AcDbEntity
  8
Layer_1
 62
5
100
AcDbLine
 10
152.372453
 20
285.566875
 30
0.0
 11
155.130828
 21
288.244227
 31
0.0
  0
LINE
  5
354
100
AcDbEntity
  8
Layer_1
 62
5
100
AcDbLine
 10
155.130828
 20
288.244227
 30
0.0
 11
148.879504
 21
295.694267
 31
0.0
  0
LINE
  5
355
100
AcDbEntity
  8
Layer_1
 62
5
100
AcDbLine
 10
148.879504
 20
295.694267
 30
0.0
 11
145.763842
 21
293.442718
 31
0.0
  0
LINE
  5
356
100
AcDbEntity
  8
Layer_1
 62
5
100
AcDbLine
 10
145.763842
 20
293.442718
 30
0.0
 11
141.411636
 21
291.688913
 31
0.0
  0
LINE
  5
357
100
AcDbEntity
  8
Layer_1
 62
5
100
AcDbLine
 10
141.411636
 20
291.688913
 30
0.0
 11
132.058828
 21
290.595807
 31
0.0
  0
LINE
  5
358
100
AcDbEntity
  8
Layer_1
 62
5
100
AcDbLine
 10
132.058828
 20
290.595807
 30
0.0
 11
129.193931
 21
295.557951
 31
0.0
  0
LINE
  5
359
100
AcDbEntity
  8
Layer_1
 62
5
100
AcDbLine
 10
129.193931
 20
295.557951
 30
0.0
 11
134.816997
 21
303.111166
 31
0.0
  0
LINE
  5
35a
100
AcDbEntity
  8
Layer_1
 62
5
100
AcDbLine
 10
134.816997
 20
303.111166
 30
0.0
 11
138.511935
 21
306.003385
 31
0.0
  0
LINE
  5
35b
100
AcDbEntity
  8
Layer_1
 62
5
100
AcDbLine
 10
138.511935
 20
306.003385
 30
0.0
 11
142.019670
 21
307.575851
 31
0.0
  0
LINE
  5
35c
100
AcDbEntity
  8
Layer_1
 62
5
100
AcDbLine
 10
142.019670
 20
307.575851
 30
0.0
 11
138.693407
 21
316.714678
 31
0.0
  0
LINE
  5
35d
100
AcDbEntity
  8
Layer_1
 62
5
100
AcDbLine
 10
138.693407
 20
316.714678
 30
0.0
 11
134.995565
 21
315.664532
 31
0.0
  0
LINE
  5
35e
100
AcDbEntity
  8
Layer_1
 62
5
100
AcDbLine
 10
134.995565
 20
315.664532
 30
0.0
 11
130.305997
 21
315.505040
 31
0.0
  0
LINE
  5
35f
100
AcDbEntity
  8
Layer_1
 62
5
100
AcDbLine
 10
130.305997
 20
315.505040
 30
0.0
 11
121.143364
 21
317.676701
 31
0.0
  0
LINE
  5
360
100
AcDbEntity
  8
Layer_1
 62
5
100
AcDbLine
 10
121.143364
 20
317.676701
 30
0.0
 11
120.148398
 21
323.319443
 31
0.0
  0
LINE
  5
361
100
AcDbEntity
  8
Layer_1
 62
5
100
AcDbLine
 10
120.148398
 20
323.319443
 30
0.0
 11
128.015701
 21
328.493946
 31
0.0
  0
LINE
  5
362
100
AcDbEntity
  8
Layer_1
 62
5
100
AcDbLine
 10
128.015701
 20
328.493946
 30
0.0
 11
132.477005
 21
329.947997
 31
0.0
  0
LINE
  5
363
100
AcDbEntity
  8
Layer_1
 62
5
100
AcDbLine
 10
132.477005
 20
329.947997
 30
0.0
 11
136.311011
 21
330.225918
 31
0.0
  0
LINE
  5
364
100
AcDbEntity
  8
Layer_1
 62
5
100
AcDbLine
 10
136.311011
 20
330.225918
 30
0.0
 11
136.311011
 21
339.951256
 31
0.0
  0
LINE
  5
365
100
AcDbEntity
  8
Layer_1
 62
5
100
AcDbLine
 10
136.311011
 20
339.951256
 30
0.0
 11
132.477005
 21
340.229178
 31
0.0
  0
LINE
  5
366
100
AcDbEntity
  8
Layer_1
 62
5
100
AcDbLine
 10
132.477005
 20
340.229178
 30
0.0
 11
128.015701
 21
341.683229
 31
0.0
  0
LINE
  5
367
100
AcDbEntity
  8
Layer_1
 62
5
100
AcDbLine
 10
128.015701
 20
341.683229
 30
0.0
 11
120.148398
 21
346.857731
 31
0.0
  0
LINE
  5
368
100
AcDbEntity
  8
Layer_1
 62
5
100
AcDbLine
 10
120.148398
 20
346.857731
 30
0.0
 11
121.143364
 21
352.500474
 31
0.0
  0
LINE
  5
369
100
AcDbEntity
  8
Layer_1
 62
5
100
AcDbLine
 10
121.143364
 20
352.500474
 30
0.0
 11
130.305997
 21
354.672134
 31
0.0
  0
LINE
  5
36a
100
AcDbEntity
  8
Layer_1
 62
5
100
AcDbLine
 10
130.305997
 20
354.672134
 30
0.0
 11
134.995565
 21
354.512642
 31
0.0
  0
LINE
  5
36b
100
AcDbEntity
  8
Layer_1
 62
5
100
AcDbLine
 10
134.995565
 20
354.512642
 30
0.0
 11
138.693407
 21
353.462496
 31
0.0
  0
LINE
  5
36c
100
AcDbEntity
  8
Layer_1
 62
5
100
AcDbLine
 10
138.693407
 20
353.462496
 30
0.0
 11
142.019670
 21
362.601323
 31
0.0
  0
LINE
  5
36d
100
AcDbEntity
  8
Layer_1
 62
5
100
AcDbLine
 10
142.019670
 20
362.601323
 30
0.0
 11
138.511935
 21
364.173789
 31
0.0
  0
LINE
  5
36e
100
AcDbEntity
  8
Layer_1
 62
5
100
AcDbLine
 10
138.511935
 20
364.173789
 30
0.0
 11
134.816997
 21
367.066008
 31
0.0
  0
LINE
  5
36f
100
AcDbEntity
  8
Layer_1
 62
5
100
AcDbLine
 10
134.816997
 20
367.066008
 30
0.0
 11
129.193931
 21
374.619223
 31
0.0
  0
LINE
  5
370
100
AcDbEntity
  8
Layer_1
 62
5
100
AcDbLine
 10
129.193931
 20
374.619223
 30
0.0
 11
132.058828
 21
379.581368
 31
0.0
  0
LINE
  5
371
100
AcDbEntity
  8
Layer_1
 62
5
100
AcDbLine
 10
132.058828
 20
379.581368
 30
0.0
 11
141.411636
 21
378.488262
 31
0.0
  0
LINE
  5
372
100
AcDbEntity
  8
Layer_1
 62
5
100
AcDbLine
 10
141.411636
 20
378.488262
 30
0.0
 11
145.763842
 21
376.734456
 31
0.0
  0
LINE
  5
373
100
AcDbEntity
  8
Layer_1
 62
5
100
AcDbLine
 10
145.763842
 20
376.734456
 30
0.0
 11
148.879504
 21
374.482907
 31
0.0
  0
LINE
  5
374
100
AcDbEntity
  8
Layer_1
 62
5
100
AcDbLine
 10
148.879504
 20
374.482907
 30
0.0
 11
155.130828
 21
381.932948
 31
0.0
  0
LINE
  5
375
100
AcDbEntity
  8
Layer_1
 62
5
100
AcDbLine
 10
155.130828
 20
381.932948
 30
0.0
 11
152.372453
 21
384.610300
 31
0.0
  0
LINE
  5
376
100
AcDbEntity
  8
Layer_1
 62
5
100
AcDbLine
 10
152.372453
 20
384.610300
 30
0.0
 11
149.889544
 21
388.591840
 31
0.0
  0
LINE
  5
377
100
AcDbEntity
  8
Layer_1
 62
5
100
AcDbLine
 10
149.889544
 20
388.591840
 30
0.0
 11
147.188945
 21
397.612743
 31
0.0
  0
LINE
  5
378
100
AcDbEntity
  8
Layer_1
 62
5
100
AcDbLine
 10
147.188945
 20
397.612743
 30
0.0
 11
151.578221
 21
401.295780
 31
0.0
  0
LINE
  5
379
100
AcDbEntity
  8
Layer_1
 62
5
100
AcDbLine
 10
151.578221
 20
401.295780
 30
0.0
 11
159.993121
 21
397.069745
 31
0.0
  0
LINE
  5
37a
100
AcDbEntity
  8
Layer_1
 62
5
100
AcDbLine
 10
159.993121
 20
397.069745
 30
0.0
 11
163.483018
 21
393.933169
 31
0.0
  0
LINE
  5
37b
100
AcDbEntity
  8
Layer_1
 62
5
100
AcDbLine
 10
163.483018
 20
393.933169
 30
0.0
 11
165.640710
 21
390.751783
 31
0.0
  0
LINE
  5
37c
100
AcDbEntity
  8
Layer_1
 62
5
100
AcDbLine
 10
165.640710
 20
390.751783
 30
0.0
 11
174.063096
 21
395.614452
 31
0.0
  0
LINE
  5
37d
100
AcDbEntity
  8
Layer_1
 62
5
100
AcDbLine
 10
174.063096
 20
395.614452
 30
0.0
 11
172.386782
 21
399.073760
 31
0.0
  0
LINE
  5
37e
100
AcDbEntity
  8
Layer_1
 62
5
100
AcDbLine
 10
172.386782
 20
399.073760
 30
0.0
 11
171.415376
 21
403.664387
 31
0.0
  0
LINE
  5
37f
100
AcDbEntity
  8
Layer_1
 62
5
100
AcDbLine
 10
171.415376
 20
403.664387
 30
0.0
 11
171.962973
 21
413.064924
 31
0.0
  0
LINE
  5
380
100
AcDbEntity
  8
Layer_1
 62
5
100
AcDbLine
 10
171.962973
 20
413.064924
 30
0.0
 11
177.347215
 21
415.024630
 31
0.0
  0
LINE
  5
381
100
AcDbEntity
  8
Layer_1
 62
5
100
AcDbLine
 10
177.347215
 20
415.024630
 30
0.0
 11
183.809248
 21
408.175387
 31
0.0
  0
LINE
  5
382
100
AcDbEntity
  8
Layer_1
 62
5
100
AcDbLine
 10
183.809248
 20
408.175387
 30
0.0
 11
186.015904
 21
404.034355
 31
0.0
  0
LINE
  5
383
100
AcDbEntity
  8
Layer_1
 62
5
100
AcDbLine
 10
186.015904
 20
404.034355
 30
0.0
 11
186.955374
 21
400.306856
 31
0.0
  0
LINE
  5
384
100
AcDbEntity
  8
Layer_1
 62
5
100
AcDbLine
 10
186.955374
 20
400.306856
 30
0.0
 11
196.532960
 21
401.995643
 31
0.0
  0
LINE
  5
385
100
AcDbEntity
  8
Layer_1
 62
5
100
AcDbLine
 10
196.532960
 20
401.995643
 30
0.0
 11
196.140890
 21
405.819661
 31
0.0
  0
LINE
  5
386
100
AcDbEntity
  8
Layer_1
 62
5
100
AcDbLine
 10
196.140890
 20
405.819661
 30
0.0
 11
196.798155
 21
410.465680
 31
0.0
  0
LINE
  5
387
100
AcDbEntity
  8
Layer_1
 62
5
100
AcDbLine
 10
196.798155
 20
410.465680
 30
0.0
 11
200.527900
 21
419.112009
 31
0.0
  0
LINE
  5
388
100
AcDbEntity
  8
Layer_1
 62
5
100
AcDbLine
 10
200.527900
 20
419.112009
 30
0.0
 11
206.257691
 21
419.112009
 31
0.0
  0
LINE
  5
389
100
AcDbEntity
  8
Layer_1
 62
5
100
AcDbLine
 10
206.257691
 20
419.112009
 30
0.0
 11
209.987436
 21
410.465680
 31
0.0
  0
LINE
  5
38a
100
AcDbEntity
  8
Layer_1
 62
5
100
AcDbLine
 10
209.987436
 20
410.465680
 30
0.0
 11
210.644701
 21
405.819661
 31
0.0
  0
LINE
  5
38b
100
AcDbEntity
  8
Layer_1
 62
5
100
AcDbLine
 10
210.644701
 20
405.819661
 30
0.0
 11
210.252631
 21
401.995643
 31
0.0
  0
LINE
  5
38c
100
AcDbEntity
  8
Layer_1
 62
5
100
AcDbLine
 10
210.252631
 20
401.995643
 30
0.0
 11
219.830218
 21
400.306856
 31
0.0
  0
LINE
  5
38d
100
AcDbEntity
  8
Layer_1
 62
5
100
AcDbLine
 10
219.830218
 20
400.306856
 30
0.0
 11
220.769688
 21
404.034355
 31
0.0
  0
LINE
  5
38e
100
AcDbEntity
  8
Layer_1
 62
5
100
AcDbLine
 10
220.769688
 20
404.034355
 30
0.0
 11
222.976344
 21
408.175387
 31
0.0
  0
LINE
  5
38f
100
AcDbEntity
  8
Layer_1
 62
5
100
AcDbLine
 10
222.976344
 20
408.175387
 30
0.0
 11
229.438375
 21
415.024630
 31
0.0
  0
LINE
  5
390
100
AcDbEntity
  8
Layer_1
 62
5
100
AcDbLine
 10
229.438375
 20
415.024630
 30
0.0
 11
234.822619
 21
413.064924
 31
0.0
  0
LINE
  5
391
100
AcDbEntity
  8
Layer_1
 62
5
100
AcDbLine
 10
234.822619
 20
413.064924
 30
0.0
 11
235.370215
 21
403.664387
 31
0.0
  0
LINE
  5
392
100
AcDbEntity
  8
Layer_1
 62
5
100
AcDbLine
 10
235.370215
 20
403.664387
 30
0.0
 11
234.398809
 21
399.073760
 31
0.0
  0
LINE
  5
393
100
AcDbEntity
  8
Layer_1
 62
5
100
AcDbLine
 10
234.398809
 20
399.073760
 30
0.0
 11
232.722496
 21
395.614452
 31
0.0
  0
LINE
  5
394
100
AcDbEntity
  8
Layer_1
 62
5
100
AcDbLine
 10
232.722496
 20
395.614452
 30
0.0
 11
241.144880
 21
390.751783
 31
0.0
  0
LINE
  5
395
100
AcDbEntity
  8
Layer_1
 62
5
100
AcDbLine
 10
241.144880
 20
390.751783
 30
0.0
 11
243.302573
 21
393.933169
 31
0.0
  0
LINE
  5
396
100
AcDbEntity
  8
Layer_1
 62
5
100
AcDbLine
 10
243.302573
 20
393.933169
 30
0.0
 11
246.792471
 21
397.069745
 31
0.0
  0
LINE
  5
397
100
AcDbEntity
  8
Layer_1
 62
5
100
AcDbLine
 10
246.792471
 20
397.069745
 30
0.0
 11
255.207373
 21
401.295780
 31
0.0
  0
LINE
  5
398
100
AcDbEntity
  8
Layer_1
 62
5
100
AcDbLine
 10
255.207373
 20
401.295780
 30
0.0
 11
259.596648
 21
397.612743
 31
0.0
  0
LINE
  5
399
100
AcDbEntity
  8
Layer_1
 62
5
100
AcDbLine
 10
259.596648
 20
397.612743
 30
0.0
 11
256.896047
 21
388.591840
 31
0.0
  0
LINE
  5
39a
100
AcDbEntity
  8
Layer_1
 62
5
100
AcDbLine
 10
256.896047
 20
388.591840
 30
0.0
 11
254.413137
 21
384.610300
 31
0.0
  0
LINE
  5
39b
100
AcDbEntity
  8
Layer_1
 62
5
100
AcDbLine
 10
254.413137
 20
384.610300
 30
0.0
 11
251.654762
 21
381.932948
 31
0.0
  0
LINE
  5
39c
100
AcDbEntity
  8
Layer_1
 62
5
100
AcDbLine
 10
251.654762
 20
381.932948
 30
0.0
 11
257.906086
 21
374.482907
 31
0.0
  0
LINE
  5
39d
100
AcDbEntity
  8
Layer_1
 62
5
100
AcDbLine
 10
257.906086
 20
374.482907
 30
0.0
 11
261.021749
 21
376.734456
 31
0.0
  0
LINE
  5
39e
100
AcDbEntity
  8
Layer_1
 62
5
100
AcDbLine
 10
261.021749
 20
376.734456
 30
0.0
 11
265.373954
 21
378.488262
 31
0.0
  0
LINE
  5
39f
100
AcDbEntity
  8
Layer_1
 62
5
100
AcDbLine
 10
265.373954
 20
378.488262
 30
0.0
 11
274.726762
 21
379.581368
 31
0.0
  0
LINE
  5
3a0
100
AcDbEntity
  8
Layer_1
 62
5
100
AcDbLine
 10
274.726762
 20
379.581368
 30
0.0
 11
277.591659
 21
374.619223
 31
0.0
  0
LINE
  5
3a1
100
AcDbEntity
  8
Layer_1
 62
5
100
AcDbLine
 10
277.591659
 20
374.619223
 30
0.0
 11
271.968596
 21
367.066008
 31
0.0
  0
LINE
  5
3a2
100
AcDbEntity
  8
Layer_1
 62
5
100
AcDbLine
 10
271.968596
 20
367.066008
 30
0.0
 11
268.273655
 21
364.173789
 31
0.0
  0
LINE
  5
3a3
100
AcDbEntity
  8
Layer_1
 62
5
100
AcDbLine
 10
268.273655
 20
364.173789
 30
0.0
 11
264.765923
 21
362.601323
 31
0.0
  0
LINE
  5
3a4
100
AcDbEntity
  8
Layer_1
 62
5
100
AcDbLine
 10
264.765923
 20
362.601323
 30
0.0
 11
268.092183
 21
353.462496
 31
0.0
  0
LINE
  5
3a5
100
AcDbEntity
  8
Layer_1
 62
5
100
AcDbLine
 10
268.092183
 20
353.462496
 30
0.0
 11
271.790026
 21
354.512642
 31
0.0
  0
LINE
  5
3a6
100
AcDbEntity
  8
Layer_1
 62
5
100
AcDbLine
 10
271.790026
 20
354.512642
 30
0.0
 11
276.479597
 21
354.672134
 31
0.0
  0
LINE
  5
3a7
100
AcDbEntity
  8
Layer_1
 62
5
100
AcDbLine
 10
276.479597
 20
354.672134
 30
0.0
 11
285.642226
 21
352.500474
 31
0.0
  0
LINE
  5
3a8
100
AcDbEntity
  8
Layer_1
 62
5
100
AcDbLine
 10
285.642226
 20
352.500474
 30
0.0
 11
286.637195
 21
346.857731
 31
0.0
  0
LINE
  5
3a9
100
AcDbEntity
  8
Layer_1
 62
5
100
AcDbLine
 10
286.637195
 20
346.857731
 30
0.0
 11
278.769889
 21
341.683229
 31
0.0
  0
LINE
  5
3aa
100
AcDbEntity
  8
Layer_1
 62
5
100
AcDbLine
 10
278.769889
 20
341.683229
 30
0.0
 11
274.308588
 21
340.229178
 31
0.0
  0
LINE
  5
3ab
100
AcDbEntity
  8
Layer_1
 62
5
100
AcDbLine
 10
274.308588
 20
340.229178
 30
0.0
 11
270.474582
 21
339.951256
 31
0.0
  0
LINE
  5
3ac
100
AcDbEntity
  8
Layer_1
 62
5
100
AcDbLine
 10
270.474582
 20
339.951256
 30
0.0
 11
270.474582
 21
330.225918
 31
0.0
  0
LINE
  5
3ad
100
AcDbEntity
  8
Layer_1
 62
5
100
AcDbLine
 10
270.474582
 20
330.225918
 30
0.0
 11
274.308588
 21
329.947997
 31
0.0
  0
LINE
  5
3ae
100
AcDbEntity
  8
Layer_1
 62
5
100
AcDbLine
 10
274.308588
 20
329.947997
 30
0.0
 11
278.769889
 21
328.493946
 31
0.0
  0
LINE
  5
3af
100
AcDbEntity
  8
Layer_1
 62
5
100
AcDbLine
 10
278.769889
 20
328.493946
 30
0.0
 11
286.637195
 21
323.319443
 31
0.0
  0
LINE
  5
3b0
100
AcDbEntity
  8
Layer_1
 62
5
100
AcDbLine
 10
286.637195
 20
323.319443
 30
0.0
 11
285.642226
 21
317.676701
 31
0.0
  0
LINE
  5
3b1
100
AcDbEntity
  8
Layer_1
 62
5
100
AcDbLine
 10
285.642226
 20
317.676701
 30
0.0
 11
276.479597
 21
315.505040
 31
0.0
  0
LINE
  5
3b2
100
AcDbEntity
  8
Layer_1
 62
5
100
AcDbLine
 10
276.479597
 20
315.505040
 30
0.0
 11
271.790026
 21
315.664532
 31
0.0
  0
LINE
  5
3b3
100
AcDbEntity
  8
Layer_1
 62
5
100
AcDbLine
 10
271.790026
 20
315.664532
 30
0.0
 11
268.092183
 21
316.714678
 31
0.0
  0
LINE
  5
3b4
100
AcDbEntity
  8
Layer_1
 62
5
100
AcDbLine
 10
268.092183
 20
316.714678
 30
0.0
 11
264.765923
 21
307.575851
 31
0.0
  0
LINE
  5
3b5
100
AcDbEntity
  8
Layer_1
 62
5
100
AcDbLine
 10
264.765923
 20
307.575851
 30
0.0
 11
268.273655
 21
306.003385
 31
0.0
  0
LINE
  5
3b6
100
AcDbEntity
  8
Layer_1
 62
5
100
AcDbLine
 10
268.273655
 20
306.003385
 30
0.0
 11
271.968596
 21
303.111166
 31
0.0
  0
LINE
  5
3b7
100
AcDbEntity
  8
Layer_1
 62
5
100
AcDbLine
 10
271.968596
 20
303.111166
 30
0.0
 11
277.591659
 21
295.557951
 31
0.0
  0
LINE
  5
3b8
100
AcDbEntity
  8
Layer_1
 62
5
100
AcDbLine
 10
277.591659
 20
295.557951
 30
0.0
 11
274.726762
 21
290.595807
 31
0.0
  0
LINE
  5
3b9
100
AcDbEntity
  8
Layer_1
 62
5
100
AcDbLine
 10
274.726762
 20
290.595807
 30
0.0
 11
265.373954
 21
291.688913
 31
0.0
  0
LINE
  5
3ba
100
AcDbEntity
  8
Layer_1
 62
5
100
AcDbLine
 10
265.373954
 20
291.688913
 30
0.0
 11
261.021749
 21
293.442718
 31
0.0
  0
LINE
  5
3bb
100
AcDbEntity
  8
Layer_1
 62
5
100
AcDbLine
 10
261.021749
 20
293.442718
 30
0.0
 11
257.906086
 21
295.694267
 31
0.0
  0
LINE
  5
3bc
100
AcDbEntity
  8
Layer_1
 62
5
100
AcDbLine
 10
257.906086
 20
295.694267
 30
0.0
 11
251.654762
 21
288.244227
 31
0.0
  0
LINE
  5
3bd
100
AcDbEntity
  8
Layer_1
 62
5
100
AcDbLine
 10
251.654762
 20
288.244227
 30
0.0
 11
254.413137
 21
285.566875
 31
0.0
  0
LINE
  5
3be
100
AcDbEntity
  8
Layer_1
 62
5
100
AcDbLine
 10
254.413137
 20
285.566875
 30
0.0
 11
256.896047
 21
281.585334
 31
0.0
  0
LINE
  5
3bf
100
AcDbEntity
  8
Layer_1
 62
5
100
AcDbLine
 10
256.896047
 20
281.585334
 30
0.0
 11
259.596648
 21
272.564431
 31
0.0
  0
LINE
  5
3c0
100
AcDbEntity
  8
Layer_1
 62
5
100
AcDbLine
 10
259.596648
 20
272.564431
 30
0.0
 11
255.207373
 21
268.881394
 31
0.0
  0
LINE
  5
3c1
100
AcDbEntity
  8
Layer_1
 62
5
100
AcDbLine
 10
255.207373
 20
268.881394
 30
0.0
 11
246.792471
 21
273.107430
 31
0.0
  0
LINE
  5
3c2
100
AcDbEntity
  8
Layer_1
 62
5
100
AcDbLine
 10
246.792471
 20
273.107430
 30
0.0
 11
243.302573
 21
276.244005
 31
0.0
  0
LINE
  5
3c3
100
AcDbEntity
  8
Layer_1
 62
5
100
AcDbLine
 10
243.302573
 20
276.244005
 30
0.0
 11
241.144880
 21
279.425392
 31
0.0
  0
LINE
  5
3c4
100
AcDbEntity
  8
Layer_1
 62
5
100
AcDbLine
 10
241.144880
 20
279.425392
 30
0.0
 11
232.722496
 21
274.562723
 31
0.0
  0
LINE
  5
3c5
100
AcDbEntity
  8
Layer_1
 62
5
100
AcDbLine
 10
232.722496
 20
274.562723
 30
0.0
 11
234.398809
 21
271.103415
 31
0.0
  0
LINE
  5
3c6
100
AcDbEntity
  8
Layer_1
 62
5
100
AcDbLine
 10
234.398809
 20
271.103415
 30
0.0
 11
235.370215
 21
266.512788
 31
0.0
  0
LINE
  5
3c7
100
AcDbEntity
  8
Layer_1
 62
5
100
AcDbLine
 10
235.370215
 20
266.512788
 30
0.0
 11
234.822619
 21
257.112250
 31
0.0
  0
LINE
  5
3c8
100
AcDbEntity
  8
Layer_1
 62
5
100
AcDbLine
 10
234.822619
 20
257.112250
 30
0.0
 11
229.438375
 21
255.152533
 31
0.0
  0
LINE
  5
3c9
100
AcDbEntity
  8
Layer_1
 62
5
100
AcDbLine
 10
229.438375
 20
255.152533
 30
0.0
 11
222.976344
 21
262.001787
 31
0.0
  0
LINE
  5
3ca
100
AcDbEntity
  8
Layer_1
 62
5
100
AcDbLine
 10
222.976344
 20
262.001787
 30
0.0
 11
220.769688
 21
266.142820
 31
0.0
  0
LINE
  5
3cb
100
AcDbEntity
  8
Layer_1
 62
5
100
AcDbLine
 10
220.769688
 20
266.142820
 30
0.0
 11
219.830218
 21
269.870318
 31
0.0
  0
LINE
  5
3cc
100
AcDbEntity
  8
Layer_1
 62
5
100
AcDbLine
 10
219.830218
 20
269.870318
 30
0.0
 11
210.252631
 21
268.181531
 31
0.0
  0
SPLINE
  5
3cd
100
AcDbEntity
  8
Layer_1
 62
5
100
AcDbSpline
 70
8
 71
3
 72
8
 73
4
 74
0
 40
0
 40
0
 40
0
 40
0
 40
1
 40
1
 40
1
 40
1
 10
224.157720
 20
345.126213
 30
0.0
 10
218.359877
 20
345.126213
 30
0.0
 10
213.659793
 20
349.826297
 30
0.0
 10
213.659793
 20
355.624141
 30
0.0
  0
LINE
  5
3ce
100
AcDbEntity
  8
Layer_1
 62
5
100
AcDbLine
 10
213.659793
 20
355.624141
 30
0.0
 11
213.553305
 21
370.425802
 31
0.0
  0
SPLINE
  5
3cf
100
AcDbEntity
  8
Layer_1
 62
5
100
AcDbSpline
 70
8
 71
3
 72
8
 73
4
 74
0
 40
0
 40
0
 40
0
 40
0
 40
1
 40
1
 40
1
 40
1
 10
213.553305
 20
370.425802
 30
0.0
 10
213.553305
 20
376.223646
 30
0.0
 10
218.253389
 20
380.923729
 30
0.0
 10
224.051232
 20
380.923729
 30
0.0
  0
SPLINE
  5
3d0
100
AcDbEntity
  8
Layer_1
 62
5
100
AcDbSpline
 70
8
 71
3
 72
8
 73
4
 74
0
 40
0
 40
0
 40
0
 40
0
 40
1
 40
1
 40
1
 40
1
 10
224.051232
 20
380.923729
 30
0.0
 10
226.079013
 20
380.923729
 30
0.0
 10
227.972513
 20
380.348800
 30
0.0
 10
229.541220
 20
379.418266
 30
0.0
  0
SPLINE
  5
3d1
100
AcDbEntity
  8
Layer_1
 62
5
100
AcDbSpline
 70
8
 71
3
 72
8
 73
4
 74
0
 40
0
 40
0
 40
0
 40
0
 40
1
 40
1
 40
1
 40
1
 10
229.541220
 20
379.418266
 30
0.0
 10
236.967598
 20
375.084568
 30
0.0
 10
243.224118
 20
368.857614
 30
0.0
 10
247.651169
 20
361.468156
 30
0.0
  0
SPLINE
  5
3d2
100
AcDbEntity
  8
Layer_1
 62
5
100
AcDbSpline
 70
8
 71
3
 72
8
 73
4
 74
0
 40
0
 40
0
 40
0
 40
0
 40
1
 40
1
 40
1
 40
1
 10
247.651169
 20
361.468156
 30
0.0
 10
248.657881
 20
359.902632
 30
0.0
 10
249.244336
 20
357.991601
 30
0.0
 10
249.244336
 20
355.943599
 30
0.0
  0
SPLINE
  5
3d3
100
AcDbEntity
  8
Layer_1
 62
5
100
AcDbSpline
 70
8
 71
3
 72
8
 73
4
 74
0
 40
0
 40
0
 40
0
 40
0
 40
1
 40
1
 40
1
 40
1
 10
249.244336
 20
355.943599
 30
0.0
 10
249.244336
 20
350.145756
 30
0.0
 10
244.544252
 20
345.445672
 30
0.0
 10
238.746408
 20
345.445672
 30
0.0
  0
LINE
  5
3d4
100
AcDbEntity
  8
Layer_1
 62
5
100
AcDbLine
 10
238.746408
 20
345.445672
 30
0.0
 11
224.157720
 21
345.126213
 31
0.0
  0
SPLINE
  5
3d5
100
AcDbEntity
  8
Layer_1
 62
5
100
AcDbSpline
 70
8
 71
3
 72
8
 73
4
 74
0
 40
0
 40
0
 40
0
 40
0
 40
1
 40
1
 40
1
 40
1
 10
213.500059
 20
314.200778
 30
0.0
 10
213.500059
 20
319.998622
 30
0.0
 10
218.200142
 20
324.698706
 30
0.0
 10
223.997986
 20
324.698706
 30
0.0
  0
LINE
  5
3d6
100
AcDbEntity
  8
Layer_1
 62
5
100
AcDbLine
 10
223.997986
 20
324.698706
 30
0.0
 11
238.799647
 21
324.805194
 31
0.0
  0
SPLINE
  5
3d7
100
AcDbEntity
  8
Layer_1
 62
5
100
AcDbSpline
 70
8
 71
3
 72
8
 73
4
 74
0
 40
0
 40
0
 40
0
 40
0
 40
1
 40
1
 40
1
 40
1
 10
238.799647
 20
324.805194
 30
0.0
 10
244.597493
 20
324.805194
 30
0.0
 10
249.297574
 20
320.105113
 30
0.0
 10
249.297574
 20
314.307266
 30
0.0
  0
SPLINE
  5
3d8
100
AcDbEntity
  8
Layer_1
 62
5
100
AcDbSpline
 70
8
 71
3
 72
8
 73
4
 74
0
 40
0
 40
0
 40
0
 40
0
 40
1
 40
1
 40
1
 40
1
 10
249.297574
 20
314.307266
 30
0.0
 10
249.297574
 20
312.279488
 30
0.0
 10
248.722645
 20
310.385989
 30
0.0
 10
247.792111
 20
308.817282
 30
0.0
  0
SPLINE
  5
3d9
100
AcDbEntity
  8
Layer_1
 62
5
100
AcDbSpline
 70
8
 71
3
 72
8
 73
4
 74
0
 40
0
 40
0
 40
0
 40
0
 40
1
 40
1
 40
1
 40
1
 10
247.792111
 20
308.817282
 30
0.0
 10
243.458413
 20
301.390900
 30
0.0
 10
237.231459
 20
295.134383
 30
0.0
 10
229.842004
 20
290.707330
 30
0.0
  0
SPLINE
  5
3da
100
AcDbEntity
  8
Layer_1
 62
5
100
AcDbSpline
 70
8
 71
3
 72
8
 73
4
 74
0
 40
0
 40
0
 40
0
 40
0
 40
1
 40
1
 40
1
 40
1
 10
229.842004
 20
290.707330
 30
0.0
 10
228.276477
 20
289.700618
 30
0.0
 10
226.365446
 20
289.114166
 30
0.0
 10
224.317444
 20
289.114166
 30
0.0
  0
SPLINE
  5
3db
100
AcDbEntity
  8
Layer_1
 62
5
100
AcDbSpline
 70
8
 71
3
 72
8
 73
4
 74
0
 40
0
 40
0
 40
0
 40
0
 40
1
 40
1
 40
1
 40
1
 10
224.317444
 20
289.114166
 30
0.0
 10
218.519600
 20
289.114166
 30
0.0
 10
213.819517
 20
293.814247
 30
0.0
 10
213.819517
 20
299.612093
 30
0.0
  0
LINE
  5
3dc
100
AcDbEntity
  8
Layer_1
 62
5
100
AcDbLine
 10
213.819517
 20
299.612093
 30
0.0
 11
213.500059
 21
314.200778
 31
0.0
  0
SPLINE
  5
3dd
100
AcDbEntity
  8
Layer_1
 62
5
100
AcDbSpline
 70
8
 71
3
 72
8
 73
4
 74
0
 40
0
 40
0
 40
0
 40
0
 40
1
 40
1
 40
1
 40
1
 10
182.521383
 20
324.858438
 30
0.0
 10
188.319228
 20
324.858438
 30
0.0
 10
193.019312
 20
320.158354
 30
0.0
 10
193.019312
 20
314.360510
 30
0.0
  0
LINE
  5
3de
100
AcDbEntity
  8
Layer_1
 62
5
100
AcDbLine
 10
193.019312
 20
314.360510
 30
0.0
 11
193.125801
 21
299.558849
 31
0.0
  0
SPLINE
  5
3df
100
AcDbEntity
  8
Layer_1
 62
5
100
AcDbSpline
 70
8
 71
3
 72
8
 73
4
 74
0
 40
0
 40
0
 40
0
 40
0
 40
1
 40
1
 40
1
 40
1
 10
193.125801
 20
299.558849
 30
0.0
 10
193.125801
 20
293.761005
 30
0.0
 10
188.425717
 20
289.060922
 30
0.0
 10
182.627872
 20
289.060922
 30
0.0
  0
SPLINE
  5
3e0
100
AcDbEntity
  8
Layer_1
 62
5
100
AcDbSpline
 70
8
 71
3
 72
8
 73
4
 74
0
 40
0
 40
0
 40
0
 40
0
 40
1
 40
1
 40
1
 40
1
 10
182.627872
 20
289.060922
 30
0.0
 10
180.600093
 20
289.060922
 30
0.0
 10
178.706594
 20
289.635851
 30
0.0
 10
177.137887
 20
290.566385
 30
0.0
  0
SPLINE
  5
3e1
100
AcDbEntity
  8
Layer_1
 62
5
100
AcDbSpline
 70
8
 71
3
 72
8
 73
4
 74
0
 40
0
 40
0
 40
0
 40
0
 40
1
 40
1
 40
1
 40
1
 10
177.137887
 20
290.566385
 30
0.0
 10
169.711505
 20
294.900083
 30
0.0
 10
163.454987
 20
301.127037
 30
0.0
 10
159.027935
 20
308.516495
 30
0.0
  0
SPLINE
  5
3e2
100
AcDbEntity
  8
Layer_1
 62
5
100
AcDbSpline
 70
8
 71
3
 72
8
 73
4
 74
0
 40
0
 40
0
 40
0
 40
0
 40
1
 40
1
 40
1
 40
1
 10
159.027935
 20
308.516495
 30
0.0
 10
158.021223
 20
310.082021
 30
0.0
 10
157.434770
 20
311.993050
 30
0.0
 10
157.434770
 20
314.041052
 30
0.0
  0
SPLINE
  5
3e3
100
AcDbEntity
  8
Layer_1
 62
5
100
AcDbSpline
 70
8
 71
3
 72
8
 73
4
 74
0
 40
0
 40
0
 40
0
 40
0
 40
1
 40
1
 40
1
 40
1
 10
157.434770
 20
314.041052
 30
0.0
 10
157.434770
 20
319.838898
 30
0.0
 10
162.134853
 20
324.538979
 30
0.0
 10
167.932698
 20
324.538979
 30
0.0
  0
LINE
  5
3e4
100
AcDbEntity
  8
Layer_1
 62
5
100
AcDbLine
 10
167.932698
 20
324.538979
 30
0.0
 11
182.521383
 21
324.858438
 31
0.0
  0
SPLINE
  5
3e5
100
AcDbEntity
  8
Layer_1
 62
5
100
AcDbSpline
 70
8
 71
3
 72
8
 73
4
 74
0
 40
0
 40
0
 40
0
 40
0
 40
1
 40
1
 40
1
 40
1
 10
193.179040
 20
355.943602
 30
0.0
 10
193.179040
 20
350.145758
 30
0.0
 10
188.478957
 20
345.445675
 30
0.0
 10
182.681112
 20
345.445675
 30
0.0
  0
LINE
  5
3e6
100
AcDbEntity
  8
Layer_1
 62
5
100
AcDbLine
 10
182.681112
 20
345.445675
 30
0.0
 11
167.879452
 21
345.339186
 31
0.0
  0
SPLINE
  5
3e7
100
AcDbEntity
  8
Layer_1
 62
5
100
AcDbSpline
 70
8
 71
3
 72
8
 73
4
 74
0
 40
0
 40
0
 40
0
 40
0
 40
1
 40
1
 40
1
 40
1
 10
167.879452
 20
345.339186
 30
0.0
 10
162.081607
 20
345.339186
 30
0.0
 10
157.381524
 20
350.039267
 30
0.0
 10
157.381524
 20
355.837114
 30
0.0
  0
SPLINE
  5
3e8
100
AcDbEntity
  8
Layer_1
 62
5
100
AcDbSpline
 70
8
 71
3
 72
8
 73
4
 74
0
 40
0
 40
0
 40
0
 40
0
 40
1
 40
1
 40
1
 40
1
 10
157.381524
 20
355.837114
 30
0.0
 10
157.381524
 20
357.864892
 30
0.0
 10
157.956453
 20
359.758391
 30
0.0
 10
158.886987
 20
361.327098
 30
0.0
  0
SPLINE
  5
3e9
100
AcDbEntity
  8
Layer_1
 62
5
100
AcDbSpline
 70
8
 71
3
 72
8
 73
4
 74
0
 40
0
 40
0
 40
0
 40
0
 40
1
 40
1
 40
1
 40
1
 10
158.886987
 20
361.327098
 30
0.0
 10
163.220685
 20
368.753480
 30
0.0
 10
169.447640
 20
375.009997
 30
0.0
 10
176.837097
 20
379.437050
 30
0.0
  0
SPLINE
  5
3ea
100
AcDbEntity
  8
Layer_1
 62
5
100
AcDbSpline
 70
8
 71
3
 72
8
 73
4
 74
0
 40
0
 40
0
 40
0
 40
0
 40
1
 40
1
 40
1
 40
1
 10
176.837097
 20
379.437050
 30
0.0
 10
178.402622
 20
380.443762
 30
0.0
 10
180.313653
 20
381.030215
 30
0.0
 10
182.361655
 20
381.030215
 30
0.0
  0
SPLINE
  5
3eb
100
AcDbEntity
  8
Layer_1
 62
5
100
AcDbSpline
 70
8
 71
3
 72
8
 73
4
 74
0
 40
0
 40
0
 40
0
 40
0
 40
1
 40
1
 40
1
 40
1
 10
182.361655
 20
381.030215
 30
0.0
 10
188.159499
 20
381.030215
 30
0.0
 10
192.859583
 20
376.330134
 30
0.0
 10
192.859583
 20
370.532287
 30
0.0
  0
LINE
  5
3ec
100
AcDbEntity
  8
Layer_1
 62
5
100
AcDbLine
 10
192.859583
 20
370.532287
 30
0.0
 11
193.179040
 21
355.943602
 31
0.0
  0
LINE
  5
3ed
100
AcDbEntity
  8
Layer_1
 62
1
100
AcDbLine
 10
201.894145
 20
348.751045
 30
0.0
 11
201.894145
 21
336.589583
 31
0.0
  0
LINE
  5
3ee
100
AcDbEntity
  8
Layer_1
 62
1
100
AcDbLine
 10
201.894145
 20
336.589583
 30
0.0
 11
189.730480
 21
336.589583
 31
0.0
  0
LINE
  5
3ef
100
AcDbEntity
  8
Layer_1
 62
1
100
AcDbLine
 10
189.730480
 20
336.589583
 30
0.0
 11
189.730480
 21
333.589870
 31
0.0
  0
LINE
  5
3f0
100
AcDbEntity
  8
Layer_1
 62
1
100
AcDbLine
 10
189.730480
 20
333.589870
 30
0.0
 11
201.894145
 21
333.589870
 31
0.0
  0
LINE
  5
3f1
100
AcDbEntity
  8
Layer_1
 62
1
100
AcDbLine
 10
201.894145
 20
333.589870
 30
0.0
 11
201.894145
 21
333.305443
 31
0.0
  0
LINE
  5
3f2
100
AcDbEntity
  8
Layer_1
 62
1
100
AcDbLine
 10
201.894145
 20
333.305443
 30
0.0
 11
201.894145
 21
321.426753
 31
0.0
  0
LINE
  5
3f3
100
AcDbEntity
  8
Layer_1
 62
1
100
AcDbLine
 10
201.894145
 20
321.426753
 30
0.0
 11
204.893857
 21
321.426753
 31
0.0
  0
LINE
  5
3f4
100
AcDbEntity
  8
Layer_1
 62
1
100
AcDbLine
 10
204.893857
 20
321.426753
 30
0.0
 11
204.893857
 21
333.305443
 31
0.0
  0
LINE
  5
3f5
100
AcDbEntity
  8
Layer_1
 62
1
100
AcDbLine
 10
204.893857
 20
333.305443
 30
0.0
 11
204.893857
 21
333.589870
 31
0.0
  0
LINE
  5
3f6
100
AcDbEntity
  8
Layer_1
 62
1
100
AcDbLine
 10
204.893857
 20
333.589870
 30
0.0
 11
205.176080
 21
333.589870
 31
0.0
  0
LINE
  5
3f7
100
AcDbEntity
  8
Layer_1
 62
1
100
AcDbLine
 10
205.176080
 20
333.589870
 30
0.0
 11
217.054785
 21
333.589870
 31
0.0
  0
LINE
  5
3f8
100
AcDbEntity
  8
Layer_1
 62
1
100
AcDbLine
 10
217.054785
 20
333.589870
 30
0.0
 11
217.054785
 21
336.589583
 31
0.0
  0
LINE
  5
3f9
100
AcDbEntity
  8
Layer_1
 62
1
100
AcDbLine
 10
217.054785
 20
336.589583
 30
0.0
 11
205.176080
 21
336.589583
 31
0.0
  0
LINE
  5
3fa
100
AcDbEntity
  8
Layer_1
 62
1
100
AcDbLine
 10
205.176080
 20
336.589583
 30
0.0
 11
204.893857
 21
336.589583
 31
0.0
  0
LINE
  5
3fb
100
AcDbEntity
  8
Layer_1
 62
1
100
AcDbLine
 10
204.893857
 20
336.589583
 30
0.0
 11
204.893857
 21
348.751045
 31
0.0
  0
LINE
  5
3fc
100
AcDbEntity
  8
Layer_1
 62
1
100
AcDbLine
 10
204.893857
 20
348.751045
 30
0.0
 11
201.894145
 21
348.751045
 31
0.0
  0
LINE
  5
3fd
100
AcDbEntity
  8
Layer_1
 62
1
100
AcDbLine
 10
201.894145
 20
348.751045
 30
0.0
 11
201.894145
 21
348.751045
 31
0.0
  0
LINE
  5
3fe
100
AcDbEntity
  8
Layer_1
 62
1
100
AcDbLine
 10
204.893931
 20
301.426440
 30
0.0
 11
204.893931
 21
311.426446
 31
0.0
  0
LINE
  5
3ff
100
AcDbEntity
  8
Layer_1
 62
1
100
AcDbLine
 10
204.893931
 20
311.426446
 30
0.0
 11
201.893937
 21
311.426446
 31
0.0
  0
LINE
  5
400
100
AcDbEntity
  8
Layer_1
 62
1
100
AcDbLine
 10
201.893937
 20
311.426446
 30
0.0
 11
201.893937
 21
301.426440
 31
0.0
  0
LINE
  5
401
100
AcDbEntity
  8
Layer_1
 62
1
100
AcDbLine
 10
201.893937
 20
301.426440
 30
0.0
 11
204.893931
 21
301.426440
 31
0.0
  0
SPLINE
  5
402
100
AcDbEntity
  8
Layer_1
 62
1
100
AcDbSpline
 70
8
 71
3
 72
8
 73
4
 74
0
 40
0
 40
0
 40
0
 40
0
 40
1
 40
1
 40
1
 40
1
 10
203.392791
 20
317.976403
 30
0.0
 10
202.536755
 20
317.976399
 30
0.0
 10
201.842798
 20
317.282441
 30
0.0
 10
201.842798
 20
316.426402
 30
0.0
  0
SPLINE
  5
403
100
AcDbEntity
  8
Layer_1
 62
1
100
AcDbSpline
 70
8
 71
3
 72
8
 73
4
 74
0
 40
0
 40
0
 40
0
 40
0
 40
1
 40
1
 40
1
 40
1
 10
201.842798
 20
316.426402
 30
0.0
 10
201.842798
 20
315.570364
 30
0.0
 10
202.536755
 20
314.876407
 30
0.0
 10
203.392791
 20
314.876404
 30
0.0
  0
SPLINE
  5
404
100
AcDbEntity
  8
Layer_1
 62
1
100
AcDbSpline
 70
8
 71
3
 72
8
 73
4
 74
0
 40
0
 40
0
 40
0
 40
0
 40
1
 40
1
 40
1
 40
1
 10
203.392791
 20
314.876404
 30
0.0
 10
204.248827
 20
314.876407
 30
0.0
 10
204.942784
 20
315.570364
 30
0.0
 10
204.942784
 20
316.426402
 30
0.0
  0
SPLINE
  5
405
100
AcDbEntity
  8
Layer_1
 62
1
100
AcDbSpline
 70
8
 71
3
 72
8
 73
4
 74
0
 40
0
 40
0
 40
0
 40
0
 40
1
 40
1
 40
1
 40
1
 10
204.942784
 20
316.426402
 30
0.0
 10
204.942784
 20
317.282441
 30
0.0
 10
204.248827
 20
317.976399
 30
0.0
 10
203.392791
 20
317.976403
 30
0.0
  0
LINE
  5
406
100
AcDbEntity
  8
Layer_1
 62
1
100
AcDbLine
 10
203.392791
 20
317.976403
 30
0.0
 11
203.392791
 21
317.976403
 31
0.0
  0
LINE
  5
407
100
AcDbEntity
  8
Layer_1
 62
1
100
AcDbLine
 10
204.893931
 20
358.750729
 30
0.0
 11
204.893931
 21
368.750734
 31
0.0
  0
LINE
  5
408
100
AcDbEntity
  8
Layer_1
 62
1
100
AcDbLine
 10
204.893931
 20
368.750734
 30
0.0
 11
201.893937
 21
368.750734
 31
0.0
  0
LINE
  5
409
100
AcDbEntity
  8
Layer_1
 62
1
100
AcDbLine
 10
201.893937
 20
368.750734
 30
0.0
 11
201.893937
 21
358.750729
 31
0.0
  0
LINE
  5
40a
100
AcDbEntity
  8
Layer_1
 62
1
100
AcDbLine
 10
201.893937
 20
358.750729
 30
0.0
 11
204.893931
 21
358.750729
 31
0.0
  0
SPLINE
  5
40b
100
AcDbEntity
  8
Layer_1
 62
1
100
AcDbSpline
 70
8
 71
3
 72
8
 73
4
 74
0
 40
0
 40
0
 40
0
 40
0
 40
1
 40
1
 40
1
 40
1
 10
203.392791
 20
355.300740
 30
0.0
 10
202.536755
 20
355.300737
 30
0.0
 10
201.842798
 20
354.606781
 30
0.0
 10
201.842798
 20
353.750742
 30
0.0
  0
SPLINE
  5
40c
100
AcDbEntity
  8
Layer_1
 62
1
100
AcDbSpline
 70
8
 71
3
 72
8
 73
4
 74
0
 40
0
 40
0
 40
0
 40
0
 40
1
 40
1
 40
1
 40
1
 10
201.842798
 20
353.750742
 30
0.0
 10
201.842798
 20
352.894702
 30
0.0
 10
202.536755
 20
352.200746
 30
0.0
 10
203.392791
 20
352.200743
 30
0.0
  0
SPLINE
  5
40d
100
AcDbEntity
  8
Layer_1
 62
1
100
AcDbSpline
 70
8
 71
3
 72
8
 73
4
 74
0
 40
0
 40
0
 40
0
 40
0
 40
1
 40
1
 40
1
 40
1
 10
203.392791
 20
352.200743
 30
0.0
 10
204.248827
 20
352.200746
 30
0.0
 10
204.942784
 20
352.894702
 30
0.0
 10
204.942784
 20
353.750742
 30
0.0
  0
SPLINE
  5
40e
100
AcDbEntity
  8
Layer_1
 62
1
100
AcDbSpline
 70
8
 71
3
 72
8
 73
4
 74
0
 40
0
 40
0
 40
0
 40
0
 40
1
 40
1
 40
1
 40
1
 10
204.942784
 20
353.750742
 30
0.0
 10
204.942784
 20
354.606781
 30
0.0
 10
204.248827
 20
355.300737
 30
0.0
 10
203.392791
 20
355.300740
 30
0.0
  0
LINE
  5
40f
100
AcDbEntity
  8
Layer_1
 62
1
100
AcDbLine
 10
203.392791
 20
355.300740
 30
0.0
 11
203.392791
 21
355.300740
 31
0.0
  0
LINE
  5
410
100
AcDbEntity
  8
Layer_1
 62
1
100
AcDbLine
 10
237.054960
 20
336.589731
 30
0.0
 11
227.054952
 21
336.589731
 31
0.0
  0
LINE
  5
411
100
AcDbEntity
  8
Layer_1
 62
1
100
AcDbLine
 10
227.054952
 20
336.589731
 30
0.0
 11
227.054952
 21
333.589737
 31
0.0
  0
LINE
  5
412
100
AcDbEntity
  8
Layer_1
 62
1
100
AcDbLine
 10
227.054952
 20
333.589737
 30
0.0
 11
237.054960
 21
333.589737
 31
0.0
  0
LINE
  5
413
100
AcDbEntity
  8
Layer_1
 62
1
100
AcDbLine
 10
237.054960
 20
333.589737
 30
0.0
 11
237.054960
 21
336.589731
 31
0.0
  0
SPLINE
  5
414
100
AcDbEntity
  8
Layer_1
 62
1
100
AcDbSpline
 70
8
 71
3
 72
8
 73
4
 74
0
 40
0
 40
0
 40
0
 40
0
 40
1
 40
1
 40
1
 40
1
 10
220.504997
 20
335.088591
 30
0.0
 10
220.504997
 20
334.232554
 30
0.0
 10
221.198953
 20
333.538598
 30
0.0
 10
222.054990
 20
333.538598
 30
0.0
  0
SPLINE
  5
415
100
AcDbEntity
  8
Layer_1
 62
1
100
AcDbSpline
 70
8
 71
3
 72
8
 73
4
 74
0
 40
0
 40
0
 40
0
 40
0
 40
1
 40
1
 40
1
 40
1
 10
222.054990
 20
333.538598
 30
0.0
 10
222.911026
 20
333.538598
 30
0.0
 10
223.604983
 20
334.232554
 30
0.0
 10
223.604983
 20
335.088591
 30
0.0
  0
SPLINE
  5
416
100
AcDbEntity
  8
Layer_1
 62
1
100
AcDbSpline
 70
8
 71
3
 72
8
 73
4
 74
0
 40
0
 40
0
 40
0
 40
0
 40
1
 40
1
 40
1
 40
1
 10
223.604983
 20
335.088591
 30
0.0
 10
223.604983
 20
335.944627
 30
0.0
 10
222.911026
 20
336.638583
 30
0.0
 10
222.054990
 20
336.638583
 30
0.0
  0
SPLINE
  5
417
100
AcDbEntity
  8
Layer_1
 62
1
100
AcDbSpline
 70
8
 71
3
 72
8
 73
4
 74
0
 40
0
 40
0
 40
0
 40
0
 40
1
 40
1
 40
1
 40
1
 10
222.054990
 20
336.638583
 30
0.0
 10
221.198953
 20
336.638583
 30
0.0
 10
220.504997
 20
335.944627
 30
0.0
 10
220.504997
 20
335.088591
 30
0.0
  0
LINE
  5
418
100
AcDbEntity
  8
Layer_1
 62
1
100
AcDbLine
 10
220.504997
 20
335.088591
 30
0.0
 11
220.504997
 21
335.088591
 31
0.0
  0
LINE
  5
419
100
AcDbEntity
  8
Layer_1
 62
1
100
AcDbLine
 10
179.730658
 20
336.589731
 30
0.0
 11
169.730650
 21
336.589731
 31
0.0
  0
LINE
  5
41a
100
AcDbEntity
  8
Layer_1
 62
1
100
AcDbLine
 10
169.730650
 20
336.589731
 30
0.0
 11
169.730650
 21
333.589737
 31
0.0
  0
LINE
  5
41b
100
AcDbEntity
  8
Layer_1
 62
1
100
AcDbLine
 10
169.730650
 20
333.589737
 30
0.0
 11
179.730658
 21
333.589737
 31
0.0
  0
LINE
  5
41c
100
AcDbEntity
  8
Layer_1
 62
1
100
AcDbLine
 10
179.730658
 20
333.589737
 30
0.0
 11
179.730658
 21
336.589731
 31
0.0
  0
SPLINE
  5
41d
100
AcDbEntity
  8
Layer_1
 62
1
100
AcDbSpline
 70
8
 71
3
 72
8
 73
4
 74
0
 40
0
 40
0
 40
0
 40
0
 40
1
 40
1
 40
1
 40
1
 10
183.180656
 20
335.088591
 30
0.0
 10
183.180656
 20
334.232554
 30
0.0
 10
183.874612
 20
333.538598
 30
0.0
 10
184.730649
 20
333.538598
 30
0.0
  0
SPLINE
  5
41e
100
AcDbEntity
  8
Layer_1
 62
1
100
AcDbSpline
 70
8
 71
3
 72
8
 73
4
 74
0
 40
0
 40
0
 40
0
 40
0
 40
1
 40
1
 40
1
 40
1
 10
184.730649
 20
333.538598
 30
0.0
 10
185.586685
 20
333.538598
 30
0.0
 10
186.280641
 20
334.232554
 30
0.0
 10
186.280641
 20
335.088591
 30
0.0
  0
SPLINE
  5
41f
100
AcDbEntity
  8
Layer_1
 62
1
100
AcDbSpline
 70
8
 71
3
 72
8
 73
4
 74
0
 40
0
 40
0
 40
0
 40
0
 40
1
 40
1
 40
1
 40
1
 10
186.280641
 20
335.088591
 30
0.0
 10
186.280641
 20
335.944627
 30
0.0
 10
185.586685
 20
336.638583
 30
0.0
 10
184.730649
 20
336.638583
 30
0.0
  0
SPLINE
  5
420
100
AcDbEntity
  8
Layer_1
 62
1
100
AcDbSpline
 70
8
 71
3
 72
8
 73
4
 74
0
 40
0
 40
0
 40
0
 40
0
 40
1
 40
1
 40
1
 40
1
 10
184.730649
 20
336.638583
 30
0.0
 10
183.874612
 20
336.638583
 30
0.0
 10
183.180656
 20
335.944627
 30
0.0
 10
183.180656
 20
335.088591
 30
0.0
  0
LINE
  5
421
100
AcDbEntity
  8
Layer_1
 62
1
100
AcDbLine
 10
183.180656
 20
335.088591
 30
0.0
 11
183.180656
 21
335.088591
 31
0.0
  0
SPLINE
  5
422
100
AcDbEntity
  8
Layer_1
 62
3
100
AcDbSpline
 70
8
 71
3
 72
8
 73
4
 74
0
 40
0
 40
0
 40
0
 40
0
 40
1
 40
1
 40
1
 40
1
 10
17.889080
 20
403.679215
 30
0.0
 10
17.968122
 20
403.645339
 30
0.0
 10
18.030227
 20
403.591703
 30
0.0
 10
18.075393
 20
403.518308
 30
0.0
  0
SPLINE
  5
423
100
AcDbEntity
  8
Layer_1
 62
3
100
AcDbSpline
 70
8
 71
3
 72
8
 73
4
 74
0
 40
0
 40
0
 40
0
 40
0
 40
1
 40
1
 40
1
 40
1
 10
18.075393
 20
403.518308
 30
0.0
 10
18.126206
 20
403.450558
 30
0.0
 10
18.151612
 20
403.374338
 30
0.0
 10
18.151612
 20
403.289649
 30
0.0
  0
LINE
  5
424
100
AcDbEntity
  8
Layer_1
 62
3
100
AcDbLine
 10
18.151612
 20
403.289649
 30
0.0
 11
18.151612
 21
395.667744
 31
0.0
  0
SPLINE
  5
425
100
AcDbEntity
  8
Layer_1
 62
3
100
AcDbSpline
 70
8
 71
3
 72
8
 73
4
 74
0
 40
0
 40
0
 40
0
 40
0
 40
1
 40
1
 40
1
 40
1
 10
18.151612
 20
395.667744
 30
0.0
 10
18.151612
 20
395.549180
 30
0.0
 10
18.109268
 20
395.447555
 30
0.0
 10
18.024581
 20
395.362868
 30
0.0
  0
SPLINE
  5
426
100
AcDbEntity
  8
Layer_1
 62
3
100
AcDbSpline
 70
8
 71
3
 72
8
 73
4
 74
0
 40
0
 40
0
 40
0
 40
0
 40
1
 40
1
 40
1
 40
1
 10
18.024581
 20
395.362868
 30
0.0
 10
17.945539
 20
395.283827
 30
0.0
 10
17.846736
 20
395.244306
 30
0.0
 10
17.728173
 20
395.244306
 30
0.0
  0
SPLINE
  5
427
100
AcDbEntity
  8
Layer_1
 62
3
100
AcDbSpline
 70
8
 71
3
 72
8
 73
4
 74
0
 40
0
 40
0
 40
0
 40
0
 40
1
 40
1
 40
1
 40
1
 10
17.728173
 20
395.244306
 30
0.0
 10
17.609610
 20
395.244306
 30
0.0
 10
17.507985
 20
395.283827
 30
0.0
 10
17.423297
 20
395.362868
 30
0.0
  0
SPLINE
  5
428
100
AcDbEntity
  8
Layer_1
 62
3
100
AcDbSpline
 70
8
 71
3
 72
8
 73
4
 74
0
 40
0
 40
0
 40
0
 40
0
 40
1
 40
1
 40
1
 40
1
 10
17.423297
 20
395.362868
 30
0.0
 10
17.344255
 20
395.447555
 30
0.0
 10
17.304734
 20
395.549180
 30
0.0
 10
17.304734
 20
395.667744
 30
0.0
  0
LINE
  5
429
100
AcDbEntity
  8
Layer_1
 62
3
100
AcDbLine
 10
17.304734
 20
395.667744
 30
0.0
 11
17.304734
 21
402.264928
 31
0.0
  0
LINE
  5
42a
100
AcDbEntity
  8
Layer_1
 62
3
100
AcDbLine
 10
17.304734
 20
402.264928
 30
0.0
 11
16.330824
 21
401.299486
 31
0.0
  0
SPLINE
  5
42b
100
AcDbEntity
  8
Layer_1
 62
3
100
AcDbSpline
 70
8
 71
3
 72
8
 73
4
 74
0
 40
0
 40
0
 40
0
 40
0
 40
1
 40
1
 40
1
 40
1
 10
16.330824
 20
401.299486
 30
0.0
 10
16.251782
 20
401.214798
 30
0.0
 10
16.152979
 20
401.172455
 30
0.0
 10
16.034416
 20
401.172455
 30
0.0
  0
SPLINE
  5
42c
100
AcDbEntity
  8
Layer_1
 62
3
100
AcDbSpline
 70
8
 71
3
 72
8
 73
4
 74
0
 40
0
 40
0
 40
0
 40
0
 40
1
 40
1
 40
1
 40
1
 10
16.034416
 20
401.172455
 30
0.0
 10
15.915853
 20
401.172455
 30
0.0
 10
15.817051
 20
401.214798
 30
0.0
 10
15.738009
 20
401.299486
 30
0.0
  0
SPLINE
  5
42d
100
AcDbEntity
  8
Layer_1
 62
3
100
AcDbSpline
 70
8
 71
3
 72
8
 73
4
 74
0
 40
0
 40
0
 40
0
 40
0
 40
1
 40
1
 40
1
 40
1
 10
15.738009
 20
401.299486
 30
0.0
 10
15.653321
 20
401.378529
 30
0.0
 10
15.610977
 20
401.477331
 30
0.0
 10
15.610977
 20
401.595892
 30
0.0
  0
SPLINE
  5
42e
100
AcDbEntity
  8
Layer_1
 62
3
100
AcDbSpline
 70
8
 71
3
 72
8
 73
4
 74
0
 40
0
 40
0
 40
0
 40
0
 40
1
 40
1
 40
1
 40
1
 10
15.610977
 20
401.595892
 30
0.0
 10
15.610977
 20
401.714456
 30
0.0
 10
15.653321
 20
401.813259
 30
0.0
 10
15.738009
 20
401.892302
 30
0.0
  0
LINE
  5
42f
100
AcDbEntity
  8
Layer_1
 62
3
100
AcDbLine
 10
15.738009
 20
401.892302
 30
0.0
 11
17.431766
 21
403.586059
 31
0.0
  0
SPLINE
  5
430
100
AcDbEntity
  8
Layer_1
 62
3
100
AcDbSpline
 70
8
 71
3
 72
8
 73
4
 74
0
 40
0
 40
0
 40
0
 40
0
 40
1
 40
1
 40
1
 40
1
 10
17.431766
 20
403.586059
 30
0.0
 10
17.561620
 20
403.721559
 30
0.0
 10
17.714059
 20
403.752611
 30
0.0
 10
17.889080
 20
403.679215
 30
0.0
  0
LINE
  5
431
100
AcDbEntity
  8
Layer_1
 62
3
100
AcDbLine
 10
17.889080
 20
403.679215
 30
0.0
 11
17.889080
 21
403.679215
 31
0.0
  0
LINE
  5
432
100
AcDbEntity
  8
Layer_1
 62
5
100
AcDbLine
 10
84.980678
 20
361.423048
 30
0.0
 11
88.872844
 21
361.822105
 31
0.0
  0
LINE
  5
433
100
AcDbEntity
  8
Layer_1
 62
5
100
AcDbLine
 10
88.872844
 20
361.822105
 30
0.0
 11
93.601658
 21
361.153128
 31
0.0
  0
LINE
  5
434
100
AcDbEntity
  8
Layer_1
 62
5
100
AcDbLine
 10
93.601658
 20
361.153128
 30
0.0
 11
102.402067
 21
357.356917
 31
0.0
  0
LINE
  5
435
100
AcDbEntity
  8
Layer_1
 62
5
100
AcDbLine
 10
102.402067
 20
357.356917
 30
0.0
 11
102.402067
 21
351.525015
 31
0.0
  0
LINE
  5
436
100
AcDbEntity
  8
Layer_1
 62
5
100
AcDbLine
 10
102.402067
 20
351.525015
 30
0.0
 11
93.601658
 21
347.728804
 31
0.0
  0
LINE
  5
437
100
AcDbEntity
  8
Layer_1
 62
5
100
AcDbLine
 10
93.601658
 20
347.728804
 30
0.0
 11
88.872844
 21
347.059828
 31
0.0
  0
LINE
  5
438
100
AcDbEntity
  8
Layer_1
 62
5
100
AcDbLine
 10
88.872844
 20
347.059828
 30
0.0
 11
84.980678
 21
347.458884
 31
0.0
  0
LINE
  5
439
100
AcDbEntity
  8
Layer_1
 62
5
100
AcDbLine
 10
84.980678
 20
347.458884
 30
0.0
 11
83.261798
 21
337.710621
 31
0.0
  0
LINE
  5
43a
100
AcDbEntity
  8
Layer_1
 62
5
100
AcDbLine
 10
83.261798
 20
337.710621
 30
0.0
 11
87.055719
 21
336.754409
 31
0.0
  0
LINE
  5
43b
100
AcDbEntity
  8
Layer_1
 62
5
100
AcDbLine
 10
87.055719
 20
336.754409
 30
0.0
 11
91.270550
 21
334.508429
 31
0.0
  0
LINE
  5
43c
100
AcDbEntity
  8
Layer_1
 62
5
100
AcDbLine
 10
91.270550
 20
334.508429
 30
0.0
 11
98.241849
 21
327.931239
 31
0.0
  0
LINE
  5
43d
100
AcDbEntity
  8
Layer_1
 62
5
100
AcDbLine
 10
98.241849
 20
327.931239
 30
0.0
 11
96.247220
 21
322.451047
 31
0.0
  0
LINE
  5
43e
100
AcDbEntity
  8
Layer_1
 62
5
100
AcDbLine
 10
96.247220
 20
322.451047
 30
0.0
 11
86.679162
 21
321.893691
 31
0.0
  0
LINE
  5
43f
100
AcDbEntity
  8
Layer_1
 62
5
100
AcDbLine
 10
86.679162
 20
321.893691
 30
0.0
 11
82.006724
 21
322.882408
 31
0.0
  0
LINE
  5
440
100
AcDbEntity
  8
Layer_1
 62
5
100
AcDbLine
 10
82.006724
 20
322.882408
 30
0.0
 11
78.485770
 21
324.588595
 31
0.0
  0
LINE
  5
441
100
AcDbEntity
  8
Layer_1
 62
5
100
AcDbLine
 10
78.485770
 20
324.588595
 30
0.0
 11
73.536448
 21
316.016118
 31
0.0
  0
LINE
  5
442
100
AcDbEntity
  8
Layer_1
 62
5
100
AcDbLine
 10
73.536448
 20
316.016118
 30
0.0
 11
76.774527
 21
313.819975
 31
0.0
  0
LINE
  5
443
100
AcDbEntity
  8
Layer_1
 62
5
100
AcDbLine
 10
76.774527
 20
313.819975
 30
0.0
 11
79.967000
 21
310.267886
 31
0.0
  0
LINE
  5
444
100
AcDbEntity
  8
Layer_1
 62
5
100
AcDbLine
 10
79.967000
 20
310.267886
 30
0.0
 11
84.268343
 21
301.703026
 31
0.0
  0
LINE
  5
445
100
AcDbEntity
  8
Layer_1
 62
5
100
AcDbLine
 10
84.268343
 20
301.703026
 30
0.0
 11
80.519673
 21
297.235532
 31
0.0
  0
LINE
  5
446
100
AcDbEntity
  8
Layer_1
 62
5
100
AcDbLine
 10
80.519673
 20
297.235532
 30
0.0
 11
71.338013
 21
299.984257
 31
0.0
  0
LINE
  5
447
100
AcDbEntity
  8
Layer_1
 62
5
100
AcDbLine
 10
71.338013
 20
299.984257
 30
0.0
 11
67.285519
 21
302.511415
 31
0.0
  0
LINE
  5
448
100
AcDbEntity
  8
Layer_1
 62
5
100
AcDbLine
 10
67.285519
 20
302.511415
 30
0.0
 11
64.560454
 21
305.318945
 31
0.0
  0
LINE
  5
449
100
AcDbEntity
  8
Layer_1
 62
5
100
AcDbLine
 10
64.560454
 20
305.318945
 30
0.0
 11
56.977651
 21
298.956219
 31
0.0
  0
LINE
  5
44a
100
AcDbEntity
  8
Layer_1
 62
5
100
AcDbLine
 10
56.977651
 20
298.956219
 30
0.0
 11
59.269327
 21
295.785033
 31
0.0
  0
LINE
  5
44b
100
AcDbEntity
  8
Layer_1
 62
5
100
AcDbLine
 10
59.269327
 20
295.785033
 30
0.0
 11
61.054382
 21
291.355270
 31
0.0
  0
LINE
  5
44c
100
AcDbEntity
  8
Layer_1
 62
5
100
AcDbLine
 10
61.054382
 20
291.355270
 30
0.0
 11
62.166970
 21
281.835787
 31
0.0
  0
LINE
  5
44d
100
AcDbEntity
  8
Layer_1
 62
5
100
AcDbLine
 10
62.166970
 20
281.835787
 30
0.0
 11
57.116397
 21
278.919839
 31
0.0
  0
LINE
  5
44e
100
AcDbEntity
  8
Layer_1
 62
5
100
AcDbLine
 10
57.116397
 20
278.919839
 30
0.0
 11
49.428579
 21
284.643108
 31
0.0
  0
LINE
  5
44f
100
AcDbEntity
  8
Layer_1
 62
5
100
AcDbLine
 10
49.428579
 20
284.643108
 30
0.0
 11
46.484821
 21
288.403894
 31
0.0
  0
LINE
  5
450
100
AcDbEntity
  8
Layer_1
 62
5
100
AcDbLine
 10
46.484821
 20
288.403894
 30
0.0
 11
44.884333
 21
291.974137
 31
0.0
  0
LINE
  5
451
100
AcDbEntity
  8
Layer_1
 62
5
100
AcDbLine
 10
44.884333
 20
291.974137
 30
0.0
 11
35.582646
 21
288.588600
 31
0.0
  0
LINE
  5
452
100
AcDbEntity
  8
Layer_1
 62
5
100
AcDbLine
 10
35.582646
 20
288.588600
 30
0.0
 11
36.651504
 21
284.824862
 31
0.0
  0
LINE
  5
453
100
AcDbEntity
  8
Layer_1
 62
5
100
AcDbLine
 10
36.651504
 20
284.824862
 30
0.0
 11
36.813841
 21
280.051719
 31
0.0
  0
LINE
  5
454
100
AcDbEntity
  8
Layer_1
 62
5
100
AcDbLine
 10
36.813841
 20
280.051719
 30
0.0
 11
34.603479
 21
270.725804
 31
0.0
  0
LINE
  5
455
100
AcDbEntity
  8
Layer_1
 62
5
100
AcDbLine
 10
34.603479
 20
270.725804
 30
0.0
 11
28.860178
 21
269.713106
 31
0.0
  0
LINE
  5
456
100
AcDbEntity
  8
Layer_1
 62
5
100
AcDbLine
 10
28.860178
 20
269.713106
 30
0.0
 11
23.593464
 21
277.720611
 31
0.0
  0
LINE
  5
457
100
AcDbEntity
  8
Layer_1
 62
5
100
AcDbLine
 10
23.593464
 20
277.720611
 30
0.0
 11
22.113501
 21
282.261418
 31
0.0
  0
LINE
  5
458
100
AcDbEntity
  8
Layer_1
 62
5
100
AcDbLine
 10
22.113501
 20
282.261418
 30
0.0
 11
21.830627
 21
286.163747
 31
0.0
  0
LINE
  5
459
100
AcDbEntity
  8
Layer_1
 62
5
100
AcDbLine
 10
21.830627
 20
286.163747
 30
0.0
 11
11.931979
 21
286.163747
 31
0.0
  0
LINE
  5
45a
100
AcDbEntity
  8
Layer_1
 62
5
100
AcDbLine
 10
11.931979
 20
286.163747
 30
0.0
 11
11.649106
 21
282.261418
 31
0.0
  0
LINE
  5
45b
100
AcDbEntity
  8
Layer_1
 62
5
100
AcDbLine
 10
11.649106
 20
282.261418
 30
0.0
 11
10.169143
 21
277.720611
 31
0.0
  0
LINE
  5
45c
100
AcDbEntity
  8
Layer_1
 62
5
100
AcDbLine
 10
10.169143
 20
277.720611
 30
0.0
 11
4.902428
 21
269.713106
 31
0.0
  0
LINE
  5
45d
100
AcDbEntity
  8
Layer_1
 62
5
100
AcDbLine
 10
4.902428
 20
269.713106
 30
0.0
 11
-0.840873
 21
270.725804
 31
0.0
  0
LINE
  5
45e
100
AcDbEntity
  8
Layer_1
 62
5
100
AcDbLine
 10
-0.840873
 20
270.725804
 30
0.0
 11
-3.051234
 21
280.051719
 31
0.0
  0
LINE
  5
45f
100
AcDbEntity
  8
Layer_1
 62
5
100
AcDbLine
 10
-3.051234
 20
280.051719
 30
0.0
 11
-2.888898
 21
284.824862
 31
0.0
  0
LINE
  5
460
100
AcDbEntity
  8
Layer_1
 62
5
100
AcDbLine
 10
-2.888898
 20
284.824862
 30
0.0
 11
-1.820039
 21
288.588600
 31
0.0
  0
LINE
  5
461
100
AcDbEntity
  8
Layer_1
 62
5
100
AcDbLine
 10
-1.820039
 20
288.588600
 30
0.0
 11
-11.121725
 21
291.974137
 31
0.0
  0
LINE
  5
462
100
AcDbEntity
  8
Layer_1
 62
5
100
AcDbLine
 10
-11.121725
 20
291.974137
 30
0.0
 11
-12.722214
 21
288.403894
 31
0.0
  0
LINE
  5
463
100
AcDbEntity
  8
Layer_1
 62
5
100
AcDbLine
 10
-12.722214
 20
288.403894
 30
0.0
 11
-15.665972
 21
284.643108
 31
0.0
  0
LINE
  5
464
100
AcDbEntity
  8
Layer_1
 62
5
100
AcDbLine
 10
-15.665972
 20
284.643108
 30
0.0
 11
-23.353791
 21
278.919839
 31
0.0
  0
LINE
  5
465
100
AcDbEntity
  8
Layer_1
 62
5
100
AcDbLine
 10
-23.353791
 20
278.919839
 30
0.0
 11
-28.404363
 21
281.835787
 31
0.0
  0
LINE
  5
466
100
AcDbEntity
  8
Layer_1
 62
5
100
AcDbLine
 10
-28.404363
 20
281.835787
 30
0.0
 11
-27.291777
 21
291.355270
 31
0.0
  0
LINE
  5
467
100
AcDbEntity
  8
Layer_1
 62
5
100
AcDbLine
 10
-27.291777
 20
291.355270
 30
0.0
 11
-25.506719
 21
295.785033
 31
0.0
  0
LINE
  5
468
100
AcDbEntity
  8
Layer_1
 62
5
100
AcDbLine
 10
-25.506719
 20
295.785033
 30
0.0
 11
-23.215044
 21
298.956219
 31
0.0
  0
LINE
  5
469
100
AcDbEntity
  8
Layer_1
 62
5
100
AcDbLine
 10
-23.215044
 20
298.956219
 30
0.0
 11
-30.797848
 21
305.318945
 31
0.0
  0
LINE
  5
46a
100
AcDbEntity
  8
Layer_1
 62
5
100
AcDbLine
 10
-30.797848
 20
305.318945
 30
0.0
 11
-33.522912
 21
302.511415
 31
0.0
  0
LINE
  5
46b
100
AcDbEntity
  8
Layer_1
 62
5
100
AcDbLine
 10
-33.522912
 20
302.511415
 30
0.0
 11
-37.575406
 21
299.984257
 31
0.0
  0
LINE
  5
46c
100
AcDbEntity
  8
Layer_1
 62
5
100
AcDbLine
 10
-37.575406
 20
299.984257
 30
0.0
 11
-46.757066
 21
297.235532
 31
0.0
  0
LINE
  5
46d
100
AcDbEntity
  8
Layer_1
 62
5
100
AcDbLine
 10
-46.757066
 20
297.235532
 30
0.0
 11
-50.505737
 21
301.703026
 31
0.0
  0
LINE
  5
46e
100
AcDbEntity
  8
Layer_1
 62
5
100
AcDbLine
 10
-50.505737
 20
301.703026
 30
0.0
 11
-46.204393
 21
310.267886
 31
0.0
  0
LINE
  5
46f
100
AcDbEntity
  8
Layer_1
 62
5
100
AcDbLine
 10
-46.204393
 20
310.267886
 30
0.0
 11
-43.011921
 21
313.819975
 31
0.0
  0
LINE
  5
470
100
AcDbEntity
  8
Layer_1
 62
5
100
AcDbLine
 10
-43.011921
 20
313.819975
 30
0.0
 11
-39.773841
 21
316.016118
 31
0.0
  0
LINE
  5
471
100
AcDbEntity
  8
Layer_1
 62
5
100
AcDbLine
 10
-39.773841
 20
316.016118
 30
0.0
 11
-44.723164
 21
324.588595
 31
0.0
  0
LINE
  5
472
100
AcDbEntity
  8
Layer_1
 62
5
100
AcDbLine
 10
-44.723164
 20
324.588595
 30
0.0
 11
-48.244118
 21
322.882408
 31
0.0
  0
LINE
  5
473
100
AcDbEntity
  8
Layer_1
 62
5
100
AcDbLine
 10
-48.244118
 20
322.882408
 30
0.0
 11
-52.916555
 21
321.893691
 31
0.0
  0
LINE
  5
474
100
AcDbEntity
  8
Layer_1
 62
5
100
AcDbLine
 10
-52.916555
 20
321.893691
 30
0.0
 11
-62.484614
 21
322.451047
 31
0.0
  0
LINE
  5
475
100
AcDbEntity
  8
Layer_1
 62
5
100
AcDbLine
 10
-62.484614
 20
322.451047
 30
0.0
 11
-64.479242
 21
327.931239
 31
0.0
  0
LINE
  5
476
100
AcDbEntity
  8
Layer_1
 62
5
100
AcDbLine
 10
-64.479242
 20
327.931239
 30
0.0
 11
-57.507944
 21
334.508429
 31
0.0
  0
LINE
  5
477
100
AcDbEntity
  8
Layer_1
 62
5
100
AcDbLine
 10
-57.507944
 20
334.508429
 30
0.0
 11
-53.293113
 21
336.754409
 31
0.0
  0
LINE
  5
478
100
AcDbEntity
  8
Layer_1
 62
5
100
AcDbLine
 10
-53.293113
 20
336.754409
 30
0.0
 11
-49.499191
 21
337.710621
 31
0.0
  0
LINE
  5
479
100
AcDbEntity
  8
Layer_1
 62
5
100
AcDbLine
 10
-49.499191
 20
337.710621
 30
0.0
 11
-51.218071
 21
347.458884
 31
0.0
  0
LINE
  5
47a
100
AcDbEntity
  8
Layer_1
 62
5
100
AcDbLine
 10
-51.218071
 20
347.458884
 30
0.0
 11
-55.110237
 21
347.059828
 31
0.0
  0
LINE
  5
47b
100
AcDbEntity
  8
Layer_1
 62
5
100
AcDbLine
 10
-55.110237
 20
347.059828
 30
0.0
 11
-59.839051
 21
347.728804
 31
0.0
  0
LINE
  5
47c
100
AcDbEntity
  8
Layer_1
 62
5
100
AcDbLine
 10
-59.839051
 20
347.728804
 30
0.0
 11
-68.639460
 21
351.525015
 31
0.0
  0
LINE
  5
47d
100
AcDbEntity
  8
Layer_1
 62
5
100
AcDbLine
 10
-68.639460
 20
351.525015
 30
0.0
 11
-68.639460
 21
357.356917
 31
0.0
  0
LINE
  5
47e
100
AcDbEntity
  8
Layer_1
 62
5
100
AcDbLine
 10
-68.639460
 20
357.356917
 30
0.0
 11
-59.839051
 21
361.153128
 31
0.0
  0
LINE
  5
47f
100
AcDbEntity
  8
Layer_1
 62
5
100
AcDbLine
 10
-59.839051
 20
361.153128
 30
0.0
 11
-55.110237
 21
361.822105
 31
0.0
  0
LINE
  5
480
100
AcDbEntity
  8
Layer_1
 62
5
100
AcDbLine
 10
-55.110237
 20
361.822105
 30
0.0
 11
-51.218071
 21
361.423048
 31
0.0
  0
LINE
  5
481
100
AcDbEntity
  8
Layer_1
 62
5
100
AcDbLine
 10
-51.218071
 20
361.423048
 30
0.0
 11
-49.499191
 21
371.171312
 31
0.0
  0
LINE
  5
482
100
AcDbEntity
  8
Layer_1
 62
5
100
AcDbLine
 10
-49.499191
 20
371.171312
 30
0.0
 11
-53.293113
 21
372.127523
 31
0.0
  0
LINE
  5
483
100
AcDbEntity
  8
Layer_1
 62
5
100
AcDbLine
 10
-53.293113
 20
372.127523
 30
0.0
 11
-57.507944
 21
374.373504
 31
0.0
  0
LINE
  5
484
100
AcDbEntity
  8
Layer_1
 62
5
100
AcDbLine
 10
-57.507944
 20
374.373504
 30
0.0
 11
-64.479242
 21
380.950693
 31
0.0
  0
LINE
  5
485
100
AcDbEntity
  8
Layer_1
 62
5
100
AcDbLine
 10
-64.479242
 20
380.950693
 30
0.0
 11
-62.484614
 21
386.430884
 31
0.0
  0
LINE
  5
486
100
AcDbEntity
  8
Layer_1
 62
5
100
AcDbLine
 10
-62.484614
 20
386.430884
 30
0.0
 11
-52.916555
 21
386.988242
 31
0.0
  0
LINE
  5
487
100
AcDbEntity
  8
Layer_1
 62
5
100
AcDbLine
 10
-52.916555
 20
386.988242
 30
0.0
 11
-48.244118
 21
385.999524
 31
0.0
  0
LINE
  5
488
100
AcDbEntity
  8
Layer_1
 62
5
100
AcDbLine
 10
-48.244118
 20
385.999524
 30
0.0
 11
-44.723164
 21
384.293336
 31
0.0
  0
LINE
  5
489
100
AcDbEntity
  8
Layer_1
 62
5
100
AcDbLine
 10
-44.723164
 20
384.293336
 30
0.0
 11
-39.773841
 21
392.865813
 31
0.0
  0
LINE
  5
48a
100
AcDbEntity
  8
Layer_1
 62
5
100
AcDbLine
 10
-39.773841
 20
392.865813
 30
0.0
 11
-43.011921
 21
395.061957
 31
0.0
  0
LINE
  5
48b
100
AcDbEntity
  8
Layer_1
 62
5
100
AcDbLine
 10
-43.011921
 20
395.061957
 30
0.0
 11
-46.204393
 21
398.614045
 31
0.0
  0
LINE
  5
48c
100
AcDbEntity
  8
Layer_1
 62
5
100
AcDbLine
 10
-46.204393
 20
398.614045
 30
0.0
 11
-50.505737
 21
407.178906
 31
0.0
  0
LINE
  5
48d
100
AcDbEntity
  8
Layer_1
 62
5
100
AcDbLine
 10
-50.505737
 20
407.178906
 30
0.0
 11
-46.757066
 21
411.646402
 31
0.0
  0
LINE
  5
48e
100
AcDbEntity
  8
Layer_1
 62
5
100
AcDbLine
 10
-46.757066
 20
411.646402
 30
0.0
 11
-37.575406
 21
408.897676
 31
0.0
  0
LINE
  5
48f
100
AcDbEntity
  8
Layer_1
 62
5
100
AcDbLine
 10
-37.575406
 20
408.897676
 30
0.0
 11
-33.522912
 21
406.370517
 31
0.0
  0
LINE
  5
490
100
AcDbEntity
  8
Layer_1
 62
5
100
AcDbLine
 10
-33.522912
 20
406.370517
 30
0.0
 11
-30.797848
 21
403.562987
 31
0.0
  0
LINE
  5
491
100
AcDbEntity
  8
Layer_1
 62
5
100
AcDbLine
 10
-30.797848
 20
403.562987
 30
0.0
 11
-23.215044
 21
409.925713
 31
0.0
  0
LINE
  5
492
100
AcDbEntity
  8
Layer_1
 62
5
100
AcDbLine
 10
-23.215044
 20
409.925713
 30
0.0
 11
-25.506719
 21
413.096900
 31
0.0
  0
LINE
  5
493
100
AcDbEntity
  8
Layer_1
 62
5
100
AcDbLine
 10
-25.506719
 20
413.096900
 30
0.0
 11
-27.291777
 21
417.526663
 31
0.0
  0
LINE
  5
494
100
AcDbEntity
  8
Layer_1
 62
5
100
AcDbLine
 10
-27.291777
 20
417.526663
 30
0.0
 11
-28.404363
 21
427.046146
 31
0.0
  0
LINE
  5
495
100
AcDbEntity
  8
Layer_1
 62
5
100
AcDbLine
 10
-28.404363
 20
427.046146
 30
0.0
 11
-23.353791
 21
429.962094
 31
0.0
  0
LINE
  5
496
100
AcDbEntity
  8
Layer_1
 62
5
100
AcDbLine
 10
-23.353791
 20
429.962094
 30
0.0
 11
-15.665972
 21
424.238825
 31
0.0
  0
LINE
  5
497
100
AcDbEntity
  8
Layer_1
 62
5
100
AcDbLine
 10
-15.665972
 20
424.238825
 30
0.0
 11
-12.722214
 21
420.478038
 31
0.0
  0
LINE
  5
498
100
AcDbEntity
  8
Layer_1
 62
5
100
AcDbLine
 10
-12.722214
 20
420.478038
 30
0.0
 11
-11.121725
 21
416.907795
 31
0.0
  0
LINE
  5
499
100
AcDbEntity
  8
Layer_1
 62
5
100
AcDbLine
 10
-11.121725
 20
416.907795
 30
0.0
 11
-1.820039
 21
420.293332
 31
0.0
  0
LINE
  5
49a
100
AcDbEntity
  8
Layer_1
 62
5
100
AcDbLine
 10
-1.820039
 20
420.293332
 30
0.0
 11
-2.888898
 21
424.057071
 31
0.0
  0
LINE
  5
49b
100
AcDbEntity
  8
Layer_1
 62
5
100
AcDbLine
 10
-2.888898
 20
424.057071
 30
0.0
 11
-3.051234
 21
428.830213
 31
0.0
  0
LINE
  5
49c
100
AcDbEntity
  8
Layer_1
 62
5
100
AcDbLine
 10
-3.051234
 20
428.830213
 30
0.0
 11
-0.840873
 21
438.156128
 31
0.0
  0
LINE
  5
49d
100
AcDbEntity
  8
Layer_1
 62
5
100
AcDbLine
 10
-0.840873
 20
438.156128
 30
0.0
 11
4.902428
 21
439.168826
 31
0.0
  0
LINE
  5
49e
100
AcDbEntity
  8
Layer_1
 62
5
100
AcDbLine
 10
4.902428
 20
439.168826
 30
0.0
 11
10.169143
 21
431.161321
 31
0.0
  0
LINE
  5
49f
100
AcDbEntity
  8
Layer_1
 62
5
100
AcDbLine
 10
10.169143
 20
431.161321
 30
0.0
 11
11.649106
 21
426.620515
 31
0.0
  0
LINE
  5
4a0
100
AcDbEntity
  8
Layer_1
 62
5
100
AcDbLine
 10
11.649106
 20
426.620515
 30
0.0
 11
11.931979
 21
422.718186
 31
0.0
  0
LINE
  5
4a1
100
AcDbEntity
  8
Layer_1
 62
5
100
AcDbLine
 10
11.931979
 20
422.718186
 30
0.0
 11
21.830627
 21
422.718186
 31
0.0
  0
LINE
  5
4a2
100
AcDbEntity
  8
Layer_1
 62
5
100
AcDbLine
 10
21.830627
 20
422.718186
 30
0.0
 11
22.113501
 21
426.620515
 31
0.0
  0
LINE
  5
4a3
100
AcDbEntity
  8
Layer_1
 62
5
100
AcDbLine
 10
22.113501
 20
426.620515
 30
0.0
 11
23.593464
 21
431.161321
 31
0.0
  0
LINE
  5
4a4
100
AcDbEntity
  8
Layer_1
 62
5
100
AcDbLine
 10
23.593464
 20
431.161321
 30
0.0
 11
28.860178
 21
439.168826
 31
0.0
  0
LINE
  5
4a5
100
AcDbEntity
  8
Layer_1
 62
5
100
AcDbLine
 10
28.860178
 20
439.168826
 30
0.0
 11
34.603479
 21
438.156128
 31
0.0
  0
LINE
  5
4a6
100
AcDbEntity
  8
Layer_1
 62
5
100
AcDbLine
 10
34.603479
 20
438.156128
 30
0.0
 11
36.813841
 21
428.830213
 31
0.0
  0
LINE
  5
4a7
100
AcDbEntity
  8
Layer_1
 62
5
100
AcDbLine
 10
36.813841
 20
428.830213
 30
0.0
 11
36.651504
 21
424.057071
 31
0.0
  0
LINE
  5
4a8
100
AcDbEntity
  8
Layer_1
 62
5
100
AcDbLine
 10
36.651504
 20
424.057071
 30
0.0
 11
35.582646
 21
420.293332
 31
0.0
  0
LINE
  5
4a9
100
AcDbEntity
  8
Layer_1
 62
5
100
AcDbLine
 10
35.582646
 20
420.293332
 30
0.0
 11
44.884333
 21
416.907795
 31
0.0
  0
LINE
  5
4aa
100
AcDbEntity
  8
Layer_1
 62
5
100
AcDbLine
 10
44.884333
 20
416.907795
 30
0.0
 11
46.484821
 21
420.478038
 31
0.0
  0
LINE
  5
4ab
100
AcDbEntity
  8
Layer_1
 62
5
100
AcDbLine
 10
46.484821
 20
420.478038
 30
0.0
 11
49.428579
 21
424.238825
 31
0.0
  0
LINE
  5
4ac
100
AcDbEntity
  8
Layer_1
 62
5
100
AcDbLine
 10
49.428579
 20
424.238825
 30
0.0
 11
57.116397
 21
429.962094
 31
0.0
  0
LINE
  5
4ad
100
AcDbEntity
  8
Layer_1
 62
5
100
AcDbLine
 10
57.116397
 20
429.962094
 30
0.0
 11
62.166970
 21
427.046146
 31
0.0
  0
LINE
  5
4ae
100
AcDbEntity
  8
Layer_1
 62
5
100
AcDbLine
 10
62.166970
 20
427.046146
 30
0.0
 11
61.054382
 21
417.526663
 31
0.0
  0
LINE
  5
4af
100
AcDbEntity
  8
Layer_1
 62
5
100
AcDbLine
 10
61.054382
 20
417.526663
 30
0.0
 11
59.269327
 21
413.096900
 31
0.0
  0
LINE
  5
4b0
100
AcDbEntity
  8
Layer_1
 62
5
100
AcDbLine
 10
59.269327
 20
413.096900
 30
0.0
 11
56.977651
 21
409.925713
 31
0.0
  0
LINE
  5
4b1
100
AcDbEntity
  8
Layer_1
 62
5
100
AcDbLine
 10
56.977651
 20
409.925713
 30
0.0
 11
64.560454
 21
403.562987
 31
0.0
  0
LINE
  5
4b2
100
AcDbEntity
  8
Layer_1
 62
5
100
AcDbLine
 10
64.560454
 20
403.562987
 30
0.0
 11
67.285519
 21
406.370517
 31
0.0
  0
LINE
  5
4b3
100
AcDbEntity
  8
Layer_1
 62
5
100
AcDbLine
 10
67.285519
 20
406.370517
 30
0.0
 11
71.338013
 21
408.897676
 31
0.0
  0
LINE
  5
4b4
100
AcDbEntity
  8
Layer_1
 62
5
100
AcDbLine
 10
71.338013
 20
408.897676
 30
0.0
 11
80.519673
 21
411.646402
 31
0.0
  0
LINE
  5
4b5
100
AcDbEntity
  8
Layer_1
 62
5
100
AcDbLine
 10
80.519673
 20
411.646402
 30
0.0
 11
84.268343
 21
407.178906
 31
0.0
  0
LINE
  5
4b6
100
AcDbEntity
  8
Layer_1
 62
5
100
AcDbLine
 10
84.268343
 20
407.178906
 30
0.0
 11
79.967000
 21
398.614045
 31
0.0
  0
LINE
  5
4b7
100
AcDbEntity
  8
Layer_1
 62
5
100
AcDbLine
 10
79.967000
 20
398.614045
 30
0.0
 11
76.774527
 21
395.061957
 31
0.0
  0
LINE
  5
4b8
100
AcDbEntity
  8
Layer_1
 62
5
100
AcDbLine
 10
76.774527
 20
395.061957
 30
0.0
 11
73.536448
 21
392.865813
 31
0.0
  0
LINE
  5
4b9
100
AcDbEntity
  8
Layer_1
 62
5
100
AcDbLine
 10
73.536448
 20
392.865813
 30
0.0
 11
78.485770
 21
384.293336
 31
0.0
  0
LINE
  5
4ba
100
AcDbEntity
  8
Layer_1
 62
5
100
AcDbLine
 10
78.485770
 20
384.293336
 30
0.0
 11
82.006724
 21
385.999524
 31
0.0
  0
LINE
  5
4bb
100
AcDbEntity
  8
Layer_1
 62
5
100
AcDbLine
 10
82.006724
 20
385.999524
 30
0.0
 11
86.679162
 21
386.988242
 31
0.0
  0
LINE
  5
4bc
100
AcDbEntity
  8
Layer_1
 62
5
100
AcDbLine
 10
86.679162
 20
386.988242
 30
0.0
 11
96.247220
 21
386.430884
 31
0.0
  0
LINE
  5
4bd
100
AcDbEntity
  8
Layer_1
 62
5
100
AcDbLine
 10
96.247220
 20
386.430884
 30
0.0
 11
98.241849
 21
380.950693
 31
0.0
  0
LINE
  5
4be
100
AcDbEntity
  8
Layer_1
 62
5
100
AcDbLine
 10
98.241849
 20
380.950693
 30
0.0
 11
91.270550
 21
374.373504
 31
0.0
  0
LINE
  5
4bf
100
AcDbEntity
  8
Layer_1
 62
5
100
AcDbLine
 10
91.270550
 20
374.373504
 30
0.0
 11
87.055719
 21
372.127523
 31
0.0
  0
LINE
  5
4c0
100
AcDbEntity
  8
Layer_1
 62
5
100
AcDbLine
 10
87.055719
 20
372.127523
 30
0.0
 11
83.261798
 21
371.171312
 31
0.0
  0
LINE
  5
4c1
100
AcDbEntity
  8
Layer_1
 62
5
100
AcDbLine
 10
83.261798
 20
371.171312
 30
0.0
 11
84.980678
 21
361.423048
 31
0.0
  0
SPLINE
  5
4c2
100
AcDbEntity
  8
Layer_1
 62
5
100
AcDbSpline
 70
8
 71
3
 72
8
 73
4
 74
0
 40
0
 40
0
 40
0
 40
0
 40
1
 40
1
 40
1
 40
1
 10
6.664800
 20
375.575934
 30
0.0
 10
6.664800
 20
369.674769
 30
0.0
 10
1.880959
 20
364.890927
 30
0.0
 10
-4.020207
 20
364.890927
 30
0.0
  0
LINE
  5
4c3
100
AcDbEntity
  8
Layer_1
 62
5
100
AcDbLine
 10
-4.020207
 20
364.890927
 30
0.0
 11
-19.085641
 21
364.782540
 31
0.0
  0
SPLINE
  5
4c4
100
AcDbEntity
  8
Layer_1
 62
5
100
AcDbSpline
 70
8
 71
3
 72
8
 73
4
 74
0
 40
0
 40
0
 40
0
 40
0
 40
1
 40
1
 40
1
 40
1
 10
-19.085641
 20
364.782540
 30
0.0
 10
-24.986806
 20
364.782540
 30
0.0
 10
-29.770646
 20
369.566382
 30
0.0
 10
-29.770646
 20
375.467547
 30
0.0
  0
SPLINE
  5
4c5
100
AcDbEntity
  8
Layer_1
 62
5
100
AcDbSpline
 70
8
 71
3
 72
8
 73
4
 74
0
 40
0
 40
0
 40
0
 40
0
 40
1
 40
1
 40
1
 40
1
 10
-29.770646
 20
375.467547
 30
0.0
 10
-29.770646
 20
377.531463
 30
0.0
 10
-29.185473
 20
379.458705
 30
0.0
 10
-28.238355
 20
381.055369
 30
0.0
  0
SPLINE
  5
4c6
100
AcDbEntity
  8
Layer_1
 62
5
100
AcDbSpline
 70
8
 71
3
 72
8
 73
4
 74
0
 40
0
 40
0
 40
0
 40
0
 40
1
 40
1
 40
1
 40
1
 10
-28.238355
 20
381.055369
 30
0.0
 10
-23.827430
 20
388.614090
 30
0.0
 10
-17.489507
 20
394.982105
 30
0.0
 10
-9.968366
 20
399.488048
 30
0.0
  0
SPLINE
  5
4c7
100
AcDbEntity
  8
Layer_1
 62
5
100
AcDbSpline
 70
8
 71
3
 72
8
 73
4
 74
0
 40
0
 40
0
 40
0
 40
0
 40
1
 40
1
 40
1
 40
1
 10
-9.968366
 20
399.488048
 30
0.0
 10
-8.374942
 20
400.512701
 30
0.0
 10
-6.429855
 20
401.109607
 30
0.0
 10
-4.345358
 20
401.109607
 30
0.0
  0
SPLINE
  5
4c8
100
AcDbEntity
  8
Layer_1
 62
5
100
AcDbSpline
 70
8
 71
3
 72
8
 73
4
 74
0
 40
0
 40
0
 40
0
 40
0
 40
1
 40
1
 40
1
 40
1
 10
-4.345358
 20
401.109607
 30
0.0
 10
1.555808
 20
401.109607
 30
0.0
 10
6.339649
 20
396.325765
 30
0.0
 10
6.339649
 20
390.424600
 30
0.0
  0
LINE
  5
4c9
100
AcDbEntity
  8
Layer_1
 62
5
100
AcDbLine
 10
6.339649
 20
390.424600
 30
0.0
 11
6.664800
 21
375.575934
 31
0.0
  0
SPLINE
  5
4ca
100
AcDbEntity
  8
Layer_1
 62
5
100
AcDbSpline
 70
8
 71
3
 72
8
 73
4
 74
0
 40
0
 40
0
 40
0
 40
0
 40
1
 40
1
 40
1
 40
1
 10
38.141344
 20
364.728347
 30
0.0
 10
32.240178
 20
364.728347
 30
0.0
 10
27.456336
 20
369.512186
 30
0.0
 10
27.456336
 20
375.413354
 30
0.0
  0
LINE
  5
4cb
100
AcDbEntity
  8
Layer_1
 62
5
100
AcDbLine
 10
27.456336
 20
375.413354
 30
0.0
 11
27.347950
 21
390.478786
 31
0.0
  0
SPLINE
  5
4cc
100
AcDbEntity
  8
Layer_1
 62
5
100
AcDbSpline
 70
8
 71
3
 72
8
 73
4
 74
0
 40
0
 40
0
 40
0
 40
0
 40
1
 40
1
 40
1
 40
1
 10
27.347950
 20
390.478786
 30
0.0
 10
27.347950
 20
396.379951
 30
0.0
 10
32.131791
 20
401.163793
 30
0.0
 10
38.032956
 20
401.163793
 30
0.0
  0
SPLINE
  5
4cd
100
AcDbEntity
  8
Layer_1
 62
5
100
AcDbSpline
 70
8
 71
3
 72
8
 73
4
 74
0
 40
0
 40
0
 40
0
 40
0
 40
1
 40
1
 40
1
 40
1
 10
38.032956
 20
401.163793
 30
0.0
 10
40.096873
 20
401.163793
 30
0.0
 10
42.024115
 20
400.578620
 30
0.0
 10
43.620776
 20
399.631502
 30
0.0
  0
SPLINE
  5
4ce
100
AcDbEntity
  8
Layer_1
 62
5
100
AcDbSpline
 70
8
 71
3
 72
8
 73
4
 74
0
 40
0
 40
0
 40
0
 40
0
 40
1
 40
1
 40
1
 40
1
 10
43.620776
 20
399.631502
 30
0.0
 10
51.179500
 20
395.220577
 30
0.0
 10
57.547514
 20
388.882653
 30
0.0
 10
62.053457
 20
381.361512
 30
0.0
  0
SPLINE
  5
4cf
100
AcDbEntity
  8
Layer_1
 62
5
100
AcDbSpline
 70
8
 71
3
 72
8
 73
4
 74
0
 40
0
 40
0
 40
0
 40
0
 40
1
 40
1
 40
1
 40
1
 10
62.053457
 20
381.361512
 30
0.0
 10
63.078110
 20
379.768089
 30
0.0
 10
63.675013
 20
377.823002
 30
0.0
 10
63.675013
 20
375.738503
 30
0.0
  0
SPLINE
  5
4d0
100
AcDbEntity
  8
Layer_1
 62
5
100
AcDbSpline
 70
8
 71
3
 72
8
 73
4
 74
0
 40
0
 40
0
 40
0
 40
0
 40
1
 40
1
 40
1
 40
1
 10
63.675013
 20
375.738503
 30
0.0
 10
63.675013
 20
369.837337
 30
0.0
 10
58.891174
 20
365.053496
 30
0.0
 10
52.990006
 20
365.053496
 30
0.0
  0
LINE
  5
4d1
100
AcDbEntity
  8
Layer_1
 62
5
100
AcDbLine
 10
52.990006
 20
365.053496
 30
0.0
 11
38.141344
 21
364.728347
 31
0.0
  0
SPLINE
  5
4d2
100
AcDbEntity
  8
Layer_1
 62
5
100
AcDbSpline
 70
8
 71
3
 72
8
 73
4
 74
0
 40
0
 40
0
 40
0
 40
0
 40
1
 40
1
 40
1
 40
1
 10
27.293758
 20
333.197614
 30
0.0
 10
27.293758
 20
339.098780
 30
0.0
 10
32.077599
 20
343.882621
 30
0.0
 10
37.978764
 20
343.882621
 30
0.0
  0
LINE
  5
4d3
100
AcDbEntity
  8
Layer_1
 62
5
100
AcDbLine
 10
37.978764
 20
343.882621
 30
0.0
 11
53.044199
 21
343.991008
 31
0.0
  0
SPLINE
  5
4d4
100
AcDbEntity
  8
Layer_1
 62
5
100
AcDbSpline
 70
8
 71
3
 72
8
 73
4
 74
0
 40
0
 40
0
 40
0
 40
0
 40
1
 40
1
 40
1
 40
1
 10
53.044199
 20
343.991008
 30
0.0
 10
58.945364
 20
343.991008
 30
0.0
 10
63.729206
 20
339.207166
 30
0.0
 10
63.729206
 20
333.306001
 30
0.0
  0
SPLINE
  5
4d5
100
AcDbEntity
  8
Layer_1
 62
5
100
AcDbSpline
 70
8
 71
3
 72
8
 73
4
 74
0
 40
0
 40
0
 40
0
 40
0
 40
1
 40
1
 40
1
 40
1
 10
63.729206
 20
333.306001
 30
0.0
 10
63.729206
 20
331.242085
 30
0.0
 10
63.144032
 20
329.314843
 30
0.0
 10
62.196914
 20
327.718180
 30
0.0
  0
SPLINE
  5
4d6
100
AcDbEntity
  8
Layer_1
 62
5
100
AcDbSpline
 70
8
 71
3
 72
8
 73
4
 74
0
 40
0
 40
0
 40
0
 40
0
 40
1
 40
1
 40
1
 40
1
 10
62.196914
 20
327.718180
 30
0.0
 10
57.785986
 20
320.159457
 30
0.0
 10
51.448065
 20
313.791445
 30
0.0
 10
43.926925
 20
309.285500
 30
0.0
  0
SPLINE
  5
4d7
100
AcDbEntity
  8
Layer_1
 62
5
100
AcDbSpline
 70
8
 71
3
 72
8
 73
4
 74
0
 40
0
 40
0
 40
0
 40
0
 40
1
 40
1
 40
1
 40
1
 10
43.926925
 20
309.285500
 30
0.0
 10
42.333501
 20
308.260848
 30
0.0
 10
40.388414
 20
307.663943
 30
0.0
 10
38.303915
 20
307.663943
 30
0.0
  0
SPLINE
  5
4d8
100
AcDbEntity
  8
Layer_1
 62
5
100
AcDbSpline
 70
8
 71
3
 72
8
 73
4
 74
0
 40
0
 40
0
 40
0
 40
0
 40
1
 40
1
 40
1
 40
1
 10
38.303915
 20
307.663943
 30
0.0
 10
32.402750
 20
307.663943
 30
0.0
 10
27.618909
 20
312.447785
 30
0.0
 10
27.618909
 20
318.348950
 30
0.0
  0
LINE
  5
4d9
100
AcDbEntity
  8
Layer_1
 62
5
100
AcDbLine
 10
27.618909
 20
318.348950
 30
0.0
 11
27.293758
 21
333.197614
 31
0.0
  0
SPLINE
  5
4da
100
AcDbEntity
  8
Layer_1
 62
5
100
AcDbSpline
 70
8
 71
3
 72
8
 73
4
 74
0
 40
0
 40
0
 40
0
 40
0
 40
1
 40
1
 40
1
 40
1
 10
-4.345361
 20
344.045196
 30
0.0
 10
1.555805
 20
344.045196
 30
0.0
 10
6.339646
 20
339.261355
 30
0.0
 10
6.339646
 20
333.360189
 30
0.0
  0
LINE
  5
4db
100
AcDbEntity
  8
Layer_1
 62
5
100
AcDbLine
 10
6.339646
 20
333.360189
 30
0.0
 11
6.448033
 21
318.294755
 31
0.0
  0
SPLINE
  5
4dc
100
AcDbEntity
  8
Layer_1
 62
5
100
AcDbSpline
 70
8
 71
3
 72
8
 73
4
 74
0
 40
0
 40
0
 40
0
 40
0
 40
1
 40
1
 40
1
 40
1
 10
6.448033
 20
318.294755
 30
0.0
 10
6.448033
 20
312.393590
 30
0.0
 10
1.664192
 20
307.609748
 30
0.0
 10
-4.236974
 20
307.609748
 30
0.0
  0
SPLINE
  5
4dd
100
AcDbEntity
  8
Layer_1
 62
5
100
AcDbSpline
 70
8
 71
3
 72
8
 73
4
 74
0
 40
0
 40
0
 40
0
 40
0
 40
1
 40
1
 40
1
 40
1
 10
-4.236974
 20
307.609748
 30
0.0
 10
-6.300890
 20
307.609748
 30
0.0
 10
-8.228132
 20
308.194924
 30
0.0
 10
-9.824794
 20
309.142040
 30
0.0
  0
SPLINE
  5
4de
100
AcDbEntity
  8
Layer_1
 62
5
100
AcDbSpline
 70
8
 71
3
 72
8
 73
4
 74
0
 40
0
 40
0
 40
0
 40
0
 40
1
 40
1
 40
1
 40
1
 10
-9.824794
 20
309.142040
 30
0.0
 10
-17.383517
 20
313.552967
 30
0.0
 10
-23.751530
 20
319.890890
 30
0.0
 10
-28.257475
 20
327.412031
 30
0.0
  0
SPLINE
  5
4df
100
AcDbEntity
  8
Layer_1
 62
5
100
AcDbSpline
 70
8
 71
3
 72
8
 73
4
 74
0
 40
0
 40
0
 40
0
 40
0
 40
1
 40
1
 40
1
 40
1
 10
-28.257475
 20
327.412031
 30
0.0
 10
-29.282125
 20
329.005455
 30
0.0
 10
-29.879031
 20
330.950541
 30
0.0
 10
-29.879031
 20
333.035039
 30
0.0
  0
SPLINE
  5
4e0
100
AcDbEntity
  8
Layer_1
 62
5
100
AcDbSpline
 70
8
 71
3
 72
8
 73
4
 74
0
 40
0
 40
0
 40
0
 40
0
 40
1
 40
1
 40
1
 40
1
 10
-29.879031
 20
333.035039
 30
0.0
 10
-29.879031
 20
338.936204
 30
0.0
 10
-25.095190
 20
343.720046
 30
0.0
 10
-19.194024
 20
343.720046
 30
0.0
  0
LINE
  5
4e1
100
AcDbEntity
  8
Layer_1
 62
5
100
AcDbLine
 10
-19.194024
 20
343.720046
 30
0.0
 11
-4.345361
 21
344.045196
 31
0.0
  0
LINE
  5
4e2
100
AcDbEntity
  8
Layer_1
 62
1
100
AcDbLine
 10
15.382646
 20
368.103424
 30
0.0
 11
15.382646
 21
355.941962
 31
0.0
  0
LINE
  5
4e3
100
AcDbEntity
  8
Layer_1
 62
1
100
AcDbLine
 10
15.382646
 20
355.941962
 30
0.0
 11
3.218981
 21
355.941962
 31
0.0
  0
LINE
  5
4e4
100
AcDbEntity
  8
Layer_1
 62
1
100
AcDbLine
 10
3.218981
 20
355.941962
 30
0.0
 11
3.218981
 21
352.942249
 31
0.0
  0
LINE
  5
4e5
100
AcDbEntity
  8
Layer_1
 62
1
100
AcDbLine
 10
3.218981
 20
352.942249
 30
0.0
 11
15.382646
 21
352.942249
 31
0.0
  0
LINE
  5
4e6
100
AcDbEntity
  8
Layer_1
 62
1
100
AcDbLine
 10
15.382646
 20
352.942249
 30
0.0
 11
15.382646
 21
352.657822
 31
0.0
  0
LINE
  5
4e7
100
AcDbEntity
  8
Layer_1
 62
1
100
AcDbLine
 10
15.382646
 20
352.657822
 30
0.0
 11
15.382646
 21
340.779132
 31
0.0
  0
LINE
  5
4e8
100
AcDbEntity
  8
Layer_1
 62
1
100
AcDbLine
 10
15.382646
 20
340.779132
 30
0.0
 11
18.382358
 21
340.779132
 31
0.0
  0
LINE
  5
4e9
100
AcDbEntity
  8
Layer_1
 62
1
100
AcDbLine
 10
18.382358
 20
340.779132
 30
0.0
 11
18.382358
 21
352.657822
 31
0.0
  0
LINE
  5
4ea
100
AcDbEntity
  8
Layer_1
 62
1
100
AcDbLine
 10
18.382358
 20
352.657822
 30
0.0
 11
18.382358
 21
352.942249
 31
0.0
  0
LINE
  5
4eb
100
AcDbEntity
  8
Layer_1
 62
1
100
AcDbLine
 10
18.382358
 20
352.942249
 30
0.0
 11
18.664581
 21
352.942249
 31
0.0
  0
LINE
  5
4ec
100
AcDbEntity
  8
Layer_1
 62
1
100
AcDbLine
 10
18.664581
 20
352.942249
 30
0.0
 11
30.543286
 21
352.942249
 31
0.0
  0
LINE
  5
4ed
100
AcDbEntity
  8
Layer_1
 62
1
100
AcDbLine
 10
30.543286
 20
352.942249
 30
0.0
 11
30.543286
 21
355.941962
 31
0.0
  0
LINE
  5
4ee
100
AcDbEntity
  8
Layer_1
 62
1
100
AcDbLine
 10
30.543286
 20
355.941962
 30
0.0
 11
18.664581
 21
355.941962
 31
0.0
  0
LINE
  5
4ef
100
AcDbEntity
  8
Layer_1
 62
1
100
AcDbLine
 10
18.664581
 20
355.941962
 30
0.0
 11
18.382358
 21
355.941962
 31
0.0
  0
LINE
  5
4f0
100
AcDbEntity
  8
Layer_1
 62
1
100
AcDbLine
 10
18.382358
 20
355.941962
 30
0.0
 11
18.382358
 21
368.103424
 31
0.0
  0
LINE
  5
4f1
100
AcDbEntity
  8
Layer_1
 62
1
100
AcDbLine
 10
18.382358
 20
368.103424
 30
0.0
 11
15.382646
 21
368.103424
 31
0.0
  0
LINE
  5
4f2
100
AcDbEntity
  8
Layer_1
 62
1
100
AcDbLine
 10
15.382646
 20
368.103424
 30
0.0
 11
15.382646
 21
368.103424
 31
0.0
  0
LINE
  5
4f3
100
AcDbEntity
  8
Layer_1
 62
1
100
AcDbLine
 10
18.382432
 20
320.778819
 30
0.0
 11
18.382432
 21
330.778825
 31
0.0
  0
LINE
  5
4f4
100
AcDbEntity
  8
Layer_1
 62
1
100
AcDbLine
 10
18.382432
 20
330.778825
 30
0.0
 11
15.382438
 21
330.778825
 31
0.0
  0
LINE
  5
4f5
100
AcDbEntity
  8
Layer_1
 62
1
100
AcDbLine
 10
15.382438
 20
330.778825
 30
0.0
 11
15.382438
 21
320.778819
 31
0.0
  0
LINE
  5
4f6
100
AcDbEntity
  8
Layer_1
 62
1
100
AcDbLine
 10
15.382438
 20
320.778819
 30
0.0
 11
18.382432
 21
320.778819
 31
0.0
  0
SPLINE
  5
4f7
100
AcDbEntity
  8
Layer_1
 62
1
100
AcDbSpline
 70
8
 71
3
 72
8
 73
4
 74
0
 40
0
 40
0
 40
0
 40
0
 40
1
 40
1
 40
1
 40
1
 10
16.881292
 20
337.328782
 30
0.0
 10
16.025256
 20
337.328778
 30
0.0
 10
15.331299
 20
336.634820
 30
0.0
 10
15.331299
 20
335.778781
 30
0.0
  0
SPLINE
  5
4f8
100
AcDbEntity
  8
Layer_1
 62
1
100
AcDbSpline
 70
8
 71
3
 72
8
 73
4
 74
0
 40
0
 40
0
 40
0
 40
0
 40
1
 40
1
 40
1
 40
1
 10
15.331299
 20
335.778781
 30
0.0
 10
15.331299
 20
334.922743
 30
0.0
 10
16.025256
 20
334.228786
 30
0.0
 10
16.881292
 20
334.228783
 30
0.0
  0
SPLINE
  5
4f9
100
AcDbEntity
  8
Layer_1
 62
1
100
AcDbSpline
 70
8
 71
3
 72
8
 73
4
 74
0
 40
0
 40
0
 40
0
 40
0
 40
1
 40
1
 40
1
 40
1
 10
16.881292
 20
334.228783
 30
0.0
 10
17.737328
 20
334.228786
 30
0.0
 10
18.431285
 20
334.922743
 30
0.0
 10
18.431285
 20
335.778781
 30
0.0
  0
SPLINE
  5
4fa
100
AcDbEntity
  8
Layer_1
 62
1
100
AcDbSpline
 70
8
 71
3
 72
8
 73
4
 74
0
 40
0
 40
0
 40
0
 40
0
 40
1
 40
1
 40
1
 40
1
 10
18.431285
 20
335.778781
 30
0.0
 10
18.431285
 20
336.634820
 30
0.0
 10
17.737328
 20
337.328778
 30
0.0
 10
16.881292
 20
337.328782
 30
0.0
  0
LINE
  5
4fb
100
AcDbEntity
  8
Layer_1
 62
1
100
AcDbLine
 10
16.881292
 20
337.328782
 30
0.0
 11
16.881292
 21
337.328782
 31
0.0
  0
LINE
  5
4fc
100
AcDbEntity
  8
Layer_1
 62
1
100
AcDbLine
 10
18.382432
 20
378.103108
 30
0.0
 11
18.382432
 21
388.103113
 31
0.0
  0
LINE
  5
4fd
100
AcDbEntity
  8
Layer_1
 62
1
100
AcDbLine
 10
18.382432
 20
388.103113
 30
0.0
 11
15.382438
 21
388.103113
 31
0.0
  0
LINE
  5
4fe
100
AcDbEntity
  8
Layer_1
 62
1
100
AcDbLine
 10
15.382438
 20
388.103113
 30
0.0
 11
15.382438
 21
378.103108
 31
0.0
  0
LINE
  5
4ff
100
AcDbEntity
  8
Layer_1
 62
1
100
AcDbLine
 10
15.382438
 20
378.103108
 30
0.0
 11
18.382432
 21
378.103108
 31
0.0
  0
SPLINE
  5
500
100
AcDbEntity
  8
Layer_1
 62
1
100
AcDbSpline
 70
8
 71
3
 72
8
 73
4
 74
0
 40
0
 40
0
 40
0
 40
0
 40
1
 40
1
 40
1
 40
1
 10
16.881292
 20
374.653119
 30
0.0
 10
16.025256
 20
374.653116
 30
0.0
 10
15.331299
 20
373.959160
 30
0.0
 10
15.331299
 20
373.103121
 30
0.0
  0
SPLINE
  5
501
100
AcDbEntity
  8
Layer_1
 62
1
100
AcDbSpline
 70
8
 71
3
 72
8
 73
4
 74
0
 40
0
 40
0
 40
0
 40
0
 40
1
 40
1
 40
1
 40
1
 10
15.331299
 20
373.103121
 30
0.0
 10
15.331299
 20
372.247081
 30
0.0
 10
16.025256
 20
371.553125
 30
0.0
 10
16.881292
 20
371.553122
 30
0.0
  0
SPLINE
  5
502
100
AcDbEntity
  8
Layer_1
 62
1
100
AcDbSpline
 70
8
 71
3
 72
8
 73
4
 74
0
 40
0
 40
0
 40
0
 40
0
 40
1
 40
1
 40
1
 40
1
 10
16.881292
 20
371.553122
 30
0.0
 10
17.737328
 20
371.553125
 30
0.0
 10
18.431285
 20
372.247081
 30
0.0
 10
18.431285
 20
373.103121
 30
0.0
  0
SPLINE
  5
503
100
AcDbEntity
  8
Layer_1
 62
1
100
AcDbSpline
 70
8
 71
3
 72
8
 73
4
 74
0
 40
0
 40
0
 40
0
 40
0
 40
1
 40
1
 40
1
 40
1
 10
18.431285
 20
373.103121
 30
0.0
 10
18.431285
 20
373.959160
 30
0.0
 10
17.737328
 20
374.653116
 30
0.0
 10
16.881292
 20
374.653119
 30
0.0
  0
LINE
  5
504
100
AcDbEntity
  8
Layer_1
 62
1
100
AcDbLine
 10
16.881292
 20
374.653119
 30
0.0
 11
16.881292
 21
374.653119
 31
0.0
  0
LINE
  5
505
100
AcDbEntity
  8
Layer_1
 62
1
100
AcDbLine
 10
50.543461
 20
355.942110
 30
0.0
 11
40.543453
 21
355.942110
 31
0.0
  0
LINE
  5
506
100
AcDbEntity
  8
Layer_1
 62
1
100
AcDbLine
 10
40.543453
 20
355.942110
 30
0.0
 11
40.543453
 21
352.942116
 31
0.0
  0
LINE
  5
507
100
AcDbEntity
  8
Layer_1
 62
1
100
AcDbLine
 10
40.543453
 20
352.942116
 30
0.0
 11
50.543461
 21
352.942116
 31
0.0
  0
LINE
  5
508
100
AcDbEntity
  8
Layer_1
 62
1
100
AcDbLine
 10
50.543461
 20
352.942116
 30
0.0
 11
50.543461
 21
355.942110
 31
0.0
  0
SPLINE
  5
509
100
AcDbEntity
  8
Layer_1
 62
1
100
AcDbSpline
 70
8
 71
3
 72
8
 73
4
 74
0
 40
0
 40
0
 40
0
 40
0
 40
1
 40
1
 40
1
 40
1
 10
33.993498
 20
354.440970
 30
0.0
 10
33.993498
 20
353.584933
 30
0.0
 10
34.687454
 20
352.890977
 30
0.0
 10
35.543491
 20
352.890977
 30
0.0
  0
SPLINE
  5
50a
100
AcDbEntity
  8
Layer_1
 62
1
100
AcDbSpline
 70
8
 71
3
 72
8
 73
4
 74
0
 40
0
 40
0
 40
0
 40
0
 40
1
 40
1
 40
1
 40
1
 10
35.543491
 20
352.890977
 30
0.0
 10
36.399527
 20
352.890977
 30
0.0
 10
37.093484
 20
353.584933
 30
0.0
 10
37.093484
 20
354.440970
 30
0.0
  0
SPLINE
  5
50b
100
AcDbEntity
  8
Layer_1
 62
1
100
AcDbSpline
 70
8
 71
3
 72
8
 73
4
 74
0
 40
0
 40
0
 40
0
 40
0
 40
1
 40
1
 40
1
 40
1
 10
37.093484
 20
354.440970
 30
0.0
 10
37.093484
 20
355.297006
 30
0.0
 10
36.399527
 20
355.990962
 30
0.0
 10
35.543491
 20
355.990962
 30
0.0
  0
SPLINE
  5
50c
100
AcDbEntity
  8
Layer_1
 62
1
100
AcDbSpline
 70
8
 71
3
 72
8
 73
4
 74
0
 40
0
 40
0
 40
0
 40
0
 40
1
 40
1
 40
1
 40
1
 10
35.543491
 20
355.990962
 30
0.0
 10
34.687454
 20
355.990962
 30
0.0
 10
33.993498
 20
355.297006
 30
0.0
 10
33.993498
 20
354.440970
 30
0.0
  0
LINE
  5
50d
100
AcDbEntity
  8
Layer_1
 62
1
100
AcDbLine
 10
33.993498
 20
354.440970
 30
0.0
 11
33.993498
 21
354.440970
 31
0.0
  0
LINE
  5
50e
100
AcDbEntity
  8
Layer_1
 62
1
100
AcDbLine
 10
-6.780841
 20
355.942110
 30
0.0
 11
-16.780849
 21
355.942110
 31
0.0
  0
LINE
  5
50f
100
AcDbEntity
  8
Layer_1
 62
1
100
AcDbLine
 10
-16.780849
 20
355.942110
 30
0.0
 11
-16.780849
 21
352.942116
 31
0.0
  0
LINE
  5
510
100
AcDbEntity
  8
Layer_1
 62
1
100
AcDbLine
 10
-16.780849
 20
352.942116
 30
0.0
 11
-6.780841
 21
352.942116
 31
0.0
  0
LINE
  5
511
100
AcDbEntity
  8
Layer_1
 62
1
100
AcDbLine
 10
-6.780841
 20
352.942116
 30
0.0
 11
-6.780841
 21
355.942110
 31
0.0
  0
SPLINE
  5
512
100
AcDbEntity
  8
Layer_1
 62
1
100
AcDbSpline
 70
8
 71
3
 72
8
 73
4
 74
0
 40
0
 40
0
 40
0
 40
0
 40
1
 40
1
 40
1
 40
1
 10
-3.330843
 20
354.440970
 30
0.0
 10
-3.330843
 20
353.584933
 30
0.0
 10
-2.636887
 20
352.890977
 30
0.0
 10
-1.780850
 20
352.890977
 30
0.0
  0
SPLINE
  5
513
100
AcDbEntity
  8
Layer_1
 62
1
100
AcDbSpline
 70
8
 71
3
 72
8
 73
4
 74
0
 40
0
 40
0
 40
0
 40
0
 40
1
 40
1
 40
1
 40
1
 10
-1.780850
 20
352.890977
 30
0.0
 10
-0.924814
 20
352.890977
 30
0.0
 10
-0.230858
 20
353.584933
 30
0.0
 10
-0.230858
 20
354.440970
 30
0.0
  0
SPLINE
  5
514
100
AcDbEntity
  8
Layer_1
 62
1
100
AcDbSpline
 70
8
 71
3
 72
8
 73
4
 74
0
 40
0
 40
0
 40
0
 40
0
 40
1
 40
1
 40
1
 40
1
 10
-0.230858
 20
354.440970
 30
0.0
 10
-0.230858
 20
355.297006
 30
0.0
 10
-0.924814
 20
355.990962
 30
0.0
 10
-1.780850
 20
355.990962
 30
0.0
  0
SPLINE
  5
515
100
AcDbEntity
  8
Layer_1
 62
1
100
AcDbSpline
 70
8
 71
3
 72
8
 73
4
 74
0
 40
0
 40
0
 40
0
 40
0
 40
1
 40
1
 40
1
 40
1
 10
-1.780850
 20
355.990962
 30
0.0
 10
-2.636887
 20
355.990962
 30
0.0
 10
-3.330843
 20
355.297006
 30
0.0
 10
-3.330843
 20
354.440970
 30
0.0
  0
LINE
  5
516
100
AcDbEntity
  8
Layer_1
 62
1
100
AcDbLine
 10
-3.330843
 20
354.440970
 30
0.0
 11
-3.330843
 21
354.440970
 31
0.0
  0
SPLINE
  5
517
100
AcDbEntity
  8
Layer_1
 62
3
100
AcDbSpline
 70
8
 71
3
 72
8
 73
4
 74
0
 40
0
 40
0
 40
0
 40
0
 40
1
 40
1
 40
1
 40
1
 10
60.643560
 20
200.440099
 30
0.0
 10
60.931498
 20
200.440099
 30
0.0
 10
61.202499
 20
200.386463
 30
0.0
 10
61.456563
 20
200.279190
 30
0.0
  0
SPLINE
  5
518
100
AcDbEntity
  8
Layer_1
 62
3
100
AcDbSpline
 70
8
 71
3
 72
8
 73
4
 74
0
 40
0
 40
0
 40
0
 40
0
 40
1
 40
1
 40
1
 40
1
 10
61.456563
 20
200.279190
 30
0.0
 10
61.716271
 20
200.171919
 30
0.0
 10
61.944929
 20
200.019482
 30
0.0
 10
62.142535
 20
199.821877
 30
0.0
  0
SPLINE
  5
519
100
AcDbEntity
  8
Layer_1
 62
3
100
AcDbSpline
 70
8
 71
3
 72
8
 73
4
 74
0
 40
0
 40
0
 40
0
 40
0
 40
1
 40
1
 40
1
 40
1
 10
62.142535
 20
199.821877
 30
0.0
 10
62.340140
 20
199.624273
 30
0.0
 10
62.492577
 20
199.395615
 30
0.0
 10
62.599848
 20
199.135905
 30
0.0
  0
SPLINE
  5
51a
100
AcDbEntity
  8
Layer_1
 62
3
100
AcDbSpline
 70
8
 71
3
 72
8
 73
4
 74
0
 40
0
 40
0
 40
0
 40
0
 40
1
 40
1
 40
1
 40
1
 10
62.599848
 20
199.135905
 30
0.0
 10
62.707121
 20
198.881841
 30
0.0
 10
62.760757
 20
198.610840
 30
0.0
 10
62.760757
 20
198.322902
 30
0.0
  0
LINE
  5
51b
100
AcDbEntity
  8
Layer_1
 62
3
100
AcDbLine
 10
62.760757
 20
198.322902
 30
0.0
 11
62.760757
 21
197.476024
 31
0.0
  0
SPLINE
  5
51c
100
AcDbEntity
  8
Layer_1
 62
3
100
AcDbSpline
 70
8
 71
3
 72
8
 73
4
 74
0
 40
0
 40
0
 40
0
 40
0
 40
1
 40
1
 40
1
 40
1
 10
62.760757
 20
197.476024
 30
0.0
 10
62.760757
 20
197.188085
 30
0.0
 10
62.707121
 20
196.914261
 30
0.0
 10
62.599848
 20
196.654551
 30
0.0
  0
SPLINE
  5
51d
100
AcDbEntity
  8
Layer_1
 62
3
100
AcDbSpline
 70
8
 71
3
 72
8
 73
4
 74
0
 40
0
 40
0
 40
0
 40
0
 40
1
 40
1
 40
1
 40
1
 10
62.599848
 20
196.654551
 30
0.0
 10
62.492577
 20
196.400489
 30
0.0
 10
62.340140
 20
196.174655
 30
0.0
 10
62.142535
 20
195.977048
 30
0.0
  0
SPLINE
  5
51e
100
AcDbEntity
  8
Layer_1
 62
3
100
AcDbSpline
 70
8
 71
3
 72
8
 73
4
 74
0
 40
0
 40
0
 40
0
 40
0
 40
1
 40
1
 40
1
 40
1
 10
62.142535
 20
195.977048
 30
0.0
 10
61.944929
 20
195.779444
 30
0.0
 10
61.716271
 20
195.627006
 30
0.0
 10
61.456563
 20
195.519735
 30
0.0
  0
SPLINE
  5
51f
100
AcDbEntity
  8
Layer_1
 62
3
100
AcDbSpline
 70
8
 71
3
 72
8
 73
4
 74
0
 40
0
 40
0
 40
0
 40
0
 40
1
 40
1
 40
1
 40
1
 10
61.456563
 20
195.519735
 30
0.0
 10
61.202499
 20
195.412465
 30
0.0
 10
60.931498
 20
195.358829
 30
0.0
 10
60.643560
 20
195.358829
 30
0.0
  0
LINE
  5
520
100
AcDbEntity
  8
Layer_1
 62
3
100
AcDbLine
 10
60.643560
 20
195.358829
 30
0.0
 11
58.949803
 21
195.358829
 31
0.0
  0
SPLINE
  5
521
100
AcDbEntity
  8
Layer_1
 62
3
100
AcDbSpline
 70
8
 71
3
 72
8
 73
4
 74
0
 40
0
 40
0
 40
0
 40
0
 40
1
 40
1
 40
1
 40
1
 10
58.949803
 20
195.358829
 30
0.0
 10
58.831240
 20
195.358829
 30
0.0
 10
58.729614
 20
195.398350
 30
0.0
 10
58.644927
 20
195.477391
 30
0.0
  0
SPLINE
  5
522
100
AcDbEntity
  8
Layer_1
 62
3
100
AcDbSpline
 70
8
 71
3
 72
8
 73
4
 74
0
 40
0
 40
0
 40
0
 40
0
 40
1
 40
1
 40
1
 40
1
 10
58.644927
 20
195.477391
 30
0.0
 10
58.565884
 20
195.562078
 30
0.0
 10
58.526363
 20
195.663703
 30
0.0
 10
58.526363
 20
195.782267
 30
0.0
  0
SPLINE
  5
523
100
AcDbEntity
  8
Layer_1
 62
3
100
AcDbSpline
 70
8
 71
3
 72
8
 73
4
 74
0
 40
0
 40
0
 40
0
 40
0
 40
1
 40
1
 40
1
 40
1
 10
58.526363
 20
195.782267
 30
0.0
 10
58.526363
 20
195.900830
 30
0.0
 10
58.565884
 20
195.999633
 30
0.0
 10
58.644927
 20
196.078674
 30
0.0
  0
SPLINE
  5
524
100
AcDbEntity
  8
Layer_1
 62
3
100
AcDbSpline
 70
8
 71
3
 72
8
 73
4
 74
0
 40
0
 40
0
 40
0
 40
0
 40
1
 40
1
 40
1
 40
1
 10
58.644927
 20
196.078674
 30
0.0
 10
58.729614
 20
196.163363
 30
0.0
 10
58.831240
 20
196.205707
 30
0.0
 10
58.949803
 20
196.205707
 30
0.0
  0
LINE
  5
525
100
AcDbEntity
  8
Layer_1
 62
3
100
AcDbLine
 10
58.949803
 20
196.205707
 30
0.0
 11
60.643560
 21
196.205707
 31
0.0
  0
SPLINE
  5
526
100
AcDbEntity
  8
Layer_1
 62
3
100
AcDbSpline
 70
8
 71
3
 72
8
 73
4
 74
0
 40
0
 40
0
 40
0
 40
0
 40
1
 40
1
 40
1
 40
1
 10
60.643560
 20
196.205707
 30
0.0
 10
60.818581
 20
196.205707
 30
0.0
 10
60.982310
 20
196.239583
 30
0.0
 10
61.134748
 20
196.307333
 30
0.0
  0
SPLINE
  5
527
100
AcDbEntity
  8
Layer_1
 62
3
100
AcDbSpline
 70
8
 71
3
 72
8
 73
4
 74
0
 40
0
 40
0
 40
0
 40
0
 40
1
 40
1
 40
1
 40
1
 10
61.134748
 20
196.307333
 30
0.0
 10
61.292832
 20
196.375083
 30
0.0
 10
61.428332
 20
196.465417
 30
0.0
 10
61.541249
 20
196.578334
 30
0.0
  0
SPLINE
  5
528
100
AcDbEntity
  8
Layer_1
 62
3
100
AcDbSpline
 70
8
 71
3
 72
8
 73
4
 74
0
 40
0
 40
0
 40
0
 40
0
 40
1
 40
1
 40
1
 40
1
 10
61.541249
 20
196.578334
 30
0.0
 10
61.654167
 20
196.691251
 30
0.0
 10
61.744500
 20
196.823928
 30
0.0
 10
61.812251
 20
196.976366
 30
0.0
  0
SPLINE
  5
529
100
AcDbEntity
  8
Layer_1
 62
3
100
AcDbSpline
 70
8
 71
3
 72
8
 73
4
 74
0
 40
0
 40
0
 40
0
 40
0
 40
1
 40
1
 40
1
 40
1
 10
61.812251
 20
196.976366
 30
0.0
 10
61.880001
 20
197.134450
 30
0.0
 10
61.913876
 20
197.301003
 30
0.0
 10
61.913876
 20
197.476024
 30
0.0
  0
LINE
  5
52a
100
AcDbEntity
  8
Layer_1
 62
3
100
AcDbLine
 10
61.913876
 20
197.476024
 30
0.0
 11
61.913876
 21
198.322902
 31
0.0
  0
SPLINE
  5
52b
100
AcDbEntity
  8
Layer_1
 62
3
100
AcDbSpline
 70
8
 71
3
 72
8
 73
4
 74
0
 40
0
 40
0
 40
0
 40
0
 40
1
 40
1
 40
1
 40
1
 10
61.913876
 20
198.322902
 30
0.0
 10
61.913876
 20
198.497923
 30
0.0
 10
61.880001
 20
198.661653
 30
0.0
 10
61.812251
 20
198.814093
 30
0.0
  0
SPLINE
  5
52c
100
AcDbEntity
  8
Layer_1
 62
3
100
AcDbSpline
 70
8
 71
3
 72
8
 73
4
 74
0
 40
0
 40
0
 40
0
 40
0
 40
1
 40
1
 40
1
 40
1
 10
61.812251
 20
198.814093
 30
0.0
 10
61.744500
 20
198.972177
 30
0.0
 10
61.654167
 20
199.107677
 30
0.0
 10
61.541249
 20
199.220594
 30
0.0
  0
SPLINE
  5
52d
100
AcDbEntity
  8
Layer_1
 62
3
100
AcDbSpline
 70
8
 71
3
 72
8
 73
4
 74
0
 40
0
 40
0
 40
0
 40
0
 40
1
 40
1
 40
1
 40
1
 10
61.541249
 20
199.220594
 30
0.0
 10
61.428332
 20
199.333512
 30
0.0
 10
61.292832
 20
199.423845
 30
0.0
 10
61.134748
 20
199.491595
 30
0.0
  0
SPLINE
  5
52e
100
AcDbEntity
  8
Layer_1
 62
3
100
AcDbSpline
 70
8
 71
3
 72
8
 73
4
 74
0
 40
0
 40
0
 40
0
 40
0
 40
1
 40
1
 40
1
 40
1
 10
61.134748
 20
199.491595
 30
0.0
 10
60.982310
 20
199.559346
 30
0.0
 10
60.818581
 20
199.593221
 30
0.0
 10
60.643560
 20
199.593221
 30
0.0
  0
LINE
  5
52f
100
AcDbEntity
  8
Layer_1
 62
3
100
AcDbLine
 10
60.643560
 20
199.593221
 30
0.0
 11
58.949803
 21
199.593221
 31
0.0
  0
SPLINE
  5
530
100
AcDbEntity
  8
Layer_1
 62
3
100
AcDbSpline
 70
8
 71
3
 72
8
 73
4
 74
0
 40
0
 40
0
 40
0
 40
0
 40
1
 40
1
 40
1
 40
1
 10
58.949803
 20
199.593221
 30
0.0
 10
58.831240
 20
199.593221
 30
0.0
 10
58.729614
 20
199.632741
 30
0.0
 10
58.644927
 20
199.711782
 30
0.0
  0
SPLINE
  5
531
100
AcDbEntity
  8
Layer_1
 62
3
100
AcDbSpline
 70
8
 71
3
 72
8
 73
4
 74
0
 40
0
 40
0
 40
0
 40
0
 40
1
 40
1
 40
1
 40
1
 10
58.644927
 20
199.711782
 30
0.0
 10
58.565884
 20
199.796470
 30
0.0
 10
58.526363
 20
199.898095
 30
0.0
 10
58.526363
 20
200.016659
 30
0.0
  0
LINE
  5
532
100
AcDbEntity
  8
Layer_1
 62
3
100
AcDbLine
 10
58.526363
 20
200.016659
 30
0.0
 11
58.526363
 21
203.404172
 31
0.0
  0
SPLINE
  5
533
100
AcDbEntity
  8
Layer_1
 62
3
100
AcDbSpline
 70
8
 71
3
 72
8
 73
4
 74
0
 40
0
 40
0
 40
0
 40
0
 40
1
 40
1
 40
1
 40
1
 10
58.526363
 20
203.404172
 30
0.0
 10
58.526363
 20
203.522736
 30
0.0
 10
58.565884
 20
203.621539
 30
0.0
 10
58.644927
 20
203.700582
 30
0.0
  0
SPLINE
  5
534
100
AcDbEntity
  8
Layer_1
 62
3
100
AcDbSpline
 70
8
 71
3
 72
8
 73
4
 74
0
 40
0
 40
0
 40
0
 40
0
 40
1
 40
1
 40
1
 40
1
 10
58.644927
 20
203.700582
 30
0.0
 10
58.729614
 20
203.785269
 30
0.0
 10
58.831240
 20
203.827613
 30
0.0
 10
58.949803
 20
203.827613
 30
0.0
  0
LINE
  5
535
100
AcDbEntity
  8
Layer_1
 62
3
100
AcDbLine
 10
58.949803
 20
203.827613
 30
0.0
 11
62.337317
 21
203.827613
 31
0.0
  0
SPLINE
  5
536
100
AcDbEntity
  8
Layer_1
 62
3
100
AcDbSpline
 70
8
 71
3
 72
8
 73
4
 74
0
 40
0
 40
0
 40
0
 40
0
 40
1
 40
1
 40
1
 40
1
 10
62.337317
 20
203.827613
 30
0.0
 10
62.455880
 20
203.827613
 30
0.0
 10
62.554682
 20
203.785269
 30
0.0
 10
62.633723
 20
203.700582
 30
0.0
  0
SPLINE
  5
537
100
AcDbEntity
  8
Layer_1
 62
3
100
AcDbSpline
 70
8
 71
3
 72
8
 73
4
 74
0
 40
0
 40
0
 40
0
 40
0
 40
1
 40
1
 40
1
 40
1
 10
62.633723
 20
203.700582
 30
0.0
 10
62.718412
 20
203.621539
 30
0.0
 10
62.760757
 20
203.522736
 30
0.0
 10
62.760757
 20
203.404172
 30
0.0
  0
SPLINE
  5
538
100
AcDbEntity
  8
Layer_1
 62
3
100
AcDbSpline
 70
8
 71
3
 72
8
 73
4
 74
0
 40
0
 40
0
 40
0
 40
0
 40
1
 40
1
 40
1
 40
1
 10
62.760757
 20
203.404172
 30
0.0
 10
62.760757
 20
203.285611
 30
0.0
 10
62.718412
 20
203.183985
 30
0.0
 10
62.633723
 20
203.099296
 30
0.0
  0
SPLINE
  5
539
100
AcDbEntity
  8
Layer_1
 62
3
100
AcDbSpline
 70
8
 71
3
 72
8
 73
4
 74
0
 40
0
 40
0
 40
0
 40
0
 40
1
 40
1
 40
1
 40
1
 10
62.633723
 20
203.099296
 30
0.0
 10
62.554682
 20
203.020255
 30
0.0
 10
62.455880
 20
202.980734
 30
0.0
 10
62.337317
 20
202.980734
 30
0.0
  0
LINE
  5
53a
100
AcDbEntity
  8
Layer_1
 62
3
100
AcDbLine
 10
62.337317
 20
202.980734
 30
0.0
 11
59.373241
 21
202.980734
 31
0.0
  0
LINE
  5
53b
100
AcDbEntity
  8
Layer_1
 62
3
100
AcDbLine
 10
59.373241
 20
202.980734
 30
0.0
 11
59.373241
 21
200.440099
 31
0.0
  0
LINE
  5
53c
100
AcDbEntity
  8
Layer_1
 62
3
100
AcDbLine
 10
59.373241
 20
200.440099
 30
0.0
 11
60.643560
 21
200.440099
 31
0.0
  0
LINE
  5
53d
100
AcDbEntity
  8
Layer_1
 62
3
100
AcDbLine
 10
60.643560
 20
200.440099
 30
0.0
 11
60.643560
 21
200.440099
 31
0.0
  0
LINE
  5
53e
100
AcDbEntity
  8
Layer_1
 62
3
100
AcDbLine
 10
60.643560
 20
200.440099
 30
0.0
 11
60.643560
 21
200.440099
 31
0.0
  0
LINE
  5
53f
100
AcDbEntity
  8
Layer_1
 62
5
100
AcDbLine
 10
123.973548
 20
161.048632
 30
0.0
 11
127.593121
 21
161.419741
 31
0.0
  0
LINE
  5
540
100
AcDbEntity
  8
Layer_1
 62
5
100
AcDbLine
 10
127.593121
 20
161.419741
 30
0.0
 11
131.990750
 21
160.797616
 31
0.0
  0
LINE
  5
541
100
AcDbEntity
  8
Layer_1
 62
5
100
AcDbLine
 10
131.990750
 20
160.797616
 30
0.0
 11
140.174817
 21
157.267275
 31
0.0
  0
LINE
  5
542
100
AcDbEntity
  8
Layer_1
 62
5
100
AcDbLine
 10
140.174817
 20
157.267275
 30
0.0
 11
140.174817
 21
151.843816
 31
0.0
  0
LINE
  5
543
100
AcDbEntity
  8
Layer_1
 62
5
100
AcDbLine
 10
140.174817
 20
151.843816
 30
0.0
 11
131.990750
 21
148.313476
 31
0.0
  0
LINE
  5
544
100
AcDbEntity
  8
Layer_1
 62
5
100
AcDbLine
 10
131.990750
 20
148.313476
 30
0.0
 11
127.593121
 21
147.691351
 31
0.0
  0
LINE
  5
545
100
AcDbEntity
  8
Layer_1
 62
5
100
AcDbLine
 10
127.593121
 20
147.691351
 30
0.0
 11
123.973548
 21
148.062459
 31
0.0
  0
LINE
  5
546
100
AcDbEntity
  8
Layer_1
 62
5
100
AcDbLine
 10
123.973548
 20
148.062459
 30
0.0
 11
122.375050
 21
138.996922
 31
0.0
  0
LINE
  5
547
100
AcDbEntity
  8
Layer_1
 62
5
100
AcDbLine
 10
122.375050
 20
138.996922
 30
0.0
 11
125.903262
 21
138.107679
 31
0.0
  0
LINE
  5
548
100
AcDbEntity
  8
Layer_1
 62
5
100
AcDbLine
 10
125.903262
 20
138.107679
 30
0.0
 11
129.822903
 21
136.018998
 31
0.0
  0
LINE
  5
549
100
AcDbEntity
  8
Layer_1
 62
5
100
AcDbLine
 10
129.822903
 20
136.018998
 30
0.0
 11
136.305962
 21
129.902446
 31
0.0
  0
LINE
  5
54a
100
AcDbEntity
  8
Layer_1
 62
5
100
AcDbLine
 10
136.305962
 20
129.902446
 30
0.0
 11
134.451028
 21
124.806063
 31
0.0
  0
LINE
  5
54b
100
AcDbEntity
  8
Layer_1
 62
5
100
AcDbLine
 10
134.451028
 20
124.806063
 30
0.0
 11
125.553075
 21
124.287742
 31
0.0
  0
LINE
  5
54c
100
AcDbEntity
  8
Layer_1
 62
5
100
AcDbLine
 10
125.553075
 20
124.287742
 30
0.0
 11
121.207877
 21
125.207214
 31
0.0
  0
LINE
  5
54d
100
AcDbEntity
  8
Layer_1
 62
5
100
AcDbLine
 10
121.207877
 20
125.207214
 30
0.0
 11
117.933515
 21
126.793907
 31
0.0
  0
LINE
  5
54e
100
AcDbEntity
  8
Layer_1
 62
5
100
AcDbLine
 10
117.933515
 20
126.793907
 30
0.0
 11
113.330821
 21
118.821809
 31
0.0
  0
LINE
  5
54f
100
AcDbEntity
  8
Layer_1
 62
5
100
AcDbLine
 10
113.330821
 20
118.821809
 30
0.0
 11
116.342121
 21
116.779474
 31
0.0
  0
LINE
  5
550
100
AcDbEntity
  8
Layer_1
 62
5
100
AcDbLine
 10
116.342121
 20
116.779474
 30
0.0
 11
119.311005
 21
113.476159
 31
0.0
  0
LINE
  5
551
100
AcDbEntity
  8
Layer_1
 62
5
100
AcDbLine
 10
119.311005
 20
113.476159
 30
0.0
 11
123.311102
 21
105.511144
 31
0.0
  0
LINE
  5
552
100
AcDbEntity
  8
Layer_1
 62
5
100
AcDbLine
 10
123.311102
 20
105.511144
 30
0.0
 11
119.824971
 21
101.356534
 31
0.0
  0
LINE
  5
553
100
AcDbEntity
  8
Layer_1
 62
5
100
AcDbLine
 10
119.824971
 20
101.356534
 30
0.0
 11
111.286355
 21
103.912751
 31
0.0
  0
LINE
  5
554
100
AcDbEntity
  8
Layer_1
 62
5
100
AcDbLine
 10
111.286355
 20
103.912751
 30
0.0
 11
107.517681
 21
106.262917
 31
0.0
  0
LINE
  5
555
100
AcDbEntity
  8
Layer_1
 62
5
100
AcDbLine
 10
107.517681
 20
106.262917
 30
0.0
 11
104.983469
 21
108.873819
 31
0.0
  0
LINE
  5
556
100
AcDbEntity
  8
Layer_1
 62
5
100
AcDbLine
 10
104.983469
 20
108.873819
 30
0.0
 11
97.931732
 21
102.956712
 31
0.0
  0
LINE
  5
557
100
AcDbEntity
  8
Layer_1
 62
5
100
AcDbLine
 10
97.931732
 20
102.956712
 30
0.0
 11
100.062907
 21
100.007622
 31
0.0
  0
LINE
  5
558
100
AcDbEntity
  8
Layer_1
 62
5
100
AcDbLine
 10
100.062907
 20
100.007622
 30
0.0
 11
101.722947
 21
95.888100
 31
0.0
  0
LINE
  5
559
100
AcDbEntity
  8
Layer_1
 62
5
100
AcDbLine
 10
101.722947
 20
95.888100
 30
0.0
 11
102.757613
 21
87.035322
 31
0.0
  0
LINE
  5
55a
100
AcDbEntity
  8
Layer_1
 62
5
100
AcDbLine
 10
102.757613
 20
87.035322
 30
0.0
 11
98.060761
 21
84.323593
 31
0.0
  0
LINE
  5
55b
100
AcDbEntity
  8
Layer_1
 62
5
100
AcDbLine
 10
98.060761
 20
84.323593
 30
0.0
 11
90.911363
 21
89.646030
 31
0.0
  0
LINE
  5
55c
100
AcDbEntity
  8
Layer_1
 62
5
100
AcDbLine
 10
90.911363
 20
89.646030
 30
0.0
 11
88.173774
 21
93.143427
 31
0.0
  0
LINE
  5
55d
100
AcDbEntity
  8
Layer_1
 62
5
100
AcDbLine
 10
88.173774
 20
93.143427
 30
0.0
 11
86.685376
 21
96.463625
 31
0.0
  0
LINE
  5
55e
100
AcDbEntity
  8
Layer_1
 62
5
100
AcDbLine
 10
86.685376
 20
96.463625
 30
0.0
 11
78.035141
 21
93.315196
 31
0.0
  0
LINE
  5
55f
100
AcDbEntity
  8
Layer_1
 62
5
100
AcDbLine
 10
78.035141
 20
93.315196
 30
0.0
 11
79.029141
 21
89.815053
 31
0.0
  0
LINE
  5
560
100
AcDbEntity
  8
Layer_1
 62
5
100
AcDbLine
 10
79.029141
 20
89.815053
 30
0.0
 11
79.180108
 21
85.376203
 31
0.0
  0
LINE
  5
561
100
AcDbEntity
  8
Layer_1
 62
5
100
AcDbLine
 10
79.180108
 20
85.376203
 30
0.0
 11
77.124551
 21
76.703435
 31
0.0
  0
LINE
  5
562
100
AcDbEntity
  8
Layer_1
 62
5
100
AcDbLine
 10
77.124551
 20
76.703435
 30
0.0
 11
71.783486
 21
75.761662
 31
0.0
  0
LINE
  5
563
100
AcDbEntity
  8
Layer_1
 62
5
100
AcDbLine
 10
71.783486
 20
75.761662
 30
0.0
 11
66.885630
 21
83.208355
 31
0.0
  0
LINE
  5
564
100
AcDbEntity
  8
Layer_1
 62
5
100
AcDbLine
 10
66.885630
 20
83.208355
 30
0.0
 11
65.509317
 21
87.431142
 31
0.0
  0
LINE
  5
565
100
AcDbEntity
  8
Layer_1
 62
5
100
AcDbLine
 10
65.509317
 20
87.431142
 30
0.0
 11
65.246254
 21
91.060170
 31
0.0
  0
LINE
  5
566
100
AcDbEntity
  8
Layer_1
 62
5
100
AcDbLine
 10
65.246254
 20
91.060170
 30
0.0
 11
56.040865
 21
91.060170
 31
0.0
  0
LINE
  5
567
100
AcDbEntity
  8
Layer_1
 62
5
100
AcDbLine
 10
56.040865
 20
91.060170
 30
0.0
 11
55.777803
 21
87.431142
 31
0.0
  0
LINE
  5
568
100
AcDbEntity
  8
Layer_1
 62
5
100
AcDbLine
 10
55.777803
 20
87.431142
 30
0.0
 11
54.401490
 21
83.208355
 31
0.0
  0
LINE
  5
569
100
AcDbEntity
  8
Layer_1
 62
5
100
AcDbLine
 10
54.401490
 20
83.208355
 30
0.0
 11
49.503633
 21
75.761662
 31
0.0
  0
LINE
  5
56a
100
AcDbEntity
  8
Layer_1
 62
5
100
AcDbLine
 10
49.503633
 20
75.761662
 30
0.0
 11
44.162569
 21
76.703435
 31
0.0
  0
LINE
  5
56b
100
AcDbEntity
  8
Layer_1
 62
5
100
AcDbLine
 10
44.162569
 20
76.703435
 30
0.0
 11
42.107012
 21
85.376203
 31
0.0
  0
LINE
  5
56c
100
AcDbEntity
  8
Layer_1
 62
5
100
AcDbLine
 10
42.107012
 20
85.376203
 30
0.0
 11
42.257978
 21
89.815053
 31
0.0
  0
LINE
  5
56d
100
AcDbEntity
  8
Layer_1
 62
5
100
AcDbLine
 10
42.257978
 20
89.815053
 30
0.0
 11
43.251979
 21
93.315196
 31
0.0
  0
LINE
  5
56e
100
AcDbEntity
  8
Layer_1
 62
5
100
AcDbLine
 10
43.251979
 20
93.315196
 30
0.0
 11
34.601744
 21
96.463625
 31
0.0
  0
LINE
  5
56f
100
AcDbEntity
  8
Layer_1
 62
5
100
AcDbLine
 10
34.601744
 20
96.463625
 30
0.0
 11
33.113346
 21
93.143427
 31
0.0
  0
LINE
  5
570
100
AcDbEntity
  8
Layer_1
 62
5
100
AcDbLine
 10
33.113346
 20
93.143427
 30
0.0
 11
30.375756
 21
89.646030
 31
0.0
  0
LINE
  5
571
100
AcDbEntity
  8
Layer_1
 62
5
100
AcDbLine
 10
30.375756
 20
89.646030
 30
0.0
 11
23.226359
 21
84.323593
 31
0.0
  0
LINE
  5
572
100
AcDbEntity
  8
Layer_1
 62
5
100
AcDbLine
 10
23.226359
 20
84.323593
 30
0.0
 11
18.529506
 21
87.035322
 31
0.0
  0
LINE
  5
573
100
AcDbEntity
  8
Layer_1
 62
5
100
AcDbLine
 10
18.529506
 20
87.035322
 30
0.0
 11
19.564173
 21
95.888100
 31
0.0
  0
LINE
  5
574
100
AcDbEntity
  8
Layer_1
 62
5
100
AcDbLine
 10
19.564173
 20
95.888100
 30
0.0
 11
21.224212
 21
100.007622
 31
0.0
  0
LINE
  5
575
100
AcDbEntity
  8
Layer_1
 62
5
100
AcDbLine
 10
21.224212
 20
100.007622
 30
0.0
 11
23.355388
 21
102.956712
 31
0.0
  0
LINE
  5
576
100
AcDbEntity
  8
Layer_1
 62
5
100
AcDbLine
 10
23.355388
 20
102.956712
 30
0.0
 11
16.303651
 21
108.873819
 31
0.0
  0
LINE
  5
577
100
AcDbEntity
  8
Layer_1
 62
5
100
AcDbLine
 10
16.303651
 20
108.873819
 30
0.0
 11
13.769439
 21
106.262917
 31
0.0
  0
LINE
  5
578
100
AcDbEntity
  8
Layer_1
 62
5
100
AcDbLine
 10
13.769439
 20
106.262917
 30
0.0
 11
10.000765
 21
103.912751
 31
0.0
  0
LINE
  5
579
100
AcDbEntity
  8
Layer_1
 62
5
100
AcDbLine
 10
10.000765
 20
103.912751
 30
0.0
 11
1.462148
 21
101.356534
 31
0.0
  0
LINE
  5
57a
100
AcDbEntity
  8
Layer_1
 62
5
100
AcDbLine
 10
1.462148
 20
101.356534
 30
0.0
 11
-2.023982
 21
105.511144
 31
0.0
  0
LINE
  5
57b
100
AcDbEntity
  8
Layer_1
 62
5
100
AcDbLine
 10
-2.023982
 20
105.511144
 30
0.0
 11
1.976114
 21
113.476159
 31
0.0
  0
LINE
  5
57c
100
AcDbEntity
  8
Layer_1
 62
5
100
AcDbLine
 10
1.976114
 20
113.476159
 30
0.0
 11
4.944999
 21
116.779474
 31
0.0
  0
LINE
  5
57d
100
AcDbEntity
  8
Layer_1
 62
5
100
AcDbLine
 10
4.944999
 20
116.779474
 30
0.0
 11
7.956299
 21
118.821809
 31
0.0
  0
LINE
  5
57e
100
AcDbEntity
  8
Layer_1
 62
5
100
AcDbLine
 10
7.956299
 20
118.821809
 30
0.0
 11
3.353604
 21
126.793907
 31
0.0
  0
LINE
  5
57f
100
AcDbEntity
  8
Layer_1
 62
5
100
AcDbLine
 10
3.353604
 20
126.793907
 30
0.0
 11
0.079242
 21
125.207214
 31
0.0
  0
LINE
  5
580
100
AcDbEntity
  8
Layer_1
 62
5
100
AcDbLine
 10
0.079242
 20
125.207214
 30
0.0
 11
-4.265956
 21
124.287742
 31
0.0
  0
LINE
  5
581
100
AcDbEntity
  8
Layer_1
 62
5
100
AcDbLine
 10
-4.265956
 20
124.287742
 30
0.0
 11
-13.163909
 21
124.806063
 31
0.0
  0
LINE
  5
582
100
AcDbEntity
  8
Layer_1
 62
5
100
AcDbLine
 10
-13.163909
 20
124.806063
 30
0.0
 11
-15.018843
 21
129.902446
 31
0.0
  0
LINE
  5
583
100
AcDbEntity
  8
Layer_1
 62
5
100
AcDbLine
 10
-15.018843
 20
129.902446
 30
0.0
 11
-8.535783
 21
136.018998
 31
0.0
  0
LINE
  5
584
100
AcDbEntity
  8
Layer_1
 62
5
100
AcDbLine
 10
-8.535783
 20
136.018998
 30
0.0
 11
-4.616142
 21
138.107679
 31
0.0
  0
LINE
  5
585
100
AcDbEntity
  8
Layer_1
 62
5
100
AcDbLine
 10
-4.616142
 20
138.107679
 30
0.0
 11
-1.087930
 21
138.996922
 31
0.0
  0
LINE
  5
586
100
AcDbEntity
  8
Layer_1
 62
5
100
AcDbLine
 10
-1.087930
 20
138.996922
 30
0.0
 11
-2.686428
 21
148.062459
 31
0.0
  0
LINE
  5
587
100
AcDbEntity
  8
Layer_1
 62
5
100
AcDbLine
 10
-2.686428
 20
148.062459
 30
0.0
 11
-6.306002
 21
147.691351
 31
0.0
  0
LINE
  5
588
100
AcDbEntity
  8
Layer_1
 62
5
100
AcDbLine
 10
-6.306002
 20
147.691351
 30
0.0
 11
-10.703631
 21
148.313476
 31
0.0
  0
LINE
  5
589
100
AcDbEntity
  8
Layer_1
 62
5
100
AcDbLine
 10
-10.703631
 20
148.313476
 30
0.0
 11
-18.887697
 21
151.843816
 31
0.0
  0
LINE
  5
58a
100
AcDbEntity
  8
Layer_1
 62
5
100
AcDbLine
 10
-18.887697
 20
151.843816
 30
0.0
 11
-18.887697
 21
157.267275
 31
0.0
  0
LINE
  5
58b
100
AcDbEntity
  8
Layer_1
 62
5
100
AcDbLine
 10
-18.887697
 20
157.267275
 30
0.0
 11
-10.703631
 21
160.797616
 31
0.0
  0
LINE
  5
58c
100
AcDbEntity
  8
Layer_1
 62
5
100
AcDbLine
 10
-10.703631
 20
160.797616
 30
0.0
 11
-6.306002
 21
161.419741
 31
0.0
  0
LINE
  5
58d
100
AcDbEntity
  8
Layer_1
 62
5
100
AcDbLine
 10
-6.306002
 20
161.419741
 30
0.0
 11
-2.686428
 21
161.048632
 31
0.0
  0
LINE
  5
58e
100
AcDbEntity
  8
Layer_1
 62
5
100
AcDbLine
 10
-2.686428
 20
161.048632
 30
0.0
 11
-1.087930
 21
170.114169
 31
0.0
  0
LINE
  5
58f
100
AcDbEntity
  8
Layer_1
 62
5
100
AcDbLine
 10
-1.087930
 20
170.114169
 30
0.0
 11
-4.616142
 21
171.003412
 31
0.0
  0
LINE
  5
590
100
AcDbEntity
  8
Layer_1
 62
5
100
AcDbLine
 10
-4.616142
 20
171.003412
 30
0.0
 11
-8.535783
 21
173.092094
 31
0.0
  0
LINE
  5
591
100
AcDbEntity
  8
Layer_1
 62
5
100
AcDbLine
 10
-8.535783
 20
173.092094
 30
0.0
 11
-15.018843
 21
179.208645
 31
0.0
  0
LINE
  5
592
100
AcDbEntity
  8
Layer_1
 62
5
100
AcDbLine
 10
-15.018843
 20
179.208645
 30
0.0
 11
-13.163909
 21
184.305028
 31
0.0
  0
LINE
  5
593
100
AcDbEntity
  8
Layer_1
 62
5
100
AcDbLine
 10
-13.163909
 20
184.305028
 30
0.0
 11
-4.265956
 21
184.823349
 31
0.0
  0
LINE
  5
594
100
AcDbEntity
  8
Layer_1
 62
5
100
AcDbLine
 10
-4.265956
 20
184.823349
 30
0.0
 11
0.079242
 21
183.903878
 31
0.0
  0
LINE
  5
595
100
AcDbEntity
  8
Layer_1
 62
5
100
AcDbLine
 10
0.079242
 20
183.903878
 30
0.0
 11
3.353604
 21
182.317185
 31
0.0
  0
LINE
  5
596
100
AcDbEntity
  8
Layer_1
 62
5
100
AcDbLine
 10
3.353604
 20
182.317185
 30
0.0
 11
7.956299
 21
190.289283
 31
0.0
  0
LINE
  5
597
100
AcDbEntity
  8
Layer_1
 62
5
100
AcDbLine
 10
7.956299
 20
190.289283
 30
0.0
 11
4.944999
 21
192.331618
 31
0.0
  0
LINE
  5
598
100
AcDbEntity
  8
Layer_1
 62
5
100
AcDbLine
 10
4.944999
 20
192.331618
 30
0.0
 11
1.976114
 21
195.634933
 31
0.0
  0
LINE
  5
599
100
AcDbEntity
  8
Layer_1
 62
5
100
AcDbLine
 10
1.976114
 20
195.634933
 30
0.0
 11
-2.023982
 21
203.599947
 31
0.0
  0
LINE
  5
59a
100
AcDbEntity
  8
Layer_1
 62
5
100
AcDbLine
 10
-2.023982
 20
203.599947
 30
0.0
 11
1.462148
 21
207.754557
 31
0.0
  0
LINE
  5
59b
100
AcDbEntity
  8
Layer_1
 62
5
100
AcDbLine
 10
1.462148
 20
207.754557
 30
0.0
 11
10.000765
 21
205.198341
 31
0.0
  0
LINE
  5
59c
100
AcDbEntity
  8
Layer_1
 62
5
100
AcDbLine
 10
10.000765
 20
205.198341
 30
0.0
 11
13.769439
 21
202.848175
 31
0.0
  0
LINE
  5
59d
100
AcDbEntity
  8
Layer_1
 62
5
100
AcDbLine
 10
13.769439
 20
202.848175
 30
0.0
 11
16.303651
 21
200.237272
 31
0.0
  0
LINE
  5
59e
100
AcDbEntity
  8
Layer_1
 62
5
100
AcDbLine
 10
16.303651
 20
200.237272
 30
0.0
 11
23.355388
 21
206.154380
 31
0.0
  0
LINE
  5
59f
100
AcDbEntity
  8
Layer_1
 62
5
100
AcDbLine
 10
23.355388
 20
206.154380
 30
0.0
 11
21.224212
 21
209.103469
 31
0.0
  0
LINE
  5
5a0
100
AcDbEntity
  8
Layer_1
 62
5
100
AcDbLine
 10
21.224212
 20
209.103469
 30
0.0
 11
19.564173
 21
213.222991
 31
0.0
  0
LINE
  5
5a1
100
AcDbEntity
  8
Layer_1
 62
5
100
AcDbLine
 10
19.564173
 20
213.222991
 30
0.0
 11
18.529506
 21
222.075769
 31
0.0
  0
LINE
  5
5a2
100
AcDbEntity
  8
Layer_1
 62
5
100
AcDbLine
 10
18.529506
 20
222.075769
 30
0.0
 11
23.226359
 21
224.787498
 31
0.0
  0
LINE
  5
5a3
100
AcDbEntity
  8
Layer_1
 62
5
100
AcDbLine
 10
23.226359
 20
224.787498
 30
0.0
 11
30.375756
 21
219.465061
 31
0.0
  0
LINE
  5
5a4
100
AcDbEntity
  8
Layer_1
 62
5
100
AcDbLine
 10
30.375756
 20
219.465061
 30
0.0
 11
33.113346
 21
215.967664
 31
0.0
  0
LINE
  5
5a5
100
AcDbEntity
  8
Layer_1
 62
5
100
AcDbLine
 10
33.113346
 20
215.967664
 30
0.0
 11
34.601744
 21
212.647467
 31
0.0
  0
LINE
  5
5a6
100
AcDbEntity
  8
Layer_1
 62
5
100
AcDbLine
 10
34.601744
 20
212.647467
 30
0.0
 11
43.251979
 21
215.795895
 31
0.0
  0
LINE
  5
5a7
100
AcDbEntity
  8
Layer_1
 62
5
100
AcDbLine
 10
43.251979
 20
215.795895
 30
0.0
 11
42.257978
 21
219.296038
 31
0.0
  0
LINE
  5
5a8
100
AcDbEntity
  8
Layer_1
 62
5
100
AcDbLine
 10
42.257978
 20
219.296038
 30
0.0
 11
42.107012
 21
223.734889
 31
0.0
  0
LINE
  5
5a9
100
AcDbEntity
  8
Layer_1
 62
5
100
AcDbLine
 10
42.107012
 20
223.734889
 30
0.0
 11
44.162569
 21
232.407657
 31
0.0
  0
LINE
  5
5aa
100
AcDbEntity
  8
Layer_1
 62
5
100
AcDbLine
 10
44.162569
 20
232.407657
 30
0.0
 11
49.503633
 21
233.349429
 31
0.0
  0
LINE
  5
5ab
100
AcDbEntity
  8
Layer_1
 62
5
100
AcDbLine
 10
49.503633
 20
233.349429
 30
0.0
 11
54.401490
 21
225.902736
 31
0.0
  0
LINE
  5
5ac
100
AcDbEntity
  8
Layer_1
 62
5
100
AcDbLine
 10
54.401490
 20
225.902736
 30
0.0
 11
55.777803
 21
221.679949
 31
0.0
  0
LINE
  5
5ad
100
AcDbEntity
  8
Layer_1
 62
5
100
AcDbLine
 10
55.777803
 20
221.679949
 30
0.0
 11
56.040865
 21
218.050922
 31
0.0
  0
LINE
  5
5ae
100
AcDbEntity
  8
Layer_1
 62
5
100
AcDbLine
 10
56.040865
 20
218.050922
 30
0.0
 11
65.246254
 21
218.050922
 31
0.0
  0
LINE
  5
5af
100
AcDbEntity
  8
Layer_1
 62
5
100
AcDbLine
 10
65.246254
 20
218.050922
 30
0.0
 11
65.509317
 21
221.679949
 31
0.0
  0
LINE
  5
5b0
100
AcDbEntity
  8
Layer_1
 62
5
100
AcDbLine
 10
65.509317
 20
221.679949
 30
0.0
 11
66.885630
 21
225.902736
 31
0.0
  0
LINE
  5
5b1
100
AcDbEntity
  8
Layer_1
 62
5
100
AcDbLine
 10
66.885630
 20
225.902736
 30
0.0
 11
71.783486
 21
233.349429
 31
0.0
  0
LINE
  5
5b2
100
AcDbEntity
  8
Layer_1
 62
5
100
AcDbLine
 10
71.783486
 20
233.349429
 30
0.0
 11
77.124551
 21
232.407657
 31
0.0
  0
LINE
  5
5b3
100
AcDbEntity
  8
Layer_1
 62
5
100
AcDbLine
 10
77.124551
 20
232.407657
 30
0.0
 11
79.180108
 21
223.734889
 31
0.0
  0
LINE
  5
5b4
100
AcDbEntity
  8
Layer_1
 62
5
100
AcDbLine
 10
79.180108
 20
223.734889
 30
0.0
 11
79.029141
 21
219.296038
 31
0.0
  0
LINE
  5
5b5
100
AcDbEntity
  8
Layer_1
 62
5
100
AcDbLine
 10
79.029141
 20
219.296038
 30
0.0
 11
78.035141
 21
215.795895
 31
0.0
  0
LINE
  5
5b6
100
AcDbEntity
  8
Layer_1
 62
5
100
AcDbLine
 10
78.035141
 20
215.795895
 30
0.0
 11
86.685376
 21
212.647467
 31
0.0
  0
LINE
  5
5b7
100
AcDbEntity
  8
Layer_1
 62
5
100
AcDbLine
 10
86.685376
 20
212.647467
 30
0.0
 11
88.173774
 21
215.967664
 31
0.0
  0
LINE
  5
5b8
100
AcDbEntity
  8
Layer_1
 62
5
100
AcDbLine
 10
88.173774
 20
215.967664
 30
0.0
 11
90.911363
 21
219.465061
 31
0.0
  0
LINE
  5
5b9
100
AcDbEntity
  8
Layer_1
 62
5
100
AcDbLine
 10
90.911363
 20
219.465061
 30
0.0
 11
98.060761
 21
224.787498
 31
0.0
  0
LINE
  5
5ba
100
AcDbEntity
  8
Layer_1
 62
5
100
AcDbLine
 10
98.060761
 20
224.787498
 30
0.0
 11
102.757613
 21
222.075769
 31
0.0
  0
LINE
  5
5bb
100
AcDbEntity
  8
Layer_1
 62
5
100
AcDbLine
 10
102.757613
 20
222.075769
 30
0.0
 11
101.722947
 21
213.222991
 31
0.0
  0
LINE
  5
5bc
100
AcDbEntity
  8
Layer_1
 62
5
100
AcDbLine
 10
101.722947
 20
213.222991
 30
0.0
 11
100.062907
 21
209.103469
 31
0.0
  0
LINE
  5
5bd
100
AcDbEntity
  8
Layer_1
 62
5
100
AcDbLine
 10
100.062907
 20
209.103469
 30
0.0
 11
97.931732
 21
206.154380
 31
0.0
  0
LINE
  5
5be
100
AcDbEntity
  8
Layer_1
 62
5
100
AcDbLine
 10
97.931732
 20
206.154380
 30
0.0
 11
104.983469
 21
200.237272
 31
0.0
  0
LINE
  5
5bf
100
AcDbEntity
  8
Layer_1
 62
5
100
AcDbLine
 10
104.983469
 20
200.237272
 30
0.0
 11
107.517681
 21
202.848175
 31
0.0
  0
LINE
  5
5c0
100
AcDbEntity
  8
Layer_1
 62
5
100
AcDbLine
 10
107.517681
 20
202.848175
 30
0.0
 11
111.286355
 21
205.198341
 31
0.0
  0
LINE
  5
5c1
100
AcDbEntity
  8
Layer_1
 62
5
100
AcDbLine
 10
111.286355
 20
205.198341
 30
0.0
 11
119.824971
 21
207.754557
 31
0.0
  0
LINE
  5
5c2
100
AcDbEntity
  8
Layer_1
 62
5
100
AcDbLine
 10
119.824971
 20
207.754557
 30
0.0
 11
123.311102
 21
203.599947
 31
0.0
  0
LINE
  5
5c3
100
AcDbEntity
  8
Layer_1
 62
5
100
AcDbLine
 10
123.311102
 20
203.599947
 30
0.0
 11
119.311005
 21
195.634933
 31
0.0
  0
LINE
  5
5c4
100
AcDbEntity
  8
Layer_1
 62
5
100
AcDbLine
 10
119.311005
 20
195.634933
 30
0.0
 11
116.342121
 21
192.331618
 31
0.0
  0
LINE
  5
5c5
100
AcDbEntity
  8
Layer_1
 62
5
100
AcDbLine
 10
116.342121
 20
192.331618
 30
0.0
 11
113.330821
 21
190.289283
 31
0.0
  0
LINE
  5
5c6
100
AcDbEntity
  8
Layer_1
 62
5
100
AcDbLine
 10
113.330821
 20
190.289283
 30
0.0
 11
117.933515
 21
182.317185
 31
0.0
  0
LINE
  5
5c7
100
AcDbEntity
  8
Layer_1
 62
5
100
AcDbLine
 10
117.933515
 20
182.317185
 30
0.0
 11
121.207877
 21
183.903878
 31
0.0
  0
LINE
  5
5c8
100
AcDbEntity
  8
Layer_1
 62
5
100
AcDbLine
 10
121.207877
 20
183.903878
 30
0.0
 11
125.553075
 21
184.823349
 31
0.0
  0
LINE
  5
5c9
100
AcDbEntity
  8
Layer_1
 62
5
100
AcDbLine
 10
125.553075
 20
184.823349
 30
0.0
 11
134.451028
 21
184.305028
 31
0.0
  0
LINE
  5
5ca
100
AcDbEntity
  8
Layer_1
 62
5
100
AcDbLine
 10
134.451028
 20
184.305028
 30
0.0
 11
136.305962
 21
179.208645
 31
0.0
  0
LINE
  5
5cb
100
AcDbEntity
  8
Layer_1
 62
5
100
AcDbLine
 10
136.305962
 20
179.208645
 30
0.0
 11
129.822903
 21
173.092094
 31
0.0
  0
LINE
  5
5cc
100
AcDbEntity
  8
Layer_1
 62
5
100
AcDbLine
 10
129.822903
 20
173.092094
 30
0.0
 11
125.903262
 21
171.003412
 31
0.0
  0
LINE
  5
5cd
100
AcDbEntity
  8
Layer_1
 62
5
100
AcDbLine
 10
125.903262
 20
171.003412
 30
0.0
 11
122.375050
 21
170.114169
 31
0.0
  0
LINE
  5
5ce
100
AcDbEntity
  8
Layer_1
 62
5
100
AcDbLine
 10
122.375050
 20
170.114169
 30
0.0
 11
123.973548
 21
161.048632
 31
0.0
  0
SPLINE
  5
5cf
100
AcDbEntity
  8
Layer_1
 62
5
100
AcDbSpline
 70
8
 71
3
 72
8
 73
4
 74
0
 40
0
 40
0
 40
0
 40
0
 40
1
 40
1
 40
1
 40
1
 10
51.142577
 20
174.210312
 30
0.0
 10
51.142577
 20
168.722438
 30
0.0
 10
46.693775
 20
164.273637
 30
0.0
 10
41.205902
 20
164.273637
 30
0.0
  0
LINE
  5
5d0
100
AcDbEntity
  8
Layer_1
 62
5
100
AcDbLine
 10
41.205902
 20
164.273637
 30
0.0
 11
27.195586
 21
164.172841
 31
0.0
  0
SPLINE
  5
5d1
100
AcDbEntity
  8
Layer_1
 62
5
100
AcDbSpline
 70
8
 71
3
 72
8
 73
4
 74
0
 40
0
 40
0
 40
0
 40
0
 40
1
 40
1
 40
1
 40
1
 10
27.195586
 20
164.172841
 30
0.0
 10
21.707713
 20
164.172841
 30
0.0
 10
17.258911
 20
168.621643
 30
0.0
 10
17.258911
 20
174.109516
 30
0.0
  0
SPLINE
  5
5d2
100
AcDbEntity
  8
Layer_1
 62
5
100
AcDbSpline
 70
8
 71
3
 72
8
 73
4
 74
0
 40
0
 40
0
 40
0
 40
0
 40
1
 40
1
 40
1
 40
1
 10
17.258911
 20
174.109516
 30
0.0
 10
17.258911
 20
176.028884
 30
0.0
 10
17.803103
 20
177.821150
 30
0.0
 10
18.683888
 20
179.305989
 30
0.0
  0
SPLINE
  5
5d3
100
AcDbEntity
  8
Layer_1
 62
5
100
AcDbSpline
 70
8
 71
3
 72
8
 73
4
 74
0
 40
0
 40
0
 40
0
 40
0
 40
1
 40
1
 40
1
 40
1
 10
18.683888
 20
179.305989
 30
0.0
 10
22.785892
 20
186.335332
 30
0.0
 10
28.679934
 20
192.257356
 30
0.0
 10
35.674326
 20
196.447724
 30
0.0
  0
SPLINE
  5
5d4
100
AcDbEntity
  8
Layer_1
 62
5
100
AcDbSpline
 70
8
 71
3
 72
8
 73
4
 74
0
 40
0
 40
0
 40
0
 40
0
 40
1
 40
1
 40
1
 40
1
 10
35.674326
 20
196.447724
 30
0.0
 10
37.156154
 20
197.400614
 30
0.0
 10
38.965015
 20
197.955714
 30
0.0
 10
40.903523
 20
197.955714
 30
0.0
  0
SPLINE
  5
5d5
100
AcDbEntity
  8
Layer_1
 62
5
100
AcDbSpline
 70
8
 71
3
 72
8
 73
4
 74
0
 40
0
 40
0
 40
0
 40
0
 40
1
 40
1
 40
1
 40
1
 10
40.903523
 20
197.955714
 30
0.0
 10
46.391397
 20
197.955714
 30
0.0
 10
50.840198
 20
193.506912
 30
0.0
 10
50.840198
 20
188.019039
 30
0.0
  0
LINE
  5
5d6
100
AcDbEntity
  8
Layer_1
 62
5
100
AcDbLine
 10
50.840198
 20
188.019039
 30
0.0
 11
51.142577
 21
174.210312
 31
0.0
  0
SPLINE
  5
5d7
100
AcDbEntity
  8
Layer_1
 62
5
100
AcDbSpline
 70
8
 71
3
 72
8
 73
4
 74
0
 40
0
 40
0
 40
0
 40
0
 40
1
 40
1
 40
1
 40
1
 10
80.414638
 20
164.122442
 30
0.0
 10
74.926765
 20
164.122442
 30
0.0
 10
70.477963
 20
168.571243
 30
0.0
 10
70.477963
 20
174.059117
 30
0.0
  0
LINE
  5
5d8
100
AcDbEntity
  8
Layer_1
 62
5
100
AcDbLine
 10
70.477963
 20
174.059117
 30
0.0
 11
70.377167
 21
188.069433
 31
0.0
  0
SPLINE
  5
5d9
100
AcDbEntity
  8
Layer_1
 62
5
100
AcDbSpline
 70
8
 71
3
 72
8
 73
4
 74
0
 40
0
 40
0
 40
0
 40
0
 40
1
 40
1
 40
1
 40
1
 10
70.377167
 20
188.069433
 30
0.0
 10
70.377167
 20
193.557306
 30
0.0
 10
74.825969
 20
198.006108
 30
0.0
 10
80.313842
 20
198.006108
 30
0.0
  0
SPLINE
  5
5da
100
AcDbEntity
  8
Layer_1
 62
5
100
AcDbSpline
 70
8
 71
3
 72
8
 73
4
 74
0
 40
0
 40
0
 40
0
 40
0
 40
1
 40
1
 40
1
 40
1
 10
80.313842
 20
198.006108
 30
0.0
 10
82.233210
 20
198.006108
 30
0.0
 10
84.025477
 20
197.461915
 30
0.0
 10
85.510316
 20
196.581131
 30
0.0
  0
SPLINE
  5
5db
100
AcDbEntity
  8
Layer_1
 62
5
100
AcDbSpline
 70
8
 71
3
 72
8
 73
4
 74
0
 40
0
 40
0
 40
0
 40
0
 40
1
 40
1
 40
1
 40
1
 10
85.510316
 20
196.581131
 30
0.0
 10
92.539659
 20
192.479127
 30
0.0
 10
98.461683
 20
186.585085
 30
0.0
 10
102.652051
 20
179.590692
 30
0.0
  0
SPLINE
  5
5dc
100
AcDbEntity
  8
Layer_1
 62
5
100
AcDbSpline
 70
8
 71
3
 72
8
 73
4
 74
0
 40
0
 40
0
 40
0
 40
0
 40
1
 40
1
 40
1
 40
1
 10
102.652051
 20
179.590692
 30
0.0
 10
103.604940
 20
178.108865
 30
0.0
 10
104.160040
 20
176.300004
 30
0.0
 10
104.160040
 20
174.361495
 30
0.0
  0
SPLINE
  5
5dd
100
AcDbEntity
  8
Layer_1
 62
5
100
AcDbSpline
 70
8
 71
3
 72
8
 73
4
 74
0
 40
0
 40
0
 40
0
 40
0
 40
1
 40
1
 40
1
 40
1
 10
104.160040
 20
174.361495
 30
0.0
 10
104.160040
 20
168.873622
 30
0.0
 10
99.711239
 20
164.424820
 30
0.0
 10
94.223365
 20
164.424820
 30
0.0
  0
LINE
  5
5de
100
AcDbEntity
  8
Layer_1
 62
5
100
AcDbLine
 10
94.223365
 20
164.424820
 30
0.0
 11
80.414638
 21
164.122442
 31
0.0
  0
SPLINE
  5
5df
100
AcDbEntity
  8
Layer_1
 62
5
100
AcDbSpline
 70
8
 71
3
 72
8
 73
4
 74
0
 40
0
 40
0
 40
0
 40
0
 40
1
 40
1
 40
1
 40
1
 10
70.326771
 20
134.799987
 30
0.0
 10
70.326771
 20
140.287860
 30
0.0
 10
74.775573
 20
144.736662
 30
0.0
 10
80.263446
 20
144.736662
 30
0.0
  0
LINE
  5
5e0
100
AcDbEntity
  8
Layer_1
 62
5
100
AcDbLine
 10
80.263446
 20
144.736662
 30
0.0
 11
94.273762
 21
144.837457
 31
0.0
  0
SPLINE
  5
5e1
100
AcDbEntity
  8
Layer_1
 62
5
100
AcDbSpline
 70
8
 71
3
 72
8
 73
4
 74
0
 40
0
 40
0
 40
0
 40
0
 40
1
 40
1
 40
1
 40
1
 10
94.273762
 20
144.837457
 30
0.0
 10
99.761635
 20
144.837457
 30
0.0
 10
104.210437
 20
140.388656
 30
0.0
 10
104.210437
 20
134.900782
 30
0.0
  0
SPLINE
  5
5e2
100
AcDbEntity
  8
Layer_1
 62
5
100
AcDbSpline
 70
8
 71
3
 72
8
 73
4
 74
0
 40
0
 40
0
 40
0
 40
0
 40
1
 40
1
 40
1
 40
1
 10
104.210437
 20
134.900782
 30
0.0
 10
104.210437
 20
132.981414
 30
0.0
 10
103.666245
 20
131.189148
 30
0.0
 10
102.785460
 20
129.704309
 30
0.0
  0
SPLINE
  5
5e3
100
AcDbEntity
  8
Layer_1
 62
5
100
AcDbSpline
 70
8
 71
3
 72
8
 73
4
 74
0
 40
0
 40
0
 40
0
 40
0
 40
1
 40
1
 40
1
 40
1
 10
102.785460
 20
129.704309
 30
0.0
 10
98.683456
 20
122.674966
 30
0.0
 10
92.789414
 20
116.752942
 30
0.0
 10
85.795021
 20
112.562574
 30
0.0
  0
SPLINE
  5
5e4
100
AcDbEntity
  8
Layer_1
 62
5
100
AcDbSpline
 70
8
 71
3
 72
8
 73
4
 74
0
 40
0
 40
0
 40
0
 40
0
 40
1
 40
1
 40
1
 40
1
 10
85.795021
 20
112.562574
 30
0.0
 10
84.313194
 20
111.609685
 30
0.0
 10
82.504333
 20
111.054585
 30
0.0
 10
80.565825
 20
111.054585
 30
0.0
  0
SPLINE
  5
5e5
100
AcDbEntity
  8
Layer_1
 62
5
100
AcDbSpline
 70
8
 71
3
 72
8
 73
4
 74
0
 40
0
 40
0
 40
0
 40
0
 40
1
 40
1
 40
1
 40
1
 10
80.565825
 20
111.054585
 30
0.0
 10
75.077951
 20
111.054585
 30
0.0
 10
70.629150
 20
115.503386
 30
0.0
 10
70.629150
 20
120.991260
 30
0.0
  0
LINE
  5
5e6
100
AcDbEntity
  8
Layer_1
 62
5
100
AcDbLine
 10
70.629150
 20
120.991260
 30
0.0
 11
70.326771
 21
134.799987
 31
0.0
  0
SPLINE
  5
5e7
100
AcDbEntity
  8
Layer_1
 62
5
100
AcDbSpline
 70
8
 71
3
 72
8
 73
4
 74
0
 40
0
 40
0
 40
0
 40
0
 40
1
 40
1
 40
1
 40
1
 10
40.903520
 20
144.887851
 30
0.0
 10
46.391394
 20
144.887851
 30
0.0
 10
50.840195
 20
140.439049
 30
0.0
 10
50.840195
 20
134.951176
 30
0.0
  0
LINE
  5
5e8
100
AcDbEntity
  8
Layer_1
 62
5
100
AcDbLine
 10
50.840195
 20
134.951176
 30
0.0
 11
50.940991
 21
120.940860
 31
0.0
  0
SPLINE
  5
5e9
100
AcDbEntity
  8
Layer_1
 62
5
100
AcDbSpline
 70
8
 71
3
 72
8
 73
4
 74
0
 40
0
 40
0
 40
0
 40
0
 40
1
 40
1
 40
1
 40
1
 10
50.940991
 20
120.940860
 30
0.0
 10
50.940991
 20
115.452987
 30
0.0
 10
46.492189
 20
111.004185
 30
0.0
 10
41.004316
 20
111.004185
 30
0.0
  0
SPLINE
  5
5ea
100
AcDbEntity
  8
Layer_1
 62
5
100
AcDbSpline
 70
8
 71
3
 72
8
 73
4
 74
0
 40
0
 40
0
 40
0
 40
0
 40
1
 40
1
 40
1
 40
1
 10
41.004316
 20
111.004185
 30
0.0
 10
39.084948
 20
111.004185
 30
0.0
 10
37.292682
 20
111.548377
 30
0.0
 10
35.807843
 20
112.429162
 30
0.0
  0
SPLINE
  5
5eb
100
AcDbEntity
  8
Layer_1
 62
5
100
AcDbSpline
 70
8
 71
3
 72
8
 73
4
 74
0
 40
0
 40
0
 40
0
 40
0
 40
1
 40
1
 40
1
 40
1
 10
35.807843
 20
112.429162
 30
0.0
 10
28.778500
 20
116.531166
 30
0.0
 10
22.856476
 20
122.425208
 30
0.0
 10
18.666108
 20
129.419601
 30
0.0
  0
SPLINE
  5
5ec
100
AcDbEntity
  8
Layer_1
 62
5
100
AcDbSpline
 70
8
 71
3
 72
8
 73
4
 74
0
 40
0
 40
0
 40
0
 40
0
 40
1
 40
1
 40
1
 40
1
 10
18.666108
 20
129.419601
 30
0.0
 10
17.713218
 20
130.901428
 30
0.0
 10
17.158118
 20
132.710289
 30
0.0
 10
17.158118
 20
134.648798
 30
0.0
  0
SPLINE
  5
5ed
100
AcDbEntity
  8
Layer_1
 62
5
100
AcDbSpline
 70
8
 71
3
 72
8
 73
4
 74
0
 40
0
 40
0
 40
0
 40
0
 40
1
 40
1
 40
1
 40
1
 10
17.158118
 20
134.648798
 30
0.0
 10
17.158118
 20
140.136671
 30
0.0
 10
21.606920
 20
144.585472
 30
0.0
 10
27.094793
 20
144.585472
 30
0.0
  0
LINE
  5
5ee
100
AcDbEntity
  8
Layer_1
 62
5
100
AcDbLine
 10
27.094793
 20
144.585472
 30
0.0
 11
40.903520
 21
144.887851
 31
0.0
  0
LINE
  5
5ef
100
AcDbEntity
  8
Layer_1
 62
1
100
AcDbLine
 10
59.144900
 20
168.218003
 30
0.0
 11
59.144900
 21
156.056541
 31
0.0
  0
LINE
  5
5f0
100
AcDbEntity
  8
Layer_1
 62
1
100
AcDbLine
 10
59.144900
 20
156.056541
 30
0.0
 11
46.981235
 21
156.056541
 31
0.0
  0
LINE
  5
5f1
100
AcDbEntity
  8
Layer_1
 62
1
100
AcDbLine
 10
46.981235
 20
156.056541
 30
0.0
 11
46.981235
 21
153.056827
 31
0.0
  0
LINE
  5
5f2
100
AcDbEntity
  8
Layer_1
 62
1
100
AcDbLine
 10
46.981235
 20
153.056827
 30
0.0
 11
59.144900
 21
153.056827
 31
0.0
  0
LINE
  5
5f3
100
AcDbEntity
  8
Layer_1
 62
1
100
AcDbLine
 10
59.144900
 20
153.056827
 30
0.0
 11
59.144900
 21
152.772400
 31
0.0
  0
LINE
  5
5f4
100
AcDbEntity
  8
Layer_1
 62
1
100
AcDbLine
 10
59.144900
 20
152.772400
 30
0.0
 11
59.144900
 21
140.893711
 31
0.0
  0
LINE
  5
5f5
100
AcDbEntity
  8
Layer_1
 62
1
100
AcDbLine
 10
59.144900
 20
140.893711
 30
0.0
 11
62.144612
 21
140.893711
 31
0.0
  0
LINE
  5
5f6
100
AcDbEntity
  8
Layer_1
 62
1
100
AcDbLine
 10
62.144612
 20
140.893711
 30
0.0
 11
62.144612
 21
152.772400
 31
0.0
  0
LINE
  5
5f7
100
AcDbEntity
  8
Layer_1
 62
1
100
AcDbLine
 10
62.144612
 20
152.772400
 30
0.0
 11
62.144612
 21
153.056827
 31
0.0
  0
LINE
  5
5f8
100
AcDbEntity
  8
Layer_1
 62
1
100
AcDbLine
 10
62.144612
 20
153.056827
 30
0.0
 11
62.426834
 21
153.056827
 31
0.0
  0
LINE
  5
5f9
100
AcDbEntity
  8
Layer_1
 62
1
100
AcDbLine
 10
62.426834
 20
153.056827
 30
0.0
 11
74.305540
 21
153.056827
 31
0.0
  0
LINE
  5
5fa
100
AcDbEntity
  8
Layer_1
 62
1
100
AcDbLine
 10
74.305540
 20
153.056827
 30
0.0
 11
74.305540
 21
156.056541
 31
0.0
  0
LINE
  5
5fb
100
AcDbEntity
  8
Layer_1
 62
1
100
AcDbLine
 10
74.305540
 20
156.056541
 30
0.0
 11
62.426834
 21
156.056541
 31
0.0
  0
LINE
  5
5fc
100
AcDbEntity
  8
Layer_1
 62
1
100
AcDbLine
 10
62.426834
 20
156.056541
 30
0.0
 11
62.144612
 21
156.056541
 31
0.0
  0
LINE
  5
5fd
100
AcDbEntity
  8
Layer_1
 62
1
100
AcDbLine
 10
62.144612
 20
156.056541
 30
0.0
 11
62.144612
 21
168.218003
 31
0.0
  0
LINE
  5
5fe
100
AcDbEntity
  8
Layer_1
 62
1
100
AcDbLine
 10
62.144612
 20
168.218003
 30
0.0
 11
59.144900
 21
168.218003
 31
0.0
  0
LINE
  5
5ff
100
AcDbEntity
  8
Layer_1
 62
1
100
AcDbLine
 10
59.144900
 20
168.218003
 30
0.0
 11
59.144900
 21
168.218003
 31
0.0
  0
LINE
  5
600
100
AcDbEntity
  8
Layer_1
 62
1
100
AcDbLine
 10
62.144686
 20
120.893398
 30
0.0
 11
62.144686
 21
130.893403
 31
0.0
  0
LINE
  5
601
100
AcDbEntity
  8
Layer_1
 62
1
100
AcDbLine
 10
62.144686
 20
130.893403
 30
0.0
 11
59.144692
 21
130.893403
 31
0.0
  0
LINE
  5
602
100
AcDbEntity
  8
Layer_1
 62
1
100
AcDbLine
 10
59.144692
 20
130.893403
 30
0.0
 11
59.144692
 21
120.893398
 31
0.0
  0
LINE
  5
603
100
AcDbEntity
  8
Layer_1
 62
1
100
AcDbLine
 10
59.144692
 20
120.893398
 30
0.0
 11
62.144686
 21
120.893398
 31
0.0
  0
SPLINE
  5
604
100
AcDbEntity
  8
Layer_1
 62
1
100
AcDbSpline
 70
8
 71
3
 72
8
 73
4
 74
0
 40
0
 40
0
 40
0
 40
0
 40
1
 40
1
 40
1
 40
1
 10
60.643546
 20
137.443361
 30
0.0
 10
59.787509
 20
137.443357
 30
0.0
 10
59.093553
 20
136.749399
 30
0.0
 10
59.093553
 20
135.893360
 30
0.0
  0
SPLINE
  5
605
100
AcDbEntity
  8
Layer_1
 62
1
100
AcDbSpline
 70
8
 71
3
 72
8
 73
4
 74
0
 40
0
 40
0
 40
0
 40
0
 40
1
 40
1
 40
1
 40
1
 10
59.093553
 20
135.893360
 30
0.0
 10
59.093553
 20
135.037322
 30
0.0
 10
59.787509
 20
134.343365
 30
0.0
 10
60.643546
 20
134.343361
 30
0.0
  0
SPLINE
  5
606
100
AcDbEntity
  8
Layer_1
 62
1
100
AcDbSpline
 70
8
 71
3
 72
8
 73
4
 74
0
 40
0
 40
0
 40
0
 40
0
 40
1
 40
1
 40
1
 40
1
 10
60.643546
 20
134.343361
 30
0.0
 10
61.499582
 20
134.343365
 30
0.0
 10
62.193538
 20
135.037322
 30
0.0
 10
62.193538
 20
135.893360
 30
0.0
  0
SPLINE
  5
607
100
AcDbEntity
  8
Layer_1
 62
1
100
AcDbSpline
 70
8
 71
3
 72
8
 73
4
 74
0
 40
0
 40
0
 40
0
 40
0
 40
1
 40
1
 40
1
 40
1
 10
62.193538
 20
135.893360
 30
0.0
 10
62.193538
 20
136.749399
 30
0.0
 10
61.499582
 20
137.443357
 30
0.0
 10
60.643546
 20
137.443361
 30
0.0
  0
LINE
  5
608
100
AcDbEntity
  8
Layer_1
 62
1
100
AcDbLine
 10
60.643546
 20
137.443361
 30
0.0
 11
60.643546
 21
137.443361
 31
0.0
  0
LINE
  5
609
100
AcDbEntity
  8
Layer_1
 62
1
100
AcDbLine
 10
62.144686
 20
178.217687
 30
0.0
 11
62.144686
 21
188.217692
 31
0.0
  0
LINE
  5
60a
100
AcDbEntity
  8
Layer_1
 62
1
100
AcDbLine
 10
62.144686
 20
188.217692
 30
0.0
 11
59.144692
 21
188.217692
 31
0.0
  0
LINE
  5
60b
100
AcDbEntity
  8
Layer_1
 62
1
100
AcDbLine
 10
59.144692
 20
188.217692
 30
0.0
 11
59.144692
 21
178.217687
 31
0.0
  0
LINE
  5
60c
100
AcDbEntity
  8
Layer_1
 62
1
100
AcDbLine
 10
59.144692
 20
178.217687
 30
0.0
 11
62.144686
 21
178.217687
 31
0.0
  0
SPLINE
  5
60d
100
AcDbEntity
  8
Layer_1
 62
1
100
AcDbSpline
 70
8
 71
3
 72
8
 73
4
 74
0
 40
0
 40
0
 40
0
 40
0
 40
1
 40
1
 40
1
 40
1
 10
60.643546
 20
174.767698
 30
0.0
 10
59.787509
 20
174.767695
 30
0.0
 10
59.093553
 20
174.073739
 30
0.0
 10
59.093553
 20
173.217699
 30
0.0
  0
SPLINE
  5
60e
100
AcDbEntity
  8
Layer_1
 62
1
100
AcDbSpline
 70
8
 71
3
 72
8
 73
4
 74
0
 40
0
 40
0
 40
0
 40
0
 40
1
 40
1
 40
1
 40
1
 10
59.093553
 20
173.217699
 30
0.0
 10
59.093553
 20
172.361660
 30
0.0
 10
59.787509
 20
171.667704
 30
0.0
 10
60.643546
 20
171.667701
 30
0.0
  0
SPLINE
  5
60f
100
AcDbEntity
  8
Layer_1
 62
1
100
AcDbSpline
 70
8
 71
3
 72
8
 73
4
 74
0
 40
0
 40
0
 40
0
 40
0
 40
1
 40
1
 40
1
 40
1
 10
60.643546
 20
171.667701
 30
0.0
 10
61.499582
 20
171.667704
 30
0.0
 10
62.193538
 20
172.361660
 30
0.0
 10
62.193538
 20
173.217699
 30
0.0
  0
SPLINE
  5
610
100
AcDbEntity
  8
Layer_1
 62
1
100
AcDbSpline
 70
8
 71
3
 72
8
 73
4
 74
0
 40
0
 40
0
 40
0
 40
0
 40
1
 40
1
 40
1
 40
1
 10
62.193538
 20
173.217699
 30
0.0
 10
62.193538
 20
174.073739
 30
0.0
 10
61.499582
 20
174.767695
 30
0.0
 10
60.643546
 20
174.767698
 30
0.0
  0
LINE
  5
611
100
AcDbEntity
  8
Layer_1
 62
1
100
AcDbLine
 10
60.643546
 20
174.767698
 30
0.0
 11
60.643546
 21
174.767698
 31
0.0
  0
LINE
  5
612
100
AcDbEntity
  8
Layer_1
 62
1
100
AcDbLine
 10
94.305715
 20
156.056688
 30
0.0
 11
84.305707
 21
156.056688
 31
0.0
  0
LINE
  5
613
100
AcDbEntity
  8
Layer_1
 62
1
100
AcDbLine
 10
84.305707
 20
156.056688
 30
0.0
 11
84.305707
 21
153.056694
 31
0.0
  0
LINE
  5
614
100
AcDbEntity
  8
Layer_1
 62
1
100
AcDbLine
 10
84.305707
 20
153.056694
 30
0.0
 11
94.305715
 21
153.056694
 31
0.0
  0
LINE
  5
615
100
AcDbEntity
  8
Layer_1
 62
1
100
AcDbLine
 10
94.305715
 20
153.056694
 30
0.0
 11
94.305715
 21
156.056688
 31
0.0
  0
SPLINE
  5
616
100
AcDbEntity
  8
Layer_1
 62
1
100
AcDbSpline
 70
8
 71
3
 72
8
 73
4
 74
0
 40
0
 40
0
 40
0
 40
0
 40
1
 40
1
 40
1
 40
1
 10
77.755752
 20
154.555548
 30
0.0
 10
77.755752
 20
153.699512
 30
0.0
 10
78.449708
 20
153.005556
 30
0.0
 10
79.305745
 20
153.005556
 30
0.0
  0
SPLINE
  5
617
100
AcDbEntity
  8
Layer_1
 62
1
100
AcDbSpline
 70
8
 71
3
 72
8
 73
4
 74
0
 40
0
 40
0
 40
0
 40
0
 40
1
 40
1
 40
1
 40
1
 10
79.305745
 20
153.005556
 30
0.0
 10
80.161781
 20
153.005556
 30
0.0
 10
80.855737
 20
153.699512
 30
0.0
 10
80.855737
 20
154.555548
 30
0.0
  0
SPLINE
  5
618
100
AcDbEntity
  8
Layer_1
 62
1
100
AcDbSpline
 70
8
 71
3
 72
8
 73
4
 74
0
 40
0
 40
0
 40
0
 40
0
 40
1
 40
1
 40
1
 40
1
 10
80.855737
 20
154.555548
 30
0.0
 10
80.855737
 20
155.411585
 30
0.0
 10
80.161781
 20
156.105541
 30
0.0
 10
79.305745
 20
156.105541
 30
0.0
  0
SPLINE
  5
619
100
AcDbEntity
  8
Layer_1
 62
1
100
AcDbSpline
 70
8
 71
3
 72
8
 73
4
 74
0
 40
0
 40
0
 40
0
 40
0
 40
1
 40
1
 40
1
 40
1
 10
79.305745
 20
156.105541
 30
0.0
 10
78.449708
 20
156.105541
 30
0.0
 10
77.755752
 20
155.411585
 30
0.0
 10
77.755752
 20
154.555548
 30
0.0
  0
LINE
  5
61a
100
AcDbEntity
  8
Layer_1
 62
1
100
AcDbLine
 10
77.755752
 20
154.555548
 30
0.0
 11
77.755752
 21
154.555548
 31
0.0
  0
LINE
  5
61b
100
AcDbEntity
  8
Layer_1
 62
1
100
AcDbLine
 10
36.981413
 20
156.056688
 30
0.0
 11
26.981405
 21
156.056688
 31
0.0
  0
LINE
  5
61c
100
AcDbEntity
  8
Layer_1
 62
1
100
AcDbLine
 10
26.981405
 20
156.056688
 30
0.0
 11
26.981405
 21
153.056694
 31
0.0
  0
LINE
  5
61d
100
AcDbEntity
  8
Layer_1
 62
1
100
AcDbLine
 10
26.981405
 20
153.056694
 30
0.0
 11
36.981413
 21
153.056694
 31
0.0
  0
LINE
  5
61e
100
AcDbEntity
  8
Layer_1
 62
1
100
AcDbLine
 10
36.981413
 20
153.056694
 30
0.0
 11
36.981413
 21
156.056688
 31
0.0
  0
SPLINE
  5
61f
100
AcDbEntity
  8
Layer_1
 62
1
100
AcDbSpline
 70
8
 71
3
 72
8
 73
4
 74
0
 40
0
 40
0
 40
0
 40
0
 40
1
 40
1
 40
1
 40
1
 10
40.431411
 20
154.555548
 30
0.0
 10
40.431411
 20
153.699512
 30
0.0
 10
41.125367
 20
153.005556
 30
0.0
 10
41.981403
 20
153.005556
 30
0.0
  0
SPLINE
  5
620
100
AcDbEntity
  8
Layer_1
 62
1
100
AcDbSpline
 70
8
 71
3
 72
8
 73
4
 74
0
 40
0
 40
0
 40
0
 40
0
 40
1
 40
1
 40
1
 40
1
 10
41.981403
 20
153.005556
 30
0.0
 10
42.837440
 20
153.005556
 30
0.0
 10
43.531396
 20
153.699512
 30
0.0
 10
43.531396
 20
154.555548
 30
0.0
  0
SPLINE
  5
621
100
AcDbEntity
  8
Layer_1
 62
1
100
AcDbSpline
 70
8
 71
3
 72
8
 73
4
 74
0
 40
0
 40
0
 40
0
 40
0
 40
1
 40
1
 40
1
 40
1
 10
43.531396
 20
154.555548
 30
0.0
 10
43.531396
 20
155.411585
 30
0.0
 10
42.837440
 20
156.105541
 30
0.0
 10
41.981403
 20
156.105541
 30
0.0
  0
SPLINE
  5
622
100
AcDbEntity
  8
Layer_1
 62
1
100
AcDbSpline
 70
8
 71
3
 72
8
 73
4
 74
0
 40
0
 40
0
 40
0
 40
0
 40
1
 40
1
 40
1
 40
1
 10
41.981403
 20
156.105541
 30
0.0
 10
41.125367
 20
156.105541
 30
0.0
 10
40.431411
 20
155.411585
 30
0.0
 10
40.431411
 20
154.555548
 30
0.0
  0
LINE
  5
623
100
AcDbEntity
  8
Layer_1
 62
1
100
AcDbLine
 10
40.431411
 20
154.555548
 30
0.0
 11
40.431411
 21
154.555548
 31
0.0
  0
SPLINE
  5
624
100
AcDbEntity
  8
Layer_1
 62
3
100
AcDbSpline
 70
8
 71
3
 72
8
 73
4
 74
0
 40
0
 40
0
 40
0
 40
0
 40
1
 40
1
 40
1
 40
1
 10
277.849258
 20
153.862919
 30
0.0
 10
277.651653
 20
153.665314
 30
0.0
 10
277.422996
 20
153.512877
 30
0.0
 10
277.163286
 20
153.405606
 30
0.0
  0
SPLINE
  5
625
100
AcDbEntity
  8
Layer_1
 62
3
100
AcDbSpline
 70
8
 71
3
 72
8
 73
4
 74
0
 40
0
 40
0
 40
0
 40
0
 40
1
 40
1
 40
1
 40
1
 10
277.163286
 20
153.405606
 30
0.0
 10
276.909222
 20
153.298333
 30
0.0
 10
276.638221
 20
153.244697
 30
0.0
 10
276.350282
 20
153.244697
 30
0.0
  0
LINE
  5
626
100
AcDbEntity
  8
Layer_1
 62
3
100
AcDbLine
 10
276.350282
 20
153.244697
 30
0.0
 11
275.503404
 21
153.244697
 31
0.0
  0
SPLINE
  5
627
100
AcDbEntity
  8
Layer_1
 62
3
100
AcDbSpline
 70
8
 71
3
 72
8
 73
4
 74
0
 40
0
 40
0
 40
0
 40
0
 40
1
 40
1
 40
1
 40
1
 10
275.503404
 20
153.244697
 30
0.0
 10
275.215466
 20
153.244697
 30
0.0
 10
274.941642
 20
153.298333
 30
0.0
 10
274.681931
 20
153.405606
 30
0.0
  0
SPLINE
  5
628
100
AcDbEntity
  8
Layer_1
 62
3
100
AcDbSpline
 70
8
 71
3
 72
8
 73
4
 74
0
 40
0
 40
0
 40
0
 40
0
 40
1
 40
1
 40
1
 40
1
 10
274.681931
 20
153.405606
 30
0.0
 10
274.427869
 20
153.512877
 30
0.0
 10
274.202035
 20
153.665314
 30
0.0
 10
274.004429
 20
153.862919
 30
0.0
  0
SPLINE
  5
629
100
AcDbEntity
  8
Layer_1
 62
3
100
AcDbSpline
 70
8
 71
3
 72
8
 73
4
 74
0
 40
0
 40
0
 40
0
 40
0
 40
1
 40
1
 40
1
 40
1
 10
274.004429
 20
153.862919
 30
0.0
 10
273.806824
 20
154.060525
 30
0.0
 10
273.654387
 20
154.289182
 30
0.0
 10
273.547116
 20
154.548891
 30
0.0
  0
SPLINE
  5
62a
100
AcDbEntity
  8
Layer_1
 62
3
100
AcDbSpline
 70
8
 71
3
 72
8
 73
4
 74
0
 40
0
 40
0
 40
0
 40
0
 40
1
 40
1
 40
1
 40
1
 10
273.547116
 20
154.548891
 30
0.0
 10
273.439845
 20
154.802955
 30
0.0
 10
273.386210
 20
155.073956
 30
0.0
 10
273.386210
 20
155.361894
 30
0.0
  0
SPLINE
  5
62b
100
AcDbEntity
  8
Layer_1
 62
3
100
AcDbSpline
 70
8
 71
3
 72
8
 73
4
 74
0
 40
0
 40
0
 40
0
 40
0
 40
1
 40
1
 40
1
 40
1
 10
273.386210
 20
155.361894
 30
0.0
 10
273.386210
 20
155.649832
 30
0.0
 10
273.439845
 20
155.923656
 30
0.0
 10
273.547116
 20
156.183367
 30
0.0
  0
SPLINE
  5
62c
100
AcDbEntity
  8
Layer_1
 62
3
100
AcDbSpline
 70
8
 71
3
 72
8
 73
4
 74
0
 40
0
 40
0
 40
0
 40
0
 40
1
 40
1
 40
1
 40
1
 10
273.547116
 20
156.183367
 30
0.0
 10
273.654387
 20
156.437429
 30
0.0
 10
273.806824
 20
156.663263
 30
0.0
 10
274.004429
 20
156.860869
 30
0.0
  0
SPLINE
  5
62d
100
AcDbEntity
  8
Layer_1
 62
3
100
AcDbSpline
 70
8
 71
3
 72
8
 73
4
 74
0
 40
0
 40
0
 40
0
 40
0
 40
1
 40
1
 40
1
 40
1
 10
274.004429
 20
156.860869
 30
0.0
 10
274.202035
 20
157.058474
 30
0.0
 10
274.427869
 20
157.210912
 30
0.0
 10
274.681931
 20
157.318182
 30
0.0
  0
SPLINE
  5
62e
100
AcDbEntity
  8
Layer_1
 62
3
100
AcDbSpline
 70
8
 71
3
 72
8
 73
4
 74
0
 40
0
 40
0
 40
0
 40
0
 40
1
 40
1
 40
1
 40
1
 10
274.681931
 20
157.318182
 30
0.0
 10
274.941642
 20
157.425455
 30
0.0
 10
275.215466
 20
157.479091
 30
0.0
 10
275.503404
 20
157.479091
 30
0.0
  0
LINE
  5
62f
100
AcDbEntity
  8
Layer_1
 62
3
100
AcDbLine
 10
275.503404
 20
157.479091
 30
0.0
 11
278.044039
 21
157.479091
 31
0.0
  0
SPLINE
  5
630
100
AcDbEntity
  8
Layer_1
 62
3
100
AcDbSpline
 70
8
 71
3
 72
8
 73
4
 74
0
 40
0
 40
0
 40
0
 40
0
 40
1
 40
1
 40
1
 40
1
 10
278.044039
 20
157.479091
 30
0.0
 10
278.495708
 20
157.479091
 30
0.0
 10
278.924793
 20
157.408518
 30
0.0
 10
279.331294
 20
157.267371
 30
0.0
  0
SPLINE
  5
631
100
AcDbEntity
  8
Layer_1
 62
3
100
AcDbSpline
 70
8
 71
3
 72
8
 73
4
 74
0
 40
0
 40
0
 40
0
 40
0
 40
1
 40
1
 40
1
 40
1
 10
279.331294
 20
157.267371
 30
0.0
 10
279.726505
 20
157.131871
 30
0.0
 10
280.093486
 20
156.934265
 30
0.0
 10
280.432237
 20
156.674555
 30
0.0
  0
SPLINE
  5
632
100
AcDbEntity
  8
Layer_1
 62
3
100
AcDbSpline
 70
8
 71
3
 72
8
 73
4
 74
0
 40
0
 40
0
 40
0
 40
0
 40
1
 40
1
 40
1
 40
1
 10
280.432237
 20
156.674555
 30
0.0
 10
280.765342
 20
156.426137
 30
0.0
 10
281.053281
 20
156.124084
 30
0.0
 10
281.296052
 20
155.768396
 30
0.0
  0
SPLINE
  5
633
100
AcDbEntity
  8
Layer_1
 62
3
100
AcDbSpline
 70
8
 71
3
 72
8
 73
4
 74
0
 40
0
 40
0
 40
0
 40
0
 40
1
 40
1
 40
1
 40
1
 10
281.296052
 20
155.768396
 30
0.0
 10
281.538825
 20
155.407061
 30
0.0
 10
281.719493
 20
155.028789
 30
0.0
 10
281.838054
 20
154.633580
 30
0.0
  0
SPLINE
  5
634
100
AcDbEntity
  8
Layer_1
 62
3
100
AcDbSpline
 70
8
 71
3
 72
8
 73
4
 74
0
 40
0
 40
0
 40
0
 40
0
 40
1
 40
1
 40
1
 40
1
 10
281.838054
 20
154.633580
 30
0.0
 10
281.871930
 20
154.520663
 30
0.0
 10
281.860638
 20
154.413391
 30
0.0
 10
281.804179
 20
154.311765
 30
0.0
  0
SPLINE
  5
635
100
AcDbEntity
  8
Layer_1
 62
3
100
AcDbSpline
 70
8
 71
3
 72
8
 73
4
 74
0
 40
0
 40
0
 40
0
 40
0
 40
1
 40
1
 40
1
 40
1
 10
281.804179
 20
154.311765
 30
0.0
 10
281.747721
 20
154.210140
 30
0.0
 10
281.663034
 20
154.142390
 30
0.0
 10
281.550117
 20
154.108514
 30
0.0
  0
SPLINE
  5
636
100
AcDbEntity
  8
Layer_1
 62
3
100
AcDbSpline
 70
8
 71
3
 72
8
 73
4
 74
0
 40
0
 40
0
 40
0
 40
0
 40
1
 40
1
 40
1
 40
1
 10
281.550117
 20
154.108514
 30
0.0
 10
281.437200
 20
154.074640
 30
0.0
 10
281.329928
 20
154.085932
 30
0.0
 10
281.228302
 20
154.142389
 30
0.0
  0
SPLINE
  5
637
100
AcDbEntity
  8
Layer_1
 62
3
100
AcDbSpline
 70
8
 71
3
 72
8
 73
4
 74
0
 40
0
 40
0
 40
0
 40
0
 40
1
 40
1
 40
1
 40
1
 10
281.228302
 20
154.142389
 30
0.0
 10
281.126677
 20
154.198849
 30
0.0
 10
281.058927
 20
154.283537
 30
0.0
 10
281.025051
 20
154.396454
 30
0.0
  0
SPLINE
  5
638
100
AcDbEntity
  8
Layer_1
 62
3
100
AcDbSpline
 70
8
 71
3
 72
8
 73
4
 74
0
 40
0
 40
0
 40
0
 40
0
 40
1
 40
1
 40
1
 40
1
 10
281.025051
 20
154.396454
 30
0.0
 10
280.934717
 20
154.706976
 30
0.0
 10
280.793571
 20
155.006206
 30
0.0
 10
280.601613
 20
155.294144
 30
0.0
  0
SPLINE
  5
639
100
AcDbEntity
  8
Layer_1
 62
3
100
AcDbSpline
 70
8
 71
3
 72
8
 73
4
 74
0
 40
0
 40
0
 40
0
 40
0
 40
1
 40
1
 40
1
 40
1
 10
280.601613
 20
155.294144
 30
0.0
 10
280.415299
 20
155.565145
 30
0.0
 10
280.189465
 20
155.799448
 30
0.0
 10
279.924110
 20
155.997052
 30
0.0
  0
SPLINE
  5
63a
100
AcDbEntity
  8
Layer_1
 62
3
100
AcDbSpline
 70
8
 71
3
 72
8
 73
4
 74
0
 40
0
 40
0
 40
0
 40
0
 40
1
 40
1
 40
1
 40
1
 10
279.924110
 20
155.997052
 30
0.0
 10
279.709567
 20
156.160782
 30
0.0
 10
279.478086
 20
156.293461
 30
0.0
 10
279.229669
 20
156.395087
 30
0.0
  0
SPLINE
  5
63b
100
AcDbEntity
  8
Layer_1
 62
3
100
AcDbSpline
 70
8
 71
3
 72
8
 73
4
 74
0
 40
0
 40
0
 40
0
 40
0
 40
1
 40
1
 40
1
 40
1
 10
279.229669
 20
156.395087
 30
0.0
 10
278.986897
 20
156.496712
 30
0.0
 10
278.732834
 20
156.567284
 30
0.0
 10
278.467480
 20
156.606805
 30
0.0
  0
LINE
  5
63c
100
AcDbEntity
  8
Layer_1
 62
3
100
AcDbLine
 10
278.467480
 20
156.606805
 30
0.0
 11
278.467480
 21
155.361894
 31
0.0
  0
SPLINE
  5
63d
100
AcDbEntity
  8
Layer_1
 62
3
100
AcDbSpline
 70
8
 71
3
 72
8
 73
4
 74
0
 40
0
 40
0
 40
0
 40
0
 40
1
 40
1
 40
1
 40
1
 10
278.467480
 20
155.361894
 30
0.0
 10
278.467480
 20
155.073956
 30
0.0
 10
278.413843
 20
154.802955
 30
0.0
 10
278.306571
 20
154.548891
 30
0.0
  0
SPLINE
  5
63e
100
AcDbEntity
  8
Layer_1
 62
3
100
AcDbSpline
 70
8
 71
3
 72
8
 73
4
 74
0
 40
0
 40
0
 40
0
 40
0
 40
1
 40
1
 40
1
 40
1
 10
278.306571
 20
154.548891
 30
0.0
 10
278.199300
 20
154.289182
 30
0.0
 10
278.046862
 20
154.060525
 30
0.0
 10
277.849258
 20
153.862919
 30
0.0
  0
LINE
  5
63f
100
AcDbEntity
  8
Layer_1
 62
3
100
AcDbLine
 10
277.849258
 20
153.862919
 30
0.0
 11
277.849258
 21
153.862919
 31
0.0
  0
SPLINE
  5
640
100
AcDbEntity
  8
Layer_1
 62
3
100
AcDbSpline
 70
8
 71
3
 72
8
 73
4
 74
0
 40
0
 40
0
 40
0
 40
0
 40
1
 40
1
 40
1
 40
1
 10
276.350282
 20
154.091578
 30
0.0
 10
276.525303
 20
154.091578
 30
0.0
 10
276.689034
 20
154.125452
 30
0.0
 10
276.841473
 20
154.193201
 30
0.0
  0
SPLINE
  5
641
100
AcDbEntity
  8
Layer_1
 62
3
100
AcDbSpline
 70
8
 71
3
 72
8
 73
4
 74
0
 40
0
 40
0
 40
0
 40
0
 40
1
 40
1
 40
1
 40
1
 10
276.841473
 20
154.193201
 30
0.0
 10
276.999557
 20
154.260951
 30
0.0
 10
277.135058
 20
154.351284
 30
0.0
 10
277.247975
 20
154.464202
 30
0.0
  0
SPLINE
  5
642
100
AcDbEntity
  8
Layer_1
 62
3
100
AcDbSpline
 70
8
 71
3
 72
8
 73
4
 74
0
 40
0
 40
0
 40
0
 40
0
 40
1
 40
1
 40
1
 40
1
 10
277.247975
 20
154.464202
 30
0.0
 10
277.360892
 20
154.577121
 30
0.0
 10
277.451226
 20
154.712622
 30
0.0
 10
277.518976
 20
154.870706
 30
0.0
  0
SPLINE
  5
643
100
AcDbEntity
  8
Layer_1
 62
3
100
AcDbSpline
 70
8
 71
3
 72
8
 73
4
 74
0
 40
0
 40
0
 40
0
 40
0
 40
1
 40
1
 40
1
 40
1
 10
277.518976
 20
154.870706
 30
0.0
 10
277.586726
 20
155.023144
 30
0.0
 10
277.620601
 20
155.186873
 30
0.0
 10
277.620601
 20
155.361894
 30
0.0
  0
LINE
  5
644
100
AcDbEntity
  8
Layer_1
 62
3
100
AcDbLine
 10
277.620601
 20
155.361894
 30
0.0
 11
277.620601
 21
156.632213
 31
0.0
  0
LINE
  5
645
100
AcDbEntity
  8
Layer_1
 62
3
100
AcDbLine
 10
277.620601
 20
156.632213
 30
0.0
 11
275.503404
 21
156.632213
 31
0.0
  0
SPLINE
  5
646
100
AcDbEntity
  8
Layer_1
 62
3
100
AcDbSpline
 70
8
 71
3
 72
8
 73
4
 74
0
 40
0
 40
0
 40
0
 40
0
 40
1
 40
1
 40
1
 40
1
 10
275.503404
 20
156.632213
 30
0.0
 10
275.328383
 20
156.632213
 30
0.0
 10
275.161830
 20
156.598338
 30
0.0
 10
275.003747
 20
156.530588
 30
0.0
  0
SPLINE
  5
647
100
AcDbEntity
  8
Layer_1
 62
3
100
AcDbSpline
 70
8
 71
3
 72
8
 73
4
 74
0
 40
0
 40
0
 40
0
 40
0
 40
1
 40
1
 40
1
 40
1
 10
275.003747
 20
156.530588
 30
0.0
 10
274.851309
 20
156.462837
 30
0.0
 10
274.718631
 20
156.372504
 30
0.0
 10
274.605714
 20
156.259587
 30
0.0
  0
SPLINE
  5
648
100
AcDbEntity
  8
Layer_1
 62
3
100
AcDbSpline
 70
8
 71
3
 72
8
 73
4
 74
0
 40
0
 40
0
 40
0
 40
0
 40
1
 40
1
 40
1
 40
1
 10
274.605714
 20
156.259587
 30
0.0
 10
274.492797
 20
156.146669
 30
0.0
 10
274.402464
 20
156.013991
 30
0.0
 10
274.334713
 20
155.861552
 30
0.0
  0
SPLINE
  5
649
100
AcDbEntity
  8
Layer_1
 62
3
100
AcDbSpline
 70
8
 71
3
 72
8
 73
4
 74
0
 40
0
 40
0
 40
0
 40
0
 40
1
 40
1
 40
1
 40
1
 10
274.334713
 20
155.861552
 30
0.0
 10
274.266963
 20
155.703468
 30
0.0
 10
274.233088
 20
155.536915
 30
0.0
 10
274.233088
 20
155.361894
 30
0.0
  0
SPLINE
  5
64a
100
AcDbEntity
  8
Layer_1
 62
3
100
AcDbSpline
 70
8
 71
3
 72
8
 73
4
 74
0
 40
0
 40
0
 40
0
 40
0
 40
1
 40
1
 40
1
 40
1
 10
274.233088
 20
155.361894
 30
0.0
 10
274.233088
 20
155.186873
 30
0.0
 10
274.266963
 20
155.023144
 30
0.0
 10
274.334713
 20
154.870706
 30
0.0
  0
SPLINE
  5
64b
100
AcDbEntity
  8
Layer_1
 62
3
100
AcDbSpline
 70
8
 71
3
 72
8
 73
4
 74
0
 40
0
 40
0
 40
0
 40
0
 40
1
 40
1
 40
1
 40
1
 10
274.334713
 20
154.870706
 30
0.0
 10
274.402464
 20
154.712622
 30
0.0
 10
274.492797
 20
154.577121
 30
0.0
 10
274.605714
 20
154.464202
 30
0.0
  0
SPLINE
  5
64c
100
AcDbEntity
  8
Layer_1
 62
3
100
AcDbSpline
 70
8
 71
3
 72
8
 73
4
 74
0
 40
0
 40
0
 40
0
 40
0
 40
1
 40
1
 40
1
 40
1
 10
274.605714
 20
154.464202
 30
0.0
 10
274.718631
 20
154.351284
 30
0.0
 10
274.851309
 20
154.260951
 30
0.0
 10
275.003747
 20
154.193201
 30
0.0
  0
SPLINE
  5
64d
100
AcDbEntity
  8
Layer_1
 62
3
100
AcDbSpline
 70
8
 71
3
 72
8
 73
4
 74
0
 40
0
 40
0
 40
0
 40
0
 40
1
 40
1
 40
1
 40
1
 10
275.003747
 20
154.193201
 30
0.0
 10
275.161830
 20
154.125452
 30
0.0
 10
275.328383
 20
154.091578
 30
0.0
 10
275.503404
 20
154.091578
 30
0.0
  0
LINE
  5
64e
100
AcDbEntity
  8
Layer_1
 62
3
100
AcDbLine
 10
275.503404
 20
154.091578
 30
0.0
 11
276.350282
 21
154.091578
 31
0.0
  0
LINE
  5
64f
100
AcDbEntity
  8
Layer_1
 62
3
100
AcDbLine
 10
276.350282
 20
154.091578
 30
0.0
 11
276.350282
 21
154.091578
 31
0.0
  0
LINE
  5
650
100
AcDbEntity
  8
Layer_1
 62
5
100
AcDbLine
 10
238.954282
 20
93.224120
 30
0.0
 11
239.318405
 21
89.672686
 31
0.0
  0
LINE
  5
651
100
AcDbEntity
  8
Layer_1
 62
5
100
AcDbLine
 10
239.318405
 20
89.672686
 30
0.0
 11
238.707992
 21
85.357844
 31
0.0
  0
LINE
  5
652
100
AcDbEntity
  8
Layer_1
 62
5
100
AcDbLine
 10
238.707992
 20
85.357844
 30
0.0
 11
235.244112
 21
77.327848
 31
0.0
  0
LINE
  5
653
100
AcDbEntity
  8
Layer_1
 62
5
100
AcDbLine
 10
235.244112
 20
77.327848
 30
0.0
 11
229.922750
 21
77.327848
 31
0.0
  0
LINE
  5
654
100
AcDbEntity
  8
Layer_1
 62
5
100
AcDbLine
 10
229.922750
 20
77.327848
 30
0.0
 11
226.458870
 21
85.357844
 31
0.0
  0
LINE
  5
655
100
AcDbEntity
  8
Layer_1
 62
5
100
AcDbLine
 10
226.458870
 20
85.357844
 30
0.0
 11
225.848457
 21
89.672686
 31
0.0
  0
LINE
  5
656
100
AcDbEntity
  8
Layer_1
 62
5
100
AcDbLine
 10
225.848457
 20
89.672686
 30
0.0
 11
226.212581
 21
93.224120
 31
0.0
  0
LINE
  5
657
100
AcDbEntity
  8
Layer_1
 62
5
100
AcDbLine
 10
226.212581
 20
93.224120
 30
0.0
 11
217.317706
 21
94.792525
 31
0.0
  0
LINE
  5
658
100
AcDbEntity
  8
Layer_1
 62
5
100
AcDbLine
 10
217.317706
 20
94.792525
 30
0.0
 11
216.445202
 21
91.330733
 31
0.0
  0
LINE
  5
659
100
AcDbEntity
  8
Layer_1
 62
5
100
AcDbLine
 10
216.445202
 20
91.330733
 30
0.0
 11
214.395843
 21
87.484883
 31
0.0
  0
LINE
  5
65a
100
AcDbEntity
  8
Layer_1
 62
5
100
AcDbLine
 10
214.395843
 20
87.484883
 30
0.0
 11
208.394438
 21
81.123870
 31
0.0
  0
LINE
  5
65b
100
AcDbEntity
  8
Layer_1
 62
5
100
AcDbLine
 10
208.394438
 20
81.123870
 30
0.0
 11
203.393996
 21
82.943882
 31
0.0
  0
LINE
  5
65c
100
AcDbEntity
  8
Layer_1
 62
5
100
AcDbLine
 10
203.393996
 20
82.943882
 30
0.0
 11
202.885432
 21
91.674328
 31
0.0
  0
LINE
  5
65d
100
AcDbEntity
  8
Layer_1
 62
5
100
AcDbLine
 10
202.885432
 20
91.674328
 30
0.0
 11
203.787594
 21
95.937726
 31
0.0
  0
LINE
  5
65e
100
AcDbEntity
  8
Layer_1
 62
5
100
AcDbLine
 10
203.787594
 20
95.937726
 30
0.0
 11
205.344417
 21
99.150448
 31
0.0
  0
LINE
  5
65f
100
AcDbEntity
  8
Layer_1
 62
5
100
AcDbLine
 10
205.344417
 20
99.150448
 30
0.0
 11
197.522396
 21
103.666495
 31
0.0
  0
LINE
  5
660
100
AcDbEntity
  8
Layer_1
 62
5
100
AcDbLine
 10
197.522396
 20
103.666495
 30
0.0
 11
195.518511
 21
100.711882
 31
0.0
  0
LINE
  5
661
100
AcDbEntity
  8
Layer_1
 62
5
100
AcDbLine
 10
195.518511
 20
100.711882
 30
0.0
 11
192.277381
 21
97.798889
 31
0.0
  0
LINE
  5
662
100
AcDbEntity
  8
Layer_1
 62
5
100
AcDbLine
 10
192.277381
 20
97.798889
 30
0.0
 11
184.462312
 21
93.874095
 31
0.0
  0
LINE
  5
663
100
AcDbEntity
  8
Layer_1
 62
5
100
AcDbLine
 10
184.462312
 20
93.874095
 30
0.0
 11
180.385914
 21
97.294597
 31
0.0
  0
LINE
  5
664
100
AcDbEntity
  8
Layer_1
 62
5
100
AcDbLine
 10
180.385914
 20
97.294597
 30
0.0
 11
182.894008
 21
105.672471
 31
0.0
  0
LINE
  5
665
100
AcDbEntity
  8
Layer_1
 62
5
100
AcDbLine
 10
182.894008
 20
105.672471
 30
0.0
 11
185.199930
 21
109.370198
 31
0.0
  0
LINE
  5
666
100
AcDbEntity
  8
Layer_1
 62
5
100
AcDbLine
 10
185.199930
 20
109.370198
 30
0.0
 11
187.761684
 21
111.856702
 31
0.0
  0
LINE
  5
667
100
AcDbEntity
  8
Layer_1
 62
5
100
AcDbLine
 10
187.761684
 20
111.856702
 30
0.0
 11
181.955967
 21
118.775688
 31
0.0
  0
LINE
  5
668
100
AcDbEntity
  8
Layer_1
 62
5
100
AcDbLine
 10
181.955967
 20
118.775688
 30
0.0
 11
179.062396
 21
116.684633
 31
0.0
  0
LINE
  5
669
100
AcDbEntity
  8
Layer_1
 62
5
100
AcDbLine
 10
179.062396
 20
116.684633
 30
0.0
 11
175.020426
 21
115.055844
 31
0.0
  0
LINE
  5
66a
100
AcDbEntity
  8
Layer_1
 62
5
100
AcDbLine
 10
175.020426
 20
115.055844
 30
0.0
 11
166.334306
 21
114.040657
 31
0.0
  0
LINE
  5
66b
100
AcDbEntity
  8
Layer_1
 62
5
100
AcDbLine
 10
166.334306
 20
114.040657
 30
0.0
 11
163.673625
 21
118.649089
 31
0.0
  0
LINE
  5
66c
100
AcDbEntity
  8
Layer_1
 62
5
100
AcDbLine
 10
163.673625
 20
118.649089
 30
0.0
 11
168.895865
 21
125.663894
 31
0.0
  0
LINE
  5
66d
100
AcDbEntity
  8
Layer_1
 62
5
100
AcDbLine
 10
168.895865
 20
125.663894
 30
0.0
 11
172.327422
 21
128.349947
 31
0.0
  0
LINE
  5
66e
100
AcDbEntity
  8
Layer_1
 62
5
100
AcDbLine
 10
172.327422
 20
128.349947
 30
0.0
 11
175.585116
 21
129.810326
 31
0.0
  0
LINE
  5
66f
100
AcDbEntity
  8
Layer_1
 62
5
100
AcDbLine
 10
175.585116
 20
129.810326
 30
0.0
 11
172.495956
 21
138.297716
 31
0.0
  0
LINE
  5
670
100
AcDbEntity
  8
Layer_1
 62
5
100
AcDbLine
 10
172.495956
 20
138.297716
 30
0.0
 11
169.061707
 21
137.322430
 31
0.0
  0
LINE
  5
671
100
AcDbEntity
  8
Layer_1
 62
5
100
AcDbLine
 10
169.061707
 20
137.322430
 30
0.0
 11
164.706420
 21
137.174305
 31
0.0
  0
LINE
  5
672
100
AcDbEntity
  8
Layer_1
 62
5
100
AcDbLine
 10
164.706420
 20
137.174305
 30
0.0
 11
156.196920
 21
139.191164
 31
0.0
  0
LINE
  5
673
100
AcDbEntity
  8
Layer_1
 62
5
100
AcDbLine
 10
156.196920
 20
139.191164
 30
0.0
 11
155.272876
 21
144.431681
 31
0.0
  0
LINE
  5
674
100
AcDbEntity
  8
Layer_1
 62
5
100
AcDbLine
 10
155.272876
 20
144.431681
 30
0.0
 11
162.579381
 21
149.237333
 31
0.0
  0
LINE
  5
675
100
AcDbEntity
  8
Layer_1
 62
5
100
AcDbLine
 10
162.579381
 20
149.237333
 30
0.0
 11
166.722672
 21
150.587738
 31
0.0
  0
LINE
  5
676
100
AcDbEntity
  8
Layer_1
 62
5
100
AcDbLine
 10
166.722672
 20
150.587738
 30
0.0
 11
170.283382
 21
150.845847
 31
0.0
  0
LINE
  5
677
100
AcDbEntity
  8
Layer_1
 62
5
100
AcDbLine
 10
170.283382
 20
150.845847
 30
0.0
 11
170.283382
 21
159.877941
 31
0.0
  0
LINE
  5
678
100
AcDbEntity
  8
Layer_1
 62
5
100
AcDbLine
 10
170.283382
 20
159.877941
 30
0.0
 11
166.722672
 21
160.136050
 31
0.0
  0
LINE
  5
679
100
AcDbEntity
  8
Layer_1
 62
5
100
AcDbLine
 10
166.722672
 20
160.136050
 30
0.0
 11
162.579381
 21
161.486455
 31
0.0
  0
LINE
  5
67a
100
AcDbEntity
  8
Layer_1
 62
5
100
AcDbLine
 10
162.579381
 20
161.486455
 30
0.0
 11
155.272876
 21
166.292107
 31
0.0
  0
LINE
  5
67b
100
AcDbEntity
  8
Layer_1
 62
5
100
AcDbLine
 10
155.272876
 20
166.292107
 30
0.0
 11
156.196920
 21
171.532624
 31
0.0
  0
LINE
  5
67c
100
AcDbEntity
  8
Layer_1
 62
5
100
AcDbLine
 10
156.196920
 20
171.532624
 30
0.0
 11
164.706420
 21
173.549483
 31
0.0
  0
LINE
  5
67d
100
AcDbEntity
  8
Layer_1
 62
5
100
AcDbLine
 10
164.706420
 20
173.549483
 30
0.0
 11
169.061707
 21
173.401358
 31
0.0
  0
LINE
  5
67e
100
AcDbEntity
  8
Layer_1
 62
5
100
AcDbLine
 10
169.061707
 20
173.401358
 30
0.0
 11
172.495956
 21
172.426072
 31
0.0
  0
LINE
  5
67f
100
AcDbEntity
  8
Layer_1
 62
5
100
AcDbLine
 10
172.495956
 20
172.426072
 30
0.0
 11
175.585116
 21
180.913462
 31
0.0
  0
LINE
  5
680
100
AcDbEntity
  8
Layer_1
 62
5
100
AcDbLine
 10
175.585116
 20
180.913462
 30
0.0
 11
172.327422
 21
182.373841
 31
0.0
  0
LINE
  5
681
100
AcDbEntity
  8
Layer_1
 62
5
100
AcDbLine
 10
172.327422
 20
182.373841
 30
0.0
 11
168.895865
 21
185.059894
 31
0.0
  0
LINE
  5
682
100
AcDbEntity
  8
Layer_1
 62
5
100
AcDbLine
 10
168.895865
 20
185.059894
 30
0.0
 11
163.673625
 21
192.074699
 31
0.0
  0
LINE
  5
683
100
AcDbEntity
  8
Layer_1
 62
5
100
AcDbLine
 10
163.673625
 20
192.074699
 30
0.0
 11
166.334306
 21
196.683132
 31
0.0
  0
LINE
  5
684
100
AcDbEntity
  8
Layer_1
 62
5
100
AcDbLine
 10
166.334306
 20
196.683132
 30
0.0
 11
175.020426
 21
195.667944
 31
0.0
  0
LINE
  5
685
100
AcDbEntity
  8
Layer_1
 62
5
100
AcDbLine
 10
175.020426
 20
195.667944
 30
0.0
 11
179.062396
 21
194.039155
 31
0.0
  0
LINE
  5
686
100
AcDbEntity
  8
Layer_1
 62
5
100
AcDbLine
 10
179.062396
 20
194.039155
 30
0.0
 11
181.955967
 21
191.948100
 31
0.0
  0
LINE
  5
687
100
AcDbEntity
  8
Layer_1
 62
5
100
AcDbLine
 10
181.955967
 20
191.948100
 30
0.0
 11
187.761684
 21
198.867086
 31
0.0
  0
LINE
  5
688
100
AcDbEntity
  8
Layer_1
 62
5
100
AcDbLine
 10
187.761684
 20
198.867086
 30
0.0
 11
185.199930
 21
201.353591
 31
0.0
  0
LINE
  5
689
100
AcDbEntity
  8
Layer_1
 62
5
100
AcDbLine
 10
185.199930
 20
201.353591
 30
0.0
 11
182.894008
 21
205.051317
 31
0.0
  0
LINE
  5
68a
100
AcDbEntity
  8
Layer_1
 62
5
100
AcDbLine
 10
182.894008
 20
205.051317
 30
0.0
 11
180.385914
 21
213.429191
 31
0.0
  0
LINE
  5
68b
100
AcDbEntity
  8
Layer_1
 62
5
100
AcDbLine
 10
180.385914
 20
213.429191
 30
0.0
 11
184.462312
 21
216.849693
 31
0.0
  0
LINE
  5
68c
100
AcDbEntity
  8
Layer_1
 62
5
100
AcDbLine
 10
184.462312
 20
216.849693
 30
0.0
 11
192.277381
 21
212.924899
 31
0.0
  0
LINE
  5
68d
100
AcDbEntity
  8
Layer_1
 62
5
100
AcDbLine
 10
192.277381
 20
212.924899
 30
0.0
 11
195.518511
 21
210.011906
 31
0.0
  0
LINE
  5
68e
100
AcDbEntity
  8
Layer_1
 62
5
100
AcDbLine
 10
195.518511
 20
210.011906
 30
0.0
 11
197.522396
 21
207.057293
 31
0.0
  0
LINE
  5
68f
100
AcDbEntity
  8
Layer_1
 62
5
100
AcDbLine
 10
197.522396
 20
207.057293
 30
0.0
 11
205.344417
 21
211.573340
 31
0.0
  0
LINE
  5
690
100
AcDbEntity
  8
Layer_1
 62
5
100
AcDbLine
 10
205.344417
 20
211.573340
 30
0.0
 11
203.787594
 21
214.786062
 31
0.0
  0
LINE
  5
691
100
AcDbEntity
  8
Layer_1
 62
5
100
AcDbLine
 10
203.787594
 20
214.786062
 30
0.0
 11
202.885432
 21
219.049461
 31
0.0
  0
LINE
  5
692
100
AcDbEntity
  8
Layer_1
 62
5
100
AcDbLine
 10
202.885432
 20
219.049461
 30
0.0
 11
203.393996
 21
227.779906
 31
0.0
  0
LINE
  5
693
100
AcDbEntity
  8
Layer_1
 62
5
100
AcDbLine
 10
203.393996
 20
227.779906
 30
0.0
 11
208.394438
 21
229.599918
 31
0.0
  0
LINE
  5
694
100
AcDbEntity
  8
Layer_1
 62
5
100
AcDbLine
 10
208.394438
 20
229.599918
 30
0.0
 11
214.395843
 21
223.238906
 31
0.0
  0
LINE
  5
695
100
AcDbEntity
  8
Layer_1
 62
5
100
AcDbLine
 10
214.395843
 20
223.238906
 30
0.0
 11
216.445202
 21
219.393055
 31
0.0
  0
LINE
  5
696
100
AcDbEntity
  8
Layer_1
 62
5
100
AcDbLine
 10
216.445202
 20
219.393055
 30
0.0
 11
217.317706
 21
215.931263
 31
0.0
  0
LINE
  5
697
100
AcDbEntity
  8
Layer_1
 62
5
100
AcDbLine
 10
217.317706
 20
215.931263
 30
0.0
 11
226.212581
 21
217.499668
 31
0.0
  0
LINE
  5
698
100
AcDbEntity
  8
Layer_1
 62
5
100
AcDbLine
 10
226.212581
 20
217.499668
 30
0.0
 11
225.848457
 21
221.051102
 31
0.0
  0
LINE
  5
699
100
AcDbEntity
  8
Layer_1
 62
5
100
AcDbLine
 10
225.848457
 20
221.051102
 30
0.0
 11
226.458870
 21
225.365944
 31
0.0
  0
LINE
  5
69a
100
AcDbEntity
  8
Layer_1
 62
5
100
AcDbLine
 10
226.458870
 20
225.365944
 30
0.0
 11
229.922750
 21
233.395940
 31
0.0
  0
LINE
  5
69b
100
AcDbEntity
  8
Layer_1
 62
5
100
AcDbLine
 10
229.922750
 20
233.395940
 30
0.0
 11
235.244112
 21
233.395940
 31
0.0
  0
LINE
  5
69c
100
AcDbEntity
  8
Layer_1
 62
5
100
AcDbLine
 10
235.244112
 20
233.395940
 30
0.0
 11
238.707992
 21
225.365944
 31
0.0
  0
LINE
  5
69d
100
AcDbEntity
  8
Layer_1
 62
5
100
AcDbLine
 10
238.707992
 20
225.365944
 30
0.0
 11
239.318405
 21
221.051102
 31
0.0
  0
LINE
  5
69e
100
AcDbEntity
  8
Layer_1
 62
5
100
AcDbLine
 10
239.318405
 20
221.051102
 30
0.0
 11
238.954282
 21
217.499668
 31
0.0
  0
LINE
  5
69f
100
AcDbEntity
  8
Layer_1
 62
5
100
AcDbLine
 10
238.954282
 20
217.499668
 30
0.0
 11
247.849156
 21
215.931263
 31
0.0
  0
LINE
  5
6a0
100
AcDbEntity
  8
Layer_1
 62
5
100
AcDbLine
 10
247.849156
 20
215.931263
 30
0.0
 11
248.721660
 21
219.393055
 31
0.0
  0
LINE
  5
6a1
100
AcDbEntity
  8
Layer_1
 62
5
100
AcDbLine
 10
248.721660
 20
219.393055
 30
0.0
 11
250.771020
 21
223.238906
 31
0.0
  0
LINE
  5
6a2
100
AcDbEntity
  8
Layer_1
 62
5
100
AcDbLine
 10
250.771020
 20
223.238906
 30
0.0
 11
256.772425
 21
229.599918
 31
0.0
  0
LINE
  5
6a3
100
AcDbEntity
  8
Layer_1
 62
5
100
AcDbLine
 10
256.772425
 20
229.599918
 30
0.0
 11
261.772866
 21
227.779906
 31
0.0
  0
LINE
  5
6a4
100
AcDbEntity
  8
Layer_1
 62
5
100
AcDbLine
 10
261.772866
 20
227.779906
 30
0.0
 11
262.281431
 21
219.049461
 31
0.0
  0
LINE
  5
6a5
100
AcDbEntity
  8
Layer_1
 62
5
100
AcDbLine
 10
262.281431
 20
219.049461
 30
0.0
 11
261.379268
 21
214.786062
 31
0.0
  0
LINE
  5
6a6
100
AcDbEntity
  8
Layer_1
 62
5
100
AcDbLine
 10
261.379268
 20
214.786062
 30
0.0
 11
259.822446
 21
211.573340
 31
0.0
  0
LINE
  5
6a7
100
AcDbEntity
  8
Layer_1
 62
5
100
AcDbLine
 10
259.822446
 20
211.573340
 30
0.0
 11
267.644466
 21
207.057293
 31
0.0
  0
LINE
  5
6a8
100
AcDbEntity
  8
Layer_1
 62
5
100
AcDbLine
 10
267.644466
 20
207.057293
 30
0.0
 11
269.648351
 21
210.011906
 31
0.0
  0
LINE
  5
6a9
100
AcDbEntity
  8
Layer_1
 62
5
100
AcDbLine
 10
269.648351
 20
210.011906
 30
0.0
 11
272.889481
 21
212.924899
 31
0.0
  0
LINE
  5
6aa
100
AcDbEntity
  8
Layer_1
 62
5
100
AcDbLine
 10
272.889481
 20
212.924899
 30
0.0
 11
280.704551
 21
216.849693
 31
0.0
  0
LINE
  5
6ab
100
AcDbEntity
  8
Layer_1
 62
5
100
AcDbLine
 10
280.704551
 20
216.849693
 30
0.0
 11
284.780949
 21
213.429191
 31
0.0
  0
LINE
  5
6ac
100
AcDbEntity
  8
Layer_1
 62
5
100
AcDbLine
 10
284.780949
 20
213.429191
 30
0.0
 11
282.272854
 21
205.051317
 31
0.0
  0
LINE
  5
6ad
100
AcDbEntity
  8
Layer_1
 62
5
100
AcDbLine
 10
282.272854
 20
205.051317
 30
0.0
 11
279.966932
 21
201.353591
 31
0.0
  0
LINE
  5
6ae
100
AcDbEntity
  8
Layer_1
 62
5
100
AcDbLine
 10
279.966932
 20
201.353591
 30
0.0
 11
277.405178
 21
198.867086
 31
0.0
  0
LINE
  5
6af
100
AcDbEntity
  8
Layer_1
 62
5
100
AcDbLine
 10
277.405178
 20
198.867086
 30
0.0
 11
283.210896
 21
191.948100
 31
0.0
  0
LINE
  5
6b0
100
AcDbEntity
  8
Layer_1
 62
5
100
AcDbLine
 10
283.210896
 20
191.948100
 30
0.0
 11
286.104467
 21
194.039155
 31
0.0
  0
LINE
  5
6b1
100
AcDbEntity
  8
Layer_1
 62
5
100
AcDbLine
 10
286.104467
 20
194.039155
 30
0.0
 11
290.146437
 21
195.667944
 31
0.0
  0
LINE
  5
6b2
100
AcDbEntity
  8
Layer_1
 62
5
100
AcDbLine
 10
290.146437
 20
195.667944
 30
0.0
 11
298.832557
 21
196.683132
 31
0.0
  0
LINE
  5
6b3
100
AcDbEntity
  8
Layer_1
 62
5
100
AcDbLine
 10
298.832557
 20
196.683132
 30
0.0
 11
301.493238
 21
192.074699
 31
0.0
  0
LINE
  5
6b4
100
AcDbEntity
  8
Layer_1
 62
5
100
AcDbLine
 10
301.493238
 20
192.074699
 30
0.0
 11
296.270998
 21
185.059894
 31
0.0
  0
LINE
  5
6b5
100
AcDbEntity
  8
Layer_1
 62
5
100
AcDbLine
 10
296.270998
 20
185.059894
 30
0.0
 11
292.839441
 21
182.373841
 31
0.0
  0
LINE
  5
6b6
100
AcDbEntity
  8
Layer_1
 62
5
100
AcDbLine
 10
292.839441
 20
182.373841
 30
0.0
 11
289.581747
 21
180.913462
 31
0.0
  0
LINE
  5
6b7
100
AcDbEntity
  8
Layer_1
 62
5
100
AcDbLine
 10
289.581747
 20
180.913462
 30
0.0
 11
292.670906
 21
172.426072
 31
0.0
  0
LINE
  5
6b8
100
AcDbEntity
  8
Layer_1
 62
5
100
AcDbLine
 10
292.670906
 20
172.426072
 30
0.0
 11
296.105155
 21
173.401358
 31
0.0
  0
LINE
  5
6b9
100
AcDbEntity
  8
Layer_1
 62
5
100
AcDbLine
 10
296.105155
 20
173.401358
 30
0.0
 11
300.460443
 21
173.549483
 31
0.0
  0
LINE
  5
6ba
100
AcDbEntity
  8
Layer_1
 62
5
100
AcDbLine
 10
300.460443
 20
173.549483
 30
0.0
 11
308.969942
 21
171.532624
 31
0.0
  0
LINE
  5
6bb
100
AcDbEntity
  8
Layer_1
 62
5
100
AcDbLine
 10
308.969942
 20
171.532624
 30
0.0
 11
309.893986
 21
166.292107
 31
0.0
  0
LINE
  5
6bc
100
AcDbEntity
  8
Layer_1
 62
5
100
AcDbLine
 10
309.893986
 20
166.292107
 30
0.0
 11
302.587481
 21
161.486455
 31
0.0
  0
LINE
  5
6bd
100
AcDbEntity
  8
Layer_1
 62
5
100
AcDbLine
 10
302.587481
 20
161.486455
 30
0.0
 11
298.444191
 21
160.136050
 31
0.0
  0
LINE
  5
6be
100
AcDbEntity
  8
Layer_1
 62
5
100
AcDbLine
 10
298.444191
 20
160.136050
 30
0.0
 11
294.883480
 21
159.877941
 31
0.0
  0
LINE
  5
6bf
100
AcDbEntity
  8
Layer_1
 62
5
100
AcDbLine
 10
294.883480
 20
159.877941
 30
0.0
 11
294.883480
 21
150.845847
 31
0.0
  0
LINE
  5
6c0
100
AcDbEntity
  8
Layer_1
 62
5
100
AcDbLine
 10
294.883480
 20
150.845847
 30
0.0
 11
298.444191
 21
150.587738
 31
0.0
  0
LINE
  5
6c1
100
AcDbEntity
  8
Layer_1
 62
5
100
AcDbLine
 10
298.444191
 20
150.587738
 30
0.0
 11
302.587481
 21
149.237333
 31
0.0
  0
LINE
  5
6c2
100
AcDbEntity
  8
Layer_1
 62
5
100
AcDbLine
 10
302.587481
 20
149.237333
 30
0.0
 11
309.893986
 21
144.431681
 31
0.0
  0
LINE
  5
6c3
100
AcDbEntity
  8
Layer_1
 62
5
100
AcDbLine
 10
309.893986
 20
144.431681
 30
0.0
 11
308.969942
 21
139.191164
 31
0.0
  0
LINE
  5
6c4
100
AcDbEntity
  8
Layer_1
 62
5
100
AcDbLine
 10
308.969942
 20
139.191164
 30
0.0
 11
300.460443
 21
137.174305
 31
0.0
  0
LINE
  5
6c5
100
AcDbEntity
  8
Layer_1
 62
5
100
AcDbLine
 10
300.460443
 20
137.174305
 30
0.0
 11
296.105155
 21
137.322430
 31
0.0
  0
LINE
  5
6c6
100
AcDbEntity
  8
Layer_1
 62
5
100
AcDbLine
 10
296.105155
 20
137.322430
 30
0.0
 11
292.670906
 21
138.297716
 31
0.0
  0
LINE
  5
6c7
100
AcDbEntity
  8
Layer_1
 62
5
100
AcDbLine
 10
292.670906
 20
138.297716
 30
0.0
 11
289.581747
 21
129.810326
 31
0.0
  0
LINE
  5
6c8
100
AcDbEntity
  8
Layer_1
 62
5
100
AcDbLine
 10
289.581747
 20
129.810326
 30
0.0
 11
292.839441
 21
128.349947
 31
0.0
  0
LINE
  5
6c9
100
AcDbEntity
  8
Layer_1
 62
5
100
AcDbLine
 10
292.839441
 20
128.349947
 30
0.0
 11
296.270998
 21
125.663894
 31
0.0
  0
LINE
  5
6ca
100
AcDbEntity
  8
Layer_1
 62
5
100
AcDbLine
 10
296.270998
 20
125.663894
 30
0.0
 11
301.493238
 21
118.649089
 31
0.0
  0
LINE
  5
6cb
100
AcDbEntity
  8
Layer_1
 62
5
100
AcDbLine
 10
301.493238
 20
118.649089
 30
0.0
 11
298.832557
 21
114.040657
 31
0.0
  0
LINE
  5
6cc
100
AcDbEntity
  8
Layer_1
 62
5
100
AcDbLine
 10
298.832557
 20
114.040657
 30
0.0
 11
290.146437
 21
115.055844
 31
0.0
  0
LINE
  5
6cd
100
AcDbEntity
  8
Layer_1
 62
5
100
AcDbLine
 10
290.146437
 20
115.055844
 30
0.0
 11
286.104467
 21
116.684633
 31
0.0
  0
LINE
  5
6ce
100
AcDbEntity
  8
Layer_1
 62
5
100
AcDbLine
 10
286.104467
 20
116.684633
 30
0.0
 11
283.210896
 21
118.775688
 31
0.0
  0
LINE
  5
6cf
100
AcDbEntity
  8
Layer_1
 62
5
100
AcDbLine
 10
283.210896
 20
118.775688
 30
0.0
 11
277.405178
 21
111.856702
 31
0.0
  0
LINE
  5
6d0
100
AcDbEntity
  8
Layer_1
 62
5
100
AcDbLine
 10
277.405178
 20
111.856702
 30
0.0
 11
279.966932
 21
109.370198
 31
0.0
  0
LINE
  5
6d1
100
AcDbEntity
  8
Layer_1
 62
5
100
AcDbLine
 10
279.966932
 20
109.370198
 30
0.0
 11
282.272854
 21
105.672471
 31
0.0
  0
LINE
  5
6d2
100
AcDbEntity
  8
Layer_1
 62
5
100
AcDbLine
 10
282.272854
 20
105.672471
 30
0.0
 11
284.780949
 21
97.294597
 31
0.0
  0
LINE
  5
6d3
100
AcDbEntity
  8
Layer_1
 62
5
100
AcDbLine
 10
284.780949
 20
97.294597
 30
0.0
 11
280.704551
 21
93.874095
 31
0.0
  0
LINE
  5
6d4
100
AcDbEntity
  8
Layer_1
 62
5
100
AcDbLine
 10
280.704551
 20
93.874095
 30
0.0
 11
272.889481
 21
97.798889
 31
0.0
  0
LINE
  5
6d5
100
AcDbEntity
  8
Layer_1
 62
5
100
AcDbLine
 10
272.889481
 20
97.798889
 30
0.0
 11
269.648351
 21
100.711882
 31
0.0
  0
LINE
  5
6d6
100
AcDbEntity
  8
Layer_1
 62
5
100
AcDbLine
 10
269.648351
 20
100.711882
 30
0.0
 11
267.644466
 21
103.666495
 31
0.0
  0
LINE
  5
6d7
100
AcDbEntity
  8
Layer_1
 62
5
100
AcDbLine
 10
267.644466
 20
103.666495
 30
0.0
 11
259.822446
 21
99.150448
 31
0.0
  0
LINE
  5
6d8
100
AcDbEntity
  8
Layer_1
 62
5
100
AcDbLine
 10
259.822446
 20
99.150448
 30
0.0
 11
261.379268
 21
95.937726
 31
0.0
  0
LINE
  5
6d9
100
AcDbEntity
  8
Layer_1
 62
5
100
AcDbLine
 10
261.379268
 20
95.937726
 30
0.0
 11
262.281431
 21
91.674328
 31
0.0
  0
LINE
  5
6da
100
AcDbEntity
  8
Layer_1
 62
5
100
AcDbLine
 10
262.281431
 20
91.674328
 30
0.0
 11
261.772866
 21
82.943882
 31
0.0
  0
LINE
  5
6db
100
AcDbEntity
  8
Layer_1
 62
5
100
AcDbLine
 10
261.772866
 20
82.943882
 30
0.0
 11
256.772425
 21
81.123870
 31
0.0
  0
LINE
  5
6dc
100
AcDbEntity
  8
Layer_1
 62
5
100
AcDbLine
 10
256.772425
 20
81.123870
 30
0.0
 11
250.771020
 21
87.484883
 31
0.0
  0
LINE
  5
6dd
100
AcDbEntity
  8
Layer_1
 62
5
100
AcDbLine
 10
250.771020
 20
87.484883
 30
0.0
 11
248.721660
 21
91.330733
 31
0.0
  0
LINE
  5
6de
100
AcDbEntity
  8
Layer_1
 62
5
100
AcDbLine
 10
248.721660
 20
91.330733
 30
0.0
 11
247.849156
 21
94.792525
 31
0.0
  0
LINE
  5
6df
100
AcDbEntity
  8
Layer_1
 62
5
100
AcDbLine
 10
247.849156
 20
94.792525
 30
0.0
 11
238.954282
 21
93.224120
 31
0.0
  0
SPLINE
  5
6e0
100
AcDbEntity
  8
Layer_1
 62
5
100
AcDbSpline
 70
8
 71
3
 72
8
 73
4
 74
0
 40
0
 40
0
 40
0
 40
0
 40
1
 40
1
 40
1
 40
1
 10
251.868190
 20
164.684016
 30
0.0
 10
246.483627
 20
164.684016
 30
0.0
 10
242.118577
 20
169.049068
 30
0.0
 10
242.118577
 20
174.433628
 30
0.0
  0
LINE
  5
6e1
100
AcDbEntity
  8
Layer_1
 62
5
100
AcDbLine
 10
242.118577
 20
174.433628
 30
0.0
 11
242.019678
 21
188.180193
 31
0.0
  0
SPLINE
  5
6e2
100
AcDbEntity
  8
Layer_1
 62
5
100
AcDbSpline
 70
8
 71
3
 72
8
 73
4
 74
0
 40
0
 40
0
 40
0
 40
0
 40
1
 40
1
 40
1
 40
1
 10
242.019678
 20
188.180193
 30
0.0
 10
242.019678
 20
193.564757
 30
0.0
 10
246.384728
 20
197.929809
 30
0.0
 10
251.769291
 20
197.929809
 30
0.0
  0
SPLINE
  5
6e3
100
AcDbEntity
  8
Layer_1
 62
5
100
AcDbSpline
 70
8
 71
3
 72
8
 73
4
 74
0
 40
0
 40
0
 40
0
 40
0
 40
1
 40
1
 40
1
 40
1
 10
251.769291
 20
197.929809
 30
0.0
 10
253.652526
 20
197.929809
 30
0.0
 10
255.411052
 20
197.395861
 30
0.0
 10
256.867937
 20
196.531657
 30
0.0
  0
SPLINE
  5
6e4
100
AcDbEntity
  8
Layer_1
 62
5
100
AcDbSpline
 70
8
 71
3
 72
8
 73
4
 74
0
 40
0
 40
0
 40
0
 40
0
 40
1
 40
1
 40
1
 40
1
 10
256.867937
 20
196.531657
 30
0.0
 10
263.764952
 20
192.506875
 30
0.0
 10
269.575490
 20
186.723791
 30
0.0
 10
273.686974
 20
179.861070
 30
0.0
  0
SPLINE
  5
6e5
100
AcDbEntity
  8
Layer_1
 62
5
100
AcDbSpline
 70
8
 71
3
 72
8
 73
4
 74
0
 40
0
 40
0
 40
0
 40
0
 40
1
 40
1
 40
1
 40
1
 10
273.686974
 20
179.861070
 30
0.0
 10
274.621922
 20
178.407140
 30
0.0
 10
275.166575
 20
176.632332
 30
0.0
 10
275.166575
 20
174.730315
 30
0.0
  0
SPLINE
  5
6e6
100
AcDbEntity
  8
Layer_1
 62
5
100
AcDbSpline
 70
8
 71
3
 72
8
 73
4
 74
0
 40
0
 40
0
 40
0
 40
0
 40
1
 40
1
 40
1
 40
1
 10
275.166575
 20
174.730315
 30
0.0
 10
275.166575
 20
169.345754
 30
0.0
 10
270.801522
 20
164.980702
 30
0.0
 10
265.416962
 20
164.980702
 30
0.0
  0
LINE
  5
6e7
100
AcDbEntity
  8
Layer_1
 62
5
100
AcDbLine
 10
265.416962
 20
164.980702
 30
0.0
 11
251.868190
 21
164.684016
 31
0.0
  0
SPLINE
  5
6e8
100
AcDbEntity
  8
Layer_1
 62
5
100
AcDbSpline
 70
8
 71
3
 72
8
 73
4
 74
0
 40
0
 40
0
 40
0
 40
0
 40
1
 40
1
 40
1
 40
1
 10
241.970227
 20
135.963013
 30
0.0
 10
241.970227
 20
141.347576
 30
0.0
 10
246.335279
 20
145.712626
 30
0.0
 10
251.719840
 20
145.712626
 30
0.0
  0
LINE
  5
6e9
100
AcDbEntity
  8
Layer_1
 62
5
100
AcDbLine
 10
251.719840
 20
145.712626
 30
0.0
 11
265.466405
 21
145.811525
 31
0.0
  0
SPLINE
  5
6ea
100
AcDbEntity
  8
Layer_1
 62
5
100
AcDbSpline
 70
8
 71
3
 72
8
 73
4
 74
0
 40
0
 40
0
 40
0
 40
0
 40
1
 40
1
 40
1
 40
1
 10
265.466405
 20
145.811525
 30
0.0
 10
270.850968
 20
145.811525
 30
0.0
 10
275.216017
 20
141.446473
 30
0.0
 10
275.216017
 20
136.061912
 30
0.0
  0
SPLINE
  5
6eb
100
AcDbEntity
  8
Layer_1
 62
5
100
AcDbSpline
 70
8
 71
3
 72
8
 73
4
 74
0
 40
0
 40
0
 40
0
 40
0
 40
1
 40
1
 40
1
 40
1
 10
275.216017
 20
136.061912
 30
0.0
 10
275.216017
 20
134.178677
 30
0.0
 10
274.682070
 20
132.420151
 30
0.0
 10
273.817868
 20
130.963266
 30
0.0
  0
SPLINE
  5
6ec
100
AcDbEntity
  8
Layer_1
 62
5
100
AcDbSpline
 70
8
 71
3
 72
8
 73
4
 74
0
 40
0
 40
0
 40
0
 40
0
 40
1
 40
1
 40
1
 40
1
 10
273.817868
 20
130.963266
 30
0.0
 10
269.793086
 20
124.066251
 30
0.0
 10
264.010003
 20
118.255713
 30
0.0
 10
257.147281
 20
114.144229
 30
0.0
  0
SPLINE
  5
6ed
100
AcDbEntity
  8
Layer_1
 62
5
100
AcDbSpline
 70
8
 71
3
 72
8
 73
4
 74
0
 40
0
 40
0
 40
0
 40
0
 40
1
 40
1
 40
1
 40
1
 10
257.147281
 20
114.144229
 30
0.0
 10
255.693351
 20
113.209281
 30
0.0
 10
253.918540
 20
112.664628
 30
0.0
 10
252.016526
 20
112.664628
 30
0.0
  0
SPLINE
  5
6ee
100
AcDbEntity
  8
Layer_1
 62
5
100
AcDbSpline
 70
8
 71
3
 72
8
 73
4
 74
0
 40
0
 40
0
 40
0
 40
0
 40
1
 40
1
 40
1
 40
1
 10
252.016526
 20
112.664628
 30
0.0
 10
246.631966
 20
112.664628
 30
0.0
 10
242.266913
 20
117.029681
 30
0.0
 10
242.266913
 20
122.414241
 30
0.0
  0
LINE
  5
6ef
100
AcDbEntity
  8
Layer_1
 62
5
100
AcDbLine
 10
242.266913
 20
122.414241
 30
0.0
 11
241.970227
 21
135.963013
 31
0.0
  0
SPLINE
  5
6f0
100
AcDbEntity
  8
Layer_1
 62
5
100
AcDbSpline
 70
8
 71
3
 72
8
 73
4
 74
0
 40
0
 40
0
 40
0
 40
0
 40
1
 40
1
 40
1
 40
1
 10
213.199779
 20
145.860973
 30
0.0
 10
218.584342
 20
145.860973
 30
0.0
 10
222.949392
 20
141.495921
 30
0.0
 10
222.949392
 20
136.111361
 30
0.0
  0
LINE
  5
6f1
100
AcDbEntity
  8
Layer_1
 62
5
100
AcDbLine
 10
222.949392
 20
136.111361
 30
0.0
 11
223.048291
 21
122.364796
 31
0.0
  0
SPLINE
  5
6f2
100
AcDbEntity
  8
Layer_1
 62
5
100
AcDbSpline
 70
8
 71
3
 72
8
 73
4
 74
0
 40
0
 40
0
 40
0
 40
0
 40
1
 40
1
 40
1
 40
1
 10
223.048291
 20
122.364796
 30
0.0
 10
223.048291
 20
116.980233
 30
0.0
 10
218.683241
 20
112.615180
 30
0.0
 10
213.298678
 20
112.615180
 30
0.0
  0
SPLINE
  5
6f3
100
AcDbEntity
  8
Layer_1
 62
5
100
AcDbSpline
 70
8
 71
3
 72
8
 73
4
 74
0
 40
0
 40
0
 40
0
 40
0
 40
1
 40
1
 40
1
 40
1
 10
213.298678
 20
112.615180
 30
0.0
 10
211.415443
 20
112.615180
 30
0.0
 10
209.656917
 20
113.149128
 30
0.0
 10
208.200032
 20
114.013332
 30
0.0
  0
SPLINE
  5
6f4
100
AcDbEntity
  8
Layer_1
 62
5
100
AcDbSpline
 70
8
 71
3
 72
8
 73
4
 74
0
 40
0
 40
0
 40
0
 40
0
 40
1
 40
1
 40
1
 40
1
 10
208.200032
 20
114.013332
 30
0.0
 10
201.303017
 20
118.038114
 30
0.0
 10
195.492479
 20
123.821198
 30
0.0
 10
191.380995
 20
130.683919
 30
0.0
  0
SPLINE
  5
6f5
100
AcDbEntity
  8
Layer_1
 62
5
100
AcDbSpline
 70
8
 71
3
 72
8
 73
4
 74
0
 40
0
 40
0
 40
0
 40
0
 40
1
 40
1
 40
1
 40
1
 10
191.380995
 20
130.683919
 30
0.0
 10
190.446047
 20
132.137849
 30
0.0
 10
189.901394
 20
133.912658
 30
0.0
 10
189.901394
 20
135.814674
 30
0.0
  0
SPLINE
  5
6f6
100
AcDbEntity
  8
Layer_1
 62
5
100
AcDbSpline
 70
8
 71
3
 72
8
 73
4
 74
0
 40
0
 40
0
 40
0
 40
0
 40
1
 40
1
 40
1
 40
1
 10
189.901394
 20
135.814674
 30
0.0
 10
189.901394
 20
141.199235
 30
0.0
 10
194.266447
 20
145.564287
 30
0.0
 10
199.651007
 20
145.564287
 30
0.0
  0
LINE
  5
6f7
100
AcDbEntity
  8
Layer_1
 62
5
100
AcDbLine
 10
199.651007
 20
145.564287
 30
0.0
 11
213.199779
 21
145.860973
 31
0.0
  0
SPLINE
  5
6f8
100
AcDbEntity
  8
Layer_1
 62
5
100
AcDbSpline
 70
8
 71
3
 72
8
 73
4
 74
0
 40
0
 40
0
 40
0
 40
0
 40
1
 40
1
 40
1
 40
1
 10
223.097736
 20
174.730317
 30
0.0
 10
223.097736
 20
169.345757
 30
0.0
 10
218.732684
 20
164.980705
 30
0.0
 10
213.348124
 20
164.980705
 30
0.0
  0
LINE
  5
6f9
100
AcDbEntity
  8
Layer_1
 62
5
100
AcDbLine
 10
213.348124
 20
164.980705
 30
0.0
 11
199.601559
 21
164.881806
 31
0.0
  0
SPLINE
  5
6fa
100
AcDbEntity
  8
Layer_1
 62
5
100
AcDbSpline
 70
8
 71
3
 72
8
 73
4
 74
0
 40
0
 40
0
 40
0
 40
0
 40
1
 40
1
 40
1
 40
1
 10
199.601559
 20
164.881806
 30
0.0
 10
194.216996
 20
164.881806
 30
0.0
 10
189.851946
 20
169.246858
 30
0.0
 10
189.851946
 20
174.631421
 30
0.0
  0
SPLINE
  5
6fb
100
AcDbEntity
  8
Layer_1
 62
5
100
AcDbSpline
 70
8
 71
3
 72
8
 73
4
 74
0
 40
0
 40
0
 40
0
 40
0
 40
1
 40
1
 40
1
 40
1
 10
189.851946
 20
174.631421
 30
0.0
 10
189.851946
 20
176.514656
 30
0.0
 10
190.385894
 20
178.273180
 30
0.0
 10
191.250095
 20
179.730068
 30
0.0
  0
SPLINE
  5
6fc
100
AcDbEntity
  8
Layer_1
 62
5
100
AcDbSpline
 70
8
 71
3
 72
8
 73
4
 74
0
 40
0
 40
0
 40
0
 40
0
 40
1
 40
1
 40
1
 40
1
 10
191.250095
 20
179.730068
 30
0.0
 10
195.274877
 20
186.627079
 30
0.0
 10
201.057961
 20
192.437620
 30
0.0
 10
207.920683
 20
196.549101
 30
0.0
  0
SPLINE
  5
6fd
100
AcDbEntity
  8
Layer_1
 62
5
100
AcDbSpline
 70
8
 71
3
 72
8
 73
4
 74
0
 40
0
 40
0
 40
0
 40
0
 40
1
 40
1
 40
1
 40
1
 10
207.920683
 20
196.549101
 30
0.0
 10
209.374612
 20
197.484053
 30
0.0
 10
211.149423
 20
198.028702
 30
0.0
 10
213.051438
 20
198.028702
 30
0.0
  0
SPLINE
  5
6fe
100
AcDbEntity
  8
Layer_1
 62
5
100
AcDbSpline
 70
8
 71
3
 72
8
 73
4
 74
0
 40
0
 40
0
 40
0
 40
0
 40
1
 40
1
 40
1
 40
1
 10
213.051438
 20
198.028702
 30
0.0
 10
218.435998
 20
198.028702
 30
0.0
 10
222.801050
 20
193.663653
 30
0.0
 10
222.801050
 20
188.279090
 30
0.0
  0
LINE
  5
6ff
100
AcDbEntity
  8
Layer_1
 62
5
100
AcDbLine
 10
222.801050
 20
188.279090
 30
0.0
 11
223.097736
 21
174.730317
 31
0.0
  0
LINE
  5
700
100
AcDbEntity
  8
Layer_1
 62
1
100
AcDbLine
 10
231.084758
 20
169.024351
 30
0.0
 11
231.084758
 21
156.862889
 31
0.0
  0
LINE
  5
701
100
AcDbEntity
  8
Layer_1
 62
1
100
AcDbLine
 10
231.084758
 20
156.862889
 30
0.0
 11
218.921092
 21
156.862889
 31
0.0
  0
LINE
  5
702
100
AcDbEntity
  8
Layer_1
 62
1
100
AcDbLine
 10
218.921092
 20
156.862889
 30
0.0
 11
218.921092
 21
153.863176
 31
0.0
  0
LINE
  5
703
100
AcDbEntity
  8
Layer_1
 62
1
100
AcDbLine
 10
218.921092
 20
153.863176
 30
0.0
 11
231.084758
 21
153.863176
 31
0.0
  0
LINE
  5
704
100
AcDbEntity
  8
Layer_1
 62
1
100
AcDbLine
 10
231.084758
 20
153.863176
 30
0.0
 11
231.084758
 21
153.578749
 31
0.0
  0
LINE
  5
705
100
AcDbEntity
  8
Layer_1
 62
1
100
AcDbLine
 10
231.084758
 20
153.578749
 30
0.0
 11
231.084758
 21
141.700059
 31
0.0
  0
LINE
  5
706
100
AcDbEntity
  8
Layer_1
 62
1
100
AcDbLine
 10
231.084758
 20
141.700059
 30
0.0
 11
234.084469
 21
141.700059
 31
0.0
  0
LINE
  5
707
100
AcDbEntity
  8
Layer_1
 62
1
100
AcDbLine
 10
234.084469
 20
141.700059
 30
0.0
 11
234.084469
 21
153.578749
 31
0.0
  0
LINE
  5
708
100
AcDbEntity
  8
Layer_1
 62
1
100
AcDbLine
 10
234.084469
 20
153.578749
 30
0.0
 11
234.084469
 21
153.863176
 31
0.0
  0
LINE
  5
709
100
AcDbEntity
  8
Layer_1
 62
1
100
AcDbLine
 10
234.084469
 20
153.863176
 30
0.0
 11
234.366692
 21
153.863176
 31
0.0
  0
LINE
  5
70a
100
AcDbEntity
  8
Layer_1
 62
1
100
AcDbLine
 10
234.366692
 20
153.863176
 30
0.0
 11
246.245397
 21
153.863176
 31
0.0
  0
LINE
  5
70b
100
AcDbEntity
  8
Layer_1
 62
1
100
AcDbLine
 10
246.245397
 20
153.863176
 30
0.0
 11
246.245397
 21
156.862889
 31
0.0
  0
LINE
  5
70c
100
AcDbEntity
  8
Layer_1
 62
1
100
AcDbLine
 10
246.245397
 20
156.862889
 30
0.0
 11
234.366692
 21
156.862889
 31
0.0
  0
LINE
  5
70d
100
AcDbEntity
  8
Layer_1
 62
1
100
AcDbLine
 10
234.366692
 20
156.862889
 30
0.0
 11
234.084469
 21
156.862889
 31
0.0
  0
LINE
  5
70e
100
AcDbEntity
  8
Layer_1
 62
1
100
AcDbLine
 10
234.084469
 20
156.862889
 30
0.0
 11
234.084469
 21
169.024351
 31
0.0
  0
LINE
  5
70f
100
AcDbEntity
  8
Layer_1
 62
1
100
AcDbLine
 10
234.084469
 20
169.024351
 30
0.0
 11
231.084758
 21
169.024351
 31
0.0
  0
LINE
  5
710
100
AcDbEntity
  8
Layer_1
 62
1
100
AcDbLine
 10
231.084758
 20
169.024351
 30
0.0
 11
231.084758
 21
169.024351
 31
0.0
  0
LINE
  5
711
100
AcDbEntity
  8
Layer_1
 62
1
100
AcDbLine
 10
234.084543
 20
121.699746
 30
0.0
 11
234.084543
 21
131.699752
 31
0.0
  0
LINE
  5
712
100
AcDbEntity
  8
Layer_1
 62
1
100
AcDbLine
 10
234.084543
 20
131.699752
 30
0.0
 11
231.084549
 21
131.699752
 31
0.0
  0
LINE
  5
713
100
AcDbEntity
  8
Layer_1
 62
1
100
AcDbLine
 10
231.084549
 20
131.699752
 30
0.0
 11
231.084549
 21
121.699746
 31
0.0
  0
LINE
  5
714
100
AcDbEntity
  8
Layer_1
 62
1
100
AcDbLine
 10
231.084549
 20
121.699746
 30
0.0
 11
234.084543
 21
121.699746
 31
0.0
  0
SPLINE
  5
715
100
AcDbEntity
  8
Layer_1
 62
1
100
AcDbSpline
 70
8
 71
3
 72
8
 73
4
 74
0
 40
0
 40
0
 40
0
 40
0
 40
1
 40
1
 40
1
 40
1
 10
232.583403
 20
138.249709
 30
0.0
 10
231.727367
 20
138.249706
 30
0.0
 10
231.033410
 20
137.555747
 30
0.0
 10
231.033410
 20
136.699708
 30
0.0
  0
SPLINE
  5
716
100
AcDbEntity
  8
Layer_1
 62
1
100
AcDbSpline
 70
8
 71
3
 72
8
 73
4
 74
0
 40
0
 40
0
 40
0
 40
0
 40
1
 40
1
 40
1
 40
1
 10
231.033410
 20
136.699708
 30
0.0
 10
231.033410
 20
135.843670
 30
0.0
 10
231.727367
 20
135.149713
 30
0.0
 10
232.583403
 20
135.149710
 30
0.0
  0
SPLINE
  5
717
100
AcDbEntity
  8
Layer_1
 62
1
100
AcDbSpline
 70
8
 71
3
 72
8
 73
4
 74
0
 40
0
 40
0
 40
0
 40
0
 40
1
 40
1
 40
1
 40
1
 10
232.583403
 20
135.149710
 30
0.0
 10
233.439439
 20
135.149713
 30
0.0
 10
234.133396
 20
135.843670
 30
0.0
 10
234.133396
 20
136.699708
 30
0.0
  0
SPLINE
  5
718
100
AcDbEntity
  8
Layer_1
 62
1
100
AcDbSpline
 70
8
 71
3
 72
8
 73
4
 74
0
 40
0
 40
0
 40
0
 40
0
 40
1
 40
1
 40
1
 40
1
 10
234.133396
 20
136.699708
 30
0.0
 10
234.133396
 20
137.555747
 30
0.0
 10
233.439439
 20
138.249706
 30
0.0
 10
232.583403
 20
138.249709
 30
0.0
  0
LINE
  5
719
100
AcDbEntity
  8
Layer_1
 62
1
100
AcDbLine
 10
232.583403
 20
138.249709
 30
0.0
 11
232.583403
 21
138.249709
 31
0.0
  0
LINE
  5
71a
100
AcDbEntity
  8
Layer_1
 62
1
100
AcDbLine
 10
234.084543
 20
179.024035
 30
0.0
 11
234.084543
 21
189.024041
 31
0.0
  0
LINE
  5
71b
100
AcDbEntity
  8
Layer_1
 62
1
100
AcDbLine
 10
234.084543
 20
189.024041
 30
0.0
 11
231.084549
 21
189.024041
 31
0.0
  0
LINE
  5
71c
100
AcDbEntity
  8
Layer_1
 62
1
100
AcDbLine
 10
231.084549
 20
189.024041
 30
0.0
 11
231.084549
 21
179.024035
 31
0.0
  0
LINE
  5
71d
100
AcDbEntity
  8
Layer_1
 62
1
100
AcDbLine
 10
231.084549
 20
179.024035
 30
0.0
 11
234.084543
 21
179.024035
 31
0.0
  0
SPLINE
  5
71e
100
AcDbEntity
  8
Layer_1
 62
1
100
AcDbSpline
 70
8
 71
3
 72
8
 73
4
 74
0
 40
0
 40
0
 40
0
 40
0
 40
1
 40
1
 40
1
 40
1
 10
232.583403
 20
175.574046
 30
0.0
 10
231.727367
 20
175.574043
 30
0.0
 10
231.033410
 20
174.880087
 30
0.0
 10
231.033410
 20
174.024048
 30
0.0
  0
SPLINE
  5
71f
100
AcDbEntity
  8
Layer_1
 62
1
100
AcDbSpline
 70
8
 71
3
 72
8
 73
4
 74
0
 40
0
 40
0
 40
0
 40
0
 40
1
 40
1
 40
1
 40
1
 10
231.033410
 20
174.024048
 30
0.0
 10
231.033410
 20
173.168009
 30
0.0
 10
231.727367
 20
172.474052
 30
0.0
 10
232.583403
 20
172.474049
 30
0.0
  0
SPLINE
  5
720
100
AcDbEntity
  8
Layer_1
 62
1
100
AcDbSpline
 70
8
 71
3
 72
8
 73
4
 74
0
 40
0
 40
0
 40
0
 40
0
 40
1
 40
1
 40
1
 40
1
 10
232.583403
 20
172.474049
 30
0.0
 10
233.439439
 20
172.474052
 30
0.0
 10
234.133396
 20
173.168009
 30
0.0
 10
234.133396
 20
174.024048
 30
0.0
  0
SPLINE
  5
721
100
AcDbEntity
  8
Layer_1
 62
1
100
AcDbSpline
 70
8
 71
3
 72
8
 73
4
 74
0
 40
0
 40
0
 40
0
 40
0
 40
1
 40
1
 40
1
 40
1
 10
234.133396
 20
174.024048
 30
0.0
 10
234.133396
 20
174.880087
 30
0.0
 10
233.439439
 20
175.574043
 30
0.0
 10
232.583403
 20
175.574046
 30
0.0
  0
LINE
  5
722
100
AcDbEntity
  8
Layer_1
 62
1
100
AcDbLine
 10
232.583403
 20
175.574046
 30
0.0
 11
232.583403
 21
175.574046
 31
0.0
  0
LINE
  5
723
100
AcDbEntity
  8
Layer_1
 62
1
100
AcDbLine
 10
266.245572
 20
156.863037
 30
0.0
 11
256.245564
 21
156.863037
 31
0.0
  0
LINE
  5
724
100
AcDbEntity
  8
Layer_1
 62
1
100
AcDbLine
 10
256.245564
 20
156.863037
 30
0.0
 11
256.245564
 21
153.863043
 31
0.0
  0
LINE
  5
725
100
AcDbEntity
  8
Layer_1
 62
1
100
AcDbLine
 10
256.245564
 20
153.863043
 30
0.0
 11
266.245572
 21
153.863043
 31
0.0
  0
LINE
  5
726
100
AcDbEntity
  8
Layer_1
 62
1
100
AcDbLine
 10
266.245572
 20
153.863043
 30
0.0
 11
266.245572
 21
156.863037
 31
0.0
  0
SPLINE
  5
727
100
AcDbEntity
  8
Layer_1
 62
1
100
AcDbSpline
 70
8
 71
3
 72
8
 73
4
 74
0
 40
0
 40
0
 40
0
 40
0
 40
1
 40
1
 40
1
 40
1
 10
249.695609
 20
155.361897
 30
0.0
 10
249.695609
 20
154.505860
 30
0.0
 10
250.389565
 20
153.811904
 30
0.0
 10
251.245602
 20
153.811904
 30
0.0
  0
SPLINE
  5
728
100
AcDbEntity
  8
Layer_1
 62
1
100
AcDbSpline
 70
8
 71
3
 72
8
 73
4
 74
0
 40
0
 40
0
 40
0
 40
0
 40
1
 40
1
 40
1
 40
1
 10
251.245602
 20
153.811904
 30
0.0
 10
252.101638
 20
153.811904
 30
0.0
 10
252.795595
 20
154.505860
 30
0.0
 10
252.795595
 20
155.361897
 30
0.0
  0
SPLINE
  5
729
100
AcDbEntity
  8
Layer_1
 62
1
100
AcDbSpline
 70
8
 71
3
 72
8
 73
4
 74
0
 40
0
 40
0
 40
0
 40
0
 40
1
 40
1
 40
1
 40
1
 10
252.795595
 20
155.361897
 30
0.0
 10
252.795595
 20
156.217933
 30
0.0
 10
252.101638
 20
156.911890
 30
0.0
 10
251.245602
 20
156.911890
 30
0.0
  0
SPLINE
  5
72a
100
AcDbEntity
  8
Layer_1
 62
1
100
AcDbSpline
 70
8
 71
3
 72
8
 73
4
 74
0
 40
0
 40
0
 40
0
 40
0
 40
1
 40
1
 40
1
 40
1
 10
251.245602
 20
156.911890
 30
0.0
 10
250.389565
 20
156.911890
 30
0.0
 10
249.695609
 20
156.217933
 30
0.0
 10
249.695609
 20
155.361897
 30
0.0
  0
LINE
  5
72b
100
AcDbEntity
  8
Layer_1
 62
1
100
AcDbLine
 10
249.695609
 20
155.361897
 30
0.0
 11
249.695609
 21
155.361897
 31
0.0
  0
LINE
  5
72c
100
AcDbEntity
  8
Layer_1
 62
1
100
AcDbLine
 10
208.921270
 20
156.863037
 30
0.0
 11
198.921262
 21
156.863037
 31
0.0
  0
LINE
  5
72d
100
AcDbEntity
  8
Layer_1
 62
1
100
AcDbLine
 10
198.921262
 20
156.863037
 30
0.0
 11
198.921262
 21
153.863043
 31
0.0
  0
LINE
  5
72e
100
AcDbEntity
  8
Layer_1
 62
1
100
AcDbLine
 10
198.921262
 20
153.863043
 30
0.0
 11
208.921270
 21
153.863043
 31
0.0
  0
LINE
  5
72f
100
AcDbEntity
  8
Layer_1
 62
1
100
AcDbLine
 10
208.921270
 20
153.863043
 30
0.0
 11
208.921270
 21
156.863037
 31
0.0
  0
SPLINE
  5
730
100
AcDbEntity
  8
Layer_1
 62
1
100
AcDbSpline
 70
8
 71
3
 72
8
 73
4
 74
0
 40
0
 40
0
 40
0
 40
0
 40
1
 40
1
 40
1
 40
1
 10
212.371268
 20
155.361897
 30
0.0
 10
212.371268
 20
154.505860
 30
0.0
 10
213.065224
 20
153.811904
 30
0.0
 10
213.921261
 20
153.811904
 30
0.0
  0
SPLINE
  5
731
100
AcDbEntity
  8
Layer_1
 62
1
100
AcDbSpline
 70
8
 71
3
 72
8
 73
4
 74
0
 40
0
 40
0
 40
0
 40
0
 40
1
 40
1
 40
1
 40
1
 10
213.921261
 20
153.811904
 30
0.0
 10
214.777297
 20
153.811904
 30
0.0
 10
215.471253
 20
154.505860
 30
0.0
 10
215.471253
 20
155.361897
 30
0.0
  0
SPLINE
  5
732
100
AcDbEntity
  8
Layer_1
 62
1
100
AcDbSpline
 70
8
 71
3
 72
8
 73
4
 74
0
 40
0
 40
0
 40
0
 40
0
 40
1
 40
1
 40
1
 40
1
 10
215.471253
 20
155.361897
 30
0.0
 10
215.471253
 20
156.217933
 30
0.0
 10
214.777297
 20
156.911890
 30
0.0
 10
213.921261
 20
156.911890
 30
0.0
  0
SPLINE
  5
733
100
AcDbEntity
  8
Layer_1
 62
1
100
AcDbSpline
 70
8
 71
3
 72
8
 73
4
 74
0
 40
0
 40
0
 40
0
 40
0
 40
1
 40
1
 40
1
 40
1
 10
213.921261
 20
156.911890
 30
0.0
 10
213.065224
 20
156.911890
 30
0.0
 10
212.371268
 20
156.217933
 30
0.0
 10
212.371268
 20
155.361897
 30
0.0
  0
LINE
  5
734
100
AcDbEntity
  8
Layer_1
 62
1
100
AcDbLine
 10
212.371268
 20
155.361897
 30
0.0
 11
212.371268
 21
155.361897
 31
0.0
  0
SPLINE
  5
735
100
AcDbEntity
  8
Layer_1
 62
3
100
AcDbSpline
 70
8
 71
3
 72
8
 73
4
 74
0
 40
0
 40
0
 40
0
 40
0
 40
1
 40
1
 40
1
 40
1
 10
395.119613
 20
204.971023
 30
0.0
 10
395.204298
 20
204.863750
 30
0.0
 10
395.232521
 20
204.745187
 30
0.0
 10
395.204280
 20
204.615332
 30
0.0
  0
LINE
  5
736
100
AcDbEntity
  8
Layer_1
 62
3
100
AcDbLine
 10
395.204280
 20
204.615332
 30
0.0
 11
393.510523
 21
196.993427
 31
0.0
  0
SPLINE
  5
737
100
AcDbEntity
  8
Layer_1
 62
3
100
AcDbSpline
 70
8
 71
3
 72
8
 73
4
 74
0
 40
0
 40
0
 40
0
 40
0
 40
1
 40
1
 40
1
 40
1
 10
393.510523
 20
196.993427
 30
0.0
 10
393.482301
 20
196.880510
 30
0.0
 10
393.417380
 20
196.790176
 30
0.0
 10
393.315761
 20
196.722426
 30
0.0
  0
SPLINE
  5
738
100
AcDbEntity
  8
Layer_1
 62
3
100
AcDbSpline
 70
8
 71
3
 72
8
 73
4
 74
0
 40
0
 40
0
 40
0
 40
0
 40
1
 40
1
 40
1
 40
1
 10
393.315761
 20
196.722426
 30
0.0
 10
393.219768
 20
196.660322
 30
0.0
 10
393.115318
 20
196.643384
 30
0.0
 10
393.002410
 20
196.671612
 30
0.0
  0
SPLINE
  5
739
100
AcDbEntity
  8
Layer_1
 62
3
100
AcDbSpline
 70
8
 71
3
 72
8
 73
4
 74
0
 40
0
 40
0
 40
0
 40
0
 40
1
 40
1
 40
1
 40
1
 10
393.002410
 20
196.671612
 30
0.0
 10
392.889483
 20
196.699842
 30
0.0
 10
392.799144
 20
196.761947
 30
0.0
 10
392.731392
 20
196.857927
 30
0.0
  0
SPLINE
  5
73a
100
AcDbEntity
  8
Layer_1
 62
3
100
AcDbSpline
 70
8
 71
3
 72
8
 73
4
 74
0
 40
0
 40
0
 40
0
 40
0
 40
1
 40
1
 40
1
 40
1
 10
392.731392
 20
196.857927
 30
0.0
 10
392.669303
 20
196.959551
 30
0.0
 10
392.652370
 20
197.066822
 30
0.0
 10
392.680592
 20
197.179739
 30
0.0
  0
LINE
  5
73b
100
AcDbEntity
  8
Layer_1
 62
3
100
AcDbLine
 10
392.680592
 20
197.179739
 30
0.0
 11
394.264254
 21
204.285051
 31
0.0
  0
LINE
  5
73c
100
AcDbEntity
  8
Layer_1
 62
3
100
AcDbLine
 10
394.264254
 20
204.285051
 30
0.0
 11
391.825233
 21
204.285051
 31
0.0
  0
LINE
  5
73d
100
AcDbEntity
  8
Layer_1
 62
3
100
AcDbLine
 10
391.825233
 20
204.285051
 30
0.0
 11
391.825233
 21
203.861610
 31
0.0
  0
SPLINE
  5
73e
100
AcDbEntity
  8
Layer_1
 62
3
100
AcDbSpline
 70
8
 71
3
 72
8
 73
4
 74
0
 40
0
 40
0
 40
0
 40
0
 40
1
 40
1
 40
1
 40
1
 10
391.825233
 20
203.861610
 30
0.0
 10
391.825233
 20
203.743048
 30
0.0
 10
391.782890
 20
203.641423
 30
0.0
 10
391.698205
 20
203.556734
 30
0.0
  0
SPLINE
  5
73f
100
AcDbEntity
  8
Layer_1
 62
3
100
AcDbSpline
 70
8
 71
3
 72
8
 73
4
 74
0
 40
0
 40
0
 40
0
 40
0
 40
1
 40
1
 40
1
 40
1
 10
391.698205
 20
203.556734
 30
0.0
 10
391.619163
 20
203.477693
 30
0.0
 10
391.520367
 20
203.438172
 30
0.0
 10
391.401815
 20
203.438172
 30
0.0
  0
SPLINE
  5
740
100
AcDbEntity
  8
Layer_1
 62
3
100
AcDbSpline
 70
8
 71
3
 72
8
 73
4
 74
0
 40
0
 40
0
 40
0
 40
0
 40
1
 40
1
 40
1
 40
1
 10
391.401815
 20
203.438172
 30
0.0
 10
391.283244
 20
203.438172
 30
0.0
 10
391.181616
 20
203.477693
 30
0.0
 10
391.096930
 20
203.556734
 30
0.0
  0
SPLINE
  5
741
100
AcDbEntity
  8
Layer_1
 62
3
100
AcDbSpline
 70
8
 71
3
 72
8
 73
4
 74
0
 40
0
 40
0
 40
0
 40
0
 40
1
 40
1
 40
1
 40
1
 10
391.096930
 20
203.556734
 30
0.0
 10
391.017889
 20
203.641423
 30
0.0
 10
390.978369
 20
203.743048
 30
0.0
 10
390.978369
 20
203.861610
 30
0.0
  0
LINE
  5
742
100
AcDbEntity
  8
Layer_1
 62
3
100
AcDbLine
 10
390.978369
 20
203.861610
 30
0.0
 11
390.978369
 21
204.708488
 31
0.0
  0
SPLINE
  5
743
100
AcDbEntity
  8
Layer_1
 62
3
100
AcDbSpline
 70
8
 71
3
 72
8
 73
4
 74
0
 40
0
 40
0
 40
0
 40
0
 40
1
 40
1
 40
1
 40
1
 10
390.978369
 20
204.708488
 30
0.0
 10
390.978369
 20
204.827052
 30
0.0
 10
391.017889
 20
204.925855
 30
0.0
 10
391.096930
 20
205.004898
 30
0.0
  0
SPLINE
  5
744
100
AcDbEntity
  8
Layer_1
 62
3
100
AcDbSpline
 70
8
 71
3
 72
8
 73
4
 74
0
 40
0
 40
0
 40
0
 40
0
 40
1
 40
1
 40
1
 40
1
 10
391.096930
 20
205.004898
 30
0.0
 10
391.181616
 20
205.089585
 30
0.0
 10
391.283244
 20
205.131929
 30
0.0
 10
391.401815
 20
205.131929
 30
0.0
  0
LINE
  5
745
100
AcDbEntity
  8
Layer_1
 62
3
100
AcDbLine
 10
391.401815
 20
205.131929
 30
0.0
 11
394.789328
 21
205.131929
 31
0.0
  0
SPLINE
  5
746
100
AcDbEntity
  8
Layer_1
 62
3
100
AcDbSpline
 70
8
 71
3
 72
8
 73
4
 74
0
 40
0
 40
0
 40
0
 40
0
 40
1
 40
1
 40
1
 40
1
 10
394.789328
 20
205.131929
 30
0.0
 10
394.919169
 20
205.131929
 30
0.0
 10
395.029264
 20
205.078294
 30
0.0
 10
395.119613
 20
204.971023
 30
0.0
  0
LINE
  5
747
100
AcDbEntity
  8
Layer_1
 62
3
100
AcDbLine
 10
395.119613
 20
204.971023
 30
0.0
 11
395.119613
 21
204.971023
 31
0.0
  0
LINE
  5
748
100
AcDbEntity
  8
Layer_1
 62
5
100
AcDbLine
 10
454.041575
 20
162.106591
 30
0.0
 11
457.524846
 21
162.463727
 31
0.0
  0
LINE
  5
749
100
AcDbEntity
  8
Layer_1
 62
5
100
AcDbLine
 10
457.524846
 20
162.463727
 30
0.0
 11
461.756910
 21
161.865026
 31
0.0
  0
LINE
  5
74a
100
AcDbEntity
  8
Layer_1
 62
5
100
AcDbLine
 10
461.756910
 20
161.865026
 30
0.0
 11
469.632801
 21
158.467612
 31
0.0
  0
LINE
  5
74b
100
AcDbEntity
  8
Layer_1
 62
5
100
AcDbLine
 10
469.632801
 20
158.467612
 30
0.0
 11
469.632801
 21
153.248358
 31
0.0
  0
LINE
  5
74c
100
AcDbEntity
  8
Layer_1
 62
5
100
AcDbLine
 10
469.632801
 20
153.248358
 30
0.0
 11
461.756910
 21
149.850944
 31
0.0
  0
LINE
  5
74d
100
AcDbEntity
  8
Layer_1
 62
5
100
AcDbLine
 10
461.756910
 20
149.850944
 30
0.0
 11
457.524846
 21
149.252244
 31
0.0
  0
LINE
  5
74e
100
AcDbEntity
  8
Layer_1
 62
5
100
AcDbLine
 10
457.524846
 20
149.252244
 30
0.0
 11
454.041575
 21
149.609379
 31
0.0
  0
LINE
  5
74f
100
AcDbEntity
  8
Layer_1
 62
5
100
AcDbLine
 10
454.041575
 20
149.609379
 30
0.0
 11
452.503238
 21
140.885184
 31
0.0
  0
LINE
  5
750
100
AcDbEntity
  8
Layer_1
 62
5
100
AcDbLine
 10
452.503238
 20
140.885184
 30
0.0
 11
455.898625
 21
140.029422
 31
0.0
  0
LINE
  5
751
100
AcDbEntity
  8
Layer_1
 62
5
100
AcDbLine
 10
455.898625
 20
140.029422
 30
0.0
 11
459.670666
 21
138.019384
 31
0.0
  0
LINE
  5
752
100
AcDbEntity
  8
Layer_1
 62
5
100
AcDbLine
 10
459.670666
 20
138.019384
 30
0.0
 11
465.909640
 21
132.133137
 31
0.0
  0
LINE
  5
753
100
AcDbEntity
  8
Layer_1
 62
5
100
AcDbLine
 10
465.909640
 20
132.133137
 30
0.0
 11
464.124528
 21
127.228645
 31
0.0
  0
LINE
  5
754
100
AcDbEntity
  8
Layer_1
 62
5
100
AcDbLine
 10
464.124528
 20
127.228645
 30
0.0
 11
455.561624
 21
126.729840
 31
0.0
  0
LINE
  5
755
100
AcDbEntity
  8
Layer_1
 62
5
100
AcDbLine
 10
455.561624
 20
126.729840
 30
0.0
 11
451.380022
 21
127.614692
 31
0.0
  0
LINE
  5
756
100
AcDbEntity
  8
Layer_1
 62
5
100
AcDbLine
 10
451.380022
 20
127.614692
 30
0.0
 11
448.228954
 21
129.141641
 31
0.0
  0
LINE
  5
757
100
AcDbEntity
  8
Layer_1
 62
5
100
AcDbLine
 10
448.228954
 20
129.141641
 30
0.0
 11
443.799561
 21
121.469715
 31
0.0
  0
LINE
  5
758
100
AcDbEntity
  8
Layer_1
 62
5
100
AcDbLine
 10
443.799561
 20
121.469715
 30
0.0
 11
446.697475
 21
119.504277
 31
0.0
  0
LINE
  5
759
100
AcDbEntity
  8
Layer_1
 62
5
100
AcDbLine
 10
446.697475
 20
119.504277
 30
0.0
 11
449.554580
 21
116.325340
 31
0.0
  0
LINE
  5
75a
100
AcDbEntity
  8
Layer_1
 62
5
100
AcDbLine
 10
449.554580
 20
116.325340
 30
0.0
 11
453.404063
 21
108.660229
 31
0.0
  0
LINE
  5
75b
100
AcDbEntity
  8
Layer_1
 62
5
100
AcDbLine
 10
453.404063
 20
108.660229
 30
0.0
 11
450.049203
 21
104.662052
 31
0.0
  0
LINE
  5
75c
100
AcDbEntity
  8
Layer_1
 62
5
100
AcDbLine
 10
450.049203
 20
104.662052
 30
0.0
 11
441.832077
 21
107.122019
 31
0.0
  0
LINE
  5
75d
100
AcDbEntity
  8
Layer_1
 62
5
100
AcDbLine
 10
441.832077
 20
107.122019
 30
0.0
 11
438.205295
 21
109.383697
 31
0.0
  0
LINE
  5
75e
100
AcDbEntity
  8
Layer_1
 62
5
100
AcDbLine
 10
438.205295
 20
109.383697
 30
0.0
 11
435.766500
 21
111.896291
 31
0.0
  0
LINE
  5
75f
100
AcDbEntity
  8
Layer_1
 62
5
100
AcDbLine
 10
435.766500
 20
111.896291
 30
0.0
 11
428.980297
 21
106.201977
 31
0.0
  0
LINE
  5
760
100
AcDbEntity
  8
Layer_1
 62
5
100
AcDbLine
 10
428.980297
 20
106.201977
 30
0.0
 11
431.031206
 21
103.363928
 31
0.0
  0
LINE
  5
761
100
AcDbEntity
  8
Layer_1
 62
5
100
AcDbLine
 10
431.031206
 20
103.363928
 30
0.0
 11
432.628753
 21
99.399519
 31
0.0
  0
LINE
  5
762
100
AcDbEntity
  8
Layer_1
 62
5
100
AcDbLine
 10
432.628753
 20
99.399519
 30
0.0
 11
433.624462
 21
90.880070
 31
0.0
  0
LINE
  5
763
100
AcDbEntity
  8
Layer_1
 62
5
100
AcDbLine
 10
433.624462
 20
90.880070
 30
0.0
 11
429.104447
 21
88.270443
 31
0.0
  0
LINE
  5
764
100
AcDbEntity
  8
Layer_1
 62
5
100
AcDbLine
 10
429.104447
 20
88.270443
 30
0.0
 11
422.224264
 21
93.392478
 31
0.0
  0
LINE
  5
765
100
AcDbEntity
  8
Layer_1
 62
5
100
AcDbLine
 10
422.224264
 20
93.392478
 30
0.0
 11
419.589748
 21
96.758189
 31
0.0
  0
LINE
  5
766
100
AcDbEntity
  8
Layer_1
 62
5
100
AcDbLine
 10
419.589748
 20
96.758189
 30
0.0
 11
418.157385
 21
99.953371
 31
0.0
  0
LINE
  5
767
100
AcDbEntity
  8
Layer_1
 62
5
100
AcDbLine
 10
418.157385
 20
99.953371
 30
0.0
 11
409.832845
 21
96.923490
 31
0.0
  0
LINE
  5
768
100
AcDbEntity
  8
Layer_1
 62
5
100
AcDbLine
 10
409.832845
 20
96.923490
 30
0.0
 11
410.789438
 21
93.555136
 31
0.0
  0
LINE
  5
769
100
AcDbEntity
  8
Layer_1
 62
5
100
AcDbLine
 10
410.789438
 20
93.555136
 30
0.0
 11
410.934697
 21
89.283421
 31
0.0
  0
LINE
  5
76a
100
AcDbEntity
  8
Layer_1
 62
5
100
AcDbLine
 10
410.934697
 20
89.283421
 30
0.0
 11
408.956545
 21
80.937204
 31
0.0
  0
LINE
  5
76b
100
AcDbEntity
  8
Layer_1
 62
5
100
AcDbLine
 10
408.956545
 20
80.937204
 30
0.0
 11
403.816601
 21
80.030889
 31
0.0
  0
LINE
  5
76c
100
AcDbEntity
  8
Layer_1
 62
5
100
AcDbLine
 10
403.816601
 20
80.030889
 30
0.0
 11
399.103151
 21
87.197197
 31
0.0
  0
LINE
  5
76d
100
AcDbEntity
  8
Layer_1
 62
5
100
AcDbLine
 10
399.103151
 20
87.197197
 30
0.0
 11
397.778654
 21
91.260986
 31
0.0
  0
LINE
  5
76e
100
AcDbEntity
  8
Layer_1
 62
5
100
AcDbLine
 10
397.778654
 20
91.260986
 30
0.0
 11
397.525501
 21
94.753370
 31
0.0
  0
LINE
  5
76f
100
AcDbEntity
  8
Layer_1
 62
5
100
AcDbLine
 10
397.525501
 20
94.753370
 30
0.0
 11
388.666714
 21
94.753370
 31
0.0
  0
LINE
  5
770
100
AcDbEntity
  8
Layer_1
 62
5
100
AcDbLine
 10
388.666714
 20
94.753370
 30
0.0
 11
388.413561
 21
91.260986
 31
0.0
  0
LINE
  5
771
100
AcDbEntity
  8
Layer_1
 62
5
100
AcDbLine
 10
388.413561
 20
91.260986
 30
0.0
 11
387.089064
 21
87.197197
 31
0.0
  0
LINE
  5
772
100
AcDbEntity
  8
Layer_1
 62
5
100
AcDbLine
 10
387.089064
 20
87.197197
 30
0.0
 11
382.375614
 21
80.030889
 31
0.0
  0
LINE
  5
773
100
AcDbEntity
  8
Layer_1
 62
5
100
AcDbLine
 10
382.375614
 20
80.030889
 30
0.0
 11
377.235670
 21
80.937204
 31
0.0
  0
LINE
  5
774
100
AcDbEntity
  8
Layer_1
 62
5
100
AcDbLine
 10
377.235670
 20
80.937204
 30
0.0
 11
375.257518
 21
89.283421
 31
0.0
  0
LINE
  5
775
100
AcDbEntity
  8
Layer_1
 62
5
100
AcDbLine
 10
375.257518
 20
89.283421
 30
0.0
 11
375.402778
 21
93.555136
 31
0.0
  0
LINE
  5
776
100
AcDbEntity
  8
Layer_1
 62
5
100
AcDbLine
 10
375.402778
 20
93.555136
 30
0.0
 11
376.359370
 21
96.923490
 31
0.0
  0
LINE
  5
777
100
AcDbEntity
  8
Layer_1
 62
5
100
AcDbLine
 10
376.359370
 20
96.923490
 30
0.0
 11
368.034830
 21
99.953371
 31
0.0
  0
LINE
  5
778
100
AcDbEntity
  8
Layer_1
 62
5
100
AcDbLine
 10
368.034830
 20
99.953371
 30
0.0
 11
366.602468
 21
96.758189
 31
0.0
  0
LINE
  5
779
100
AcDbEntity
  8
Layer_1
 62
5
100
AcDbLine
 10
366.602468
 20
96.758189
 30
0.0
 11
363.967951
 21
93.392478
 31
0.0
  0
LINE
  5
77a
100
AcDbEntity
  8
Layer_1
 62
5
100
AcDbLine
 10
363.967951
 20
93.392478
 30
0.0
 11
357.087769
 21
88.270443
 31
0.0
  0
LINE
  5
77b
100
AcDbEntity
  8
Layer_1
 62
5
100
AcDbLine
 10
357.087769
 20
88.270443
 30
0.0
 11
352.567754
 21
90.880070
 31
0.0
  0
LINE
  5
77c
100
AcDbEntity
  8
Layer_1
 62
5
100
AcDbLine
 10
352.567754
 20
90.880070
 30
0.0
 11
353.563462
 21
99.399519
 31
0.0
  0
LINE
  5
77d
100
AcDbEntity
  8
Layer_1
 62
5
100
AcDbLine
 10
353.563462
 20
99.399519
 30
0.0
 11
355.161009
 21
103.363928
 31
0.0
  0
LINE
  5
77e
100
AcDbEntity
  8
Layer_1
 62
5
100
AcDbLine
 10
355.161009
 20
103.363928
 30
0.0
 11
357.211918
 21
106.201977
 31
0.0
  0
LINE
  5
77f
100
AcDbEntity
  8
Layer_1
 62
5
100
AcDbLine
 10
357.211918
 20
106.201977
 30
0.0
 11
350.425715
 21
111.896291
 31
0.0
  0
LINE
  5
780
100
AcDbEntity
  8
Layer_1
 62
5
100
AcDbLine
 10
350.425715
 20
111.896291
 30
0.0
 11
347.986920
 21
109.383697
 31
0.0
  0
LINE
  5
781
100
AcDbEntity
  8
Layer_1
 62
5
100
AcDbLine
 10
347.986920
 20
109.383697
 30
0.0
 11
344.360139
 21
107.122019
 31
0.0
  0
LINE
  5
782
100
AcDbEntity
  8
Layer_1
 62
5
100
AcDbLine
 10
344.360139
 20
107.122019
 30
0.0
 11
336.143027
 21
104.662052
 31
0.0
  0
LINE
  5
783
100
AcDbEntity
  8
Layer_1
 62
5
100
AcDbLine
 10
336.143027
 20
104.662052
 30
0.0
 11
332.788158
 21
108.660229
 31
0.0
  0
LINE
  5
784
100
AcDbEntity
  8
Layer_1
 62
5
100
AcDbLine
 10
332.788158
 20
108.660229
 30
0.0
 11
336.637641
 21
116.325340
 31
0.0
  0
LINE
  5
785
100
AcDbEntity
  8
Layer_1
 62
5
100
AcDbLine
 10
336.637641
 20
116.325340
 30
0.0
 11
339.494738
 21
119.504277
 31
0.0
  0
LINE
  5
786
100
AcDbEntity
  8
Layer_1
 62
5
100
AcDbLine
 10
339.494738
 20
119.504277
 30
0.0
 11
342.392655
 21
121.469715
 31
0.0
  0
LINE
  5
787
100
AcDbEntity
  8
Layer_1
 62
5
100
AcDbLine
 10
342.392655
 20
121.469715
 30
0.0
 11
337.963264
 21
129.141641
 31
0.0
  0
LINE
  5
788
100
AcDbEntity
  8
Layer_1
 62
5
100
AcDbLine
 10
337.963264
 20
129.141641
 30
0.0
 11
334.812191
 21
127.614692
 31
0.0
  0
LINE
  5
789
100
AcDbEntity
  8
Layer_1
 62
5
100
AcDbLine
 10
334.812191
 20
127.614692
 30
0.0
 11
330.630600
 21
126.729840
 31
0.0
  0
LINE
  5
78a
100
AcDbEntity
  8
Layer_1
 62
5
100
AcDbLine
 10
330.630600
 20
126.729840
 30
0.0
 11
322.067676
 21
127.228645
 31
0.0
  0
LINE
  5
78b
100
AcDbEntity
  8
Layer_1
 62
5
100
AcDbLine
 10
322.067676
 20
127.228645
 30
0.0
 11
320.282586
 21
132.133137
 31
0.0
  0
LINE
  5
78c
100
AcDbEntity
  8
Layer_1
 62
5
100
AcDbLine
 10
320.282586
 20
132.133137
 30
0.0
 11
326.521543
 21
138.019384
 31
0.0
  0
LINE
  5
78d
100
AcDbEntity
  8
Layer_1
 62
5
100
AcDbLine
 10
326.521543
 20
138.019384
 30
0.0
 11
330.293599
 21
140.029422
 31
0.0
  0
LINE
  5
78e
100
AcDbEntity
  8
Layer_1
 62
5
100
AcDbLine
 10
330.293599
 20
140.029422
 30
0.0
 11
333.688963
 21
140.885184
 31
0.0
  0
LINE
  5
78f
100
AcDbEntity
  8
Layer_1
 62
5
100
AcDbLine
 10
333.688963
 20
140.885184
 30
0.0
 11
332.150655
 21
149.609379
 31
0.0
  0
LINE
  5
790
100
AcDbEntity
  8
Layer_1
 62
5
100
AcDbLine
 10
332.150655
 20
149.609379
 30
0.0
 11
328.667366
 21
149.252244
 31
0.0
  0
LINE
  5
791
100
AcDbEntity
  8
Layer_1
 62
5
100
AcDbLine
 10
328.667366
 20
149.252244
 30
0.0
 11
324.435320
 21
149.850944
 31
0.0
  0
LINE
  5
792
100
AcDbEntity
  8
Layer_1
 62
5
100
AcDbLine
 10
324.435320
 20
149.850944
 30
0.0
 11
316.559403
 21
153.248358
 31
0.0
  0
LINE
  5
793
100
AcDbEntity
  8
Layer_1
 62
5
100
AcDbLine
 10
316.559403
 20
153.248358
 30
0.0
 11
316.559403
 21
158.467612
 31
0.0
  0
LINE
  5
794
100
AcDbEntity
  8
Layer_1
 62
5
100
AcDbLine
 10
316.559403
 20
158.467612
 30
0.0
 11
324.435320
 21
161.865026
 31
0.0
  0
LINE
  5
795
100
AcDbEntity
  8
Layer_1
 62
5
100
AcDbLine
 10
324.435320
 20
161.865026
 30
0.0
 11
328.667366
 21
162.463727
 31
0.0
  0
LINE
  5
796
100
AcDbEntity
  8
Layer_1
 62
5
100
AcDbLine
 10
328.667366
 20
162.463727
 30
0.0
 11
332.150655
 21
162.106591
 31
0.0
  0
LINE
  5
797
100
AcDbEntity
  8
Layer_1
 62
5
100
AcDbLine
 10
332.150655
 20
162.106591
 30
0.0
 11
333.688963
 21
170.830786
 31
0.0
  0
LINE
  5
798
100
AcDbEntity
  8
Layer_1
 62
5
100
AcDbLine
 10
333.688963
 20
170.830786
 30
0.0
 11
330.293599
 21
171.686549
 31
0.0
  0
LINE
  5
799
100
AcDbEntity
  8
Layer_1
 62
5
100
AcDbLine
 10
330.293599
 20
171.686549
 30
0.0
 11
326.521543
 21
173.696586
 31
0.0
  0
LINE
  5
79a
100
AcDbEntity
  8
Layer_1
 62
5
100
AcDbLine
 10
326.521543
 20
173.696586
 30
0.0
 11
320.282586
 21
179.582833
 31
0.0
  0
LINE
  5
79b
100
AcDbEntity
  8
Layer_1
 62
5
100
AcDbLine
 10
320.282586
 20
179.582833
 30
0.0
 11
322.067676
 21
184.487325
 31
0.0
  0
LINE
  5
79c
100
AcDbEntity
  8
Layer_1
 62
5
100
AcDbLine
 10
322.067676
 20
184.487325
 30
0.0
 11
330.630600
 21
184.986130
 31
0.0
  0
LINE
  5
79d
100
AcDbEntity
  8
Layer_1
 62
5
100
AcDbLine
 10
330.630600
 20
184.986130
 30
0.0
 11
334.812191
 21
184.101279
 31
0.0
  0
LINE
  5
79e
100
AcDbEntity
  8
Layer_1
 62
5
100
AcDbLine
 10
334.812191
 20
184.101279
 30
0.0
 11
337.963264
 21
182.574330
 31
0.0
  0
LINE
  5
79f
100
AcDbEntity
  8
Layer_1
 62
5
100
AcDbLine
 10
337.963264
 20
182.574330
 30
0.0
 11
342.392655
 21
190.246256
 31
0.0
  0
LINE
  5
7a0
100
AcDbEntity
  8
Layer_1
 62
5
100
AcDbLine
 10
342.392655
 20
190.246256
 30
0.0
 11
339.494738
 21
192.211694
 31
0.0
  0
LINE
  5
7a1
100
AcDbEntity
  8
Layer_1
 62
5
100
AcDbLine
 10
339.494738
 20
192.211694
 30
0.0
 11
336.637641
 21
195.390631
 31
0.0
  0
LINE
  5
7a2
100
AcDbEntity
  8
Layer_1
 62
5
100
AcDbLine
 10
336.637641
 20
195.390631
 30
0.0
 11
332.788158
 21
203.055741
 31
0.0
  0
LINE
  5
7a3
100
AcDbEntity
  8
Layer_1
 62
5
100
AcDbLine
 10
332.788158
 20
203.055741
 30
0.0
 11
336.143027
 21
207.053919
 31
0.0
  0
LINE
  5
7a4
100
AcDbEntity
  8
Layer_1
 62
5
100
AcDbLine
 10
336.143027
 20
207.053919
 30
0.0
 11
344.360139
 21
204.593951
 31
0.0
  0
LINE
  5
7a5
100
AcDbEntity
  8
Layer_1
 62
5
100
AcDbLine
 10
344.360139
 20
204.593951
 30
0.0
 11
347.986920
 21
202.332273
 31
0.0
  0
LINE
  5
7a6
100
AcDbEntity
  8
Layer_1
 62
5
100
AcDbLine
 10
347.986920
 20
202.332273
 30
0.0
 11
350.425715
 21
199.819680
 31
0.0
  0
LINE
  5
7a7
100
AcDbEntity
  8
Layer_1
 62
5
100
AcDbLine
 10
350.425715
 20
199.819680
 30
0.0
 11
357.211918
 21
205.513993
 31
0.0
  0
LINE
  5
7a8
100
AcDbEntity
  8
Layer_1
 62
5
100
AcDbLine
 10
357.211918
 20
205.513993
 30
0.0
 11
355.161009
 21
208.352042
 31
0.0
  0
LINE
  5
7a9
100
AcDbEntity
  8
Layer_1
 62
5
100
AcDbLine
 10
355.161009
 20
208.352042
 30
0.0
 11
353.563462
 21
212.316452
 31
0.0
  0
LINE
  5
7aa
100
AcDbEntity
  8
Layer_1
 62
5
100
AcDbLine
 10
353.563462
 20
212.316452
 30
0.0
 11
352.567754
 21
220.835900
 31
0.0
  0
LINE
  5
7ab
100
AcDbEntity
  8
Layer_1
 62
5
100
AcDbLine
 10
352.567754
 20
220.835900
 30
0.0
 11
357.087769
 21
223.445527
 31
0.0
  0
LINE
  5
7ac
100
AcDbEntity
  8
Layer_1
 62
5
100
AcDbLine
 10
357.087769
 20
223.445527
 30
0.0
 11
363.967951
 21
218.323493
 31
0.0
  0
LINE
  5
7ad
100
AcDbEntity
  8
Layer_1
 62
5
100
AcDbLine
 10
363.967951
 20
218.323493
 30
0.0
 11
366.602468
 21
214.957781
 31
0.0
  0
LINE
  5
7ae
100
AcDbEntity
  8
Layer_1
 62
5
100
AcDbLine
 10
366.602468
 20
214.957781
 30
0.0
 11
368.034830
 21
211.762599
 31
0.0
  0
LINE
  5
7af
100
AcDbEntity
  8
Layer_1
 62
5
100
AcDbLine
 10
368.034830
 20
211.762599
 30
0.0
 11
376.359370
 21
214.792481
 31
0.0
  0
LINE
  5
7b0
100
AcDbEntity
  8
Layer_1
 62
5
100
AcDbLine
 10
376.359370
 20
214.792481
 30
0.0
 11
375.402778
 21
218.160834
 31
0.0
  0
LINE
  5
7b1
100
AcDbEntity
  8
Layer_1
 62
5
100
AcDbLine
 10
375.402778
 20
218.160834
 30
0.0
 11
375.257518
 21
222.432550
 31
0.0
  0
LINE
  5
7b2
100
AcDbEntity
  8
Layer_1
 62
5
100
AcDbLine
 10
375.257518
 20
222.432550
 30
0.0
 11
377.235670
 21
230.778767
 31
0.0
  0
LINE
  5
7b3
100
AcDbEntity
  8
Layer_1
 62
5
100
AcDbLine
 10
377.235670
 20
230.778767
 30
0.0
 11
382.375614
 21
231.685081
 31
0.0
  0
LINE
  5
7b4
100
AcDbEntity
  8
Layer_1
 62
5
100
AcDbLine
 10
382.375614
 20
231.685081
 30
0.0
 11
387.089064
 21
224.518773
 31
0.0
  0
LINE
  5
7b5
100
AcDbEntity
  8
Layer_1
 62
5
100
AcDbLine
 10
387.089064
 20
224.518773
 30
0.0
 11
388.413561
 21
220.454984
 31
0.0
  0
LINE
  5
7b6
100
AcDbEntity
  8
Layer_1
 62
5
100
AcDbLine
 10
388.413561
 20
220.454984
 30
0.0
 11
388.666714
 21
216.962600
 31
0.0
  0
LINE
  5
7b7
100
AcDbEntity
  8
Layer_1
 62
5
100
AcDbLine
 10
388.666714
 20
216.962600
 30
0.0
 11
397.525501
 21
216.962600
 31
0.0
  0
LINE
  5
7b8
100
AcDbEntity
  8
Layer_1
 62
5
100
AcDbLine
 10
397.525501
 20
216.962600
 30
0.0
 11
397.778654
 21
220.454984
 31
0.0
  0
LINE
  5
7b9
100
AcDbEntity
  8
Layer_1
 62
5
100
AcDbLine
 10
397.778654
 20
220.454984
 30
0.0
 11
399.103151
 21
224.518773
 31
0.0
  0
LINE
  5
7ba
100
AcDbEntity
  8
Layer_1
 62
5
100
AcDbLine
 10
399.103151
 20
224.518773
 30
0.0
 11
403.816601
 21
231.685081
 31
0.0
  0
LINE
  5
7bb
100
AcDbEntity
  8
Layer_1
 62
5
100
AcDbLine
 10
403.816601
 20
231.685081
 30
0.0
 11
408.956545
 21
230.778767
 31
0.0
  0
LINE
  5
7bc
100
AcDbEntity
  8
Layer_1
 62
5
100
AcDbLine
 10
408.956545
 20
230.778767
 30
0.0
 11
410.934697
 21
222.432550
 31
0.0
  0
LINE
  5
7bd
100
AcDbEntity
  8
Layer_1
 62
5
100
AcDbLine
 10
410.934697
 20
222.432550
 30
0.0
 11
410.789438
 21
218.160834
 31
0.0
  0
LINE
  5
7be
100
AcDbEntity
  8
Layer_1
 62
5
100
AcDbLine
 10
410.789438
 20
218.160834
 30
0.0
 11
409.832845
 21
214.792481
 31
0.0
  0
LINE
  5
7bf
100
AcDbEntity
  8
Layer_1
 62
5
100
AcDbLine
 10
409.832845
 20
214.792481
 30
0.0
 11
418.157385
 21
211.762599
 31
0.0
  0
LINE
  5
7c0
100
AcDbEntity
  8
Layer_1
 62
5
100
AcDbLine
 10
418.157385
 20
211.762599
 30
0.0
 11
419.589748
 21
214.957781
 31
0.0
  0
LINE
  5
7c1
100
AcDbEntity
  8
Layer_1
 62
5
100
AcDbLine
 10
419.589748
 20
214.957781
 30
0.0
 11
422.224264
 21
218.323493
 31
0.0
  0
LINE
  5
7c2
100
AcDbEntity
  8
Layer_1
 62
5
100
AcDbLine
 10
422.224264
 20
218.323493
 30
0.0
 11
429.104447
 21
223.445527
 31
0.0
  0
LINE
  5
7c3
100
AcDbEntity
  8
Layer_1
 62
5
100
AcDbLine
 10
429.104447
 20
223.445527
 30
0.0
 11
433.624462
 21
220.835900
 31
0.0
  0
LINE
  5
7c4
100
AcDbEntity
  8
Layer_1
 62
5
100
AcDbLine
 10
433.624462
 20
220.835900
 30
0.0
 11
432.628753
 21
212.316452
 31
0.0
  0
LINE
  5
7c5
100
AcDbEntity
  8
Layer_1
 62
5
100
AcDbLine
 10
432.628753
 20
212.316452
 30
0.0
 11
431.031206
 21
208.352042
 31
0.0
  0
LINE
  5
7c6
100
AcDbEntity
  8
Layer_1
 62
5
100
AcDbLine
 10
431.031206
 20
208.352042
 30
0.0
 11
428.980297
 21
205.513993
 31
0.0
  0
LINE
  5
7c7
100
AcDbEntity
  8
Layer_1
 62
5
100
AcDbLine
 10
428.980297
 20
205.513993
 30
0.0
 11
435.766500
 21
199.819680
 31
0.0
  0
LINE
  5
7c8
100
AcDbEntity
  8
Layer_1
 62
5
100
AcDbLine
 10
435.766500
 20
199.819680
 30
0.0
 11
438.205295
 21
202.332273
 31
0.0
  0
LINE
  5
7c9
100
AcDbEntity
  8
Layer_1
 62
5
100
AcDbLine
 10
438.205295
 20
202.332273
 30
0.0
 11
441.832077
 21
204.593951
 31
0.0
  0
LINE
  5
7ca
100
AcDbEntity
  8
Layer_1
 62
5
100
AcDbLine
 10
441.832077
 20
204.593951
 30
0.0
 11
450.049203
 21
207.053919
 31
0.0
  0
LINE
  5
7cb
100
AcDbEntity
  8
Layer_1
 62
5
100
AcDbLine
 10
450.049203
 20
207.053919
 30
0.0
 11
453.404063
 21
203.055741
 31
0.0
  0
LINE
  5
7cc
100
AcDbEntity
  8
Layer_1
 62
5
100
AcDbLine
 10
453.404063
 20
203.055741
 30
0.0
 11
449.554580
 21
195.390631
 31
0.0
  0
LINE
  5
7cd
100
AcDbEntity
  8
Layer_1
 62
5
100
AcDbLine
 10
449.554580
 20
195.390631
 30
0.0
 11
446.697475
 21
192.211694
 31
0.0
  0
LINE
  5
7ce
100
AcDbEntity
  8
Layer_1
 62
5
100
AcDbLine
 10
446.697475
 20
192.211694
 30
0.0
 11
443.799561
 21
190.246256
 31
0.0
  0
LINE
  5
7cf
100
AcDbEntity
  8
Layer_1
 62
5
100
AcDbLine
 10
443.799561
 20
190.246256
 30
0.0
 11
448.228954
 21
182.574330
 31
0.0
  0
LINE
  5
7d0
100
AcDbEntity
  8
Layer_1
 62
5
100
AcDbLine
 10
448.228954
 20
182.574330
 30
0.0
 11
451.380022
 21
184.101279
 31
0.0
  0
LINE
  5
7d1
100
AcDbEntity
  8
Layer_1
 62
5
100
AcDbLine
 10
451.380022
 20
184.101279
 30
0.0
 11
455.561624
 21
184.986130
 31
0.0
  0
LINE
  5
7d2
100
AcDbEntity
  8
Layer_1
 62
5
100
AcDbLine
 10
455.561624
 20
184.986130
 30
0.0
 11
464.124528
 21
184.487325
 31
0.0
  0
LINE
  5
7d3
100
AcDbEntity
  8
Layer_1
 62
5
100
AcDbLine
 10
464.124528
 20
184.487325
 30
0.0
 11
465.909640
 21
179.582833
 31
0.0
  0
LINE
  5
7d4
100
AcDbEntity
  8
Layer_1
 62
5
100
AcDbLine
 10
465.909640
 20
179.582833
 30
0.0
 11
459.670666
 21
173.696586
 31
0.0
  0
LINE
  5
7d5
100
AcDbEntity
  8
Layer_1
 62
5
100
AcDbLine
 10
459.670666
 20
173.696586
 30
0.0
 11
455.898625
 21
171.686549
 31
0.0
  0
LINE
  5
7d6
100
AcDbEntity
  8
Layer_1
 62
5
100
AcDbLine
 10
455.898625
 20
171.686549
 30
0.0
 11
452.503238
 21
170.830786
 31
0.0
  0
LINE
  5
7d7
100
AcDbEntity
  8
Layer_1
 62
5
100
AcDbLine
 10
452.503238
 20
170.830786
 30
0.0
 11
454.041575
 21
162.106591
 31
0.0
  0
SPLINE
  5
7d8
100
AcDbEntity
  8
Layer_1
 62
5
100
AcDbSpline
 70
8
 71
3
 72
8
 73
4
 74
0
 40
0
 40
0
 40
0
 40
0
 40
1
 40
1
 40
1
 40
1
 10
383.952869
 20
174.772700
 30
0.0
 10
383.952869
 20
169.491458
 30
0.0
 10
379.671586
 20
165.210167
 30
0.0
 10
374.390334
 20
165.210167
 30
0.0
  0
LINE
  5
7d9
100
AcDbEntity
  8
Layer_1
 62
5
100
AcDbLine
 10
374.390334
 20
165.210167
 30
0.0
 11
360.907534
 21
165.113167
 31
0.0
  0
SPLINE
  5
7da
100
AcDbEntity
  8
Layer_1
 62
5
100
AcDbSpline
 70
8
 71
3
 72
8
 73
4
 74
0
 40
0
 40
0
 40
0
 40
0
 40
1
 40
1
 40
1
 40
1
 10
360.907534
 20
165.113167
 30
0.0
 10
355.626309
 20
165.113167
 30
0.0
 10
351.344998
 20
169.394458
 30
0.0
 10
351.344998
 20
174.675700
 30
0.0
  0
SPLINE
  5
7db
100
AcDbEntity
  8
Layer_1
 62
5
100
AcDbSpline
 70
8
 71
3
 72
8
 73
4
 74
0
 40
0
 40
0
 40
0
 40
0
 40
1
 40
1
 40
1
 40
1
 10
351.344998
 20
174.675700
 30
0.0
 10
351.344998
 20
176.522799
 30
0.0
 10
351.868718
 20
178.247581
 30
0.0
 10
352.716344
 20
179.676511
 30
0.0
  0
SPLINE
  5
7dc
100
AcDbEntity
  8
Layer_1
 62
5
100
AcDbSpline
 70
8
 71
3
 72
8
 73
4
 74
0
 40
0
 40
0
 40
0
 40
0
 40
1
 40
1
 40
1
 40
1
 10
352.716344
 20
179.676511
 30
0.0
 10
356.663899
 20
186.441183
 30
0.0
 10
362.336001
 20
192.140227
 30
0.0
 10
369.067030
 20
196.172818
 30
0.0
  0
SPLINE
  5
7dd
100
AcDbEntity
  8
Layer_1
 62
5
100
AcDbSpline
 70
8
 71
3
 72
8
 73
4
 74
0
 40
0
 40
0
 40
0
 40
0
 40
1
 40
1
 40
1
 40
1
 10
369.067030
 20
196.172818
 30
0.0
 10
370.493070
 20
197.089829
 30
0.0
 10
372.233817
 20
197.624027
 30
0.0
 10
374.099334
 20
197.624027
 30
0.0
  0
SPLINE
  5
7de
100
AcDbEntity
  8
Layer_1
 62
5
100
AcDbSpline
 70
8
 71
3
 72
8
 73
4
 74
0
 40
0
 40
0
 40
0
 40
0
 40
1
 40
1
 40
1
 40
1
 10
374.099334
 20
197.624027
 30
0.0
 10
379.380587
 20
197.624027
 30
0.0
 10
383.661870
 20
193.342736
 30
0.0
 10
383.661870
 20
188.061494
 30
0.0
  0
LINE
  5
7df
100
AcDbEntity
  8
Layer_1
 62
5
100
AcDbLine
 10
383.661870
 20
188.061494
 30
0.0
 11
383.952869
 21
174.772700
 31
0.0
  0
SPLINE
  5
7e0
100
AcDbEntity
  8
Layer_1
 62
5
100
AcDbSpline
 70
8
 71
3
 72
8
 73
4
 74
0
 40
0
 40
0
 40
0
 40
0
 40
1
 40
1
 40
1
 40
1
 10
412.122768
 20
165.064664
 30
0.0
 10
406.841516
 20
165.064664
 30
0.0
 10
402.560233
 20
169.345956
 30
0.0
 10
402.560233
 20
174.627197
 30
0.0
  0
LINE
  5
7e1
100
AcDbEntity
  8
Layer_1
 62
5
100
AcDbLine
 10
402.560233
 20
174.627197
 30
0.0
 11
402.463233
 21
188.109989
 31
0.0
  0
SPLINE
  5
7e2
100
AcDbEntity
  8
Layer_1
 62
5
100
AcDbSpline
 70
8
 71
3
 72
8
 73
4
 74
0
 40
0
 40
0
 40
0
 40
0
 40
1
 40
1
 40
1
 40
1
 10
402.463233
 20
188.109989
 30
0.0
 10
402.463233
 20
193.391230
 30
0.0
 10
406.744516
 20
197.672524
 30
0.0
 10
412.025769
 20
197.672524
 30
0.0
  0
SPLINE
  5
7e3
100
AcDbEntity
  8
Layer_1
 62
5
100
AcDbSpline
 70
8
 71
3
 72
8
 73
4
 74
0
 40
0
 40
0
 40
0
 40
0
 40
1
 40
1
 40
1
 40
1
 10
412.025769
 20
197.672524
 30
0.0
 10
413.872857
 20
197.672524
 30
0.0
 10
415.597658
 20
197.148822
 30
0.0
 10
417.026577
 20
196.301201
 30
0.0
  0
SPLINE
  5
7e4
100
AcDbEntity
  8
Layer_1
 62
5
100
AcDbSpline
 70
8
 71
3
 72
8
 73
4
 74
0
 40
0
 40
0
 40
0
 40
0
 40
1
 40
1
 40
1
 40
1
 10
417.026577
 20
196.301201
 30
0.0
 10
423.791246
 20
192.353649
 30
0.0
 10
429.490301
 20
186.681532
 30
0.0
 10
433.522890
 20
179.950495
 30
0.0
  0
SPLINE
  5
7e5
100
AcDbEntity
  8
Layer_1
 62
5
100
AcDbSpline
 70
8
 71
3
 72
8
 73
4
 74
0
 40
0
 40
0
 40
0
 40
0
 40
1
 40
1
 40
1
 40
1
 10
433.522890
 20
179.950495
 30
0.0
 10
434.439886
 20
178.524463
 30
0.0
 10
434.974105
 20
176.783711
 30
0.0
 10
434.974105
 20
174.918191
 30
0.0
  0
SPLINE
  5
7e6
100
AcDbEntity
  8
Layer_1
 62
5
100
AcDbSpline
 70
8
 71
3
 72
8
 73
4
 74
0
 40
0
 40
0
 40
0
 40
0
 40
1
 40
1
 40
1
 40
1
 10
434.974105
 20
174.918191
 30
0.0
 10
434.974105
 20
169.636949
 30
0.0
 10
430.692793
 20
165.355658
 30
0.0
 10
425.411569
 20
165.355658
 30
0.0
  0
LINE
  5
7e7
100
AcDbEntity
  8
Layer_1
 62
5
100
AcDbLine
 10
425.411569
 20
165.355658
 30
0.0
 11
412.122768
 21
165.064664
 31
0.0
  0
SPLINE
  5
7e8
100
AcDbEntity
  8
Layer_1
 62
5
100
AcDbSpline
 70
8
 71
3
 72
8
 73
4
 74
0
 40
0
 40
0
 40
0
 40
0
 40
1
 40
1
 40
1
 40
1
 10
402.414719
 20
136.846274
 30
0.0
 10
402.414719
 20
142.127515
 30
0.0
 10
406.696030
 20
146.408807
 30
0.0
 10
411.977255
 20
146.408807
 30
0.0
  0
LINE
  5
7e9
100
AcDbEntity
  8
Layer_1
 62
5
100
AcDbLine
 10
411.977255
 20
146.408807
 30
0.0
 11
425.460055
 21
146.505809
 31
0.0
  0
SPLINE
  5
7ea
100
AcDbEntity
  8
Layer_1
 62
5
100
AcDbSpline
 70
8
 71
3
 72
8
 73
4
 74
0
 40
0
 40
0
 40
0
 40
0
 40
1
 40
1
 40
1
 40
1
 10
425.460055
 20
146.505809
 30
0.0
 10
430.741307
 20
146.505809
 30
0.0
 10
435.022590
 20
142.224515
 30
0.0
 10
435.022590
 20
136.943274
 30
0.0
  0
SPLINE
  5
7eb
100
AcDbEntity
  8
Layer_1
 62
5
100
AcDbSpline
 70
8
 71
3
 72
8
 73
4
 74
0
 40
0
 40
0
 40
0
 40
0
 40
1
 40
1
 40
1
 40
1
 10
435.022590
 20
136.943274
 30
0.0
 10
435.022590
 20
135.096174
 30
0.0
 10
434.498899
 20
133.371393
 30
0.0
 10
433.651273
 20
131.942462
 30
0.0
  0
SPLINE
  5
7ec
100
AcDbEntity
  8
Layer_1
 62
5
100
AcDbSpline
 70
8
 71
3
 72
8
 73
4
 74
0
 40
0
 40
0
 40
0
 40
0
 40
1
 40
1
 40
1
 40
1
 10
433.651273
 20
131.942462
 30
0.0
 10
429.703717
 20
125.177790
 30
0.0
 10
424.031587
 20
119.478747
 30
0.0
 10
417.300558
 20
115.446155
 30
0.0
  0
SPLINE
  5
7ed
100
AcDbEntity
  8
Layer_1
 62
5
100
AcDbSpline
 70
8
 71
3
 72
8
 73
4
 74
0
 40
0
 40
0
 40
0
 40
0
 40
1
 40
1
 40
1
 40
1
 10
417.300558
 20
115.446155
 30
0.0
 10
415.874518
 20
114.529145
 30
0.0
 10
414.133771
 20
113.994946
 30
0.0
 10
412.268254
 20
113.994946
 30
0.0
  0
SPLINE
  5
7ee
100
AcDbEntity
  8
Layer_1
 62
5
100
AcDbSpline
 70
8
 71
3
 72
8
 73
4
 74
0
 40
0
 40
0
 40
0
 40
0
 40
1
 40
1
 40
1
 40
1
 10
412.268254
 20
113.994946
 30
0.0
 10
406.987029
 20
113.994946
 30
0.0
 10
402.705718
 20
118.276237
 30
0.0
 10
402.705718
 20
123.557479
 30
0.0
  0
LINE
  5
7ef
100
AcDbEntity
  8
Layer_1
 62
5
100
AcDbLine
 10
402.705718
 20
123.557479
 30
0.0
 11
402.414719
 21
136.846274
 31
0.0
  0
SPLINE
  5
7f0
100
AcDbEntity
  8
Layer_1
 62
5
100
AcDbSpline
 70
8
 71
3
 72
8
 73
4
 74
0
 40
0
 40
0
 40
0
 40
0
 40
1
 40
1
 40
1
 40
1
 10
374.099334
 20
146.554304
 30
0.0
 10
379.380587
 20
146.554304
 30
0.0
 10
383.661870
 20
142.273012
 30
0.0
 10
383.661870
 20
136.991771
 30
0.0
  0
LINE
  5
7f1
100
AcDbEntity
  8
Layer_1
 62
5
100
AcDbLine
 10
383.661870
 20
136.991771
 30
0.0
 11
383.758870
 21
123.508979
 31
0.0
  0
SPLINE
  5
7f2
100
AcDbEntity
  8
Layer_1
 62
5
100
AcDbSpline
 70
8
 71
3
 72
8
 73
4
 74
0
 40
0
 40
0
 40
0
 40
0
 40
1
 40
1
 40
1
 40
1
 10
383.758870
 20
123.508979
 30
0.0
 10
383.758870
 20
118.227737
 30
0.0
 10
379.477587
 20
113.946443
 30
0.0
 10
374.196334
 20
113.946443
 30
0.0
  0
SPLINE
  5
7f3
100
AcDbEntity
  8
Layer_1
 62
5
100
AcDbSpline
 70
8
 71
3
 72
8
 73
4
 74
0
 40
0
 40
0
 40
0
 40
0
 40
1
 40
1
 40
1
 40
1
 10
374.196334
 20
113.946443
 30
0.0
 10
372.349246
 20
113.946443
 30
0.0
 10
370.624473
 20
114.470146
 30
0.0
 10
369.195526
 20
115.317767
 30
0.0
  0
SPLINE
  5
7f4
100
AcDbEntity
  8
Layer_1
 62
5
100
AcDbSpline
 70
8
 71
3
 72
8
 73
4
 74
0
 40
0
 40
0
 40
0
 40
0
 40
1
 40
1
 40
1
 40
1
 10
369.195526
 20
115.317767
 30
0.0
 10
362.430856
 20
119.265319
 30
0.0
 10
356.731802
 20
124.937435
 30
0.0
 10
352.699213
 20
131.668472
 30
0.0
  0
SPLINE
  5
7f5
100
AcDbEntity
  8
Layer_1
 62
5
100
AcDbSpline
 70
8
 71
3
 72
8
 73
4
 74
0
 40
0
 40
0
 40
0
 40
0
 40
1
 40
1
 40
1
 40
1
 10
352.699213
 20
131.668472
 30
0.0
 10
351.782216
 20
133.094505
 30
0.0
 10
351.248026
 20
134.835260
 30
0.0
 10
351.248026
 20
136.700777
 30
0.0
  0
SPLINE
  5
7f6
100
AcDbEntity
  8
Layer_1
 62
5
100
AcDbSpline
 70
8
 71
3
 72
8
 73
4
 74
0
 40
0
 40
0
 40
0
 40
0
 40
1
 40
1
 40
1
 40
1
 10
351.248026
 20
136.700777
 30
0.0
 10
351.248026
 20
141.982018
 30
0.0
 10
355.529309
 20
146.263310
 30
0.0
 10
360.810534
 20
146.263310
 30
0.0
  0
LINE
  5
7f7
100
AcDbEntity
  8
Layer_1
 62
5
100
AcDbLine
 10
360.810534
 20
146.263310
 30
0.0
 11
374.099334
 21
146.554304
 31
0.0
  0
LINE
  5
7f8
100
AcDbEntity
  8
Layer_1
 62
1
100
AcDbLine
 10
391.597442
 20
169.520445
 30
0.0
 11
391.597442
 21
157.358982
 31
0.0
  0
LINE
  5
7f9
100
AcDbEntity
  8
Layer_1
 62
1
100
AcDbLine
 10
391.597442
 20
157.358982
 30
0.0
 11
379.433777
 21
157.358982
 31
0.0
  0
LINE
  5
7fa
100
AcDbEntity
  8
Layer_1
 62
1
100
AcDbLine
 10
379.433777
 20
157.358982
 30
0.0
 11
379.433777
 21
154.359269
 31
0.0
  0
LINE
  5
7fb
100
AcDbEntity
  8
Layer_1
 62
1
100
AcDbLine
 10
379.433777
 20
154.359269
 30
0.0
 11
391.597442
 21
154.359269
 31
0.0
  0
LINE
  5
7fc
100
AcDbEntity
  8
Layer_1
 62
1
100
AcDbLine
 10
391.597442
 20
154.359269
 30
0.0
 11
391.597442
 21
154.074842
 31
0.0
  0
LINE
  5
7fd
100
AcDbEntity
  8
Layer_1
 62
1
100
AcDbLine
 10
391.597442
 20
154.074842
 30
0.0
 11
391.597442
 21
142.196152
 31
0.0
  0
LINE
  5
7fe
100
AcDbEntity
  8
Layer_1
 62
1
100
AcDbLine
 10
391.597442
 20
142.196152
 30
0.0
 11
394.597154
 21
142.196152
 31
0.0
  0
LINE
  5
7ff
100
AcDbEntity
  8
Layer_1
 62
1
100
AcDbLine
 10
394.597154
 20
142.196152
 30
0.0
 11
394.597154
 21
154.074842
 31
0.0
  0
LINE
  5
800
100
AcDbEntity
  8
Layer_1
 62
1
100
AcDbLine
 10
394.597154
 20
154.074842
 30
0.0
 11
394.597154
 21
154.359269
 31
0.0
  0
LINE
  5
801
100
AcDbEntity
  8
Layer_1
 62
1
100
AcDbLine
 10
394.597154
 20
154.359269
 30
0.0
 11
394.879377
 21
154.359269
 31
0.0
  0
LINE
  5
802
100
AcDbEntity
  8
Layer_1
 62
1
100
AcDbLine
 10
394.879377
 20
154.359269
 30
0.0
 11
406.758082
 21
154.359269
 31
0.0
  0
LINE
  5
803
100
AcDbEntity
  8
Layer_1
 62
1
100
AcDbLine
 10
406.758082
 20
154.359269
 30
0.0
 11
406.758082
 21
157.358982
 31
0.0
  0
LINE
  5
804
100
AcDbEntity
  8
Layer_1
 62
1
100
AcDbLine
 10
406.758082
 20
157.358982
 30
0.0
 11
394.879377
 21
157.358982
 31
0.0
  0
LINE
  5
805
100
AcDbEntity
  8
Layer_1
 62
1
100
AcDbLine
 10
394.879377
 20
157.358982
 30
0.0
 11
394.597154
 21
157.358982
 31
0.0
  0
LINE
  5
806
100
AcDbEntity
  8
Layer_1
 62
1
100
AcDbLine
 10
394.597154
 20
157.358982
 30
0.0
 11
394.597154
 21
169.520445
 31
0.0
  0
LINE
  5
807
100
AcDbEntity
  8
Layer_1
 62
1
100
AcDbLine
 10
394.597154
 20
169.520445
 30
0.0
 11
391.597442
 21
169.520445
 31
0.0
  0
LINE
  5
808
100
AcDbEntity
  8
Layer_1
 62
1
100
AcDbLine
 10
391.597442
 20
169.520445
 30
0.0
 11
391.597442
 21
169.520445
 31
0.0
  0
LINE
  5
809
100
AcDbEntity
  8
Layer_1
 62
1
100
AcDbLine
 10
394.597228
 20
122.195839
 30
0.0
 11
394.597228
 21
132.195845
 31
0.0
  0
LINE
  5
80a
100
AcDbEntity
  8
Layer_1
 62
1
100
AcDbLine
 10
394.597228
 20
132.195845
 30
0.0
 11
391.597234
 21
132.195845
 31
0.0
  0
LINE
  5
80b
100
AcDbEntity
  8
Layer_1
 62
1
100
AcDbLine
 10
391.597234
 20
132.195845
 30
0.0
 11
391.597234
 21
122.195839
 31
0.0
  0
LINE
  5
80c
100
AcDbEntity
  8
Layer_1
 62
1
100
AcDbLine
 10
391.597234
 20
122.195839
 30
0.0
 11
394.597228
 21
122.195839
 31
0.0
  0
SPLINE
  5
80d
100
AcDbEntity
  8
Layer_1
 62
1
100
AcDbSpline
 70
8
 71
3
 72
8
 73
4
 74
0
 40
0
 40
0
 40
0
 40
0
 40
1
 40
1
 40
1
 40
1
 10
393.096088
 20
138.745802
 30
0.0
 10
392.240051
 20
138.745799
 30
0.0
 10
391.546095
 20
138.051840
 30
0.0
 10
391.546095
 20
137.195801
 30
0.0
  0
SPLINE
  5
80e
100
AcDbEntity
  8
Layer_1
 62
1
100
AcDbSpline
 70
8
 71
3
 72
8
 73
4
 74
0
 40
0
 40
0
 40
0
 40
0
 40
1
 40
1
 40
1
 40
1
 10
391.546095
 20
137.195801
 30
0.0
 10
391.546095
 20
136.339763
 30
0.0
 10
392.240051
 20
135.645807
 30
0.0
 10
393.096088
 20
135.645803
 30
0.0
  0
SPLINE
  5
80f
100
AcDbEntity
  8
Layer_1
 62
1
100
AcDbSpline
 70
8
 71
3
 72
8
 73
4
 74
0
 40
0
 40
0
 40
0
 40
0
 40
1
 40
1
 40
1
 40
1
 10
393.096088
 20
135.645803
 30
0.0
 10
393.952124
 20
135.645807
 30
0.0
 10
394.646081
 20
136.339763
 30
0.0
 10
394.646081
 20
137.195801
 30
0.0
  0
SPLINE
  5
810
100
AcDbEntity
  8
Layer_1
 62
1
100
AcDbSpline
 70
8
 71
3
 72
8
 73
4
 74
0
 40
0
 40
0
 40
0
 40
0
 40
1
 40
1
 40
1
 40
1
 10
394.646081
 20
137.195801
 30
0.0
 10
394.646081
 20
138.051840
 30
0.0
 10
393.952124
 20
138.745799
 30
0.0
 10
393.096088
 20
138.745802
 30
0.0
  0
LINE
  5
811
100
AcDbEntity
  8
Layer_1
 62
1
100
AcDbLine
 10
393.096088
 20
138.745802
 30
0.0
 11
393.096088
 21
138.745802
 31
0.0
  0
LINE
  5
812
100
AcDbEntity
  8
Layer_1
 62
1
100
AcDbLine
 10
394.597228
 20
179.520128
 30
0.0
 11
394.597228
 21
189.520134
 31
0.0
  0
LINE
  5
813
100
AcDbEntity
  8
Layer_1
 62
1
100
AcDbLine
 10
394.597228
 20
189.520134
 30
0.0
 11
391.597234
 21
189.520134
 31
0.0
  0
LINE
  5
814
100
AcDbEntity
  8
Layer_1
 62
1
100
AcDbLine
 10
391.597234
 20
189.520134
 30
0.0
 11
391.597234
 21
179.520128
 31
0.0
  0
LINE
  5
815
100
AcDbEntity
  8
Layer_1
 62
1
100
AcDbLine
 10
391.597234
 20
179.520128
 30
0.0
 11
394.597228
 21
179.520128
 31
0.0
  0
SPLINE
  5
816
100
AcDbEntity
  8
Layer_1
 62
1
100
AcDbSpline
 70
8
 71
3
 72
8
 73
4
 74
0
 40
0
 40
0
 40
0
 40
0
 40
1
 40
1
 40
1
 40
1
 10
393.096088
 20
176.070139
 30
0.0
 10
392.240051
 20
176.070136
 30
0.0
 10
391.546095
 20
175.376180
 30
0.0
 10
391.546095
 20
174.520141
 30
0.0
  0
SPLINE
  5
817
100
AcDbEntity
  8
Layer_1
 62
1
100
AcDbSpline
 70
8
 71
3
 72
8
 73
4
 74
0
 40
0
 40
0
 40
0
 40
0
 40
1
 40
1
 40
1
 40
1
 10
391.546095
 20
174.520141
 30
0.0
 10
391.546095
 20
173.664102
 30
0.0
 10
392.240051
 20
172.970145
 30
0.0
 10
393.096088
 20
172.970143
 30
0.0
  0
SPLINE
  5
818
100
AcDbEntity
  8
Layer_1
 62
1
100
AcDbSpline
 70
8
 71
3
 72
8
 73
4
 74
0
 40
0
 40
0
 40
0
 40
0
 40
1
 40
1
 40
1
 40
1
 10
393.096088
 20
172.970143
 30
0.0
 10
393.952124
 20
172.970145
 30
0.0
 10
394.646081
 20
173.664102
 30
0.0
 10
394.646081
 20
174.520141
 30
0.0
  0
SPLINE
  5
819
100
AcDbEntity
  8
Layer_1
 62
1
100
AcDbSpline
 70
8
 71
3
 72
8
 73
4
 74
0
 40
0
 40
0
 40
0
 40
0
 40
1
 40
1
 40
1
 40
1
 10
394.646081
 20
174.520141
 30
0.0
 10
394.646081
 20
175.376180
 30
0.0
 10
393.952124
 20
176.070136
 30
0.0
 10
393.096088
 20
176.070139
 30
0.0
  0
LINE
  5
81a
100
AcDbEntity
  8
Layer_1
 62
1
100
AcDbLine
 10
393.096088
 20
176.070139
 30
0.0
 11
393.096088
 21
176.070139
 31
0.0
  0
LINE
  5
81b
100
AcDbEntity
  8
Layer_1
 62
1
100
AcDbLine
 10
426.758257
 20
157.359130
 30
0.0
 11
416.758249
 21
157.359130
 31
0.0
  0
LINE
  5
81c
100
AcDbEntity
  8
Layer_1
 62
1
100
AcDbLine
 10
416.758249
 20
157.359130
 30
0.0
 11
416.758249
 21
154.359136
 31
0.0
  0
LINE
  5
81d
100
AcDbEntity
  8
Layer_1
 62
1
100
AcDbLine
 10
416.758249
 20
154.359136
 30
0.0
 11
426.758257
 21
154.359136
 31
0.0
  0
LINE
  5
81e
100
AcDbEntity
  8
Layer_1
 62
1
100
AcDbLine
 10
426.758257
 20
154.359136
 30
0.0
 11
426.758257
 21
157.359130
 31
0.0
  0
SPLINE
  5
81f
100
AcDbEntity
  8
Layer_1
 62
1
100
AcDbSpline
 70
8
 71
3
 72
8
 73
4
 74
0
 40
0
 40
0
 40
0
 40
0
 40
1
 40
1
 40
1
 40
1
 10
410.208294
 20
155.857990
 30
0.0
 10
410.208294
 20
155.001953
 30
0.0
 10
410.902250
 20
154.307997
 30
0.0
 10
411.758287
 20
154.307997
 30
0.0
  0
SPLINE
  5
820
100
AcDbEntity
  8
Layer_1
 62
1
100
AcDbSpline
 70
8
 71
3
 72
8
 73
4
 74
0
 40
0
 40
0
 40
0
 40
0
 40
1
 40
1
 40
1
 40
1
 10
411.758287
 20
154.307997
 30
0.0
 10
412.614323
 20
154.307997
 30
0.0
 10
413.308280
 20
155.001953
 30
0.0
 10
413.308280
 20
155.857990
 30
0.0
  0
SPLINE
  5
821
100
AcDbEntity
  8
Layer_1
 62
1
100
AcDbSpline
 70
8
 71
3
 72
8
 73
4
 74
0
 40
0
 40
0
 40
0
 40
0
 40
1
 40
1
 40
1
 40
1
 10
413.308280
 20
155.857990
 30
0.0
 10
413.308280
 20
156.714026
 30
0.0
 10
412.614323
 20
157.407983
 30
0.0
 10
411.758287
 20
157.407983
 30
0.0
  0
SPLINE
  5
822
100
AcDbEntity
  8
Layer_1
 62
1
100
AcDbSpline
 70
8
 71
3
 72
8
 73
4
 74
0
 40
0
 40
0
 40
0
 40
0
 40
1
 40
1
 40
1
 40
1
 10
411.758287
 20
157.407983
 30
0.0
 10
410.902250
 20
157.407983
 30
0.0
 10
410.208294
 20
156.714026
 30
0.0
 10
410.208294
 20
155.857990
 30
0.0
  0
LINE
  5
823
100
AcDbEntity
  8
Layer_1
 62
1
100
AcDbLine
 10
410.208294
 20
155.857990
 30
0.0
 11
410.208294
 21
155.857990
 31
0.0
  0
LINE
  5
824
100
AcDbEntity
  8
Layer_1
 62
1
100
AcDbLine
 10
369.433955
 20
157.359130
 30
0.0
 11
359.433947
 21
157.359130
 31
0.0
  0
LINE
  5
825
100
AcDbEntity
  8
Layer_1
 62
1
100
AcDbLine
 10
359.433947
 20
157.359130
 30
0.0
 11
359.433947
 21
154.359136
 31
0.0
  0
LINE
  5
826
100
AcDbEntity
  8
Layer_1
 62
1
100
AcDbLine
 10
359.433947
 20
154.359136
 30
0.0
 11
369.433955
 21
154.359136
 31
0.0
  0
LINE
  5
827
100
AcDbEntity
  8
Layer_1
 62
1
100
AcDbLine
 10
369.433955
 20
154.359136
 30
0.0
 11
369.433955
 21
157.359130
 31
0.0
  0
SPLINE
  5
828
100
AcDbEntity
  8
Layer_1
 62
1
100
AcDbSpline
 70
8
 71
3
 72
8
 73
4
 74
0
 40
0
 40
0
 40
0
 40
0
 40
1
 40
1
 40
1
 40
1
 10
372.883953
 20
155.857990
 30
0.0
 10
372.883953
 20
155.001953
 30
0.0
 10
373.577909
 20
154.307997
 30
0.0
 10
374.433945
 20
154.307997
 30
0.0
  0
SPLINE
  5
829
100
AcDbEntity
  8
Layer_1
 62
1
100
AcDbSpline
 70
8
 71
3
 72
8
 73
4
 74
0
 40
0
 40
0
 40
0
 40
0
 40
1
 40
1
 40
1
 40
1
 10
374.433945
 20
154.307997
 30
0.0
 10
375.289982
 20
154.307997
 30
0.0
 10
375.983938
 20
155.001953
 30
0.0
 10
375.983938
 20
155.857990
 30
0.0
  0
SPLINE
  5
82a
100
AcDbEntity
  8
Layer_1
 62
1
100
AcDbSpline
 70
8
 71
3
 72
8
 73
4
 74
0
 40
0
 40
0
 40
0
 40
0
 40
1
 40
1
 40
1
 40
1
 10
375.983938
 20
155.857990
 30
0.0
 10
375.983938
 20
156.714026
 30
0.0
 10
375.289982
 20
157.407983
 30
0.0
 10
374.433945
 20
157.407983
 30
0.0
  0
SPLINE
  5
82b
100
AcDbEntity
  8
Layer_1
 62
1
100
AcDbSpline
 70
8
 71
3
 72
8
 73
4
 74
0
 40
0
 40
0
 40
0
 40
0
 40
1
 40
1
 40
1
 40
1
 10
374.433945
 20
157.407983
 30
0.0
 10
373.577909
 20
157.407983
 30
0.0
 10
372.883953
 20
156.714026
 30
0.0
 10
372.883953
 20
155.857990
 30
0.0
  0
LINE
  5
82c
100
AcDbEntity
  8
Layer_1
 62
1
100
AcDbLine
 10
372.883953
 20
155.857990
 30
0.0
 11
372.883953
 21
155.857990
 31
0.0
  0
SPLINE
  5
82d
100
AcDbEntity
  8
Layer_1
 62
3
100
AcDbSpline
 70
8
 71
3
 72
8
 73
4
 74
0
 40
0
 40
0
 40
0
 40
0
 40
1
 40
1
 40
1
 40
1
 10
600.739899
 20
155.475026
 30
0.0
 10
600.711669
 20
155.435515
 30
0.0
 10
600.680617
 20
155.398816
 30
0.0
 10
600.646743
 20
155.364931
 30
0.0
  0
SPLINE
  5
82e
100
AcDbEntity
  8
Layer_1
 62
3
100
AcDbSpline
 70
8
 71
3
 72
8
 73
4
 74
0
 40
0
 40
0
 40
0
 40
0
 40
1
 40
1
 40
1
 40
1
 10
600.646743
 20
155.364931
 30
0.0
 10
600.612867
 20
155.325420
 30
0.0
 10
600.578992
 20
155.285899
 30
0.0
 10
600.545118
 20
155.246369
 30
0.0
  0
SPLINE
  5
82f
100
AcDbEntity
  8
Layer_1
 62
3
100
AcDbSpline
 70
8
 71
3
 72
8
 73
4
 74
0
 40
0
 40
0
 40
0
 40
0
 40
1
 40
1
 40
1
 40
1
 10
600.545118
 20
155.246369
 30
0.0
 10
600.347513
 20
155.048757
 30
0.0
 10
600.118856
 20
154.896320
 30
0.0
 10
599.859146
 20
154.789056
 30
0.0
  0
SPLINE
  5
830
100
AcDbEntity
  8
Layer_1
 62
3
100
AcDbSpline
 70
8
 71
3
 72
8
 73
4
 74
0
 40
0
 40
0
 40
0
 40
0
 40
1
 40
1
 40
1
 40
1
 10
599.859146
 20
154.789056
 30
0.0
 10
599.605082
 20
154.681793
 30
0.0
 10
599.334081
 20
154.628161
 30
0.0
 10
599.046142
 20
154.628161
 30
0.0
  0
LINE
  5
831
100
AcDbEntity
  8
Layer_1
 62
3
100
AcDbLine
 10
599.046142
 20
154.628161
 30
0.0
 11
598.199264
 21
154.628161
 31
0.0
  0
SPLINE
  5
832
100
AcDbEntity
  8
Layer_1
 62
3
100
AcDbSpline
 70
8
 71
3
 72
8
 73
4
 74
0
 40
0
 40
0
 40
0
 40
0
 40
1
 40
1
 40
1
 40
1
 10
598.199264
 20
154.628161
 30
0.0
 10
597.911326
 20
154.628161
 30
0.0
 10
597.637502
 20
154.681793
 30
0.0
 10
597.377791
 20
154.789056
 30
0.0
  0
SPLINE
  5
833
100
AcDbEntity
  8
Layer_1
 62
3
100
AcDbSpline
 70
8
 71
3
 72
8
 73
4
 74
0
 40
0
 40
0
 40
0
 40
0
 40
1
 40
1
 40
1
 40
1
 10
597.377791
 20
154.789056
 30
0.0
 10
597.123729
 20
154.896320
 30
0.0
 10
596.897895
 20
155.048757
 30
0.0
 10
596.700289
 20
155.246369
 30
0.0
  0
SPLINE
  5
834
100
AcDbEntity
  8
Layer_1
 62
3
100
AcDbSpline
 70
8
 71
3
 72
8
 73
4
 74
0
 40
0
 40
0
 40
0
 40
0
 40
1
 40
1
 40
1
 40
1
 10
596.700289
 20
155.246369
 30
0.0
 10
596.502684
 20
155.443981
 30
0.0
 10
596.350247
 20
155.672638
 30
0.0
 10
596.242976
 20
155.932339
 30
0.0
  0
SPLINE
  5
835
100
AcDbEntity
  8
Layer_1
 62
3
100
AcDbSpline
 70
8
 71
3
 72
8
 73
4
 74
0
 40
0
 40
0
 40
0
 40
0
 40
1
 40
1
 40
1
 40
1
 10
596.242976
 20
155.932339
 30
0.0
 10
596.135705
 20
156.186414
 30
0.0
 10
596.082070
 20
156.457413
 30
0.0
 10
596.082070
 20
156.745336
 30
0.0
  0
SPLINE
  5
836
100
AcDbEntity
  8
Layer_1
 62
3
100
AcDbSpline
 70
8
 71
3
 72
8
 73
4
 74
0
 40
0
 40
0
 40
0
 40
0
 40
1
 40
1
 40
1
 40
1
 10
596.082070
 20
156.745336
 30
0.0
 10
596.082070
 20
157.033278
 30
0.0
 10
596.135705
 20
157.307109
 30
0.0
 10
596.242976
 20
157.566829
 30
0.0
  0
SPLINE
  5
837
100
AcDbEntity
  8
Layer_1
 62
3
100
AcDbSpline
 70
8
 71
3
 72
8
 73
4
 74
0
 40
0
 40
0
 40
0
 40
0
 40
1
 40
1
 40
1
 40
1
 10
596.242976
 20
157.566829
 30
0.0
 10
596.350247
 20
157.820885
 30
0.0
 10
596.502684
 20
158.046719
 30
0.0
 10
596.700289
 20
158.244331
 30
0.0
  0
SPLINE
  5
838
100
AcDbEntity
  8
Layer_1
 62
3
100
AcDbSpline
 70
8
 71
3
 72
8
 73
4
 74
0
 40
0
 40
0
 40
0
 40
0
 40
1
 40
1
 40
1
 40
1
 10
596.700289
 20
158.244331
 30
0.0
 10
596.897895
 20
158.441924
 30
0.0
 10
597.123729
 20
158.594362
 30
0.0
 10
597.377791
 20
158.701644
 30
0.0
  0
SPLINE
  5
839
100
AcDbEntity
  8
Layer_1
 62
3
100
AcDbSpline
 70
8
 71
3
 72
8
 73
4
 74
0
 40
0
 40
0
 40
0
 40
0
 40
1
 40
1
 40
1
 40
1
 10
597.377791
 20
158.701644
 30
0.0
 10
597.637502
 20
158.808907
 30
0.0
 10
597.911326
 20
158.862539
 30
0.0
 10
598.199264
 20
158.862539
 30
0.0
  0
LINE
  5
83a
100
AcDbEntity
  8
Layer_1
 62
3
100
AcDbLine
 10
598.199264
 20
158.862539
 30
0.0
 11
599.046142
 21
158.862539
 31
0.0
  0
SPLINE
  5
83b
100
AcDbEntity
  8
Layer_1
 62
3
100
AcDbSpline
 70
8
 71
3
 72
8
 73
4
 74
0
 40
0
 40
0
 40
0
 40
0
 40
1
 40
1
 40
1
 40
1
 10
599.046142
 20
158.862539
 30
0.0
 10
599.334081
 20
158.862539
 30
0.0
 10
599.605082
 20
158.808907
 30
0.0
 10
599.859146
 20
158.701644
 30
0.0
  0
SPLINE
  5
83c
100
AcDbEntity
  8
Layer_1
 62
3
100
AcDbSpline
 70
8
 71
3
 72
8
 73
4
 74
0
 40
0
 40
0
 40
0
 40
0
 40
1
 40
1
 40
1
 40
1
 10
599.859146
 20
158.701644
 30
0.0
 10
600.118856
 20
158.594362
 30
0.0
 10
600.347513
 20
158.441924
 30
0.0
 10
600.545118
 20
158.244331
 30
0.0
  0
SPLINE
  5
83d
100
AcDbEntity
  8
Layer_1
 62
3
100
AcDbSpline
 70
8
 71
3
 72
8
 73
4
 74
0
 40
0
 40
0
 40
0
 40
0
 40
1
 40
1
 40
1
 40
1
 10
600.545118
 20
158.244331
 30
0.0
 10
600.578992
 20
158.204801
 30
0.0
 10
600.612867
 20
158.168103
 30
0.0
 10
600.646743
 20
158.134236
 30
0.0
  0
SPLINE
  5
83e
100
AcDbEntity
  8
Layer_1
 62
3
100
AcDbSpline
 70
8
 71
3
 72
8
 73
4
 74
0
 40
0
 40
0
 40
0
 40
0
 40
1
 40
1
 40
1
 40
1
 10
600.646743
 20
158.134236
 30
0.0
 10
600.680617
 20
158.094706
 30
0.0
 10
600.711669
 20
158.055186
 30
0.0
 10
600.739899
 20
158.015675
 30
0.0
  0
SPLINE
  5
83f
100
AcDbEntity
  8
Layer_1
 62
3
100
AcDbSpline
 70
8
 71
3
 72
8
 73
4
 74
0
 40
0
 40
0
 40
0
 40
0
 40
1
 40
1
 40
1
 40
1
 10
600.739899
 20
158.015675
 30
0.0
 10
600.768129
 20
158.055186
 30
0.0
 10
600.799181
 20
158.094706
 30
0.0
 10
600.833055
 20
158.134236
 30
0.0
  0
SPLINE
  5
840
100
AcDbEntity
  8
Layer_1
 62
3
100
AcDbSpline
 70
8
 71
3
 72
8
 73
4
 74
0
 40
0
 40
0
 40
0
 40
0
 40
1
 40
1
 40
1
 40
1
 10
600.833055
 20
158.134236
 30
0.0
 10
600.866931
 20
158.168103
 30
0.0
 10
600.900806
 20
158.204801
 30
0.0
 10
600.934681
 20
158.244331
 30
0.0
  0
SPLINE
  5
841
100
AcDbEntity
  8
Layer_1
 62
3
100
AcDbSpline
 70
8
 71
3
 72
8
 73
4
 74
0
 40
0
 40
0
 40
0
 40
0
 40
1
 40
1
 40
1
 40
1
 10
600.934681
 20
158.244331
 30
0.0
 10
601.132287
 20
158.441924
 30
0.0
 10
601.358122
 20
158.594362
 30
0.0
 10
601.612186
 20
158.701644
 30
0.0
  0
SPLINE
  5
842
100
AcDbEntity
  8
Layer_1
 62
3
100
AcDbSpline
 70
8
 71
3
 72
8
 73
4
 74
0
 40
0
 40
0
 40
0
 40
0
 40
1
 40
1
 40
1
 40
1
 10
601.612186
 20
158.701644
 30
0.0
 10
601.871894
 20
158.808907
 30
0.0
 10
602.145718
 20
158.862539
 30
0.0
 10
602.433656
 20
158.862539
 30
0.0
  0
SPLINE
  5
843
100
AcDbEntity
  8
Layer_1
 62
3
100
AcDbSpline
 70
8
 71
3
 72
8
 73
4
 74
0
 40
0
 40
0
 40
0
 40
0
 40
1
 40
1
 40
1
 40
1
 10
602.433656
 20
158.862539
 30
0.0
 10
602.721596
 20
158.862539
 30
0.0
 10
602.992597
 20
158.808907
 30
0.0
 10
603.246659
 20
158.701644
 30
0.0
  0
SPLINE
  5
844
100
AcDbEntity
  8
Layer_1
 62
3
100
AcDbSpline
 70
8
 71
3
 72
8
 73
4
 74
0
 40
0
 40
0
 40
0
 40
0
 40
1
 40
1
 40
1
 40
1
 10
603.246659
 20
158.701644
 30
0.0
 10
603.506369
 20
158.594362
 30
0.0
 10
603.735027
 20
158.441924
 30
0.0
 10
603.932631
 20
158.244331
 30
0.0
  0
SPLINE
  5
845
100
AcDbEntity
  8
Layer_1
 62
3
100
AcDbSpline
 70
8
 71
3
 72
8
 73
4
 74
0
 40
0
 40
0
 40
0
 40
0
 40
1
 40
1
 40
1
 40
1
 10
603.932631
 20
158.244331
 30
0.0
 10
604.130236
 20
158.046719
 30
0.0
 10
604.282674
 20
157.820885
 30
0.0
 10
604.389947
 20
157.566829
 30
0.0
  0
SPLINE
  5
846
100
AcDbEntity
  8
Layer_1
 62
3
100
AcDbSpline
 70
8
 71
3
 72
8
 73
4
 74
0
 40
0
 40
0
 40
0
 40
0
 40
1
 40
1
 40
1
 40
1
 10
604.389947
 20
157.566829
 30
0.0
 10
604.497218
 20
157.307109
 30
0.0
 10
604.550853
 20
157.033278
 30
0.0
 10
604.550853
 20
156.745336
 30
0.0
  0
SPLINE
  5
847
100
AcDbEntity
  8
Layer_1
 62
3
100
AcDbSpline
 70
8
 71
3
 72
8
 73
4
 74
0
 40
0
 40
0
 40
0
 40
0
 40
1
 40
1
 40
1
 40
1
 10
604.550853
 20
156.745336
 30
0.0
 10
604.550853
 20
156.457413
 30
0.0
 10
604.497218
 20
156.186414
 30
0.0
 10
604.389947
 20
155.932339
 30
0.0
  0
SPLINE
  5
848
100
AcDbEntity
  8
Layer_1
 62
3
100
AcDbSpline
 70
8
 71
3
 72
8
 73
4
 74
0
 40
0
 40
0
 40
0
 40
0
 40
1
 40
1
 40
1
 40
1
 10
604.389947
 20
155.932339
 30
0.0
 10
604.282674
 20
155.672638
 30
0.0
 10
604.130236
 20
155.443981
 30
0.0
 10
603.932631
 20
155.246369
 30
0.0
  0
SPLINE
  5
849
100
AcDbEntity
  8
Layer_1
 62
3
100
AcDbSpline
 70
8
 71
3
 72
8
 73
4
 74
0
 40
0
 40
0
 40
0
 40
0
 40
1
 40
1
 40
1
 40
1
 10
603.932631
 20
155.246369
 30
0.0
 10
603.735027
 20
155.048757
 30
0.0
 10
603.506369
 20
154.896320
 30
0.0
 10
603.246659
 20
154.789056
 30
0.0
  0
SPLINE
  5
84a
100
AcDbEntity
  8
Layer_1
 62
3
100
AcDbSpline
 70
8
 71
3
 72
8
 73
4
 74
0
 40
0
 40
0
 40
0
 40
0
 40
1
 40
1
 40
1
 40
1
 10
603.246659
 20
154.789056
 30
0.0
 10
602.992597
 20
154.681793
 30
0.0
 10
602.721596
 20
154.628161
 30
0.0
 10
602.433656
 20
154.628161
 30
0.0
  0
SPLINE
  5
84b
100
AcDbEntity
  8
Layer_1
 62
3
100
AcDbSpline
 70
8
 71
3
 72
8
 73
4
 74
0
 40
0
 40
0
 40
0
 40
0
 40
1
 40
1
 40
1
 40
1
 10
602.433656
 20
154.628161
 30
0.0
 10
602.145718
 20
154.628161
 30
0.0
 10
601.871894
 20
154.681793
 30
0.0
 10
601.612186
 20
154.789056
 30
0.0
  0
SPLINE
  5
84c
100
AcDbEntity
  8
Layer_1
 62
3
100
AcDbSpline
 70
8
 71
3
 72
8
 73
4
 74
0
 40
0
 40
0
 40
0
 40
0
 40
1
 40
1
 40
1
 40
1
 10
601.612186
 20
154.789056
 30
0.0
 10
601.358122
 20
154.896320
 30
0.0
 10
601.132287
 20
155.048757
 30
0.0
 10
600.934681
 20
155.246369
 30
0.0
  0
SPLINE
  5
84d
100
AcDbEntity
  8
Layer_1
 62
3
100
AcDbSpline
 70
8
 71
3
 72
8
 73
4
 74
0
 40
0
 40
0
 40
0
 40
0
 40
1
 40
1
 40
1
 40
1
 10
600.934681
 20
155.246369
 30
0.0
 10
600.900806
 20
155.285899
 30
0.0
 10
600.866931
 20
155.325420
 30
0.0
 10
600.833055
 20
155.364931
 30
0.0
  0
SPLINE
  5
84e
100
AcDbEntity
  8
Layer_1
 62
3
100
AcDbSpline
 70
8
 71
3
 72
8
 73
4
 74
0
 40
0
 40
0
 40
0
 40
0
 40
1
 40
1
 40
1
 40
1
 10
600.833055
 20
155.364931
 30
0.0
 10
600.799181
 20
155.398816
 30
0.0
 10
600.768129
 20
155.435515
 30
0.0
 10
600.739899
 20
155.475026
 30
0.0
  0
LINE
  5
84f
100
AcDbEntity
  8
Layer_1
 62
3
100
AcDbLine
 10
600.739899
 20
155.475026
 30
0.0
 11
600.739899
 21
155.475026
 31
0.0
  0
SPLINE
  5
850
100
AcDbEntity
  8
Layer_1
 62
3
100
AcDbSpline
 70
8
 71
3
 72
8
 73
4
 74
0
 40
0
 40
0
 40
0
 40
0
 40
1
 40
1
 40
1
 40
1
 10
602.433656
 20
158.015675
 30
0.0
 10
602.258635
 20
158.015675
 30
0.0
 10
602.092082
 20
157.981799
 30
0.0
 10
601.933998
 20
157.914047
 30
0.0
  0
SPLINE
  5
851
100
AcDbEntity
  8
Layer_1
 62
3
100
AcDbSpline
 70
8
 71
3
 72
8
 73
4
 74
0
 40
0
 40
0
 40
0
 40
0
 40
1
 40
1
 40
1
 40
1
 10
601.933998
 20
157.914047
 30
0.0
 10
601.781561
 20
157.846294
 30
0.0
 10
601.648883
 20
157.755955
 30
0.0
 10
601.535966
 20
157.643029
 30
0.0
  0
SPLINE
  5
852
100
AcDbEntity
  8
Layer_1
 62
3
100
AcDbSpline
 70
8
 71
3
 72
8
 73
4
 74
0
 40
0
 40
0
 40
0
 40
0
 40
1
 40
1
 40
1
 40
1
 10
601.535966
 20
157.643029
 30
0.0
 10
601.423049
 20
157.530121
 30
0.0
 10
601.332715
 20
157.397448
 30
0.0
 10
601.264965
 20
157.245011
 30
0.0
  0
SPLINE
  5
853
100
AcDbEntity
  8
Layer_1
 62
3
100
AcDbSpline
 70
8
 71
3
 72
8
 73
4
 74
0
 40
0
 40
0
 40
0
 40
0
 40
1
 40
1
 40
1
 40
1
 10
601.264965
 20
157.245011
 30
0.0
 10
601.197215
 20
157.086929
 30
0.0
 10
601.163340
 20
156.920370
 30
0.0
 10
601.163340
 20
156.745336
 30
0.0
  0
SPLINE
  5
854
100
AcDbEntity
  8
Layer_1
 62
3
100
AcDbSpline
 70
8
 71
3
 72
8
 73
4
 74
0
 40
0
 40
0
 40
0
 40
0
 40
1
 40
1
 40
1
 40
1
 10
601.163340
 20
156.745336
 30
0.0
 10
601.163340
 20
156.570321
 30
0.0
 10
601.197215
 20
156.406594
 30
0.0
 10
601.264965
 20
156.254157
 30
0.0
  0
SPLINE
  5
855
100
AcDbEntity
  8
Layer_1
 62
3
100
AcDbSpline
 70
8
 71
3
 72
8
 73
4
 74
0
 40
0
 40
0
 40
0
 40
0
 40
1
 40
1
 40
1
 40
1
 10
601.264965
 20
156.254157
 30
0.0
 10
601.332715
 20
156.096074
 30
0.0
 10
601.423049
 20
155.960570
 30
0.0
 10
601.535966
 20
155.847644
 30
0.0
  0
SPLINE
  5
856
100
AcDbEntity
  8
Layer_1
 62
3
100
AcDbSpline
 70
8
 71
3
 72
8
 73
4
 74
0
 40
0
 40
0
 40
0
 40
0
 40
1
 40
1
 40
1
 40
1
 10
601.535966
 20
155.847644
 30
0.0
 10
601.648883
 20
155.734736
 30
0.0
 10
601.781561
 20
155.644406
 30
0.0
 10
601.933998
 20
155.576654
 30
0.0
  0
SPLINE
  5
857
100
AcDbEntity
  8
Layer_1
 62
3
100
AcDbSpline
 70
8
 71
3
 72
8
 73
4
 74
0
 40
0
 40
0
 40
0
 40
0
 40
1
 40
1
 40
1
 40
1
 10
601.933998
 20
155.576654
 30
0.0
 10
602.092082
 20
155.508902
 30
0.0
 10
602.258635
 20
155.475026
 30
0.0
 10
602.433656
 20
155.475026
 30
0.0
  0
SPLINE
  5
858
100
AcDbEntity
  8
Layer_1
 62
3
100
AcDbSpline
 70
8
 71
3
 72
8
 73
4
 74
0
 40
0
 40
0
 40
0
 40
0
 40
1
 40
1
 40
1
 40
1
 10
602.433656
 20
155.475026
 30
0.0
 10
602.608679
 20
155.475026
 30
0.0
 10
602.772409
 20
155.508902
 30
0.0
 10
602.924847
 20
155.576654
 30
0.0
  0
SPLINE
  5
859
100
AcDbEntity
  8
Layer_1
 62
3
100
AcDbSpline
 70
8
 71
3
 72
8
 73
4
 74
0
 40
0
 40
0
 40
0
 40
0
 40
1
 40
1
 40
1
 40
1
 10
602.924847
 20
155.576654
 30
0.0
 10
603.082931
 20
155.644406
 30
0.0
 10
603.218431
 20
155.734736
 30
0.0
 10
603.331348
 20
155.847644
 30
0.0
  0
SPLINE
  5
85a
100
AcDbEntity
  8
Layer_1
 62
3
100
AcDbSpline
 70
8
 71
3
 72
8
 73
4
 74
0
 40
0
 40
0
 40
0
 40
0
 40
1
 40
1
 40
1
 40
1
 10
603.331348
 20
155.847644
 30
0.0
 10
603.444265
 20
155.960570
 30
0.0
 10
603.534599
 20
156.096074
 30
0.0
 10
603.602349
 20
156.254157
 30
0.0
  0
SPLINE
  5
85b
100
AcDbEntity
  8
Layer_1
 62
3
100
AcDbSpline
 70
8
 71
3
 72
8
 73
4
 74
0
 40
0
 40
0
 40
0
 40
0
 40
1
 40
1
 40
1
 40
1
 10
603.602349
 20
156.254157
 30
0.0
 10
603.670100
 20
156.406594
 30
0.0
 10
603.703975
 20
156.570321
 30
0.0
 10
603.703975
 20
156.745336
 30
0.0
  0
SPLINE
  5
85c
100
AcDbEntity
  8
Layer_1
 62
3
100
AcDbSpline
 70
8
 71
3
 72
8
 73
4
 74
0
 40
0
 40
0
 40
0
 40
0
 40
1
 40
1
 40
1
 40
1
 10
603.703975
 20
156.745336
 30
0.0
 10
603.703975
 20
156.920370
 30
0.0
 10
603.670100
 20
157.086929
 30
0.0
 10
603.602349
 20
157.245011
 30
0.0
  0
SPLINE
  5
85d
100
AcDbEntity
  8
Layer_1
 62
3
100
AcDbSpline
 70
8
 71
3
 72
8
 73
4
 74
0
 40
0
 40
0
 40
0
 40
0
 40
1
 40
1
 40
1
 40
1
 10
603.602349
 20
157.245011
 30
0.0
 10
603.534599
 20
157.397448
 30
0.0
 10
603.444265
 20
157.530121
 30
0.0
 10
603.331348
 20
157.643029
 30
0.0
  0
SPLINE
  5
85e
100
AcDbEntity
  8
Layer_1
 62
3
100
AcDbSpline
 70
8
 71
3
 72
8
 73
4
 74
0
 40
0
 40
0
 40
0
 40
0
 40
1
 40
1
 40
1
 40
1
 10
603.331348
 20
157.643029
 30
0.0
 10
603.218431
 20
157.755955
 30
0.0
 10
603.082931
 20
157.846294
 30
0.0
 10
602.924847
 20
157.914047
 30
0.0
  0
SPLINE
  5
85f
100
AcDbEntity
  8
Layer_1
 62
3
100
AcDbSpline
 70
8
 71
3
 72
8
 73
4
 74
0
 40
0
 40
0
 40
0
 40
0
 40
1
 40
1
 40
1
 40
1
 10
602.924847
 20
157.914047
 30
0.0
 10
602.772409
 20
157.981799
 30
0.0
 10
602.608679
 20
158.015675
 30
0.0
 10
602.433656
 20
158.015675
 30
0.0
  0
LINE
  5
860
100
AcDbEntity
  8
Layer_1
 62
3
100
AcDbLine
 10
602.433656
 20
158.015675
 30
0.0
 11
602.433656
 21
158.015675
 31
0.0
  0
SPLINE
  5
861
100
AcDbEntity
  8
Layer_1
 62
3
100
AcDbSpline
 70
8
 71
3
 72
8
 73
4
 74
0
 40
0
 40
0
 40
0
 40
0
 40
1
 40
1
 40
1
 40
1
 10
599.046142
 20
155.475026
 30
0.0
 10
599.221164
 20
155.475026
 30
0.0
 10
599.384894
 20
155.508902
 30
0.0
 10
599.537333
 20
155.576654
 30
0.0
  0
SPLINE
  5
862
100
AcDbEntity
  8
Layer_1
 62
3
100
AcDbSpline
 70
8
 71
3
 72
8
 73
4
 74
0
 40
0
 40
0
 40
0
 40
0
 40
1
 40
1
 40
1
 40
1
 10
599.537333
 20
155.576654
 30
0.0
 10
599.695417
 20
155.644406
 30
0.0
 10
599.830918
 20
155.734736
 30
0.0
 10
599.943835
 20
155.847644
 30
0.0
  0
SPLINE
  5
863
100
AcDbEntity
  8
Layer_1
 62
3
100
AcDbSpline
 70
8
 71
3
 72
8
 73
4
 74
0
 40
0
 40
0
 40
0
 40
0
 40
1
 40
1
 40
1
 40
1
 10
599.943835
 20
155.847644
 30
0.0
 10
600.056752
 20
155.960570
 30
0.0
 10
600.147086
 20
156.096074
 30
0.0
 10
600.214836
 20
156.254157
 30
0.0
  0
SPLINE
  5
864
100
AcDbEntity
  8
Layer_1
 62
3
100
AcDbSpline
 70
8
 71
3
 72
8
 73
4
 74
0
 40
0
 40
0
 40
0
 40
0
 40
1
 40
1
 40
1
 40
1
 10
600.214836
 20
156.254157
 30
0.0
 10
600.282586
 20
156.406594
 30
0.0
 10
600.316461
 20
156.570321
 30
0.0
 10
600.316461
 20
156.745336
 30
0.0
  0
SPLINE
  5
865
100
AcDbEntity
  8
Layer_1
 62
3
100
AcDbSpline
 70
8
 71
3
 72
8
 73
4
 74
0
 40
0
 40
0
 40
0
 40
0
 40
1
 40
1
 40
1
 40
1
 10
600.316461
 20
156.745336
 30
0.0
 10
600.316461
 20
156.920370
 30
0.0
 10
600.282586
 20
157.086929
 30
0.0
 10
600.214836
 20
157.245011
 30
0.0
  0
SPLINE
  5
866
100
AcDbEntity
  8
Layer_1
 62
3
100
AcDbSpline
 70
8
 71
3
 72
8
 73
4
 74
0
 40
0
 40
0
 40
0
 40
0
 40
1
 40
1
 40
1
 40
1
 10
600.214836
 20
157.245011
 30
0.0
 10
600.147086
 20
157.397448
 30
0.0
 10
600.056752
 20
157.530121
 30
0.0
 10
599.943835
 20
157.643029
 30
0.0
  0
SPLINE
  5
867
100
AcDbEntity
  8
Layer_1
 62
3
100
AcDbSpline
 70
8
 71
3
 72
8
 73
4
 74
0
 40
0
 40
0
 40
0
 40
0
 40
1
 40
1
 40
1
 40
1
 10
599.943835
 20
157.643029
 30
0.0
 10
599.830918
 20
157.755955
 30
0.0
 10
599.695417
 20
157.846294
 30
0.0
 10
599.537333
 20
157.914047
 30
0.0
  0
SPLINE
  5
868
100
AcDbEntity
  8
Layer_1
 62
3
100
AcDbSpline
 70
8
 71
3
 72
8
 73
4
 74
0
 40
0
 40
0
 40
0
 40
0
 40
1
 40
1
 40
1
 40
1
 10
599.537333
 20
157.914047
 30
0.0
 10
599.384894
 20
157.981799
 30
0.0
 10
599.221164
 20
158.015675
 30
0.0
 10
599.046142
 20
158.015675
 30
0.0
  0
LINE
  5
869
100
AcDbEntity
  8
Layer_1
 62
3
100
AcDbLine
 10
599.046142
 20
158.015675
 30
0.0
 11
598.199264
 21
158.015675
 31
0.0
  0
SPLINE
  5
86a
100
AcDbEntity
  8
Layer_1
 62
3
100
AcDbSpline
 70
8
 71
3
 72
8
 73
4
 74
0
 40
0
 40
0
 40
0
 40
0
 40
1
 40
1
 40
1
 40
1
 10
598.199264
 20
158.015675
 30
0.0
 10
598.024243
 20
158.015675
 30
0.0
 10
597.857691
 20
157.981799
 30
0.0
 10
597.699607
 20
157.914047
 30
0.0
  0
SPLINE
  5
86b
100
AcDbEntity
  8
Layer_1
 62
3
100
AcDbSpline
 70
8
 71
3
 72
8
 73
4
 74
0
 40
0
 40
0
 40
0
 40
0
 40
1
 40
1
 40
1
 40
1
 10
597.699607
 20
157.914047
 30
0.0
 10
597.547169
 20
157.846294
 30
0.0
 10
597.414492
 20
157.755955
 30
0.0
 10
597.301575
 20
157.643029
 30
0.0
  0
SPLINE
  5
86c
100
AcDbEntity
  8
Layer_1
 62
3
100
AcDbSpline
 70
8
 71
3
 72
8
 73
4
 74
0
 40
0
 40
0
 40
0
 40
0
 40
1
 40
1
 40
1
 40
1
 10
597.301575
 20
157.643029
 30
0.0
 10
597.188657
 20
157.530121
 30
0.0
 10
597.098324
 20
157.397448
 30
0.0
 10
597.030573
 20
157.245011
 30
0.0
  0
SPLINE
  5
86d
100
AcDbEntity
  8
Layer_1
 62
3
100
AcDbSpline
 70
8
 71
3
 72
8
 73
4
 74
0
 40
0
 40
0
 40
0
 40
0
 40
1
 40
1
 40
1
 40
1
 10
597.030573
 20
157.245011
 30
0.0
 10
596.962823
 20
157.086929
 30
0.0
 10
596.928948
 20
156.920370
 30
0.0
 10
596.928948
 20
156.745336
 30
0.0
  0
SPLINE
  5
86e
100
AcDbEntity
  8
Layer_1
 62
3
100
AcDbSpline
 70
8
 71
3
 72
8
 73
4
 74
0
 40
0
 40
0
 40
0
 40
0
 40
1
 40
1
 40
1
 40
1
 10
596.928948
 20
156.745336
 30
0.0
 10
596.928948
 20
156.570321
 30
0.0
 10
596.962823
 20
156.406594
 30
0.0
 10
597.030573
 20
156.254157
 30
0.0
  0
SPLINE
  5
86f
100
AcDbEntity
  8
Layer_1
 62
3
100
AcDbSpline
 70
8
 71
3
 72
8
 73
4
 74
0
 40
0
 40
0
 40
0
 40
0
 40
1
 40
1
 40
1
 40
1
 10
597.030573
 20
156.254157
 30
0.0
 10
597.098324
 20
156.096074
 30
0.0
 10
597.188657
 20
155.960570
 30
0.0
 10
597.301575
 20
155.847644
 30
0.0
  0
SPLINE
  5
870
100
AcDbEntity
  8
Layer_1
 62
3
100
AcDbSpline
 70
8
 71
3
 72
8
 73
4
 74
0
 40
0
 40
0
 40
0
 40
0
 40
1
 40
1
 40
1
 40
1
 10
597.301575
 20
155.847644
 30
0.0
 10
597.414492
 20
155.734736
 30
0.0
 10
597.547169
 20
155.644406
 30
0.0
 10
597.699607
 20
155.576654
 30
0.0
  0
SPLINE
  5
871
100
AcDbEntity
  8
Layer_1
 62
3
100
AcDbSpline
 70
8
 71
3
 72
8
 73
4
 74
0
 40
0
 40
0
 40
0
 40
0
 40
1
 40
1
 40
1
 40
1
 10
597.699607
 20
155.576654
 30
0.0
 10
597.857691
 20
155.508902
 30
0.0
 10
598.024243
 20
155.475026
 30
0.0
 10
598.199264
 20
155.475026
 30
0.0
  0
LINE
  5
872
100
AcDbEntity
  8
Layer_1
 62
3
100
AcDbLine
 10
598.199264
 20
155.475026
 30
0.0
 11
599.046142
 21
155.475026
 31
0.0
  0
LINE
  5
873
100
AcDbEntity
  8
Layer_1
 62
3
100
AcDbLine
 10
599.046142
 20
155.475026
 30
0.0
 11
599.046142
 21
155.475026
 31
0.0
  0
LINE
  5
874
100
AcDbEntity
  8
Layer_1
 62
5
100
AcDbLine
 10
561.405148
 20
96.992230
 30
0.0
 11
561.755298
 21
93.577087
 31
0.0
  0
LINE
  5
875
100
AcDbEntity
  8
Layer_1
 62
5
100
AcDbLine
 10
561.755298
 20
93.577087
 30
0.0
 11
561.168310
 21
89.427827
 31
0.0
  0
LINE
  5
876
100
AcDbEntity
  8
Layer_1
 62
5
100
AcDbLine
 10
561.168310
 20
89.427827
 30
0.0
 11
557.837362
 21
81.706001
 31
0.0
  0
LINE
  5
877
100
AcDbEntity
  8
Layer_1
 62
5
100
AcDbLine
 10
557.837362
 20
81.706001
 30
0.0
 11
552.720216
 21
81.706001
 31
0.0
  0
LINE
  5
878
100
AcDbEntity
  8
Layer_1
 62
5
100
AcDbLine
 10
552.720216
 20
81.706001
 30
0.0
 11
549.389268
 21
89.427827
 31
0.0
  0
LINE
  5
879
100
AcDbEntity
  8
Layer_1
 62
5
100
AcDbLine
 10
549.389268
 20
89.427827
 30
0.0
 11
548.802280
 21
93.577087
 31
0.0
  0
LINE
  5
87a
100
AcDbEntity
  8
Layer_1
 62
5
100
AcDbLine
 10
548.802280
 20
93.577087
 30
0.0
 11
549.152430
 21
96.992230
 31
0.0
  0
LINE
  5
87b
100
AcDbEntity
  8
Layer_1
 62
5
100
AcDbLine
 10
549.152430
 20
96.992230
 30
0.0
 11
540.598909
 21
98.500454
 31
0.0
  0
LINE
  5
87c
100
AcDbEntity
  8
Layer_1
 62
5
100
AcDbLine
 10
540.598909
 20
98.500454
 30
0.0
 11
539.759891
 21
95.171501
 31
0.0
  0
LINE
  5
87d
100
AcDbEntity
  8
Layer_1
 62
5
100
AcDbLine
 10
539.759891
 20
95.171501
 30
0.0
 11
537.789178
 21
91.473233
 31
0.0
  0
LINE
  5
87e
100
AcDbEntity
  8
Layer_1
 62
5
100
AcDbLine
 10
537.789178
 20
91.473233
 30
0.0
 11
532.018087
 21
85.356348
 31
0.0
  0
LINE
  5
87f
100
AcDbEntity
  8
Layer_1
 62
5
100
AcDbLine
 10
532.018087
 20
85.356348
 30
0.0
 11
527.209547
 21
87.106521
 31
0.0
  0
LINE
  5
880
100
AcDbEntity
  8
Layer_1
 62
5
100
AcDbLine
 10
527.209547
 20
87.106521
 30
0.0
 11
526.720502
 21
95.501927
 31
0.0
  0
LINE
  5
881
100
AcDbEntity
  8
Layer_1
 62
5
100
AcDbLine
 10
526.720502
 20
95.501927
 30
0.0
 11
527.588041
 21
99.601685
 31
0.0
  0
LINE
  5
882
100
AcDbEntity
  8
Layer_1
 62
5
100
AcDbLine
 10
527.588041
 20
99.601685
 30
0.0
 11
529.085117
 21
102.691115
 31
0.0
  0
LINE
  5
883
100
AcDbEntity
  8
Layer_1
 62
5
100
AcDbLine
 10
529.085117
 20
102.691115
 30
0.0
 11
521.563280
 21
107.033866
 31
0.0
  0
LINE
  5
884
100
AcDbEntity
  8
Layer_1
 62
5
100
AcDbLine
 10
521.563280
 20
107.033866
 30
0.0
 11
519.636297
 21
104.192650
 31
0.0
  0
LINE
  5
885
100
AcDbEntity
  8
Layer_1
 62
5
100
AcDbLine
 10
519.636297
 20
104.192650
 30
0.0
 11
516.519551
 21
101.391425
 31
0.0
  0
LINE
  5
886
100
AcDbEntity
  8
Layer_1
 62
5
100
AcDbLine
 10
516.519551
 20
101.391425
 30
0.0
 11
509.004399
 21
97.617267
 31
0.0
  0
LINE
  5
887
100
AcDbEntity
  8
Layer_1
 62
5
100
AcDbLine
 10
509.004399
 20
97.617267
 30
0.0
 11
505.084439
 21
100.906511
 31
0.0
  0
LINE
  5
888
100
AcDbEntity
  8
Layer_1
 62
5
100
AcDbLine
 10
505.084439
 20
100.906511
 30
0.0
 11
507.496280
 21
108.962855
 31
0.0
  0
LINE
  5
889
100
AcDbEntity
  8
Layer_1
 62
5
100
AcDbLine
 10
507.496280
 20
108.962855
 30
0.0
 11
509.713711
 21
112.518686
 31
0.0
  0
LINE
  5
88a
100
AcDbEntity
  8
Layer_1
 62
5
100
AcDbLine
 10
509.713711
 20
112.518686
 30
0.0
 11
512.177150
 21
114.909757
 31
0.0
  0
LINE
  5
88b
100
AcDbEntity
  8
Layer_1
 62
5
100
AcDbLine
 10
512.177150
 20
114.909757
 30
0.0
 11
506.594238
 21
121.563203
 31
0.0
  0
LINE
  5
88c
100
AcDbEntity
  8
Layer_1
 62
5
100
AcDbLine
 10
506.594238
 20
121.563203
 30
0.0
 11
503.811713
 21
119.552397
 31
0.0
  0
LINE
  5
88d
100
AcDbEntity
  8
Layer_1
 62
5
100
AcDbLine
 10
503.811713
 20
119.552397
 30
0.0
 11
499.924861
 21
117.986121
 31
0.0
  0
LINE
  5
88e
100
AcDbEntity
  8
Layer_1
 62
5
100
AcDbLine
 10
499.924861
 20
117.986121
 30
0.0
 11
491.572082
 21
117.009886
 31
0.0
  0
LINE
  5
88f
100
AcDbEntity
  8
Layer_1
 62
5
100
AcDbLine
 10
491.572082
 20
117.009886
 30
0.0
 11
489.013512
 21
121.441480
 31
0.0
  0
LINE
  5
890
100
AcDbEntity
  8
Layer_1
 62
5
100
AcDbLine
 10
489.013512
 20
121.441480
 30
0.0
 11
494.035340
 21
128.187071
 31
0.0
  0
LINE
  5
891
100
AcDbEntity
  8
Layer_1
 62
5
100
AcDbLine
 10
494.035340
 20
128.187071
 30
0.0
 11
497.335204
 21
130.770054
 31
0.0
  0
LINE
  5
892
100
AcDbEntity
  8
Layer_1
 62
5
100
AcDbLine
 10
497.335204
 20
130.770054
 30
0.0
 11
500.467879
 21
132.174392
 31
0.0
  0
LINE
  5
893
100
AcDbEntity
  8
Layer_1
 62
5
100
AcDbLine
 10
500.467879
 20
132.174392
 30
0.0
 11
497.497273
 21
140.336061
 31
0.0
  0
LINE
  5
894
100
AcDbEntity
  8
Layer_1
 62
5
100
AcDbLine
 10
497.497273
 20
140.336061
 30
0.0
 11
494.194816
 21
139.398180
 31
0.0
  0
LINE
  5
895
100
AcDbEntity
  8
Layer_1
 62
5
100
AcDbLine
 10
494.194816
 20
139.398180
 30
0.0
 11
490.006672
 21
139.255742
 31
0.0
  0
LINE
  5
896
100
AcDbEntity
  8
Layer_1
 62
5
100
AcDbLine
 10
490.006672
 20
139.255742
 30
0.0
 11
481.823737
 21
141.195202
 31
0.0
  0
LINE
  5
897
100
AcDbEntity
  8
Layer_1
 62
5
100
AcDbLine
 10
481.823737
 20
141.195202
 30
0.0
 11
480.935155
 21
146.234618
 31
0.0
  0
LINE
  5
898
100
AcDbEntity
  8
Layer_1
 62
5
100
AcDbLine
 10
480.935155
 20
146.234618
 30
0.0
 11
487.961263
 21
150.855838
 31
0.0
  0
LINE
  5
899
100
AcDbEntity
  8
Layer_1
 62
5
100
AcDbLine
 10
487.961263
 20
150.855838
 30
0.0
 11
491.945547
 21
152.154427
 31
0.0
  0
LINE
  5
89a
100
AcDbEntity
  8
Layer_1
 62
5
100
AcDbLine
 10
491.945547
 20
152.154427
 30
0.0
 11
495.369608
 21
152.402642
 31
0.0
  0
LINE
  5
89b
100
AcDbEntity
  8
Layer_1
 62
5
100
AcDbLine
 10
495.369608
 20
152.402642
 30
0.0
 11
495.369608
 21
161.088087
 31
0.0
  0
LINE
  5
89c
100
AcDbEntity
  8
Layer_1
 62
5
100
AcDbLine
 10
495.369608
 20
161.088087
 30
0.0
 11
491.945547
 21
161.336302
 31
0.0
  0
LINE
  5
89d
100
AcDbEntity
  8
Layer_1
 62
5
100
AcDbLine
 10
491.945547
 20
161.336302
 30
0.0
 11
487.961263
 21
162.634891
 31
0.0
  0
LINE
  5
89e
100
AcDbEntity
  8
Layer_1
 62
5
100
AcDbLine
 10
487.961263
 20
162.634891
 30
0.0
 11
480.935155
 21
167.256110
 31
0.0
  0
LINE
  5
89f
100
AcDbEntity
  8
Layer_1
 62
5
100
AcDbLine
 10
480.935155
 20
167.256110
 30
0.0
 11
481.823737
 21
172.295527
 31
0.0
  0
LINE
  5
8a0
100
AcDbEntity
  8
Layer_1
 62
5
100
AcDbLine
 10
481.823737
 20
172.295527
 30
0.0
 11
490.006672
 21
174.234986
 31
0.0
  0
LINE
  5
8a1
100
AcDbEntity
  8
Layer_1
 62
5
100
AcDbLine
 10
490.006672
 20
174.234986
 30
0.0
 11
494.194816
 21
174.092549
 31
0.0
  0
LINE
  5
8a2
100
AcDbEntity
  8
Layer_1
 62
5
100
AcDbLine
 10
494.194816
 20
174.092549
 30
0.0
 11
497.497273
 21
173.154668
 31
0.0
  0
LINE
  5
8a3
100
AcDbEntity
  8
Layer_1
 62
5
100
AcDbLine
 10
497.497273
 20
173.154668
 30
0.0
 11
500.467879
 21
181.316337
 31
0.0
  0
LINE
  5
8a4
100
AcDbEntity
  8
Layer_1
 62
5
100
AcDbLine
 10
500.467879
 20
181.316337
 30
0.0
 11
497.335204
 21
182.720675
 31
0.0
  0
LINE
  5
8a5
100
AcDbEntity
  8
Layer_1
 62
5
100
AcDbLine
 10
497.335204
 20
182.720675
 30
0.0
 11
494.035340
 21
185.303658
 31
0.0
  0
LINE
  5
8a6
100
AcDbEntity
  8
Layer_1
 62
5
100
AcDbLine
 10
494.035340
 20
185.303658
 30
0.0
 11
489.013512
 21
192.049249
 31
0.0
  0
LINE
  5
8a7
100
AcDbEntity
  8
Layer_1
 62
5
100
AcDbLine
 10
489.013512
 20
192.049249
 30
0.0
 11
491.572082
 21
196.480843
 31
0.0
  0
LINE
  5
8a8
100
AcDbEntity
  8
Layer_1
 62
5
100
AcDbLine
 10
491.572082
 20
196.480843
 30
0.0
 11
499.924861
 21
195.504608
 31
0.0
  0
LINE
  5
8a9
100
AcDbEntity
  8
Layer_1
 62
5
100
AcDbLine
 10
499.924861
 20
195.504608
 30
0.0
 11
503.811713
 21
193.938331
 31
0.0
  0
LINE
  5
8aa
100
AcDbEntity
  8
Layer_1
 62
5
100
AcDbLine
 10
503.811713
 20
193.938331
 30
0.0
 11
506.594238
 21
191.927526
 31
0.0
  0
LINE
  5
8ab
100
AcDbEntity
  8
Layer_1
 62
5
100
AcDbLine
 10
506.594238
 20
191.927526
 30
0.0
 11
512.177150
 21
198.580972
 31
0.0
  0
LINE
  5
8ac
100
AcDbEntity
  8
Layer_1
 62
5
100
AcDbLine
 10
512.177150
 20
198.580972
 30
0.0
 11
509.713711
 21
200.972043
 31
0.0
  0
LINE
  5
8ad
100
AcDbEntity
  8
Layer_1
 62
5
100
AcDbLine
 10
509.713711
 20
200.972043
 30
0.0
 11
507.496280
 21
204.527874
 31
0.0
  0
LINE
  5
8ae
100
AcDbEntity
  8
Layer_1
 62
5
100
AcDbLine
 10
507.496280
 20
204.527874
 30
0.0
 11
505.084439
 21
212.584218
 31
0.0
  0
LINE
  5
8af
100
AcDbEntity
  8
Layer_1
 62
5
100
AcDbLine
 10
505.084439
 20
212.584218
 30
0.0
 11
509.004399
 21
215.873461
 31
0.0
  0
LINE
  5
8b0
100
AcDbEntity
  8
Layer_1
 62
5
100
AcDbLine
 10
509.004399
 20
215.873461
 30
0.0
 11
516.519551
 21
212.099303
 31
0.0
  0
LINE
  5
8b1
100
AcDbEntity
  8
Layer_1
 62
5
100
AcDbLine
 10
516.519551
 20
212.099303
 30
0.0
 11
519.636297
 21
209.298079
 31
0.0
  0
LINE
  5
8b2
100
AcDbEntity
  8
Layer_1
 62
5
100
AcDbLine
 10
519.636297
 20
209.298079
 30
0.0
 11
521.563280
 21
206.456863
 31
0.0
  0
LINE
  5
8b3
100
AcDbEntity
  8
Layer_1
 62
5
100
AcDbLine
 10
521.563280
 20
206.456863
 30
0.0
 11
529.085117
 21
210.799614
 31
0.0
  0
LINE
  5
8b4
100
AcDbEntity
  8
Layer_1
 62
5
100
AcDbLine
 10
529.085117
 20
210.799614
 30
0.0
 11
527.588041
 21
213.889044
 31
0.0
  0
LINE
  5
8b5
100
AcDbEntity
  8
Layer_1
 62
5
100
AcDbLine
 10
527.588041
 20
213.889044
 30
0.0
 11
526.720502
 21
217.988802
 31
0.0
  0
LINE
  5
8b6
100
AcDbEntity
  8
Layer_1
 62
5
100
AcDbLine
 10
526.720502
 20
217.988802
 30
0.0
 11
527.209547
 21
226.384207
 31
0.0
  0
LINE
  5
8b7
100
AcDbEntity
  8
Layer_1
 62
5
100
AcDbLine
 10
527.209547
 20
226.384207
 30
0.0
 11
532.018087
 21
228.134380
 31
0.0
  0
LINE
  5
8b8
100
AcDbEntity
  8
Layer_1
 62
5
100
AcDbLine
 10
532.018087
 20
228.134380
 30
0.0
 11
537.789178
 21
222.017496
 31
0.0
  0
LINE
  5
8b9
100
AcDbEntity
  8
Layer_1
 62
5
100
AcDbLine
 10
537.789178
 20
222.017496
 30
0.0
 11
539.759891
 21
218.319227
 31
0.0
  0
LINE
  5
8ba
100
AcDbEntity
  8
Layer_1
 62
5
100
AcDbLine
 10
539.759891
 20
218.319227
 30
0.0
 11
540.598909
 21
214.990275
 31
0.0
  0
LINE
  5
8bb
100
AcDbEntity
  8
Layer_1
 62
5
100
AcDbLine
 10
540.598909
 20
214.990275
 30
0.0
 11
549.152430
 21
216.498499
 31
0.0
  0
LINE
  5
8bc
100
AcDbEntity
  8
Layer_1
 62
5
100
AcDbLine
 10
549.152430
 20
216.498499
 30
0.0
 11
548.802280
 21
219.913642
 31
0.0
  0
LINE
  5
8bd
100
AcDbEntity
  8
Layer_1
 62
5
100
AcDbLine
 10
548.802280
 20
219.913642
 30
0.0
 11
549.389268
 21
224.062901
 31
0.0
  0
LINE
  5
8be
100
AcDbEntity
  8
Layer_1
 62
5
100
AcDbLine
 10
549.389268
 20
224.062901
 30
0.0
 11
552.720216
 21
231.784727
 31
0.0
  0
LINE
  5
8bf
100
AcDbEntity
  8
Layer_1
 62
5
100
AcDbLine
 10
552.720216
 20
231.784727
 30
0.0
 11
557.837362
 21
231.784727
 31
0.0
  0
LINE
  5
8c0
100
AcDbEntity
  8
Layer_1
 62
5
100
AcDbLine
 10
557.837362
 20
231.784727
 30
0.0
 11
561.168310
 21
224.062901
 31
0.0
  0
LINE
  5
8c1
100
AcDbEntity
  8
Layer_1
 62
5
100
AcDbLine
 10
561.168310
 20
224.062901
 30
0.0
 11
561.755298
 21
219.913642
 31
0.0
  0
LINE
  5
8c2
100
AcDbEntity
  8
Layer_1
 62
5
100
AcDbLine
 10
561.755298
 20
219.913642
 30
0.0
 11
561.405148
 21
216.498499
 31
0.0
  0
LINE
  5
8c3
100
AcDbEntity
  8
Layer_1
 62
5
100
AcDbLine
 10
561.405148
 20
216.498499
 30
0.0
 11
569.958669
 21
214.990275
 31
0.0
  0
LINE
  5
8c4
100
AcDbEntity
  8
Layer_1
 62
5
100
AcDbLine
 10
569.958669
 20
214.990275
 30
0.0
 11
570.797687
 21
218.319227
 31
0.0
  0
LINE
  5
8c5
100
AcDbEntity
  8
Layer_1
 62
5
100
AcDbLine
 10
570.797687
 20
218.319227
 30
0.0
 11
572.768400
 21
222.017496
 31
0.0
  0
LINE
  5
8c6
100
AcDbEntity
  8
Layer_1
 62
5
100
AcDbLine
 10
572.768400
 20
222.017496
 30
0.0
 11
578.539492
 21
228.134380
 31
0.0
  0
LINE
  5
8c7
100
AcDbEntity
  8
Layer_1
 62
5
100
AcDbLine
 10
578.539492
 20
228.134380
 30
0.0
 11
583.348031
 21
226.384207
 31
0.0
  0
LINE
  5
8c8
100
AcDbEntity
  8
Layer_1
 62
5
100
AcDbLine
 10
583.348031
 20
226.384207
 30
0.0
 11
583.837077
 21
217.988802
 31
0.0
  0
LINE
  5
8c9
100
AcDbEntity
  8
Layer_1
 62
5
100
AcDbLine
 10
583.837077
 20
217.988802
 30
0.0
 11
582.969537
 21
213.889044
 31
0.0
  0
LINE
  5
8ca
100
AcDbEntity
  8
Layer_1
 62
5
100
AcDbLine
 10
582.969537
 20
213.889044
 30
0.0
 11
581.472461
 21
210.799614
 31
0.0
  0
LINE
  5
8cb
100
AcDbEntity
  8
Layer_1
 62
5
100
AcDbLine
 10
581.472461
 20
210.799614
 30
0.0
 11
588.994298
 21
206.456863
 31
0.0
  0
LINE
  5
8cc
100
AcDbEntity
  8
Layer_1
 62
5
100
AcDbLine
 10
588.994298
 20
206.456863
 30
0.0
 11
590.921281
 21
209.298079
 31
0.0
  0
LINE
  5
8cd
100
AcDbEntity
  8
Layer_1
 62
5
100
AcDbLine
 10
590.921281
 20
209.298079
 30
0.0
 11
594.038027
 21
212.099303
 31
0.0
  0
LINE
  5
8ce
100
AcDbEntity
  8
Layer_1
 62
5
100
AcDbLine
 10
594.038027
 20
212.099303
 30
0.0
 11
601.553179
 21
215.873461
 31
0.0
  0
LINE
  5
8cf
100
AcDbEntity
  8
Layer_1
 62
5
100
AcDbLine
 10
601.553179
 20
215.873461
 30
0.0
 11
605.473139
 21
212.584218
 31
0.0
  0
LINE
  5
8d0
100
AcDbEntity
  8
Layer_1
 62
5
100
AcDbLine
 10
605.473139
 20
212.584218
 30
0.0
 11
603.061298
 21
204.527874
 31
0.0
  0
LINE
  5
8d1
100
AcDbEntity
  8
Layer_1
 62
5
100
AcDbLine
 10
603.061298
 20
204.527874
 30
0.0
 11
600.843867
 21
200.972043
 31
0.0
  0
LINE
  5
8d2
100
AcDbEntity
  8
Layer_1
 62
5
100
AcDbLine
 10
600.843867
 20
200.972043
 30
0.0
 11
598.380428
 21
198.580972
 31
0.0
  0
LINE
  5
8d3
100
AcDbEntity
  8
Layer_1
 62
5
100
AcDbLine
 10
598.380428
 20
198.580972
 30
0.0
 11
603.963340
 21
191.927526
 31
0.0
  0
LINE
  5
8d4
100
AcDbEntity
  8
Layer_1
 62
5
100
AcDbLine
 10
603.963340
 20
191.927526
 30
0.0
 11
606.745865
 21
193.938331
 31
0.0
  0
LINE
  5
8d5
100
AcDbEntity
  8
Layer_1
 62
5
100
AcDbLine
 10
606.745865
 20
193.938331
 30
0.0
 11
610.632717
 21
195.504608
 31
0.0
  0
LINE
  5
8d6
100
AcDbEntity
  8
Layer_1
 62
5
100
AcDbLine
 10
610.632717
 20
195.504608
 30
0.0
 11
618.985496
 21
196.480843
 31
0.0
  0
LINE
  5
8d7
100
AcDbEntity
  8
Layer_1
 62
5
100
AcDbLine
 10
618.985496
 20
196.480843
 30
0.0
 11
621.544066
 21
192.049249
 31
0.0
  0
LINE
  5
8d8
100
AcDbEntity
  8
Layer_1
 62
5
100
AcDbLine
 10
621.544066
 20
192.049249
 30
0.0
 11
616.522238
 21
185.303658
 31
0.0
  0
LINE
  5
8d9
100
AcDbEntity
  8
Layer_1
 62
5
100
AcDbLine
 10
616.522238
 20
185.303658
 30
0.0
 11
613.222374
 21
182.720675
 31
0.0
  0
LINE
  5
8da
100
AcDbEntity
  8
Layer_1
 62
5
100
AcDbLine
 10
613.222374
 20
182.720675
 30
0.0
 11
610.089699
 21
181.316337
 31
0.0
  0
LINE
  5
8db
100
AcDbEntity
  8
Layer_1
 62
5
100
AcDbLine
 10
610.089699
 20
181.316337
 30
0.0
 11
613.060305
 21
173.154668
 31
0.0
  0
LINE
  5
8dc
100
AcDbEntity
  8
Layer_1
 62
5
100
AcDbLine
 10
613.060305
 20
173.154668
 30
0.0
 11
616.362762
 21
174.092549
 31
0.0
  0
LINE
  5
8dd
100
AcDbEntity
  8
Layer_1
 62
5
100
AcDbLine
 10
616.362762
 20
174.092549
 30
0.0
 11
620.550906
 21
174.234986
 31
0.0
  0
LINE
  5
8de
100
AcDbEntity
  8
Layer_1
 62
5
100
AcDbLine
 10
620.550906
 20
174.234986
 30
0.0
 11
628.733841
 21
172.295527
 31
0.0
  0
LINE
  5
8df
100
AcDbEntity
  8
Layer_1
 62
5
100
AcDbLine
 10
628.733841
 20
172.295527
 30
0.0
 11
629.622423
 21
167.256110
 31
0.0
  0
LINE
  5
8e0
100
AcDbEntity
  8
Layer_1
 62
5
100
AcDbLine
 10
629.622423
 20
167.256110
 30
0.0
 11
622.596315
 21
162.634891
 31
0.0
  0
LINE
  5
8e1
100
AcDbEntity
  8
Layer_1
 62
5
100
AcDbLine
 10
622.596315
 20
162.634891
 30
0.0
 11
618.612031
 21
161.336302
 31
0.0
  0
LINE
  5
8e2
100
AcDbEntity
  8
Layer_1
 62
5
100
AcDbLine
 10
618.612031
 20
161.336302
 30
0.0
 11
615.187970
 21
161.088087
 31
0.0
  0
LINE
  5
8e3
100
AcDbEntity
  8
Layer_1
 62
5
100
AcDbLine
 10
615.187970
 20
161.088087
 30
0.0
 11
615.187970
 21
152.402642
 31
0.0
  0
LINE
  5
8e4
100
AcDbEntity
  8
Layer_1
 62
5
100
AcDbLine
 10
615.187970
 20
152.402642
 30
0.0
 11
618.612031
 21
152.154427
 31
0.0
  0
LINE
  5
8e5
100
AcDbEntity
  8
Layer_1
 62
5
100
AcDbLine
 10
618.612031
 20
152.154427
 30
0.0
 11
622.596315
 21
150.855838
 31
0.0
  0
LINE
  5
8e6
100
AcDbEntity
  8
Layer_1
 62
5
100
AcDbLine
 10
622.596315
 20
150.855838
 30
0.0
 11
629.622423
 21
146.234618
 31
0.0
  0
LINE
  5
8e7
100
AcDbEntity
  8
Layer_1
 62
5
100
AcDbLine
 10
629.622423
 20
146.234618
 30
0.0
 11
628.733841
 21
141.195202
 31
0.0
  0
LINE
  5
8e8
100
AcDbEntity
  8
Layer_1
 62
5
100
AcDbLine
 10
628.733841
 20
141.195202
 30
0.0
 11
620.550906
 21
139.255742
 31
0.0
  0
LINE
  5
8e9
100
AcDbEntity
  8
Layer_1
 62
5
100
AcDbLine
 10
620.550906
 20
139.255742
 30
0.0
 11
616.362762
 21
139.398180
 31
0.0
  0
LINE
  5
8ea
100
AcDbEntity
  8
Layer_1
 62
5
100
AcDbLine
 10
616.362762
 20
139.398180
 30
0.0
 11
613.060305
 21
140.336061
 31
0.0
  0
LINE
  5
8eb
100
AcDbEntity
  8
Layer_1
 62
5
100
AcDbLine
 10
613.060305
 20
140.336061
 30
0.0
 11
610.089699
 21
132.174392
 31
0.0
  0
LINE
  5
8ec
100
AcDbEntity
  8
Layer_1
 62
5
100
AcDbLine
 10
610.089699
 20
132.174392
 30
0.0
 11
613.222374
 21
130.770054
 31
0.0
  0
LINE
  5
8ed
100
AcDbEntity
  8
Layer_1
 62
5
100
AcDbLine
 10
613.222374
 20
130.770054
 30
0.0
 11
616.522238
 21
128.187071
 31
0.0
  0
LINE
  5
8ee
100
AcDbEntity
  8
Layer_1
 62
5
100
AcDbLine
 10
616.522238
 20
128.187071
 30
0.0
 11
621.544066
 21
121.441480
 31
0.0
  0
LINE
  5
8ef
100
AcDbEntity
  8
Layer_1
 62
5
100
AcDbLine
 10
621.544066
 20
121.441480
 30
0.0
 11
618.985496
 21
117.009886
 31
0.0
  0
LINE
  5
8f0
100
AcDbEntity
  8
Layer_1
 62
5
100
AcDbLine
 10
618.985496
 20
117.009886
 30
0.0
 11
610.632717
 21
117.986121
 31
0.0
  0
LINE
  5
8f1
100
AcDbEntity
  8
Layer_1
 62
5
100
AcDbLine
 10
610.632717
 20
117.986121
 30
0.0
 11
606.745865
 21
119.552397
 31
0.0
  0
LINE
  5
8f2
100
AcDbEntity
  8
Layer_1
 62
5
100
AcDbLine
 10
606.745865
 20
119.552397
 30
0.0
 11
603.963340
 21
121.563203
 31
0.0
  0
LINE
  5
8f3
100
AcDbEntity
  8
Layer_1
 62
5
100
AcDbLine
 10
603.963340
 20
121.563203
 30
0.0
 11
598.380428
 21
114.909757
 31
0.0
  0
LINE
  5
8f4
100
AcDbEntity
  8
Layer_1
 62
5
100
AcDbLine
 10
598.380428
 20
114.909757
 30
0.0
 11
600.843867
 21
112.518686
 31
0.0
  0
LINE
  5
8f5
100
AcDbEntity
  8
Layer_1
 62
5
100
AcDbLine
 10
600.843867
 20
112.518686
 30
0.0
 11
603.061298
 21
108.962855
 31
0.0
  0
LINE
  5
8f6
100
AcDbEntity
  8
Layer_1
 62
5
100
AcDbLine
 10
603.061298
 20
108.962855
 30
0.0
 11
605.473139
 21
100.906511
 31
0.0
  0
LINE
  5
8f7
100
AcDbEntity
  8
Layer_1
 62
5
100
AcDbLine
 10
605.473139
 20
100.906511
 30
0.0
 11
601.553179
 21
97.617267
 31
0.0
  0
LINE
  5
8f8
100
AcDbEntity
  8
Layer_1
 62
5
100
AcDbLine
 10
601.553179
 20
97.617267
 30
0.0
 11
594.038027
 21
101.391425
 31
0.0
  0
LINE
  5
8f9
100
AcDbEntity
  8
Layer_1
 62
5
100
AcDbLine
 10
594.038027
 20
101.391425
 30
0.0
 11
590.921281
 21
104.192650
 31
0.0
  0
LINE
  5
8fa
100
AcDbEntity
  8
Layer_1
 62
5
100
AcDbLine
 10
590.921281
 20
104.192650
 30
0.0
 11
588.994298
 21
107.033866
 31
0.0
  0
LINE
  5
8fb
100
AcDbEntity
  8
Layer_1
 62
5
100
AcDbLine
 10
588.994298
 20
107.033866
 30
0.0
 11
581.472461
 21
102.691115
 31
0.0
  0
LINE
  5
8fc
100
AcDbEntity
  8
Layer_1
 62
5
100
AcDbLine
 10
581.472461
 20
102.691115
 30
0.0
 11
582.969537
 21
99.601685
 31
0.0
  0
LINE
  5
8fd
100
AcDbEntity
  8
Layer_1
 62
5
100
AcDbLine
 10
582.969537
 20
99.601685
 30
0.0
 11
583.837077
 21
95.501927
 31
0.0
  0
LINE
  5
8fe
100
AcDbEntity
  8
Layer_1
 62
5
100
AcDbLine
 10
583.837077
 20
95.501927
 30
0.0
 11
583.348031
 21
87.106521
 31
0.0
  0
LINE
  5
8ff
100
AcDbEntity
  8
Layer_1
 62
5
100
AcDbLine
 10
583.348031
 20
87.106521
 30
0.0
 11
578.539492
 21
85.356348
 31
0.0
  0
LINE
  5
900
100
AcDbEntity
  8
Layer_1
 62
5
100
AcDbLine
 10
578.539492
 20
85.356348
 30
0.0
 11
572.768400
 21
91.473233
 31
0.0
  0
LINE
  5
901
100
AcDbEntity
  8
Layer_1
 62
5
100
AcDbLine
 10
572.768400
 20
91.473233
 30
0.0
 11
570.797687
 21
95.171501
 31
0.0
  0
LINE
  5
902
100
AcDbEntity
  8
Layer_1
 62
5
100
AcDbLine
 10
570.797687
 20
95.171501
 30
0.0
 11
569.958669
 21
98.500454
 31
0.0
  0
LINE
  5
903
100
AcDbEntity
  8
Layer_1
 62
5
100
AcDbLine
 10
569.958669
 20
98.500454
 30
0.0
 11
561.405148
 21
96.992230
 31
0.0
  0
SPLINE
  5
904
100
AcDbEntity
  8
Layer_1
 62
5
100
AcDbSpline
 70
8
 71
3
 72
8
 73
4
 74
0
 40
0
 40
0
 40
0
 40
0
 40
1
 40
1
 40
1
 40
1
 10
573.823459
 20
165.709730
 30
0.0
 10
568.645539
 20
165.709730
 30
0.0
 10
564.448006
 20
169.907250
 30
0.0
 10
564.448006
 20
175.085181
 30
0.0
  0
LINE
  5
905
100
AcDbEntity
  8
Layer_1
 62
5
100
AcDbLine
 10
564.448006
 20
175.085181
 30
0.0
 11
564.352903
 21
188.304188
 31
0.0
  0
SPLINE
  5
906
100
AcDbEntity
  8
Layer_1
 62
5
100
AcDbSpline
 70
8
 71
3
 72
8
 73
4
 74
0
 40
0
 40
0
 40
0
 40
0
 40
1
 40
1
 40
1
 40
1
 10
564.352903
 20
188.304188
 30
0.0
 10
564.352903
 20
193.482119
 30
0.0
 10
568.550436
 20
197.679667
 30
0.0
 10
573.728359
 20
197.679667
 30
0.0
  0
SPLINE
  5
907
100
AcDbEntity
  8
Layer_1
 62
5
100
AcDbSpline
 70
8
 71
3
 72
8
 73
4
 74
0
 40
0
 40
0
 40
0
 40
0
 40
1
 40
1
 40
1
 40
1
 10
573.728359
 20
197.679667
 30
0.0
 10
575.539320
 20
197.679667
 30
0.0
 10
577.230361
 20
197.166192
 30
0.0
 10
578.631335
 20
196.335160
 30
0.0
  0
SPLINE
  5
908
100
AcDbEntity
  8
Layer_1
 62
5
100
AcDbSpline
 70
8
 71
3
 72
8
 73
4
 74
0
 40
0
 40
0
 40
0
 40
0
 40
1
 40
1
 40
1
 40
1
 10
578.631335
 20
196.335160
 30
0.0
 10
585.263665
 20
192.464849
 30
0.0
 10
590.851213
 20
186.903688
 30
0.0
 10
594.804912
 20
180.304345
 30
0.0
  0
SPLINE
  5
909
100
AcDbEntity
  8
Layer_1
 62
5
100
AcDbSpline
 70
8
 71
3
 72
8
 73
4
 74
0
 40
0
 40
0
 40
0
 40
0
 40
1
 40
1
 40
1
 40
1
 10
594.804912
 20
180.304345
 30
0.0
 10
595.703982
 20
178.906216
 30
0.0
 10
596.227730
 20
177.199505
 30
0.0
 10
596.227730
 20
175.370479
 30
0.0
  0
SPLINE
  5
90a
100
AcDbEntity
  8
Layer_1
 62
5
100
AcDbSpline
 70
8
 71
3
 72
8
 73
4
 74
0
 40
0
 40
0
 40
0
 40
0
 40
1
 40
1
 40
1
 40
1
 10
596.227730
 20
175.370479
 30
0.0
 10
596.227730
 20
170.192576
 30
0.0
 10
592.030197
 20
165.995029
 30
0.0
 10
586.852277
 20
165.995029
 30
0.0
  0
LINE
  5
90b
100
AcDbEntity
  8
Layer_1
 62
5
100
AcDbLine
 10
586.852277
 20
165.995029
 30
0.0
 11
573.823459
 21
165.709730
 31
0.0
  0
SPLINE
  5
90c
100
AcDbEntity
  8
Layer_1
 62
5
100
AcDbSpline
 70
8
 71
3
 72
8
 73
4
 74
0
 40
0
 40
0
 40
0
 40
0
 40
1
 40
1
 40
1
 40
1
 10
564.305351
 20
138.090955
 30
0.0
 10
564.305351
 20
143.268858
 30
0.0
 10
568.502884
 20
147.466405
 30
0.0
 10
573.680804
 20
147.466405
 30
0.0
  0
LINE
  5
90d
100
AcDbEntity
  8
Layer_1
 62
5
100
AcDbLine
 10
573.680804
 20
147.466405
 30
0.0
 11
586.899823
 21
147.561486
 31
0.0
  0
SPLINE
  5
90e
100
AcDbEntity
  8
Layer_1
 62
5
100
AcDbSpline
 70
8
 71
3
 72
8
 73
4
 74
0
 40
0
 40
0
 40
0
 40
0
 40
1
 40
1
 40
1
 40
1
 10
586.899823
 20
147.561486
 30
0.0
 10
592.077743
 20
147.561486
 30
0.0
 10
596.275279
 20
143.363967
 30
0.0
 10
596.275279
 20
138.186035
 30
0.0
  0
SPLINE
  5
90f
100
AcDbEntity
  8
Layer_1
 62
5
100
AcDbSpline
 70
8
 71
3
 72
8
 73
4
 74
0
 40
0
 40
0
 40
0
 40
0
 40
1
 40
1
 40
1
 40
1
 10
596.275279
 20
138.186035
 30
0.0
 10
596.275279
 20
136.375072
 30
0.0
 10
595.761821
 20
134.684053
 30
0.0
 10
594.930784
 20
133.283073
 30
0.0
  0
SPLINE
  5
910
100
AcDbEntity
  8
Layer_1
 62
5
100
AcDbSpline
 70
8
 71
3
 72
8
 73
4
 74
0
 40
0
 40
0
 40
0
 40
0
 40
1
 40
1
 40
1
 40
1
 10
594.930784
 20
133.283073
 30
0.0
 10
591.060459
 20
126.650738
 30
0.0
 10
585.499312
 20
121.063189
 30
0.0
 10
578.899960
 20
117.109482
 30
0.0
  0
SPLINE
  5
911
100
AcDbEntity
  8
Layer_1
 62
5
100
AcDbSpline
 70
8
 71
3
 72
8
 73
4
 74
0
 40
0
 40
0
 40
0
 40
0
 40
1
 40
1
 40
1
 40
1
 10
578.899960
 20
117.109482
 30
0.0
 10
577.501825
 20
116.210406
 30
0.0
 10
575.795129
 20
115.686658
 30
0.0
 10
573.966106
 20
115.686658
 30
0.0
  0
SPLINE
  5
912
100
AcDbEntity
  8
Layer_1
 62
5
100
AcDbSpline
 70
8
 71
3
 72
8
 73
4
 74
0
 40
0
 40
0
 40
0
 40
0
 40
1
 40
1
 40
1
 40
1
 10
573.966106
 20
115.686658
 30
0.0
 10
568.788186
 20
115.686658
 30
0.0
 10
564.590649
 20
119.884206
 30
0.0
 10
564.590649
 20
125.062137
 30
0.0
  0
LINE
  5
913
100
AcDbEntity
  8
Layer_1
 62
5
100
AcDbLine
 10
564.590649
 20
125.062137
 30
0.0
 11
564.305351
 21
138.090955
 31
0.0
  0
SPLINE
  5
914
100
AcDbEntity
  8
Layer_1
 62
5
100
AcDbSpline
 70
8
 71
3
 72
8
 73
4
 74
0
 40
0
 40
0
 40
0
 40
0
 40
1
 40
1
 40
1
 40
1
 10
536.639015
 20
147.609041
 30
0.0
 10
541.816935
 20
147.609041
 30
0.0
 10
546.014472
 20
143.411521
 30
0.0
 10
546.014472
 20
138.233590
 30
0.0
  0
LINE
  5
915
100
AcDbEntity
  8
Layer_1
 62
5
100
AcDbLine
 10
546.014472
 20
138.233590
 30
0.0
 11
546.109575
 21
125.014583
 31
0.0
  0
SPLINE
  5
916
100
AcDbEntity
  8
Layer_1
 62
5
100
AcDbSpline
 70
8
 71
3
 72
8
 73
4
 74
0
 40
0
 40
0
 40
0
 40
0
 40
1
 40
1
 40
1
 40
1
 10
546.109575
 20
125.014583
 30
0.0
 10
546.109575
 20
119.836652
 30
0.0
 10
541.912039
 20
115.639132
 30
0.0
 10
536.734119
 20
115.639132
 30
0.0
  0
SPLINE
  5
917
100
AcDbEntity
  8
Layer_1
 62
5
100
AcDbSpline
 70
8
 71
3
 72
8
 73
4
 74
0
 40
0
 40
0
 40
0
 40
0
 40
1
 40
1
 40
1
 40
1
 10
536.734119
 20
115.639132
 30
0.0
 10
534.923158
 20
115.639132
 30
0.0
 10
533.232116
 20
116.152579
 30
0.0
 10
531.831140
 20
116.983611
 30
0.0
  0
SPLINE
  5
918
100
AcDbEntity
  8
Layer_1
 62
5
100
AcDbSpline
 70
8
 71
3
 72
8
 73
4
 74
0
 40
0
 40
0
 40
0
 40
0
 40
1
 40
1
 40
1
 40
1
 10
531.831140
 20
116.983611
 30
0.0
 10
525.198813
 20
120.853950
 30
0.0
 10
519.611261
 20
126.415083
 30
0.0
 10
515.657565
 20
133.014454
 30
0.0
  0
SPLINE
  5
919
100
AcDbEntity
  8
Layer_1
 62
5
100
AcDbSpline
 70
8
 71
3
 72
8
 73
4
 74
0
 40
0
 40
0
 40
0
 40
0
 40
1
 40
1
 40
1
 40
1
 10
515.657565
 20
133.014454
 30
0.0
 10
514.758495
 20
134.412583
 30
0.0
 10
514.234747
 20
136.119266
 30
0.0
 10
514.234747
 20
137.948291
 30
0.0
  0
SPLINE
  5
91a
100
AcDbEntity
  8
Layer_1
 62
5
100
AcDbSpline
 70
8
 71
3
 72
8
 73
4
 74
0
 40
0
 40
0
 40
0
 40
0
 40
1
 40
1
 40
1
 40
1
 10
514.234747
 20
137.948291
 30
0.0
 10
514.234747
 20
143.126223
 30
0.0
 10
518.432281
 20
147.323742
 30
0.0
 10
523.610201
 20
147.323742
 30
0.0
  0
LINE
  5
91b
100
AcDbEntity
  8
Layer_1
 62
5
100
AcDbLine
 10
523.610201
 20
147.323742
 30
0.0
 11
536.639015
 21
147.609041
 31
0.0
  0
SPLINE
  5
91c
100
AcDbEntity
  8
Layer_1
 62
5
100
AcDbSpline
 70
8
 71
3
 72
8
 73
4
 74
0
 40
0
 40
0
 40
0
 40
0
 40
1
 40
1
 40
1
 40
1
 10
546.157121
 20
175.370479
 30
0.0
 10
546.157121
 20
170.192576
 30
0.0
 10
541.959587
 20
165.995029
 30
0.0
 10
536.781668
 20
165.995029
 30
0.0
  0
LINE
  5
91d
100
AcDbEntity
  8
Layer_1
 62
5
100
AcDbLine
 10
536.781668
 20
165.995029
 30
0.0
 11
523.562649
 21
165.899920
 31
0.0
  0
SPLINE
  5
91e
100
AcDbEntity
  8
Layer_1
 62
5
100
AcDbSpline
 70
8
 71
3
 72
8
 73
4
 74
0
 40
0
 40
0
 40
0
 40
0
 40
1
 40
1
 40
1
 40
1
 10
523.562649
 20
165.899920
 30
0.0
 10
518.384729
 20
165.899920
 30
0.0
 10
514.187193
 20
170.097467
 30
0.0
 10
514.187193
 20
175.275370
 30
0.0
  0
SPLINE
  5
91f
100
AcDbEntity
  8
Layer_1
 62
5
100
AcDbSpline
 70
8
 71
3
 72
8
 73
4
 74
0
 40
0
 40
0
 40
0
 40
0
 40
1
 40
1
 40
1
 40
1
 10
514.187193
 20
175.275370
 30
0.0
 10
514.187193
 20
177.086334
 30
0.0
 10
514.700651
 20
178.777381
 30
0.0
 10
515.531688
 20
180.178361
 30
0.0
  0
SPLINE
  5
920
100
AcDbEntity
  8
Layer_1
 62
5
100
AcDbSpline
 70
8
 71
3
 72
8
 73
4
 74
0
 40
0
 40
0
 40
0
 40
0
 40
1
 40
1
 40
1
 40
1
 10
515.531688
 20
180.178361
 30
0.0
 10
519.402013
 20
186.810696
 30
0.0
 10
524.963160
 20
192.398245
 30
0.0
 10
531.562512
 20
196.351924
 30
0.0
  0
SPLINE
  5
921
100
AcDbEntity
  8
Layer_1
 62
5
100
AcDbSpline
 70
8
 71
3
 72
8
 73
4
 74
0
 40
0
 40
0
 40
0
 40
0
 40
1
 40
1
 40
1
 40
1
 10
531.562512
 20
196.351924
 30
0.0
 10
532.960647
 20
197.250999
 30
0.0
 10
534.667343
 20
197.774747
 30
0.0
 10
536.496366
 20
197.774747
 30
0.0
  0
SPLINE
  5
922
100
AcDbEntity
  8
Layer_1
 62
5
100
AcDbSpline
 70
8
 71
3
 72
8
 73
4
 74
0
 40
0
 40
0
 40
0
 40
0
 40
1
 40
1
 40
1
 40
1
 10
536.496366
 20
197.774747
 30
0.0
 10
541.674286
 20
197.774747
 30
0.0
 10
545.871823
 20
193.577228
 30
0.0
 10
545.871823
 20
188.399297
 30
0.0
  0
LINE
  5
923
100
AcDbEntity
  8
Layer_1
 62
5
100
AcDbLine
 10
545.871823
 20
188.399297
 30
0.0
 11
546.157121
 21
175.370479
 31
0.0
  0
LINE
  5
924
100
AcDbEntity
  8
Layer_1
 62
1
100
AcDbLine
 10
553.780129
 20
170.407822
 30
0.0
 11
553.780129
 21
158.246360
 31
0.0
  0
LINE
  5
925
100
AcDbEntity
  8
Layer_1
 62
1
100
AcDbLine
 10
553.780129
 20
158.246360
 30
0.0
 11
541.616464
 21
158.246360
 31
0.0
  0
LINE
  5
926
100
AcDbEntity
  8
Layer_1
 62
1
100
AcDbLine
 10
541.616464
 20
158.246360
 30
0.0
 11
541.616464
 21
155.246646
 31
0.0
  0
LINE
  5
927
100
AcDbEntity
  8
Layer_1
 62
1
100
AcDbLine
 10
541.616464
 20
155.246646
 30
0.0
 11
553.780129
 21
155.246646
 31
0.0
  0
LINE
  5
928
100
AcDbEntity
  8
Layer_1
 62
1
100
AcDbLine
 10
553.780129
 20
155.246646
 30
0.0
 11
553.780129
 21
154.962219
 31
0.0
  0
LINE
  5
929
100
AcDbEntity
  8
Layer_1
 62
1
100
AcDbLine
 10
553.780129
 20
154.962219
 30
0.0
 11
553.780129
 21
143.083529
 31
0.0
  0
LINE
  5
92a
100
AcDbEntity
  8
Layer_1
 62
1
100
AcDbLine
 10
553.780129
 20
143.083529
 30
0.0
 11
556.779841
 21
143.083529
 31
0.0
  0
LINE
  5
92b
100
AcDbEntity
  8
Layer_1
 62
1
100
AcDbLine
 10
556.779841
 20
143.083529
 30
0.0
 11
556.779841
 21
154.962219
 31
0.0
  0
LINE
  5
92c
100
AcDbEntity
  8
Layer_1
 62
1
100
AcDbLine
 10
556.779841
 20
154.962219
 30
0.0
 11
556.779841
 21
155.246646
 31
0.0
  0
LINE
  5
92d
100
AcDbEntity
  8
Layer_1
 62
1
100
AcDbLine
 10
556.779841
 20
155.246646
 30
0.0
 11
557.062063
 21
155.246646
 31
0.0
  0
LINE
  5
92e
100
AcDbEntity
  8
Layer_1
 62
1
100
AcDbLine
 10
557.062063
 20
155.246646
 30
0.0
 11
568.940769
 21
155.246646
 31
0.0
  0
LINE
  5
92f
100
AcDbEntity
  8
Layer_1
 62
1
100
AcDbLine
 10
568.940769
 20
155.246646
 30
0.0
 11
568.940769
 21
158.246360
 31
0.0
  0
LINE
  5
930
100
AcDbEntity
  8
Layer_1
 62
1
100
AcDbLine
 10
568.940769
 20
158.246360
 30
0.0
 11
557.062063
 21
158.246360
 31
0.0
  0
LINE
  5
931
100
AcDbEntity
  8
Layer_1
 62
1
100
AcDbLine
 10
557.062063
 20
158.246360
 30
0.0
 11
556.779841
 21
158.246360
 31
0.0
  0
LINE
  5
932
100
AcDbEntity
  8
Layer_1
 62
1
100
AcDbLine
 10
556.779841
 20
158.246360
 30
0.0
 11
556.779841
 21
170.407822
 31
0.0
  0
LINE
  5
933
100
AcDbEntity
  8
Layer_1
 62
1
100
AcDbLine
 10
556.779841
 20
170.407822
 30
0.0
 11
553.780129
 21
170.407822
 31
0.0
  0
LINE
  5
934
100
AcDbEntity
  8
Layer_1
 62
1
100
AcDbLine
 10
553.780129
 20
170.407822
 30
0.0
 11
553.780129
 21
170.407822
 31
0.0
  0
LINE
  5
935
100
AcDbEntity
  8
Layer_1
 62
1
100
AcDbLine
 10
556.779915
 20
123.083217
 30
0.0
 11
556.779915
 21
133.083222
 31
0.0
  0
LINE
  5
936
100
AcDbEntity
  8
Layer_1
 62
1
100
AcDbLine
 10
556.779915
 20
133.083222
 30
0.0
 11
553.779921
 21
133.083222
 31
0.0
  0
LINE
  5
937
100
AcDbEntity
  8
Layer_1
 62
1
100
AcDbLine
 10
553.779921
 20
133.083222
 30
0.0
 11
553.779921
 21
123.083217
 31
0.0
  0
LINE
  5
938
100
AcDbEntity
  8
Layer_1
 62
1
100
AcDbLine
 10
553.779921
 20
123.083217
 30
0.0
 11
556.779915
 21
123.083217
 31
0.0
  0
SPLINE
  5
939
100
AcDbEntity
  8
Layer_1
 62
1
100
AcDbSpline
 70
8
 71
3
 72
8
 73
4
 74
0
 40
0
 40
0
 40
0
 40
0
 40
1
 40
1
 40
1
 40
1
 10
555.278775
 20
139.633180
 30
0.0
 10
554.422738
 20
139.633176
 30
0.0
 10
553.728782
 20
138.939217
 30
0.0
 10
553.728782
 20
138.083178
 30
0.0
  0
SPLINE
  5
93a
100
AcDbEntity
  8
Layer_1
 62
1
100
AcDbSpline
 70
8
 71
3
 72
8
 73
4
 74
0
 40
0
 40
0
 40
0
 40
0
 40
1
 40
1
 40
1
 40
1
 10
553.728782
 20
138.083178
 30
0.0
 10
553.728782
 20
137.227141
 30
0.0
 10
554.422738
 20
136.533184
 30
0.0
 10
555.278775
 20
136.533180
 30
0.0
  0
SPLINE
  5
93b
100
AcDbEntity
  8
Layer_1
 62
1
100
AcDbSpline
 70
8
 71
3
 72
8
 73
4
 74
0
 40
0
 40
0
 40
0
 40
0
 40
1
 40
1
 40
1
 40
1
 10
555.278775
 20
136.533180
 30
0.0
 10
556.134811
 20
136.533184
 30
0.0
 10
556.828768
 20
137.227141
 30
0.0
 10
556.828768
 20
138.083178
 30
0.0
  0
SPLINE
  5
93c
100
AcDbEntity
  8
Layer_1
 62
1
100
AcDbSpline
 70
8
 71
3
 72
8
 73
4
 74
0
 40
0
 40
0
 40
0
 40
0
 40
1
 40
1
 40
1
 40
1
 10
556.828768
 20
138.083178
 30
0.0
 10
556.828768
 20
138.939217
 30
0.0
 10
556.134811
 20
139.633176
 30
0.0
 10
555.278775
 20
139.633180
 30
0.0
  0
LINE
  5
93d
100
AcDbEntity
  8
Layer_1
 62
1
100
AcDbLine
 10
555.278775
 20
139.633180
 30
0.0
 11
555.278775
 21
139.633180
 31
0.0
  0
LINE
  5
93e
100
AcDbEntity
  8
Layer_1
 62
1
100
AcDbLine
 10
556.779915
 20
180.407505
 30
0.0
 11
556.779915
 21
190.407511
 31
0.0
  0
LINE
  5
93f
100
AcDbEntity
  8
Layer_1
 62
1
100
AcDbLine
 10
556.779915
 20
190.407511
 30
0.0
 11
553.779921
 21
190.407511
 31
0.0
  0
LINE
  5
940
100
AcDbEntity
  8
Layer_1
 62
1
100
AcDbLine
 10
553.779921
 20
190.407511
 30
0.0
 11
553.779921
 21
180.407505
 31
0.0
  0
LINE
  5
941
100
AcDbEntity
  8
Layer_1
 62
1
100
AcDbLine
 10
553.779921
 20
180.407505
 30
0.0
 11
556.779915
 21
180.407505
 31
0.0
  0
SPLINE
  5
942
100
AcDbEntity
  8
Layer_1
 62
1
100
AcDbSpline
 70
8
 71
3
 72
8
 73
4
 74
0
 40
0
 40
0
 40
0
 40
0
 40
1
 40
1
 40
1
 40
1
 10
555.278775
 20
176.957516
 30
0.0
 10
554.422738
 20
176.957514
 30
0.0
 10
553.728782
 20
176.263557
 30
0.0
 10
553.728782
 20
175.407518
 30
0.0
  0
SPLINE
  5
943
100
AcDbEntity
  8
Layer_1
 62
1
100
AcDbSpline
 70
8
 71
3
 72
8
 73
4
 74
0
 40
0
 40
0
 40
0
 40
0
 40
1
 40
1
 40
1
 40
1
 10
553.728782
 20
175.407518
 30
0.0
 10
553.728782
 20
174.551479
 30
0.0
 10
554.422738
 20
173.857523
 30
0.0
 10
555.278775
 20
173.857520
 30
0.0
  0
SPLINE
  5
944
100
AcDbEntity
  8
Layer_1
 62
1
100
AcDbSpline
 70
8
 71
3
 72
8
 73
4
 74
0
 40
0
 40
0
 40
0
 40
0
 40
1
 40
1
 40
1
 40
1
 10
555.278775
 20
173.857520
 30
0.0
 10
556.134811
 20
173.857523
 30
0.0
 10
556.828768
 20
174.551479
 30
0.0
 10
556.828768
 20
175.407518
 30
0.0
  0
SPLINE
  5
945
100
AcDbEntity
  8
Layer_1
 62
1
100
AcDbSpline
 70
8
 71
3
 72
8
 73
4
 74
0
 40
0
 40
0
 40
0
 40
0
 40
1
 40
1
 40
1
 40
1
 10
556.828768
 20
175.407518
 30
0.0
 10
556.828768
 20
176.263557
 30
0.0
 10
556.134811
 20
176.957514
 30
0.0
 10
555.278775
 20
176.957516
 30
0.0
  0
LINE
  5
946
100
AcDbEntity
  8
Layer_1
 62
1
100
AcDbLine
 10
555.278775
 20
176.957516
 30
0.0
 11
555.278775
 21
176.957516
 31
0.0
  0
LINE
  5
947
100
AcDbEntity
  8
Layer_1
 62
1
100
AcDbLine
 10
588.940944
 20
158.246507
 30
0.0
 11
578.940936
 21
158.246507
 31
0.0
  0
LINE
  5
948
100
AcDbEntity
  8
Layer_1
 62
1
100
AcDbLine
 10
578.940936
 20
158.246507
 30
0.0
 11
578.940936
 21
155.246513
 31
0.0
  0
LINE
  5
949
100
AcDbEntity
  8
Layer_1
 62
1
100
AcDbLine
 10
578.940936
 20
155.246513
 30
0.0
 11
588.940944
 21
155.246513
 31
0.0
  0
LINE
  5
94a
100
AcDbEntity
  8
Layer_1
 62
1
100
AcDbLine
 10
588.940944
 20
155.246513
 30
0.0
 11
588.940944
 21
158.246507
 31
0.0
  0
SPLINE
  5
94b
100
AcDbEntity
  8
Layer_1
 62
1
100
AcDbSpline
 70
8
 71
3
 72
8
 73
4
 74
0
 40
0
 40
0
 40
0
 40
0
 40
1
 40
1
 40
1
 40
1
 10
572.390981
 20
156.745367
 30
0.0
 10
572.390981
 20
155.889331
 30
0.0
 10
573.084937
 20
155.195374
 30
0.0
 10
573.940974
 20
155.195374
 30
0.0
  0
SPLINE
  5
94c
100
AcDbEntity
  8
Layer_1
 62
1
100
AcDbSpline
 70
8
 71
3
 72
8
 73
4
 74
0
 40
0
 40
0
 40
0
 40
0
 40
1
 40
1
 40
1
 40
1
 10
573.940974
 20
155.195374
 30
0.0
 10
574.797010
 20
155.195374
 30
0.0
 10
575.490967
 20
155.889331
 30
0.0
 10
575.490967
 20
156.745367
 30
0.0
  0
SPLINE
  5
94d
100
AcDbEntity
  8
Layer_1
 62
1
100
AcDbSpline
 70
8
 71
3
 72
8
 73
4
 74
0
 40
0
 40
0
 40
0
 40
0
 40
1
 40
1
 40
1
 40
1
 10
575.490967
 20
156.745367
 30
0.0
 10
575.490967
 20
157.601404
 30
0.0
 10
574.797010
 20
158.295360
 30
0.0
 10
573.940974
 20
158.295360
 30
0.0
  0
SPLINE
  5
94e
100
AcDbEntity
  8
Layer_1
 62
1
100
AcDbSpline
 70
8
 71
3
 72
8
 73
4
 74
0
 40
0
 40
0
 40
0
 40
0
 40
1
 40
1
 40
1
 40
1
 10
573.940974
 20
158.295360
 30
0.0
 10
573.084937
 20
158.295360
 30
0.0
 10
572.390981
 20
157.601404
 30
0.0
 10
572.390981
 20
156.745367
 30
0.0
  0
LINE
  5
94f
100
AcDbEntity
  8
Layer_1
 62
1
100
AcDbLine
 10
572.390981
 20
156.745367
 30
0.0
 11
572.390981
 21
156.745367
 31
0.0
  0
LINE
  5
950
100
AcDbEntity
  8
Layer_1
 62
1
100
AcDbLine
 10
531.616642
 20
158.246507
 30
0.0
 11
521.616634
 21
158.246507
 31
0.0
  0
LINE
  5
951
100
AcDbEntity
  8
Layer_1
 62
1
100
AcDbLine
 10
521.616634
 20
158.246507
 30
0.0
 11
521.616634
 21
155.246513
 31
0.0
  0
LINE
  5
952
100
AcDbEntity
  8
Layer_1
 62
1
100
AcDbLine
 10
521.616634
 20
155.246513
 30
0.0
 11
531.616642
 21
155.246513
 31
0.0
  0
LINE
  5
953
100
AcDbEntity
  8
Layer_1
 62
1
100
AcDbLine
 10
531.616642
 20
155.246513
 30
0.0
 11
531.616642
 21
158.246507
 31
0.0
  0
SPLINE
  5
954
100
AcDbEntity
  8
Layer_1
 62
1
100
AcDbSpline
 70
8
 71
3
 72
8
 73
4
 74
0
 40
0
 40
0
 40
0
 40
0
 40
1
 40
1
 40
1
 40
1
 10
535.066640
 20
156.745367
 30
0.0
 10
535.066640
 20
155.889331
 30
0.0
 10
535.760596
 20
155.195374
 30
0.0
 10
536.616632
 20
155.195374
 30
0.0
  0
SPLINE
  5
955
100
AcDbEntity
  8
Layer_1
 62
1
100
AcDbSpline
 70
8
 71
3
 72
8
 73
4
 74
0
 40
0
 40
0
 40
0
 40
0
 40
1
 40
1
 40
1
 40
1
 10
536.616632
 20
155.195374
 30
0.0
 10
537.472669
 20
155.195374
 30
0.0
 10
538.166625
 20
155.889331
 30
0.0
 10
538.166625
 20
156.745367
 30
0.0
  0
SPLINE
  5
956
100
AcDbEntity
  8
Layer_1
 62
1
100
AcDbSpline
 70
8
 71
3
 72
8
 73
4
 74
0
 40
0
 40
0
 40
0
 40
0
 40
1
 40
1
 40
1
 40
1
 10
538.166625
 20
156.745367
 30
0.0
 10
538.166625
 20
157.601404
 30
0.0
 10
537.472669
 20
158.295360
 30
0.0
 10
536.616632
 20
158.295360
 30
0.0
  0
SPLINE
  5
957
100
AcDbEntity
  8
Layer_1
 62
1
100
AcDbSpline
 70
8
 71
3
 72
8
 73
4
 74
0
 40
0
 40
0
 40
0
 40
0
 40
1
 40
1
 40
1
 40
1
 10
536.616632
 20
158.295360
 30
0.0
 10
535.760596
 20
158.295360
 30
0.0
 10
535.066640
 20
157.601404
 30
0.0
 10
535.066640
 20
156.745367
 30
0.0
  0
LINE
  5
958
100
AcDbEntity
  8
Layer_1
 62
1
100
AcDbLine
 10
535.066640
 20
156.745367
 30
0.0
 11
535.066640
 21
156.745367
 31
0.0
  0
ENDSEC
  0
SECTION
  2
OBJECTS
  0
DICTIONARY
  5
C
330
0
100
AcDbDictionary
  3
ACAD_GROUP
350
D
  3
ACAD_MLINESTYLE
350
17
  0
DICTIONARY
  5
D
330
C
100
AcDbDictionary
  0
DICTIONARY
  5
1A
330
C
100
AcDbDictionary
  0
DICTIONARY
  5
17
330
C
100
AcDbDictionary
  3
STANDARD
350
18
  0
DICTIONARY
  5
19
330
C
100
AcDbDictionary
  0
ENDSEC
  0
EOF
