  0
SECTION
  2
HEADER
  9
$ACADVER
  1
AC1015
  9
$ACADMAINTVER
 70
     6
  9
$DWGCODEPAGE
  3
DOS850
  9
$INSBASE
 10
0.0
 20
0.0
 30
0.0
  9
$EXTMIN
 10
-12.228169
 20
-9.599953
 30
1.000000E+20
  9
$EXTMAX
 10
12.228169
 20
9.599953
 30
-1.000000E+20
  9
$LIMMIN
 10
0.0
 20
0.0
  9
$LIMMAX
 10
0.0
 20
0.0
  9
$ORTHOMODE
 70
     0
  9
$REGENMODE
 70
     1
  9
$FILLMODE
 70
     1
  9
$QTEXTMODE
 70
     0
  9
$MIRRTEXT
 70
     1
  9
$LTSCALE
 40
1.0
  9
$ATTMODE
 70
     1
  9
$TEXTSIZE
 40
0.2
  9
$TRACEWID
 40
0.05
  9
$TEXTSTYLE
  7
Standard
  9
$CLAYER
  8
0
  9
$CELTYPE
  6
Continuous
  9
$CECOLOR
 62
   256
  9
$CELTSCALE
 40
1.0
  9
$DISPSILH
 70
     0
  9
$DIMSCALE
 40
1.0
  9
$DIMASZ
 40
0.18
  9
$DIMEXO
 40
0.0625
  9
$DIMDLI
 40
0.38
  9
$DIMRND
 40
0.0
  9
$DIMDLE
 40
0.0
  9
$DIMEXE
 40
0.18
  9
$DIMTP
 40
0.0
  9
$DIMTM
 40
0.0
  9
$DIMTXT
 40
0.18
  9
$DIMCEN
 40
0.09
  9
$DIMTSZ
 40
0.0
  9
$DIMTOL
 70
     0
  9
$DIMLIM
 70
     0
  9
$DIMTIH
 70
     1
  9
$DIMTOH
 70
     1
  9
$DIMSE1
 70
     0
  9
$DIMSE2
 70
     0
  9
$DIMTAD
 70
     0
  9
$DIMZIN
 70
     0
  9
$DIMBLK
  1

  9
$DIMASO
 70
     1
  9
$DIMSHO
 70
     1
  9
$DIMPOST
  1

  9
$DIMAPOST
  1

  9
$DIMALT
 70
     0
  9
$DIMALTD
 70
     2
  9
$DIMALTF
 40
25.4
  9
$DIMLFAC
 40
1.0
  9
$DIMTOFL
 70
     0
  9
$DIMTVP
 40
0.0
  9
$DIMTIX
 70
     0
  9
$DIMSOXD
 70
     0
  9
$DIMSAH
 70
     0
  9
$DIMBLK1
  1

  9
$DIMBLK2
  1

  9
$DIMSTYLE
  2
Standard
  9
$DIMCLRD
 70
     0
  9
$DIMCLRE
 70
     0
  9
$DIMCLRT
 70
     0
  9
$DIMTFAC
 40
1.0
  9
$DIMGAP
 40
0.09
  9
$DIMJUST
 70
     0
  9
$DIMSD1
 70
     0
  9
$DIMSD2
 70
     0
  9
$DIMTOLJ
 70
     1
  9
$DIMTZIN
 70
     0
  9
$DIMALTZ
 70
     0
  9
$DIMALTTZ
 70
     0
  9
$DIMUPT
 70
     0
  9
$DIMDEC
 70
     4
  9
$DIMTDEC
 70
     4
  9
$DIMALTU
 70
     2
  9
$DIMALTTD
 70
     2
  9
$DIMTXSTY
  7
Standard
  9
$DIMAUNIT
 70
     0
  9
$DIMADEC
 70
     0
  9
$DIMALTRND
 40
0.0
  9
$DIMAZIN
 70
     0
  9
$DIMDSEP
 70
     0
  9
$DIMATFIT
 70
     3
  9
$DIMFRAC
 70
     0
  9
$DIMLDRBLK
  1

  9
$DIMLUNIT
 70
     2
  9
$DIMLWD
 70
     0
  9
$DIMLWE
 70
     0
  9
$DIMTMOVE
 70
     0
  9
$LUNITS
 70
     2
  9
$LUPREC
 70
     4
  9
$SKETCHINC
 40
0.1
  9
$FILLETRAD
 40
0.0
  9
$AUNITS
 70
     0
  9
$AUPREC
 70
     0
  9
$MENU
  1
acad
  9
$ELEVATION
 40
0.0
  9
$PELEVATION
 40
0.0
  9
$THICKNESS
 40
0.0
  9
$LIMCHECK
 70
     0
  9
$CHAMFERA
 40
0.0
  9
$CHAMFERB
 40
0.0
  9
$CHAMFERC
 40
0.0
  9
$CHAMFERD
 40
0.0
  9
$SKPOLY
 70
     0
  9
$TDCREATE
 40
0.000000000
  9
$TDUCREATE
 40
0.000000000
  9
$TDUPDATE
 40
0.000000000
  9
$TDUUPDATE
 40
0.000000000
  9
$TDINDWG
 40
0.0000000000
  9
$TDUSRTIMER
 40
0.0000000000
  9
$USRTIMER
 70
     1
  9
$ANGBASE
 50
0.0
  9
$ANGDIR
 70
     0
  9
$PDMODE
 70
     0
  9
$PDSIZE
 40
0.0
  9
$PLINEWID
 40
0.0
  9
$SPLFRAME
 70
     0
  9
$SPLINETYPE
 70
     6
  9
$SPLINESEGS
 70
     8
  9
$HANDSEED
  5
3A
  9
$SURFTAB1
 70
     6
  9
$SURFTAB2
 70
     6
  9
$SURFTYPE
 70
     6
  9
$SURFU
 70
     6
  9
$SURFV
 70
     6
  9
$UCSBASE
  2

  9
$UCSNAME
  2

  9
$UCSORG
 10
0.0
 20
0.0
 30
0.0
  9
$UCSXDIR
 10
1.0
 20
0.0
 30
0.0
  9
$UCSYDIR
 10
0.0
 20
1.0
 30
0.0
  9
$UCSORTHOREF
  2

  9
$UCSORTHOVIEW
 70
     0
  9
$UCSORGTOP
 10
0.0
 20
0.0
 30
0.0
  9
$UCSORGBOTTOM
 10
0.0
 20
0.0
 30
0.0
  9
$UCSORGLEFT
 10
0.0
 20
0.0
 30
0.0
  9
$UCSORGRIGHT
 10
0.0
 20
0.0
 30
0.0
  9
$UCSORGFRONT
 10
0.0
 20
0.0
 30
0.0
  9
$UCSORGBACK
 10
0.0
 20
0.0
 30
0.0
  9
$PUCSBASE
  2

  9
$PUCSNAME
  2

  9
$PUCSORG
 10
0.0
 20
0.0
 30
0.0
  9
$PUCSXDIR
 10
1.0
 20
0.0
 30
0.0
  9
$PUCSYDIR
 10
0.0
 20
1.0
 30
0.0
  9
$PUCSORTHOREF
  2

  9
$PUCSORTHOVIEW
 70
     0
  9
$PUCSORGTOP
 10
0.0
 20
0.0
 30
0.0
  9
$PUCSORGBOTTOM
 10
0.0
 20
0.0
 30
0.0
  9
$PUCSORGLEFT
 10
0.0
 20
0.0
 30
0.0
  9
$PUCSORGRIGHT
 10
0.0
 20
0.0
 30
0.0
  9
$PUCSORGFRONT
 10
0.0
 20
0.0
 30
0.0
  9
$PUCSORGBACK
 10
0.0
 20
0.0
 30
0.0
  9
$USERI1
 70
     0
  9
$USERI2
 70
     0
  9
$USERI3
 70
     0
  9
$USERI4
 70
     0
  9
$USERI5
 70
     0
  9
$USERR1
 40
0.0
  9
$USERR2
 40
0.0
  9
$USERR3
 40
0.0
  9
$USERR4
 40
0.0
  9
$USERR5
 40
0.0
  9
$WORLDVIEW
 70
     1
  9
$SHADEDGE
 70
     3
  9
$SHADEDIF
 70
    70
  9
$TILEMODE
 70
     1
  9
$MAXACTVP
 70
    16
  9
$PINSBASE
 10
0.0
 20
0.0
 30
0.0
  9
$PLIMCHECK
 70
     0
  9
$PEXTMIN
 10
1.000000E+20
 20
1.000000E+20
 30
1.000000E+20
  9
$PEXTMAX
 10
-1.000000E+20
 20
-1.000000E+20
 30
-1.000000E+20
  9
$PLIMMIN
 10
0.0
 20
0.0
  9
$PLIMMAX
 10
12.0
 20
9.0
  9
$UNITMODE
 70
     0
  9
$VISRETAIN
 70
     0
  9
$PLINEGEN
 70
     1
  9
$PSLTSCALE
 70
     0
  9
$TREEDEPTH
 70
  3020
  9
$CMLSTYLE
  2
Standard
  9
$CMLJUST
 70
     0
  9
$CMLSCALE
 40
1.0
  9
$PROXYGRAPHICS
 70
     0
  9
$MEASUREMENT
 70
     0
  9
$CELWEIGHT
370
     0
  9
$ENDCAPS
280
     0
  9
$JOINSTYLE
280
     0
  9
$LWDISPLAY
290
     0
  9
$INSUNITS
 70
     1
  9
$HYPERLINKBASE
  1

  9
$XEDIT
290
     1
  9
$CEPSNTYPE
380
     0
  9
$PSTYLEMODE
290
     1
  9
$FINGERPRINTGUID
  2

  9
$VERSIONGUID
  2

  9
$EXTNAMES
290
     1
  9
$PSVPSCALE
 40
0.0
  0
ENDSEC
  0
SECTION
  2
CLASSES
  0
CLASS
  1
LWPOLYLINE
  2
AcDbPolyline
  3
AutoCAD 2000
 90
    32768
280
     0
281
     1
  0
CLASS
  1
IMAGE
  2
AcDbRasterImage
  3
ISM
 90
    32895
280
     0
281
     1
  0
CLASS
  1
OLE2FRAME
  2
AcDbOle2Frame
  3
AutoCAD 2000
 90
    32768
280
     0
281
     1
  0
CLASS
  1
HATCH
  2
AcDbHatch
  3
AutoCAD 2000
 90
    32768
280
     0
281
     1
  0
CLASS
  1
DICTIONARYVAR
  2
AcDbDictionaryVar
  3
AutoCAD 2000
 90
    32768
280
     0
281
     0
  0
CLASS
  1
RASTERVARIABLES
  2
AcDbRasterVariables
  3
ISM
 90
    32768
280
     0
281
     0
  0
CLASS
  1
IMAGEDEF
  2
AcDbRasterImageDef
  3
ISM
 90
    32768
280
     0
281
     0
  0
CLASS
  1
IMAGEDEF_REACTOR
  2
AcDbRasterImageDefReactor
  3
ISM
 90
    32769
280
     0
281
     0
  0
CLASS
  1
IDBUFFER
  2
AcDbIdBuffer
  3
AutoCAD 2000
 90
    32768
280
     0
281
     0
  0
CLASS
  1
SPATIAL_FILTER
  2
AcDbSpatialFilter
  3
AutoCAD 2000
 90
    32768
280
     0
281
     0
  0
CLASS
  1
XRECORD
  2
AcDbXrecord
  3
AutoCAD 2000
 90
    32768
280
     0
281
     0
  0
CLASS
  1
SORTENTSTABLE
  2
AcDbSortentsTable
  3
AutoCAD 2000
 90
    32768
280
     0
281
     0
  0
CLASS
  1
LAYER_INDEX
  2
AcDbLayerIndex
  3
AutoCAD 2000
 90
    32768
280
     0
281
     0
  0
CLASS
  1
SPATIAL_INDEX
  2
AcDbSpatialIndex
  3
AutoCAD 2000
 90
    32768
280
     0
281
     0
  0
CLASS
  1
OBJECT_PTR
  2
CAseDLPNTableRecord
  3
"ASE-LPNTableRecord"
 90
    32769
280
     0
281
     0
  0
CLASS
  1
LAYOUT
  2
AcDbLayout
  3
AutoCAD 2000
 90
        0
280
     0
281
     0
  0
CLASS
  1
PLOTSETTINGS
  2
AcDbPlotSettings
  3
AutoCAD 2000
 90
    32768
280
     0
281
     0
  0
CLASS
  1
ACDBDICTIONARYWDFLT
  2
AcDbDictionaryWithDefault
  3
AutoCAD 2000
 90
        0
280
     0
281
     0
  0
CLASS
  1
ACDBPLACEHOLDER
  2
AcDbPlaceHolder
  3
AutoCAD 2000
 90
        0
280
     0
281
     0
  0
CLASS
  1
VBA_PROJECT
  2
AcDbVbaProject
  3
acadvba
 90
    32768
280
     0
281
     0
  0
CLASS
  1
WIPEOUT
  2
AcDbWipeout
  3
WipeOut|AutoCAD Express Tool|expresstools@autodesk.com
 90
    32895
280
     0
281
     1
  0
CLASS
  1
WIPEOUTVARIABLES
  2
AcDbWipeoutVariables
  3
WipeOut|AutoCAD Express Tool|expresstools@autodesk.com
 90
        0
280
     0
281
     0
  0
CLASS
  1
RTEXT
  2
RText
  3
RText|AutoCAD Express Tool|expresstools@autodesk.com
 90
    32768
280
     0
281
     1
  0
CLASS
  1
ARCALIGNEDTEXT
  2
AcDbArcAlignedText
  3
ATEXT|AutoCAD Express Tool|expresstools@autodesk.com
 90
    32768
280
     0
281
     1
  0
ENDSEC
  0
SECTION
  2
TABLES
  0
TABLE
  2
VPORT
  5
7
100
AcDbSymbolTable
 70
     1
  0
VPORT
  5
15
100
AcDbSymbolTableRecord
100
AcDbViewportTableRecord
  2
*ACTIVE
 70
     0
 10
0.0
 20
0.0
 11
1.0
 21
1.0
 12
6.591288
 22
4.579184
 13
0.0
 23
0.0
 14
1.0
 24
1.0
 15
0.0
 25
0.0
 16
0.0
 26
0.0
 36
1.0
 17
0.0
 27
0.0
 37
0.0
 40
9.158369
 41
0.688564
 42
50.0
 43
0.0
 44
0.0
 50
0.0
 51
0.0
 71
     0
 72
   100
 73
     1
 74
     1
 75
     0
 76
     0
 77
     0
 78
     0
281
     0
 65
     0
110
0.0
120
0.0
130
0.0
111
1.0
121
0.0
131
0.0
112
0.0
122
1.0
132
0.0
345
0
346
0
 79
     0
146
0.0
  0
ENDTAB
  0
TABLE
  2
LTYPE
  5
4
100
AcDbSymbolTable
 70
     3
  0
LTYPE
  5
11
100
AcDbSymbolTableRecord
100
AcDbLinetypeTableRecord
  2
ByBlock
 70
    64
  3

 72
    65
 73
     0
 40
0.0
  0
LTYPE
  5
12
100
AcDbSymbolTableRecord
100
AcDbLinetypeTableRecord
  2
ByLayer
 70
    64
  3

 72
    65
 73
     0
 40
0.0
  0
LTYPE
  5
13
100
AcDbSymbolTableRecord
100
AcDbLinetypeTableRecord
  2
Continuous
 70
    64
  3
Solid line
 72
    65
 73
     0
 40
0.0
  0
ENDTAB
  0
TABLE
  2
LAYER
  5
2
100
AcDbSymbolTable
 70
     2
  0
LAYER
  5
14
100
AcDbSymbolTableRecord
100
AcDbLayerTableRecord
  2
0
 70
     0
 62
     7
  6
Continuous
290
     1
370
    -3
390
1D
  0
LAYER
  5
24
100
AcDbSymbolTableRecord
100
AcDbLayerTableRecord
  2
Layer 1
 70
     0
 62
     7
  6
Continuous
290
     1
370
    -3
390
1F
  0
ENDTAB
  0
TABLE
  2
STYLE
  5
3
100
AcDbSymbolTable
 70
     1
  0
STYLE
  5
17
100
AcDbSymbolTableRecord
100
AcDbTextStyleTableRecord
  2
Standard
 70
     0
 40
0.0
 41
1.0
 50
0.0
 71
     0
 42
0.0
  3
txt
  4

  0
ENDTAB
  0
TABLE
  2
VIEW
  5
5
100
AcDbSymbolTable
 70
     0
  0
ENDTAB
  0
TABLE
  2
UCS
  5
6
100
AcDbSymbolTable
 70
     0
  0
ENDTAB
  0
TABLE
  2
APPID
  5
8
100
AcDbSymbolTable
 70
     1
  0
APPID
  5
16
100
AcDbSymbolTableRecord
100
AcDbRegAppTableRecord
  2
ACAD
 70
     0
  0
ENDTAB
  0
TABLE
  2
DIMSTYLE
  5
9
100
AcDbSymbolTable
 70
     1
100
AcDbDimStyleTable
 71
     0
  0
DIMSTYLE
105
18
100
AcDbSymbolTableRecord
100
AcDbDimStyleTableRecord
  2
Standard
 70
     0
  3

  4

 40
1.0
 41
0.18
 42
0.0625
 43
0.38
 44
0.18
 45
0.0
 46
0.0
 47
0.0
 48
0.0
 71
     0
 72
     0
 73
     1
 74
     1
 75
     0
 76
     0
 77
     0
 78
     0
 79
     0
140
0.18
141
0.09
142
0.0
143
25.4
144
1.0
145
0.0
146
1.0
147
0.09
148
0.0
170
     0
171
     2
172
     0
173
     0
174
     0
175
     0
176
     0
177
     0
178
     0
179
     0
271
     4
272
     4
273
     2
274
     2
275
     0
276
     0
277
     2
278
    46
279
     0
280
     0
281
     0
282
     0
283
     1
284
     0
285
     0
286
     0
288
     0
340
17
341
0
342
0
343
0
344
0
371
    -2
372
    -2
  0
ENDTAB
  0
TABLE
  2
BLOCK_RECORD
  5
1
100
AcDbSymbolTable
 70
     0
  0
BLOCK_RECORD
  5
A
100
AcDbSymbolTableRecord
100
AcDbBlockTableRecord
  2
*MODEL_SPACE
340
20
  0
BLOCK_RECORD
  5
B
100
AcDbSymbolTableRecord
100
AcDbBlockTableRecord
  2
*PAPER_SPACE
340
21
  0
ENDTAB
  0
ENDSEC
  0
SECTION
  2
BLOCKS
  0
BLOCK
  5
D
100
AcDbEntity
  8
0
100
AcDbBlockBegin
  2
*MODEL_SPACE
 70
     0
 10
0.0
 20
0.0
 30
0.0
  3
*MODEL_SPACE
  1

  0
ENDBLK
  5
E
100
AcDbEntity
  8
0
100
AcDbBlockEnd
  0
BLOCK
  5
F
100
AcDbEntity
 67
     1
  8
0
100
AcDbBlockBegin
  2
*PAPER_SPACE
 70
     0
 10
0.0
 20
0.0
 30
0.0
  3
*PAPER_SPACE
  1

  0
ENDBLK
  5
10
100
AcDbEntity
 67
     1
  8
0
100
AcDbBlockEnd
  0
ENDSEC
  0
SECTION
  2
ENTITIES
  0
SPLINE
  5
25
100
AcDbEntity
  8
Layer 1
370
     0
100
AcDbSpline
210
0.0
220
0.0
230
1.0
 70
     1
 71
     3
 72
   268
 73
   264
 74
     0
 42
0.0000000001
 43
0.0000000001
 40
0.0
 40
0.0
 40
0.0
 40
0.0
 40
0.0151515151515152
 40
0.0151515151515152
 40
0.0151515151515152
 40
0.0151515151515152
 40
0.0303030303030303
 40
0.0303030303030303
 40
0.0303030303030303
 40
0.0303030303030303
 40
0.0454545454545455
 40
0.0454545454545455
 40
0.0454545454545455
 40
0.0454545454545455
 40
0.0606060606060606
 40
0.0606060606060606
 40
0.0606060606060606
 40
0.0606060606060606
 40
0.0757575757575758
 40
0.0757575757575758
 40
0.0757575757575758
 40
0.0757575757575758
 40
0.0909090909090909
 40
0.0909090909090909
 40
0.0909090909090909
 40
0.0909090909090909
 40
0.1060606060606061
 40
0.1060606060606061
 40
0.1060606060606061
 40
0.1060606060606061
 40
0.1212121212121212
 40
0.1212121212121212
 40
0.1212121212121212
 40
0.1212121212121212
 40
0.1363636363636364
 40
0.1363636363636364
 40
0.1363636363636364
 40
0.1363636363636364
 40
0.1515151515151515
 40
0.1515151515151515
 40
0.1515151515151515
 40
0.1515151515151515
 40
0.1666666666666666
 40
0.1666666666666666
 40
0.1666666666666666
 40
0.1666666666666666
 40
0.1818181818181818
 40
0.1818181818181818
 40
0.1818181818181818
 40
0.1818181818181818
 40
0.1969696969696969
 40
0.1969696969696969
 40
0.1969696969696969
 40
0.1969696969696969
 40
0.212121212121212
 40
0.212121212121212
 40
0.212121212121212
 40
0.212121212121212
 40
0.2272727272727272
 40
0.2272727272727272
 40
0.2272727272727272
 40
0.2272727272727272
 40
0.2424242424242423
 40
0.2424242424242423
 40
0.2424242424242423
 40
0.2424242424242423
 40
0.2575757575757575
 40
0.2575757575757575
 40
0.2575757575757575
 40
0.2575757575757575
 40
0.2727272727272726
 40
0.2727272727272726
 40
0.2727272727272726
 40
0.2727272727272726
 40
0.2878787878787877
 40
0.2878787878787877
 40
0.2878787878787877
 40
0.2878787878787877
 40
0.3030303030303029
 40
0.3030303030303029
 40
0.3030303030303029
 40
0.3030303030303029
 40
0.318181818181818
 40
0.318181818181818
 40
0.318181818181818
 40
0.318181818181818
 40
0.3333333333333332
 40
0.3333333333333332
 40
0.3333333333333332
 40
0.3333333333333332
 40
0.3484848484848483
 40
0.3484848484848483
 40
0.3484848484848483
 40
0.3484848484848483
 40
0.3636363636363634
 40
0.3636363636363634
 40
0.3636363636363634
 40
0.3636363636363634
 40
0.3787878787878786
 40
0.3787878787878786
 40
0.3787878787878786
 40
0.3787878787878786
 40
0.3939393939393937
 40
0.3939393939393937
 40
0.3939393939393937
 40
0.3939393939393937
 40
0.4090909090909088
 40
0.4090909090909088
 40
0.4090909090909088
 40
0.4090909090909088
 40
0.424242424242424
 40
0.424242424242424
 40
0.424242424242424
 40
0.424242424242424
 40
0.4393939393939391
 40
0.4393939393939391
 40
0.4393939393939391
 40
0.4393939393939391
 40
0.4545454545454543
 40
0.4545454545454543
 40
0.4545454545454543
 40
0.4545454545454543
 40
0.4696969696969694
 40
0.4696969696969694
 40
0.4696969696969694
 40
0.4696969696969694
 40
0.4848484848484845
 40
0.4848484848484845
 40
0.4848484848484845
 40
0.4848484848484845
 40
0.4999999999999997
 40
0.4999999999999997
 40
0.4999999999999997
 40
0.4999999999999997
 40
0.5151515151515148
 40
0.5151515151515148
 40
0.5151515151515148
 40
0.5151515151515148
 40
0.5303030303030299
 40
0.5303030303030299
 40
0.5303030303030299
 40
0.5303030303030299
 40
0.5454545454545451
 40
0.5454545454545451
 40
0.5454545454545451
 40
0.5454545454545451
 40
0.5606060606060602
 40
0.5606060606060602
 40
0.5606060606060602
 40
0.5606060606060602
 40
0.5757575757575754
 40
0.5757575757575754
 40
0.5757575757575754
 40
0.5757575757575754
 40
0.5909090909090905
 40
0.5909090909090905
 40
0.5909090909090905
 40
0.5909090909090905
 40
0.6060606060606056
 40
0.6060606060606056
 40
0.6060606060606056
 40
0.6060606060606056
 40
0.6212121212121208
 40
0.6212121212121208
 40
0.6212121212121208
 40
0.6212121212121208
 40
0.6363636363636359
 40
0.6363636363636359
 40
0.6363636363636359
 40
0.6363636363636359
 40
0.6515151515151511
 40
0.6515151515151511
 40
0.6515151515151511
 40
0.6515151515151511
 40
0.6666666666666662
 40
0.6666666666666662
 40
0.6666666666666662
 40
0.6666666666666662
 40
0.6818181818181813
 40
0.6818181818181813
 40
0.6818181818181813
 40
0.6818181818181813
 40
0.6969696969696965
 40
0.6969696969696965
 40
0.6969696969696965
 40
0.6969696969696965
 40
0.7121212121212116
 40
0.7121212121212116
 40
0.7121212121212116
 40
0.7121212121212116
 40
0.7272727272727267
 40
0.7272727272727267
 40
0.7272727272727267
 40
0.7272727272727267
 40
0.7424242424242419
 40
0.7424242424242419
 40
0.7424242424242419
 40
0.7424242424242419
 40
0.757575757575757
 40
0.757575757575757
 40
0.757575757575757
 40
0.757575757575757
 40
0.7727272727272722
 40
0.7727272727272722
 40
0.7727272727272722
 40
0.7727272727272722
 40
0.7878787878787873
 40
0.7878787878787873
 40
0.7878787878787873
 40
0.7878787878787873
 40
0.8030303030303024
 40
0.8030303030303024
 40
0.8030303030303024
 40
0.8030303030303024
 40
0.8181818181818176
 40
0.8181818181818176
 40
0.8181818181818176
 40
0.8181818181818176
 40
0.8333333333333327
 40
0.8333333333333327
 40
0.8333333333333327
 40
0.8333333333333327
 40
0.8484848484848478
 40
0.8484848484848478
 40
0.8484848484848478
 40
0.8484848484848478
 40
0.863636363636363
 40
0.863636363636363
 40
0.863636363636363
 40
0.863636363636363
 40
0.8787878787878781
 40
0.8787878787878781
 40
0.8787878787878781
 40
0.8787878787878781
 40
0.8939393939393933
 40
0.8939393939393933
 40
0.8939393939393933
 40
0.8939393939393933
 40
0.9090909090909084
 40
0.9090909090909084
 40
0.9090909090909084
 40
0.9090909090909084
 40
0.9242424242424235
 40
0.9242424242424235
 40
0.9242424242424235
 40
0.9242424242424235
 40
0.9393939393939387
 40
0.9393939393939387
 40
0.9393939393939387
 40
0.9393939393939387
 40
0.9545454545454538
 40
0.9545454545454538
 40
0.9545454545454538
 40
0.9545454545454538
 40
0.969696969696969
 40
0.969696969696969
 40
0.969696969696969
 40
0.969696969696969
 40
0.9848484848484841
 40
0.9848484848484841
 40
0.9848484848484841
 40
0.9848484848484841
 40
1.0
 40
1.0
 40
1.0
 40
1.0
 10
4.594677165354331
 20
3.6010275590551184
 30
0.0
 10
4.6116102362204723
 20
3.5007519685039372
 30
0.0
 10
4.701515748031496
 20
3.429444881889764
 30
0.0
 10
4.8030118110236222
 20
3.4357913385826775
 30
0.0
 10
4.8030118110236222
 20
3.4357913385826775
 30
0.0
 10
4.8030118110236222
 20
3.4357913385826775
 30
0.0
 10
5.3738464566929132
 20
3.4319055118110238
 30
0.0
 10
5.3738464566929132
 20
3.4319055118110238
 30
0.0
 10
5.3738464566929132
 20
3.4319055118110238
 30
0.0
 10
5.3738464566929132
 20
3.4319055118110238
 30
0.0
 10
5.4357559055118116
 20
3.2739685039370081
 30
0.0
 10
5.4357559055118116
 20
3.2739685039370081
 30
0.0
 10
5.4357559055118116
 20
3.2739685039370081
 30
0.0
 10
5.4357559055118116
 20
3.2739685039370081
 30
0.0
 10
5.881389763779528
 20
3.2708897637795276
 30
0.0
 10
5.881389763779528
 20
3.2708897637795276
 30
0.0
 10
5.881389763779528
 20
3.2708897637795276
 30
0.0
 10
6.0988188976377957
 20
3.2693858267716536
 30
0.0
 10
6.2763031496062993
 20
3.4444173228346457
 30
0.0
 10
6.2778267716535439
 20
3.6618464566929134
 30
0.0
 10
6.2778267716535439
 20
3.6618464566929134
 30
0.0
 10
6.2778267716535439
 20
3.6618464566929134
 30
0.0
 10
6.2822244094488191
 20
4.3044055118110238
 30
0.0
 10
6.2822244094488191
 20
4.3044055118110238
 30
0.0
 10
6.2822244094488191
 20
4.3044055118110238
 30
0.0
 10
6.2822244094488191
 20
4.3044055118110238
 30
0.0
 10
7.7467598425196851
 20
6.5659488188976383
 30
0.0
 10
7.7467598425196851
 20
6.5659488188976383
 30
0.0
 10
7.7467598425196851
 20
6.5659488188976383
 30
0.0
 10
7.9456850393700789
 20
6.4848582677165361
 30
0.0
 10
8.1571653543307097
 20
6.438897637795276
 30
0.0
 10
8.3717992125984253
 20
6.4301181102362204
 30
0.0
 10
8.3717992125984253
 20
6.4301181102362204
 30
0.0
 10
8.5845472440944892
 20
6.4358267716535433
 30
0.0
 10
8.7947165354330714
 20
6.4780551181102366
 30
0.0
 10
8.993145669291339
 20
6.5549724409448817
 30
0.0
 10
8.993145669291339
 20
6.5549724409448817
 30
0.0
 10
8.993145669291339
 20
6.5549724409448817
 30
0.0
 10
10.431771653543308
 20
4.2756968503937012
 30
0.0
 10
10.431771653543308
 20
4.2756968503937012
 30
0.0
 10
10.431771653543308
 20
4.2756968503937012
 30
0.0
 10
10.431771653543308
 20
4.2756968503937012
 30
0.0
 10
10.427342519685039
 20
3.633177165354331
 30
0.0
 10
10.427342519685039
 20
3.633177165354331
 30
0.0
 10
10.427342519685039
 20
3.633177165354331
 30
0.0
 10
10.426625984251968
 20
3.5287598425196851
 30
0.0
 10
10.467405511811023
 20
3.4283346456692914
 30
0.0
 10
10.540732283464568
 20
3.3539960629921262
 30
0.0
 10
10.540732283464568
 20
3.3539960629921262
 30
0.0
 10
10.614062992125985
 20
3.279657480314961
 30
0.0
 10
10.713913385826771
 20
3.237492125984252
 30
0.0
 10
10.818330708661417
 20
3.2367795275590554
 30
0.0
 10
10.818330708661417
 20
3.2367795275590554
 30
0.0
 10
10.818330708661417
 20
3.2367795275590554
 30
0.0
 10
11.264748031496064
 20
3.2337007874015748
 30
0.0
 10
11.264748031496064
 20
3.2337007874015748
 30
0.0
 10
11.264748031496064
 20
3.2337007874015748
 30
0.0
 10
11.264748031496064
 20
3.2337007874015748
 30
0.0
 10
11.328834645669291
 20
3.390720472440945
 30
0.0
 10
11.328834645669291
 20
3.390720472440945
 30
0.0
 10
11.328834645669291
 20
3.390720472440945
 30
0.0
 10
11.328834645669291
 20
3.390720472440945
 30
0.0
 10
11.89888188976378
 20
3.3867755905511814
 30
0.0
 10
11.89888188976378
 20
3.3867755905511814
 30
0.0
 10
11.89888188976378
 20
3.3867755905511814
 30
0.0
 10
12.000279527559055
 20
3.3790275590551184
 30
0.0
 10
12.091165354330709
 20
3.4490826771653547
 30
0.0
 10
12.10948031496063
 20
3.5491141732283467
 30
0.0
 10
12.10948031496063
 20
3.5491141732283467
 30
0.0
 10
12.10948031496063
 20
3.5491141732283467
 30
0.0
 10
12.110086614173229
 20
3.639700787401575
 30
0.0
 10
12.110086614173229
 20
3.639700787401575
 30
0.0
 10
12.110086614173229
 20
3.639700787401575
 30
0.0
 10
12.110086614173229
 20
3.639700787401575
 30
0.0
 10
11.503811023622047
 20
3.6438267716535435
 30
0.0
 10
11.503811023622047
 20
3.6438267716535435
 30
0.0
 10
11.503811023622047
 20
3.6438267716535435
 30
0.0
 10
11.475618110236221
 20
3.6440157480314963
 30
0.0
 10
11.448649606299213
 20
3.6553976377952759
 30
0.0
 10
11.428850393700788
 20
3.6754685039370081
 30
0.0
 10
11.428850393700788
 20
3.6754685039370081
 30
0.0
 10
11.409055118110237
 20
3.6955393700787402
 30
0.0
 10
11.398232283464568
 20
3.7226535433070866
 30
0.0
 10
11.398232283464568
 20
3.7508464566929134
 30
0.0
 10
11.398232283464568
 20
3.7508464566929134
 30
0.0
 10
11.398232283464568
 20
3.7790393700787401
 30
0.0
 10
11.409807086614174
 20
3.806003937007874
 30
0.0
 10
11.429877952755906
 20
3.8258031496062994
 30
0.0
 10
11.429877952755906
 20
3.8258031496062994
 30
0.0
 10
11.449952755905512
 20
3.8456023622047244
 30
0.0
 10
11.477070866141732
 20
3.8566141732283468
 30
0.0
 10
11.50526377952756
 20
3.85642125984252
 30
0.0
 10
11.50526377952756
 20
3.85642125984252
 30
0.0
 10
11.50526377952756
 20
3.85642125984252
 30
0.0
 10
12.111547244094488
 20
3.8522952755905515
 30
0.0
 10
12.111547244094488
 20
3.8522952755905515
 30
0.0
 10
12.111547244094488
 20
3.8522952755905515
 30
0.0
 10
12.111547244094488
 20
3.8522952755905515
 30
0.0
 10
12.112188976377952
 20
3.9427755905511814
 30
0.0
 10
12.112188976377952
 20
3.9427755905511814
 30
0.0
 10
12.112188976377952
 20
3.9427755905511814
 30
0.0
 10
12.095318897637796
 20
4.0430708661417327
 30
0.0
 10
12.005409448818899
 20
4.1144133858267722
 30
0.0
 10
11.903905511811024
 20
4.1080551181102365
 30
0.0
 10
11.903905511811024
 20
4.1080551181102365
 30
0.0
 10
11.903905511811024
 20
4.1080551181102365
 30
0.0
 10
11.333826771653543
 20
4.1119448818897641
 30
0.0
 10
11.333826771653543
 20
4.1119448818897641
 30
0.0
 10
11.333826771653543
 20
4.1119448818897641
 30
0.0
 10
11.333826771653543
 20
4.1119448818897641
 30
0.0
 10
11.271913385826773
 20
4.2698818897637798
 30
0.0
 10
11.271913385826773
 20
4.2698818897637798
 30
0.0
 10
11.271913385826773
 20
4.2698818897637798
 30
0.0
 10
11.271913385826773
 20
4.2698818897637798
 30
0.0
 10
11.140389763779527
 20
4.2708188976377954
 30
0.0
 10
11.140389763779527
 20
4.2708188976377954
 30
0.0
 10
11.140389763779527
 20
4.2708188976377954
 30
0.0
 10
11.140389763779527
 20
4.2708188976377954
 30
0.0
 10
10.356437007874016
 20
5.9053976377952759
 30
0.0
 10
10.356437007874016
 20
5.9053976377952759
 30
0.0
 10
10.356437007874016
 20
5.9053976377952759
 30
0.0
 10
10.356437007874016
 20
5.9053976377952759
 30
0.0
 10
9.9278976377952759
 20
6.7981181102362207
 30
0.0
 10
9.9278976377952759
 20
6.7981181102362207
 30
0.0
 10
9.9278976377952759
 20
6.7981181102362207
 30
0.0
 10
10.067795275590552
 20
7.4491062992125991
 30
0.0
 10
10.145153543307087
 20
8.1119763779527556
 30
0.0
 10
10.158917322834647
 20
8.7776850393700787
 30
0.0
 10
10.158917322834647
 20
8.7776850393700787
 30
0.0
 10
10.038444881889765
 20
8.9462047244094496
 30
0.0
 10
9.8919488188976388
 20
9.0945
 30
0.0
 10
9.7249212598425192
 20
9.217031496062992
 30
0.0
 10
9.7249212598425192
 20
9.217031496062992
 30
0.0
 10
9.7249212598425192
 20
9.217031496062992
 30
0.0
 10
9.7169527559055116
 20
8.0547401574803157
 30
0.0
 10
9.7169527559055116
 20
8.0547401574803157
 30
0.0
 10
9.7169527559055116
 20
8.0547401574803157
 30
0.0
 10
9.7169527559055116
 20
8.0265393700787406
 30
0.0
 10
9.7053661417322843
 20
7.9995669291338585
 30
0.0
 10
9.6852913385826778
 20
7.9797637795275591
 30
0.0
 10
9.6852913385826778
 20
7.9797637795275591
 30
0.0
 10
9.6652125984251978
 20
7.9599606299212597
 30
0.0
 10
9.6380866141732291
 20
7.9489448818897639
 30
0.0
 10
9.609885826771654
 20
7.9491377952755906
 30
0.0
 10
9.609885826771654
 20
7.9491377952755906
 30
0.0
 10
9.5816889763779525
 20
7.9493346456692917
 30
0.0
 10
9.5547086614173224
 20
7.9607244094488188
 30
0.0
 10
9.534905511811024
 20
7.9808070866141732
 30
0.0
 10
9.534905511811024
 20
7.9808070866141732
 30
0.0
 10
9.5151023622047255
 20
8.000893700787401
 30
0.0
 10
9.5042834645669299
 20
8.0280196850393697
 30
0.0
 10
9.5042834645669299
 20
8.0562204724409447
 30
0.0
 10
9.5042834645669299
 20
8.0562204724409447
 30
0.0
 10
9.5042834645669299
 20
8.0562204724409447
 30
0.0
 10
9.5132637795275592
 20
9.3526259842519686
 30
0.0
 10
9.5132637795275592
 20
9.3526259842519686
 30
0.0
 10
9.5132637795275592
 20
9.3526259842519686
 30
0.0
 10
9.2036653543307096
 20
9.5236496062992124
 30
0.0
 10
8.8534685039370089
 20
9.6075039370078752
 30
0.0
 10
8.4999842519685043
 20
9.5952677165354334
 30
0.0
 10
8.4999842519685043
 20
9.5952677165354334
 30
0.0
 10
8.4999842519685043
 20
9.5952677165354334
 30
0.0
 10
8.4893779527559055
 20
8.0632322834645667
 30
0.0
 10
8.4893779527559055
 20
8.0632322834645667
 30
0.0
 10
8.4893779527559055
 20
8.0632322834645667
 30
0.0
 10
8.4889724409448828
 20
8.0045236220472447
 30
0.0
 10
8.4410511811023632
 20
7.9572637795275591
 30
0.0
 10
8.3823425196850394
 20
7.9576692913385827
 30
0.0
 10
8.3823425196850394
 20
7.9576692913385827
 30
0.0
 10
8.3236417322834644
 20
7.9580748031496062
 30
0.0
 10
8.276374015748031
 20
8.0059960629921267
 30
0.0
 10
8.2767834645669289
 20
8.0647007874015753
 30
0.0
 10
8.2767834645669289
 20
8.0647007874015753
 30
0.0
 10
8.2767834645669289
 20
8.0647007874015753
 30
0.0
 10
8.2873897637795277
 20
9.5967204724409445
 30
0.0
 10
8.2873897637795277
 20
9.5967204724409445
 30
0.0
 10
8.2873897637795277
 20
9.5967204724409445
 30
0.0
 10
7.9343503937007878
 20
9.6136968503937013
 30
0.0
 10
7.5833070866141732
 20
9.5346732283464579
 30
0.0
 10
7.2715944881889767
 20
9.3680590551181098
 30
0.0
 10
7.2715944881889767
 20
9.3680590551181098
 30
0.0
 10
7.2715944881889767
 20
9.3680590551181098
 30
0.0
 10
7.2626535433070867
 20
8.0716653543307082
 30
0.0
 10
7.2626535433070867
 20
8.0716653543307082
 30
0.0
 10
7.2626535433070867
 20
8.0716653543307082
 30
0.0
 10
7.2626535433070867
 20
8.0434724409448819
 30
0.0
 10
7.2510708661417329
 20
8.0165118110236229
 30
0.0
 10
7.2309999999999999
 20
7.9967165354330714
 30
0.0
 10
7.2309999999999999
 20
7.9967165354330714
 30
0.0
 10
7.2109291338582677
 20
7.9769212598425199
 30
0.0
 10
7.1838149606299213
 20
7.965905511811024
 30
0.0
 10
7.155622047244095
 20
7.9660984251968507
 30
0.0
 10
7.155622047244095
 20
7.9660984251968507
 30
0.0
 10
7.1274291338582678
 20
7.9662952755905518
 30
0.0
 10
7.1004685039370079
 20
7.9776811023622054
 30
0.0
 10
7.0806732283464573
 20
7.9977519685039375
 30
0.0
 10
7.0806732283464573
 20
7.9977519685039375
 30
0.0
 10
7.0608740157480314
 20
8.0178267716535441
 30
0.0
 10
7.0500551181102367
 20
8.0449409448818905
 30
0.0
 10
7.0500551181102367
 20
8.0731299212598433
 30
0.0
 10
7.0500551181102367
 20
8.0731299212598433
 30
0.0
 10
7.0500551181102367
 20
8.0731299212598433
 30
0.0
 10
7.0580669291338589
 20
9.2355
 30
0.0
 10
7.0580669291338589
 20
9.2355
 30
0.0
 10
7.0580669291338589
 20
9.2355
 30
0.0
 10
6.8890944881889764
 20
9.1153385826771665
 30
0.0
 10
6.7403031496062997
 20
8.9690669291338594
 30
0.0
 10
6.6172755905511815
 20
8.8021653543307092
 30
0.0
 10
6.6172755905511815
 20
8.8021653543307092
 30
0.0
 10
6.6220944881889769
 20
8.1363110236220475
 30
0.0
 10
6.6905433070866147
 20
7.4724330708661419
 30
0.0
 10
6.8216929133858271
 20
6.8195984251968502
 30
0.0
 10
6.8216929133858271
 20
6.8195984251968502
 30
0.0
 10
6.8216929133858271
 20
6.8195984251968502
 30
0.0
 10
5.5736062992125985
 20
4.3092834645669296
 30
0.0
 10
5.5736062992125985
 20
4.3092834645669296
 30
0.0
 10
5.5736062992125985
 20
4.3092834645669296
 30
0.0
 10
5.5736062992125985
 20
4.3092834645669296
 30
0.0
 10
5.4429251968503936
 20
4.310153543307087
 30
0.0
 10
5.4429251968503936
 20
4.310153543307087
 30
0.0
 10
5.4429251968503936
 20
4.310153543307087
 30
0.0
 10
5.4429251968503936
 20
4.310153543307087
 30
0.0
 10
5.3788385826771652
 20
4.1531299212598425
 30
0.0
 10
5.3788385826771652
 20
4.1531299212598425
 30
0.0
 10
5.3788385826771652
 20
4.1531299212598425
 30
0.0
 10
5.3788385826771652
 20
4.1531299212598425
 30
0.0
 10
4.8079488188976383
 20
4.1570748031496061
 30
0.0
 10
4.8079488188976383
 20
4.1570748031496061
 30
0.0
 10
4.8079488188976383
 20
4.1570748031496061
 30
0.0
 10
4.7065433070866147
 20
4.1648346456692913
 30
0.0
 10
4.6156614173228352
 20
4.0947401574803148
 30
0.0
 10
4.597405511811024
 20
3.9946850393700788
 30
0.0
 10
4.597405511811024
 20
3.9946850393700788
 30
0.0
 10
4.597405511811024
 20
3.9946850393700788
 30
0.0
 10
4.5967952755905515
 20
3.9042047244094489
 30
0.0
 10
4.5967952755905515
 20
3.9042047244094489
 30
0.0
 10
4.5967952755905515
 20
3.9042047244094489
 30
0.0
 10
4.5967952755905515
 20
3.9042047244094489
 30
0.0
 10
5.2030826771653542
 20
3.8999566929133858
 30
0.0
 10
5.2030826771653542
 20
3.8999566929133858
 30
0.0
 10
5.2030826771653542
 20
3.8999566929133858
 30
0.0
 10
5.231271653543307
 20
3.8997598425196851
 30
0.0
 10
5.2582362204724413
 20
3.8883740157480315
 30
0.0
 10
5.2780314960629919
 20
3.8682992125984255
 30
0.0
 10
5.2780314960629919
 20
3.8682992125984255
 30
0.0
 10
5.2978307086614178
 20
3.8482244094488189
 30
0.0
 10
5.3086417322834647
 20
3.8211062992125986
 30
0.0
 10
5.3086417322834647
 20
3.7929133858267718
 30
0.0
 10
5.3086417322834647
 20
3.7929133858267718
 30
0.0
 10
5.3086417322834647
 20
3.7647204724409451
 30
0.0
 10
5.2970551181102365
 20
3.7377598425196852
 30
0.0
 10
5.2769842519685044
 20
3.7179645669291341
 30
0.0
 10
5.2769842519685044
 20
3.7179645669291341
 30
0.0
 10
5.2569094488188979
 20
3.698173228346457
 30
0.0
 10
5.2297913385826771
 20
3.6871614173228346
 30
0.0
 10
5.2015984251968508
 20
3.6873582677165357
 30
0.0
 10
5.2015984251968508
 20
3.6873582677165357
 30
0.0
 10
5.2015984251968508
 20
3.6873582677165357
 30
0.0
 10
4.5953267716535438
 20
3.6916141732283467
 30
0.0
 10
4.5953267716535438
 20
3.6916141732283467
 30
0.0
 10
4.5953267716535438
 20
3.6916141732283467
 30
0.0
 10
4.5953267716535438
 20
3.6916141732283467
 30
0.0
 10
4.594677165354331
 20
3.6010275590551184
 30
0.0
 10
4.594677165354331
 20
3.6010275590551184
 30
0.0
  0
SPLINE
  5
26
100
AcDbEntity
  8
Layer 1
370
     0
100
AcDbSpline
210
0.0
220
0.0
230
1.0
 70
     1
 71
     3
 72
   132
 73
   128
 74
     0
 42
0.0000000001
 43
0.0000000001
 40
0.0
 40
0.0
 40
0.0
 40
0.0
 40
0.03125
 40
0.03125
 40
0.03125
 40
0.03125
 40
0.0625
 40
0.0625
 40
0.0625
 40
0.0625
 40
0.09375
 40
0.09375
 40
0.09375
 40
0.09375
 40
0.125
 40
0.125
 40
0.125
 40
0.125
 40
0.15625
 40
0.15625
 40
0.15625
 40
0.15625
 40
0.1875
 40
0.1875
 40
0.1875
 40
0.1875
 40
0.21875
 40
0.21875
 40
0.21875
 40
0.21875
 40
0.25
 40
0.25
 40
0.25
 40
0.25
 40
0.28125
 40
0.28125
 40
0.28125
 40
0.28125
 40
0.3125
 40
0.3125
 40
0.3125
 40
0.3125
 40
0.34375
 40
0.34375
 40
0.34375
 40
0.34375
 40
0.375
 40
0.375
 40
0.375
 40
0.375
 40
0.40625
 40
0.40625
 40
0.40625
 40
0.40625
 40
0.4375
 40
0.4375
 40
0.4375
 40
0.4375
 40
0.46875
 40
0.46875
 40
0.46875
 40
0.46875
 40
0.5
 40
0.5
 40
0.5
 40
0.5
 40
0.53125
 40
0.53125
 40
0.53125
 40
0.53125
 40
0.5625
 40
0.5625
 40
0.5625
 40
0.5625
 40
0.59375
 40
0.59375
 40
0.59375
 40
0.59375
 40
0.625
 40
0.625
 40
0.625
 40
0.625
 40
0.65625
 40
0.65625
 40
0.65625
 40
0.65625
 40
0.6875
 40
0.6875
 40
0.6875
 40
0.6875
 40
0.71875
 40
0.71875
 40
0.71875
 40
0.71875
 40
0.75
 40
0.75
 40
0.75
 40
0.75
 40
0.78125
 40
0.78125
 40
0.78125
 40
0.78125
 40
0.8125
 40
0.8125
 40
0.8125
 40
0.8125
 40
0.84375
 40
0.84375
 40
0.84375
 40
0.84375
 40
0.875
 40
0.875
 40
0.875
 40
0.875
 40
0.90625
 40
0.90625
 40
0.90625
 40
0.90625
 40
0.9375
 40
0.9375
 40
0.9375
 40
0.9375
 40
0.96875
 40
0.96875
 40
0.96875
 40
0.96875
 40
1.0
 40
1.0
 40
1.0
 40
1.0
 10
3.1552598425196852
 20
-7.9743346456692921
 30
0.0
 10
3.1552598425196852
 20
-8.0330393700787397
 30
0.0
 10
3.2028503937007877
 20
-8.0806299212598436
 30
0.0
 10
3.2615590551181102
 20
-8.0806299212598436
 30
0.0
 10
3.2615590551181102
 20
-8.0806299212598436
 30
0.0
 10
3.3202677165354331
 20
-8.0806338582677171
 30
0.0
 10
3.3678582677165356
 20
-8.0330393700787397
 30
0.0
 10
3.3678582677165356
 20
-7.9743346456692921
 30
0.0
 10
3.3678582677165356
 20
-7.9743346456692921
 30
0.0
 10
3.3678582677165356
 20
-7.9743346456692921
 30
0.0
 10
3.3678582677165356
 20
-6.9428385826771652
 30
0.0
 10
3.3678582677165356
 20
-6.9428385826771652
 30
0.0
 10
3.3678582677165356
 20
-6.9428385826771652
 30
0.0
 10
3.3678582677165356
 20
-6.9428385826771652
 30
0.0
 10
3.5812440944881891
 20
-6.9428385826771652
 30
0.0
 10
3.5812440944881891
 20
-6.9428385826771652
 30
0.0
 10
3.5812440944881891
 20
-6.9428385826771652
 30
0.0
 10
3.5812440944881891
 20
-6.9428385826771652
 30
0.0
 10
4.2899055118110239
 20
-6.1310275590551182
 30
0.0
 10
4.2899055118110239
 20
-6.1310275590551182
 30
0.0
 10
4.2899055118110239
 20
-6.1310275590551182
 30
0.0
 10
4.3197440944881889
 20
-6.0967480314960634
 30
0.0
 10
4.3629645669291337
 20
-6.0770669291338582
 30
0.0
 10
4.4084094488188974
 20
-6.0770669291338582
 30
0.0
 10
4.4084094488188974
 20
-6.0770669291338582
 30
0.0
 10
4.4538582677165355
 20
-6.0770669291338582
 30
0.0
 10
4.4970748031496068
 20
-6.096744094488189
 30
0.0
 10
4.5269133858267718
 20
-6.1310275590551182
 30
0.0
 10
4.5269133858267718
 20
-6.1310275590551182
 30
0.0
 10
4.5269133858267718
 20
-6.1310275590551182
 30
0.0
 10
5.2347874015748035
 20
-6.9428385826771652
 30
0.0
 10
5.2347874015748035
 20
-6.9428385826771652
 30
0.0
 10
5.2347874015748035
 20
-6.9428385826771652
 30
0.0
 10
5.2347874015748035
 20
-6.9428385826771652
 30
0.0
 10
5.448964566929134
 20
-6.9428385826771652
 30
0.0
 10
5.448964566929134
 20
-6.9428385826771652
 30
0.0
 10
5.448964566929134
 20
-6.9428385826771652
 30
0.0
 10
5.448964566929134
 20
-6.9428385826771652
 30
0.0
 10
5.448964566929134
 20
-7.9743346456692921
 30
0.0
 10
5.448964566929134
 20
-7.9743346456692921
 30
0.0
 10
5.448964566929134
 20
-7.9743346456692921
 30
0.0
 10
5.448964566929134
 20
-8.0330393700787397
 30
0.0
 10
5.4965511811023626
 20
-8.0806299212598436
 30
0.0
 10
5.5552598425196855
 20
-8.0806299212598436
 30
0.0
 10
5.5552598425196855
 20
-8.0806299212598436
 30
0.0
 10
5.6139685039370084
 20
-8.0806338582677171
 30
0.0
 10
5.6615590551181105
 20
-8.0330393700787397
 30
0.0
 10
5.6615590551181105
 20
-7.9743346456692921
 30
0.0
 10
5.6615590551181105
 20
-7.9743346456692921
 30
0.0
 10
5.6615590551181105
 20
-7.9743346456692921
 30
0.0
 10
5.6615629921259849
 20
-6.9428385826771652
 30
0.0
 10
5.6615629921259849
 20
-6.9428385826771652
 30
0.0
 10
5.6615629921259849
 20
-6.9428385826771652
 30
0.0
 10
5.6615629921259849
 20
-6.9428385826771652
 30
0.0
 10
5.9434527559055121
 20
-6.9428385826771652
 30
0.0
 10
5.9434527559055121
 20
-6.9428385826771652
 30
0.0
 10
5.9434527559055121
 20
-6.9428385826771652
 30
0.0
 10
5.9852165354330715
 20
-6.9428385826771652
 30
0.0
 10
6.0252716535433075
 20
-6.9594291338582677
 30
0.0
 10
6.0548031496062995
 20
-6.9889606299212605
 30
0.0
 10
6.0548031496062995
 20
-6.9889606299212605
 30
0.0
 10
6.0843385826771659
 20
-7.018496062992126
 30
0.0
 10
6.1009291338582683
 20
-7.0585511811023629
 30
0.0
 10
6.1009291338582683
 20
-7.1003149606299214
 30
0.0
 10
6.1009291338582683
 20
-7.1003149606299214
 30
0.0
 10
6.1009291338582683
 20
-7.1003149606299214
 30
0.0
 10
6.1009291338582683
 20
-8.2814173228346455
 30
0.0
 10
6.1009291338582683
 20
-8.2814173228346455
 30
0.0
 10
6.1009291338582683
 20
-8.2814173228346455
 30
0.0
 10
6.1009291338582683
 20
-8.2814173228346455
 30
0.0
 10
5.8654999999999999
 20
-9.2263031496063004
 30
0.0
 10
5.8654999999999999
 20
-9.2263031496063004
 30
0.0
 10
5.8654999999999999
 20
-9.2263031496063004
 30
0.0
 10
5.8654999999999999
 20
-9.2263031496063004
 30
0.0
 10
5.1158897637795278
 20
-9.2263031496063004
 30
0.0
 10
5.1158897637795278
 20
-9.2263031496063004
 30
0.0
 10
5.1158897637795278
 20
-9.2263031496063004
 30
0.0
 10
5.1158897637795278
 20
-9.2263031496063004
 30
0.0
 10
4.5143149606299211
 20
-9.2263031496063004
 30
0.0
 10
4.5143149606299211
 20
-9.2263031496063004
 30
0.0
 10
4.5143149606299211
 20
-9.2263031496063004
 30
0.0
 10
4.5143149606299211
 20
-9.2263031496063004
 30
0.0
 10
4.5143149606299211
 20
-8.3601614173228356
 30
0.0
 10
4.5143149606299211
 20
-8.3601614173228356
 30
0.0
 10
4.5143149606299211
 20
-8.3601614173228356
 30
0.0
 10
4.5143149606299211
 20
-8.3014566929133853
 30
0.0
 10
4.466724409448819
 20
-8.2538582677165362
 30
0.0
 10
4.4080157480314961
 20
-8.2538582677165362
 30
0.0
 10
4.4080157480314961
 20
-8.2538582677165362
 30
0.0
 10
4.3493070866141732
 20
-8.2538622047244097
 30
0.0
 10
4.3017165354330711
 20
-8.3014527559055118
 30
0.0
 10
4.3017165354330711
 20
-8.3601574803149603
 30
0.0
 10
4.3017165354330711
 20
-8.3601574803149603
 30
0.0
 10
4.3017165354330711
 20
-8.3601574803149603
 30
0.0
 10
4.3017165354330711
 20
-9.2263031496063004
 30
0.0
 10
4.3017165354330711
 20
-9.2263031496063004
 30
0.0
 10
4.3017165354330711
 20
-9.2263031496063004
 30
0.0
 10
4.3017165354330711
 20
-9.2263031496063004
 30
0.0
 10
3.639905511811024
 20
-9.2263031496063004
 30
0.0
 10
3.639905511811024
 20
-9.2263031496063004
 30
0.0
 10
3.639905511811024
 20
-9.2263031496063004
 30
0.0
 10
3.639905511811024
 20
-9.2263031496063004
 30
0.0
 10
2.9505354330708662
 20
-9.2263031496063004
 30
0.0
 10
2.9505354330708662
 20
-9.2263031496063004
 30
0.0
 10
2.9505354330708662
 20
-9.2263031496063004
 30
0.0
 10
2.9505354330708662
 20
-9.2263031496063004
 30
0.0
 10
2.7151023622047243
 20
-8.2814173228346455
 30
0.0
 10
2.7151023622047243
 20
-8.2814173228346455
 30
0.0
 10
2.7151023622047243
 20
-8.2814173228346455
 30
0.0
 10
2.7151023622047243
 20
-8.2814173228346455
 30
0.0
 10
2.7151023622047243
 20
-7.1003188976377958
 30
0.0
 10
2.7151023622047243
 20
-7.1003188976377958
 30
0.0
 10
2.7151023622047243
 20
-7.1003188976377958
 30
0.0
 10
2.7151023622047243
 20
-7.0585511811023629
 30
0.0
 10
2.7316929133858268
 20
-7.018496062992126
 30
0.0
 10
2.7612283464566931
 20
-6.9889606299212605
 30
0.0
 10
2.7612283464566931
 20
-6.9889606299212605
 30
0.0
 10
2.7907637795275591
 20
-6.9594291338582677
 30
0.0
 10
2.8308149606299216
 20
-6.9428385826771652
 30
0.0
 10
2.8725826771653544
 20
-6.9428385826771652
 30
0.0
 10
2.8725826771653544
 20
-6.9428385826771652
 30
0.0
 10
2.8725826771653544
 20
-6.9428385826771652
 30
0.0
 10
3.1552598425196852
 20
-6.9428385826771652
 30
0.0
 10
3.1552598425196852
 20
-6.9428385826771652
 30
0.0
 10
3.1552598425196852
 20
-6.9428385826771652
 30
0.0
 10
3.1552598425196852
 20
-6.9428385826771652
 30
0.0
 10
3.1552598425196852
 20
-7.9743346456692921
 30
0.0
 10
3.1552598425196852
 20
-7.9743346456692921
 30
0.0
  0
SPLINE
  5
27
100
AcDbEntity
  8
Layer 1
370
     0
100
AcDbSpline
210
0.0
220
0.0
230
1.0
 70
     1
 71
     3
 72
    76
 73
    72
 74
     0
 42
0.0000000001
 43
0.0000000001
 40
0.0
 40
0.0
 40
0.0
 40
0.0
 40
0.0555555555555556
 40
0.0555555555555556
 40
0.0555555555555556
 40
0.0555555555555556
 40
0.1111111111111111
 40
0.1111111111111111
 40
0.1111111111111111
 40
0.1111111111111111
 40
0.1666666666666667
 40
0.1666666666666667
 40
0.1666666666666667
 40
0.1666666666666667
 40
0.2222222222222222
 40
0.2222222222222222
 40
0.2222222222222222
 40
0.2222222222222222
 40
0.2777777777777778
 40
0.2777777777777778
 40
0.2777777777777778
 40
0.2777777777777778
 40
0.3333333333333334
 40
0.3333333333333334
 40
0.3333333333333334
 40
0.3333333333333334
 40
0.388888888888889
 40
0.388888888888889
 40
0.388888888888889
 40
0.388888888888889
 40
0.4444444444444445
 40
0.4444444444444445
 40
0.4444444444444445
 40
0.4444444444444445
 40
0.5000000000000001
 40
0.5000000000000001
 40
0.5000000000000001
 40
0.5000000000000001
 40
0.5555555555555557
 40
0.5555555555555557
 40
0.5555555555555557
 40
0.5555555555555557
 40
0.6111111111111113
 40
0.6111111111111113
 40
0.6111111111111113
 40
0.6111111111111113
 40
0.6666666666666669
 40
0.6666666666666669
 40
0.6666666666666669
 40
0.6666666666666669
 40
0.7222222222222224
 40
0.7222222222222224
 40
0.7222222222222224
 40
0.7222222222222224
 40
0.777777777777778
 40
0.777777777777778
 40
0.777777777777778
 40
0.777777777777778
 40
0.8333333333333336
 40
0.8333333333333336
 40
0.8333333333333336
 40
0.8333333333333336
 40
0.8888888888888892
 40
0.8888888888888892
 40
0.8888888888888892
 40
0.8888888888888892
 40
0.9444444444444448
 40
0.9444444444444448
 40
0.9444444444444448
 40
0.9444444444444448
 40
1.0
 40
1.0
 40
1.0
 40
1.0
 10
-3.6984448818897637
 20
-9.0894409448818898
 30
0.0
 10
-3.5678070866141733
 20
-9.1086456692913398
 30
0.0
 10
-3.4351220472440946
 20
-9.0719330708661428
 30
0.0
 10
-3.3329291338582681
 20
-8.9883188976377948
 30
0.0
 10
-3.3329291338582681
 20
-8.9883188976377948
 30
0.0
 10
-3.230736220472441
 20
-8.9047086614173239
 30
0.0
 10
-3.1684842519685041
 20
-8.7819173228346461
 30
0.0
 10
-3.1614409448818899
 20
-8.6500629921259851
 30
0.0
 10
-3.1614409448818899
 20
-8.6500629921259851
 30
0.0
 10
-3.1536496062992128
 20
-8.5925275590551191
 30
0.0
 10
-3.1544448818897637
 20
-8.5341417322834641
 30
0.0
 10
-3.1638070866141734
 20
-8.4768346456692925
 30
0.0
 10
-3.1638070866141734
 20
-8.4768346456692925
 30
0.0
 10
-3.1782677165354332
 20
-8.3505669291338585
 30
0.0
 10
-3.2433070866141733
 20
-8.235547244094489
 30
0.0
 10
-3.3440669291338585
 20
-8.1580826771653552
 30
0.0
 10
-3.3440669291338585
 20
-8.1580826771653552
 30
0.0
 10
-3.4448307086614176
 20
-8.0806220472440948
 30
0.0
 10
-3.5726968503937009
 20
-8.0473228346456693
 30
0.0
 10
-3.6984409448818898
 20
-8.0658110236220484
 30
0.0
 10
-3.6984409448818898
 20
-8.0658110236220484
 30
0.0
 10
-3.6984409448818898
 20
-8.0658110236220484
 30
0.0
 10
-3.8386023622047247
 20
-8.0658149606299219
 30
0.0
 10
-3.8386023622047247
 20
-8.0658149606299219
 30
0.0
 10
-3.8386023622047247
 20
-8.0658149606299219
 30
0.0
 10
-3.8386023622047247
 20
-8.0658149606299219
 30
0.0
 10
-3.8700984251968507
 20
-8.2232952755905515
 30
0.0
 10
-3.8700984251968507
 20
-8.2232952755905515
 30
0.0
 10
-3.8700984251968507
 20
-8.2232952755905515
 30
0.0
 10
-3.8700984251968507
 20
-8.2232952755905515
 30
0.0
 10
-4.4212795275590553
 20
-8.2232952755905515
 30
0.0
 10
-4.4212795275590553
 20
-8.2232952755905515
 30
0.0
 10
-4.4212795275590553
 20
-8.2232952755905515
 30
0.0
 10
-4.4212795275590553
 20
-8.2232952755905515
 30
0.0
 10
-4.4212795275590553
 20
-8.4713267716535441
 30
0.0
 10
-4.4212795275590553
 20
-8.4713267716535441
 30
0.0
 10
-4.4212795275590553
 20
-8.4713267716535441
 30
0.0
 10
-4.4212795275590553
 20
-8.4713267716535441
 30
0.0
 10
-3.8700984251968507
 20
-8.4713267716535441
 30
0.0
 10
-3.8700984251968507
 20
-8.4713267716535441
 30
0.0
 10
-3.8700984251968507
 20
-8.4713267716535441
 30
0.0
 10
-3.8113897637795278
 20
-8.4713267716535441
 30
0.0
 10
-3.7637952755905513
 20
-8.5189133858267727
 30
0.0
 10
-3.7637952755905513
 20
-8.5776220472440947
 30
0.0
 10
-3.7637952755905513
 20
-8.5776220472440947
 30
0.0
 10
-3.7637952755905513
 20
-8.636334645669292
 30
0.0
 10
-3.8113897637795278
 20
-8.6839212598425206
 30
0.0
 10
-3.8700984251968507
 20
-8.6839212598425206
 30
0.0
 10
-3.8700984251968507
 20
-8.6839212598425206
 30
0.0
 10
-3.8700984251968507
 20
-8.6839212598425206
 30
0.0
 10
-4.4212795275590553
 20
-8.6839251968503941
 30
0.0
 10
-4.4212795275590553
 20
-8.6839251968503941
 30
0.0
 10
-4.4212795275590553
 20
-8.6839251968503941
 30
0.0
 10
-4.4212795275590553
 20
-8.6839251968503941
 30
0.0
 10
-4.4212795275590553
 20
-8.9319566929133867
 30
0.0
 10
-4.4212795275590553
 20
-8.9319566929133867
 30
0.0
 10
-4.4212795275590553
 20
-8.9319566929133867
 30
0.0
 10
-4.4212795275590553
 20
-8.9319566929133867
 30
0.0
 10
-4.2078937007874018
 20
-8.9319566929133867
 30
0.0
 10
-4.2078937007874018
 20
-8.9319566929133867
 30
0.0
 10
-4.2078937007874018
 20
-8.9319566929133867
 30
0.0
 10
-4.2078937007874018
 20
-8.9319566929133867
 30
0.0
 10
-3.8700984251968507
 20
-8.9319566929133867
 30
0.0
 10
-3.8700984251968507
 20
-8.9319566929133867
 30
0.0
 10
-3.8700984251968507
 20
-8.9319566929133867
 30
0.0
 10
-3.8700984251968507
 20
-8.9319566929133867
 30
0.0
 10
-3.8386023622047247
 20
-9.0894330708661428
 30
0.0
 10
-3.8386023622047247
 20
-9.0894330708661428
 30
0.0
 10
-3.8386023622047247
 20
-9.0894330708661428
 30
0.0
 10
-3.8386023622047247
 20
-9.0894330708661428
 30
0.0
 10
-3.6984448818897637
 20
-9.0894409448818898
 30
0.0
 10
-3.6984448818897637
 20
-9.0894409448818898
 30
0.0
  0
SPLINE
  5
28
100
AcDbEntity
  8
Layer 1
370
     0
100
AcDbSpline
210
0.0
220
0.0
230
1.0
 70
     1
 71
     3
 72
    76
 73
    72
 74
     0
 42
0.0000000001
 43
0.0000000001
 40
0.0
 40
0.0
 40
0.0
 40
0.0
 40
0.0555555555555556
 40
0.0555555555555556
 40
0.0555555555555556
 40
0.0555555555555556
 40
0.1111111111111111
 40
0.1111111111111111
 40
0.1111111111111111
 40
0.1111111111111111
 40
0.1666666666666667
 40
0.1666666666666667
 40
0.1666666666666667
 40
0.1666666666666667
 40
0.2222222222222222
 40
0.2222222222222222
 40
0.2222222222222222
 40
0.2222222222222222
 40
0.2777777777777778
 40
0.2777777777777778
 40
0.2777777777777778
 40
0.2777777777777778
 40
0.3333333333333334
 40
0.3333333333333334
 40
0.3333333333333334
 40
0.3333333333333334
 40
0.388888888888889
 40
0.388888888888889
 40
0.388888888888889
 40
0.388888888888889
 40
0.4444444444444445
 40
0.4444444444444445
 40
0.4444444444444445
 40
0.4444444444444445
 40
0.5000000000000001
 40
0.5000000000000001
 40
0.5000000000000001
 40
0.5000000000000001
 40
0.5555555555555557
 40
0.5555555555555557
 40
0.5555555555555557
 40
0.5555555555555557
 40
0.6111111111111113
 40
0.6111111111111113
 40
0.6111111111111113
 40
0.6111111111111113
 40
0.6666666666666669
 40
0.6666666666666669
 40
0.6666666666666669
 40
0.6666666666666669
 40
0.7222222222222224
 40
0.7222222222222224
 40
0.7222222222222224
 40
0.7222222222222224
 40
0.777777777777778
 40
0.777777777777778
 40
0.777777777777778
 40
0.777777777777778
 40
0.8333333333333336
 40
0.8333333333333336
 40
0.8333333333333336
 40
0.8333333333333336
 40
0.8888888888888892
 40
0.8888888888888892
 40
0.8888888888888892
 40
0.8888888888888892
 40
0.9444444444444448
 40
0.9444444444444448
 40
0.9444444444444448
 40
0.9444444444444448
 40
1.0
 40
1.0
 40
1.0
 40
1.0
 10
-3.1087362204724411
 20
-2.3077874015748034
 30
0.0
 10
-2.9780984251968503
 20
-2.3269921259842521
 30
0.0
 10
-2.8454133858267716
 20
-2.2902834645669294
 30
0.0
 10
-2.743220472440945
 20
-2.2066692913385828
 30
0.0
 10
-2.743220472440945
 20
-2.2066692913385828
 30
0.0
 10
-2.641027559055118
 20
-2.1230551181102362
 30
0.0
 10
-2.5787755905511811
 20
-2.0002637795275593
 30
0.0
 10
-2.5717322834645668
 20
-1.8684133858267717
 30
0.0
 10
-2.5717322834645668
 20
-1.8684133858267717
 30
0.0
 10
-2.5639409448818897
 20
-1.8108700787401575
 30
0.0
 10
-2.5647362204724411
 20
-1.7524921259842521
 30
0.0
 10
-2.5740984251968504
 20
-1.6951850393700787
 30
0.0
 10
-2.5740984251968504
 20
-1.6951850393700787
 30
0.0
 10
-2.5885590551181101
 20
-1.5689133858267716
 30
0.0
 10
-2.6535984251968503
 20
-1.4538976377952757
 30
0.0
 10
-2.7543582677165355
 20
-1.3764330708661419
 30
0.0
 10
-2.7543582677165355
 20
-1.3764330708661419
 30
0.0
 10
-2.8551220472440946
 20
-1.298968503937008
 30
0.0
 10
-2.9829881889763779
 20
-1.2656732283464567
 30
0.0
 10
-3.1087322834645672
 20
-1.2841614173228346
 30
0.0
 10
-3.1087322834645672
 20
-1.2841614173228346
 30
0.0
 10
-3.1087322834645672
 20
-1.2841614173228346
 30
0.0
 10
-3.2488937007874017
 20
-1.2841614173228346
 30
0.0
 10
-3.2488937007874017
 20
-1.2841614173228346
 30
0.0
 10
-3.2488937007874017
 20
-1.2841614173228346
 30
0.0
 10
-3.2488937007874017
 20
-1.2841614173228346
 30
0.0
 10
-3.2803897637795276
 20
-1.4416417322834647
 30
0.0
 10
-3.2803897637795276
 20
-1.4416417322834647
 30
0.0
 10
-3.2803897637795276
 20
-1.4416417322834647
 30
0.0
 10
-3.2803897637795276
 20
-1.4416417322834647
 30
0.0
 10
-3.8315708661417323
 20
-1.4416417322834647
 30
0.0
 10
-3.8315708661417323
 20
-1.4416417322834647
 30
0.0
 10
-3.8315708661417323
 20
-1.4416417322834647
 30
0.0
 10
-3.8315708661417323
 20
-1.4416417322834647
 30
0.0
 10
-3.8315708661417323
 20
-1.6896732283464568
 30
0.0
 10
-3.8315708661417323
 20
-1.6896732283464568
 30
0.0
 10
-3.8315708661417323
 20
-1.6896732283464568
 30
0.0
 10
-3.8315708661417323
 20
-1.6896732283464568
 30
0.0
 10
-3.2803897637795276
 20
-1.6896732283464568
 30
0.0
 10
-3.2803897637795276
 20
-1.6896732283464568
 30
0.0
 10
-3.2803897637795276
 20
-1.6896732283464568
 30
0.0
 10
-3.2216811023622047
 20
-1.6896732283464568
 30
0.0
 10
-3.1740905511811026
 20
-1.7372637795275592
 30
0.0
 10
-3.1740905511811026
 20
-1.7959724409448821
 30
0.0
 10
-3.1740905511811026
 20
-1.7959724409448821
 30
0.0
 10
-3.1740905511811026
 20
-1.8546771653543308
 30
0.0
 10
-3.2216811023622047
 20
-1.9022716535433071
 30
0.0
 10
-3.2803897637795276
 20
-1.9022716535433071
 30
0.0
 10
-3.2803897637795276
 20
-1.9022716535433071
 30
0.0
 10
-3.2803897637795276
 20
-1.9022716535433071
 30
0.0
 10
-3.8315708661417323
 20
-1.9022716535433071
 30
0.0
 10
-3.8315708661417323
 20
-1.9022716535433071
 30
0.0
 10
-3.8315708661417323
 20
-1.9022716535433071
 30
0.0
 10
-3.8315708661417323
 20
-1.9022716535433071
 30
0.0
 10
-3.8315708661417323
 20
-2.1503031496062994
 30
0.0
 10
-3.8315708661417323
 20
-2.1503031496062994
 30
0.0
 10
-3.8315708661417323
 20
-2.1503031496062994
 30
0.0
 10
-3.8315708661417323
 20
-2.1503031496062994
 30
0.0
 10
-3.6181850393700787
 20
-2.1503031496062994
 30
0.0
 10
-3.6181850393700787
 20
-2.1503031496062994
 30
0.0
 10
-3.6181850393700787
 20
-2.1503031496062994
 30
0.0
 10
-3.6181850393700787
 20
-2.1503031496062994
 30
0.0
 10
-3.2803897637795276
 20
-2.1503031496062994
 30
0.0
 10
-3.2803897637795276
 20
-2.1503031496062994
 30
0.0
 10
-3.2803897637795276
 20
-2.1503031496062994
 30
0.0
 10
-3.2803897637795276
 20
-2.1503031496062994
 30
0.0
 10
-3.2488937007874017
 20
-2.3077834645669291
 30
0.0
 10
-3.2488937007874017
 20
-2.3077834645669291
 30
0.0
 10
-3.2488937007874017
 20
-2.3077834645669291
 30
0.0
 10
-3.2488937007874017
 20
-2.3077834645669291
 30
0.0
 10
-3.1087362204724411
 20
-2.3077874015748034
 30
0.0
 10
-3.1087362204724411
 20
-2.3077874015748034
 30
0.0
  0
SPLINE
  5
29
100
AcDbEntity
  8
Layer 1
370
     0
100
AcDbSpline
210
0.0
220
0.0
230
1.0
 70
     1
 71
     3
 72
    68
 73
    64
 74
     0
 42
0.0000000001
 43
0.0000000001
 40
0.0
 40
0.0
 40
0.0
 40
0.0
 40
0.0625
 40
0.0625
 40
0.0625
 40
0.0625
 40
0.125
 40
0.125
 40
0.125
 40
0.125
 40
0.1875
 40
0.1875
 40
0.1875
 40
0.1875
 40
0.25
 40
0.25
 40
0.25
 40
0.25
 40
0.3125
 40
0.3125
 40
0.3125
 40
0.3125
 40
0.375
 40
0.375
 40
0.375
 40
0.375
 40
0.4375
 40
0.4375
 40
0.4375
 40
0.4375
 40
0.5
 40
0.5
 40
0.5
 40
0.5
 40
0.5625
 40
0.5625
 40
0.5625
 40
0.5625
 40
0.625
 40
0.625
 40
0.625
 40
0.625
 40
0.6875
 40
0.6875
 40
0.6875
 40
0.6875
 40
0.75
 40
0.75
 40
0.75
 40
0.75
 40
0.8125
 40
0.8125
 40
0.8125
 40
0.8125
 40
0.875
 40
0.875
 40
0.875
 40
0.875
 40
0.9375
 40
0.9375
 40
0.9375
 40
0.9375
 40
1.0
 40
1.0
 40
1.0
 40
1.0
 10
-7.5798307086614178
 20
-4.6015629921259844
 30
0.0
 10
-7.1211062992125989
 20
-4.6075669291338581
 30
0.0
 10
-6.687137795275591
 20
-4.3939448818897642
 30
0.0
 10
-6.4121141732283471
 20
-4.0267480314960631
 30
0.0
 10
-6.4121141732283471
 20
-4.0267480314960631
 30
0.0
 10
-6.3701259842519686
 20
-3.9707559055118113
 30
0.0
 10
-6.3701259842519686
 20
-3.8937677165354332
 30
0.0
 10
-6.412122047244095
 20
-3.8377795275590554
 30
0.0
 10
-6.412122047244095
 20
-3.8377795275590554
 30
0.0
 10
-6.687472440944882
 20
-3.4706535433070869
 30
0.0
 10
-7.1217559055118116
 20
-3.2573110236220475
 30
0.0
 10
-7.5806220472440948
 20
-3.263759842519685
 30
0.0
 10
-7.5806220472440948
 20
-3.263759842519685
 30
0.0
 10
-7.5806220472440948
 20
-3.263759842519685
 30
0.0
 10
-7.6428267716535432
 20
-3.263759842519685
 30
0.0
 10
-7.6428267716535432
 20
-3.263759842519685
 30
0.0
 10
-7.6428267716535432
 20
-3.263759842519685
 30
0.0
 10
-7.6428267716535432
 20
-3.263759842519685
 30
0.0
 10
-7.6428228346456697
 20
-3.5779330708661417
 30
0.0
 10
-7.6428228346456697
 20
-3.5779330708661417
 30
0.0
 10
-7.6428228346456697
 20
-3.5779330708661417
 30
0.0
 10
-7.6428228346456697
 20
-3.5779330708661417
 30
0.0
 10
-7.9373188976377955
 20
-3.5779330708661417
 30
0.0
 10
-7.9373188976377955
 20
-3.5779330708661417
 30
0.0
 10
-7.9373188976377955
 20
-3.5779330708661417
 30
0.0
 10
-7.9373188976377955
 20
-3.5779330708661417
 30
0.0
 10
-8.1940078740157478
 20
-3.5779330708661417
 30
0.0
 10
-8.1940078740157478
 20
-3.5779330708661417
 30
0.0
 10
-8.1940078740157478
 20
-3.5779330708661417
 30
0.0
 10
-8.1940078740157478
 20
-3.5779330708661417
 30
0.0
 10
-8.1940078740157478
 20
-3.8259645669291338
 30
0.0
 10
-8.1940078740157478
 20
-3.8259645669291338
 30
0.0
 10
-8.1940078740157478
 20
-3.8259645669291338
 30
0.0
 10
-8.1940078740157478
 20
-3.8259645669291338
 30
0.0
 10
-7.6428228346456697
 20
-3.8259645669291338
 30
0.0
 10
-7.6428228346456697
 20
-3.8259645669291338
 30
0.0
 10
-7.6428228346456697
 20
-3.8259645669291338
 30
0.0
 10
-7.5841181102362212
 20
-3.8259645669291338
 30
0.0
 10
-7.5365275590551182
 20
-3.8735551181102363
 30
0.0
 10
-7.5365275590551182
 20
-3.9322637795275592
 30
0.0
 10
-7.5365275590551182
 20
-3.9322637795275592
 30
0.0
 10
-7.5365275590551182
 20
-3.9909724409448821
 30
0.0
 10
-7.5841181102362212
 20
-4.0385629921259847
 30
0.0
 10
-7.6428228346456697
 20
-4.0385629921259847
 30
0.0
 10
-7.6428228346456697
 20
-4.0385629921259847
 30
0.0
 10
-7.6428228346456697
 20
-4.0385629921259847
 30
0.0
 10
-8.1940078740157478
 20
-4.0385629921259847
 30
0.0
 10
-8.1940078740157478
 20
-4.0385629921259847
 30
0.0
 10
-8.1940078740157478
 20
-4.0385629921259847
 30
0.0
 10
-8.1940078740157478
 20
-4.0385629921259847
 30
0.0
 10
-8.1940078740157478
 20
-4.2865984251968507
 30
0.0
 10
-8.1940078740157478
 20
-4.2865984251968507
 30
0.0
 10
-8.1940078740157478
 20
-4.2865984251968507
 30
0.0
 10
-8.1940078740157478
 20
-4.2865984251968507
 30
0.0
 10
-7.6428228346456697
 20
-4.2865944881889764
 30
0.0
 10
-7.6428228346456697
 20
-4.2865944881889764
 30
0.0
 10
-7.6428228346456697
 20
-4.2865944881889764
 30
0.0
 10
-7.6428228346456697
 20
-4.2865944881889764
 30
0.0
 10
-7.6428228346456697
 20
-4.6015551181102365
 30
0.0
 10
-7.6428228346456697
 20
-4.6015551181102365
 30
0.0
 10
-7.6428228346456697
 20
-4.6015551181102365
 30
0.0
 10
-7.6428228346456697
 20
-4.6015551181102365
 30
0.0
 10
-7.5798307086614178
 20
-4.6015629921259844
 30
0.0
 10
-7.5798307086614178
 20
-4.6015629921259844
 30
0.0
  0
SPLINE
  5
2A
100
AcDbEntity
  8
Layer 1
370
     0
100
AcDbSpline
210
0.0
220
0.0
230
1.0
 70
     1
 71
     3
 72
   232
 73
   228
 74
     0
 42
0.0000000001
 43
0.0000000001
 40
0.0
 40
0.0
 40
0.0
 40
0.0
 40
0.0175438596491228
 40
0.0175438596491228
 40
0.0175438596491228
 40
0.0175438596491228
 40
0.0350877192982456
 40
0.0350877192982456
 40
0.0350877192982456
 40
0.0350877192982456
 40
0.0526315789473684
 40
0.0526315789473684
 40
0.0526315789473684
 40
0.0526315789473684
 40
0.0701754385964912
 40
0.0701754385964912
 40
0.0701754385964912
 40
0.0701754385964912
 40
0.087719298245614
 40
0.087719298245614
 40
0.087719298245614
 40
0.087719298245614
 40
0.1052631578947368
 40
0.1052631578947368
 40
0.1052631578947368
 40
0.1052631578947368
 40
0.1228070175438596
 40
0.1228070175438596
 40
0.1228070175438596
 40
0.1228070175438596
 40
0.1403508771929825
 40
0.1403508771929825
 40
0.1403508771929825
 40
0.1403508771929825
 40
0.1578947368421053
 40
0.1578947368421053
 40
0.1578947368421053
 40
0.1578947368421053
 40
0.1754385964912281
 40
0.1754385964912281
 40
0.1754385964912281
 40
0.1754385964912281
 40
0.1929824561403509
 40
0.1929824561403509
 40
0.1929824561403509
 40
0.1929824561403509
 40
0.2105263157894737
 40
0.2105263157894737
 40
0.2105263157894737
 40
0.2105263157894737
 40
0.2280701754385965
 40
0.2280701754385965
 40
0.2280701754385965
 40
0.2280701754385965
 40
0.2456140350877193
 40
0.2456140350877193
 40
0.2456140350877193
 40
0.2456140350877193
 40
0.2631578947368421
 40
0.2631578947368421
 40
0.2631578947368421
 40
0.2631578947368421
 40
0.2807017543859649
 40
0.2807017543859649
 40
0.2807017543859649
 40
0.2807017543859649
 40
0.2982456140350877
 40
0.2982456140350877
 40
0.2982456140350877
 40
0.2982456140350877
 40
0.3157894736842105
 40
0.3157894736842105
 40
0.3157894736842105
 40
0.3157894736842105
 40
0.3333333333333333
 40
0.3333333333333333
 40
0.3333333333333333
 40
0.3333333333333333
 40
0.3508771929824561
 40
0.3508771929824561
 40
0.3508771929824561
 40
0.3508771929824561
 40
0.3684210526315789
 40
0.3684210526315789
 40
0.3684210526315789
 40
0.3684210526315789
 40
0.3859649122807017
 40
0.3859649122807017
 40
0.3859649122807017
 40
0.3859649122807017
 40
0.4035087719298245
 40
0.4035087719298245
 40
0.4035087719298245
 40
0.4035087719298245
 40
0.4210526315789474
 40
0.4210526315789474
 40
0.4210526315789474
 40
0.4210526315789474
 40
0.4385964912280702
 40
0.4385964912280702
 40
0.4385964912280702
 40
0.4385964912280702
 40
0.456140350877193
 40
0.456140350877193
 40
0.456140350877193
 40
0.456140350877193
 40
0.4736842105263158
 40
0.4736842105263158
 40
0.4736842105263158
 40
0.4736842105263158
 40
0.4912280701754386
 40
0.4912280701754386
 40
0.4912280701754386
 40
0.4912280701754386
 40
0.5087719298245614
 40
0.5087719298245614
 40
0.5087719298245614
 40
0.5087719298245614
 40
0.5263157894736843
 40
0.5263157894736843
 40
0.5263157894736843
 40
0.5263157894736843
 40
0.5438596491228072
 40
0.5438596491228072
 40
0.5438596491228072
 40
0.5438596491228072
 40
0.56140350877193
 40
0.56140350877193
 40
0.56140350877193
 40
0.56140350877193
 40
0.5789473684210529
 40
0.5789473684210529
 40
0.5789473684210529
 40
0.5789473684210529
 40
0.5964912280701757
 40
0.5964912280701757
 40
0.5964912280701757
 40
0.5964912280701757
 40
0.6140350877192986
 40
0.6140350877192986
 40
0.6140350877192986
 40
0.6140350877192986
 40
0.6315789473684215
 40
0.6315789473684215
 40
0.6315789473684215
 40
0.6315789473684215
 40
0.6491228070175443
 40
0.6491228070175443
 40
0.6491228070175443
 40
0.6491228070175443
 40
0.6666666666666672
 40
0.6666666666666672
 40
0.6666666666666672
 40
0.6666666666666672
 40
0.6842105263157901
 40
0.6842105263157901
 40
0.6842105263157901
 40
0.6842105263157901
 40
0.7017543859649129
 40
0.7017543859649129
 40
0.7017543859649129
 40
0.7017543859649129
 40
0.7192982456140358
 40
0.7192982456140358
 40
0.7192982456140358
 40
0.7192982456140358
 40
0.7368421052631586
 40
0.7368421052631586
 40
0.7368421052631586
 40
0.7368421052631586
 40
0.7543859649122815
 40
0.7543859649122815
 40
0.7543859649122815
 40
0.7543859649122815
 40
0.7719298245614044
 40
0.7719298245614044
 40
0.7719298245614044
 40
0.7719298245614044
 40
0.7894736842105272
 40
0.7894736842105272
 40
0.7894736842105272
 40
0.7894736842105272
 40
0.8070175438596501
 40
0.8070175438596501
 40
0.8070175438596501
 40
0.8070175438596501
 40
0.8245614035087729
 40
0.8245614035087729
 40
0.8245614035087729
 40
0.8245614035087729
 40
0.8421052631578958
 40
0.8421052631578958
 40
0.8421052631578958
 40
0.8421052631578958
 40
0.8596491228070187
 40
0.8596491228070187
 40
0.8596491228070187
 40
0.8596491228070187
 40
0.8771929824561415
 40
0.8771929824561415
 40
0.8771929824561415
 40
0.8771929824561415
 40
0.8947368421052644
 40
0.8947368421052644
 40
0.8947368421052644
 40
0.8947368421052644
 40
0.9122807017543873
 40
0.9122807017543873
 40
0.9122807017543873
 40
0.9122807017543873
 40
0.9298245614035101
 40
0.9298245614035101
 40
0.9298245614035101
 40
0.9298245614035101
 40
0.947368421052633
 40
0.947368421052633
 40
0.947368421052633
 40
0.947368421052633
 40
0.9649122807017558
 40
0.9649122807017558
 40
0.9649122807017558
 40
0.9649122807017558
 40
0.9824561403508787
 40
0.9824561403508787
 40
0.9824561403508787
 40
0.9824561403508787
 40
1.0
 40
1.0
 40
1.0
 40
1.0
 10
-11.804192913385828
 20
-1.7413543307086614
 30
0.0
 10
-11.804196850393701
 20
-1.7413543307086614
 30
0.0
 10
-11.803681102362205
 20
-1.2161496062992125
 30
0.0
 10
-11.803681102362205
 20
-1.2161496062992125
 30
0.0
 10
-11.803681102362205
 20
-1.2161496062992125
 30
0.0
 10
-11.803681102362205
 20
-1.2161496062992125
 30
0.0
 10
-7.709125984251969
 20
-1.2202874015748031
 30
0.0
 10
-7.709125984251969
 20
-1.2202874015748031
 30
0.0
 10
-7.709125984251969
 20
-1.2202874015748031
 30
0.0
 10
-7.709125984251969
 20
-1.2202874015748031
 30
0.0
 10
-7.7089448818897637
 20
-1.0076850393700787
 30
0.0
 10
-7.7089448818897637
 20
-1.0076850393700787
 30
0.0
 10
-7.7089448818897637
 20
-1.0076850393700787
 30
0.0
 10
-7.7089448818897637
 20
-1.0076850393700787
 30
0.0
 10
-11.721070866141734
 20
-1.0036299212598425
 30
0.0
 10
-11.721070866141734
 20
-1.0036299212598425
 30
0.0
 10
-11.721070866141734
 20
-1.0036299212598425
 30
0.0
 10
-11.656437007874016
 20
-0.8778897637795275
 30
0.0
 10
-11.577744094488189
 20
-0.7598858267716536
 30
0.0
 10
-11.486500000000001
 20
-0.6518858267716535
 30
0.0
 10
-11.486500000000001
 20
-0.6518858267716535
 30
0.0
 10
-11.435712598425198
 20
-0.5823779527559055
 30
0.0
 10
-11.37872440944882
 20
-0.5176141732283465
 30
0.0
 10
-11.316248031496064
 20
-0.4583858267716536
 30
0.0
 10
-11.316248031496064
 20
-0.4583858267716536
 30
0.0
 10
-11.165807086614175
 20
-0.2964566929133858
 30
0.0
 10
-10.967181102362206
 20
-0.1873149606299213
 30
0.0
 10
-10.749826771653543
 20
-0.1471456692913386
 30
0.0
 10
-10.749826771653543
 20
-0.1471456692913386
 30
0.0
 10
-10.749826771653543
 20
-0.1471456692913386
 30
0.0
 10
-10.095460629921261
 20
-0.1218188976377953
 30
0.0
 10
-10.095460629921261
 20
-0.1218188976377953
 30
0.0
 10
-10.095460629921261
 20
-0.1218188976377953
 30
0.0
 10
-10.095460629921261
 20
-0.1218188976377953
 30
0.0
 10
-10.19512598425197
 20
0.2223543307086614
 30
0.0
 10
-10.19512598425197
 20
0.2223543307086614
 30
0.0
 10
-10.19512598425197
 20
0.2223543307086614
 30
0.0
 10
-10.488381889763779
 20
0.1356456692913386
 30
0.0
 10
-10.801570866141732
 20
0.272
 30
0.0
 10
-10.937905511811024
 20
0.545744094488189
 30
0.0
 10
-10.937905511811024
 20
0.545744094488189
 30
0.0
 10
-11.07424409448819
 20
0.819488188976378
 30
0.0
 10
-10.994358267716535
 20
1.1516023622047245
 30
0.0
 10
-10.748456692913386
 20
1.3334133858267716
 30
0.0
 10
-10.748456692913386
 20
1.3334133858267716
 30
0.0
 10
-10.502570866141733
 20
1.5152165354330709
 30
0.0
 10
-10.161641732283465
 20
1.494244094488189
 30
0.0
 10
-9.9398897637795276
 20
1.2836732283464567
 30
0.0
 10
-9.9398897637795276
 20
1.2836732283464567
 30
0.0
 10
-9.7181417322834651
 20
1.0730984251968505
 30
0.0
 10
-9.6795708661417326
 20
0.7337125984251969
 30
0.0
 10
-9.8484251968503944
 20
0.478755905511811
 30
0.0
 10
-9.8484251968503944
 20
0.478755905511811
 30
0.0
 10
-9.8484251968503944
 20
0.478755905511811
 30
0.0
 10
-9.4565787401574806
 20
0.1822322834645669
 30
0.0
 10
-9.4565787401574806
 20
0.1822322834645669
 30
0.0
 10
-9.4565787401574806
 20
0.1822322834645669
 30
0.0
 10
-8.6391496062992132
 20
0.5122834645669292
 30
0.0
 10
-7.7916181102362208
 20
0.762224409448819
 30
0.0
 10
-6.925905511811024
 20
0.9285433070866143
 30
0.0
 10
-6.925905511811024
 20
0.9285433070866143
 30
0.0
 10
-6.6299724409448819
 20
0.999228346456693
 30
0.0
 10
-6.3268897637795281
 20
1.0356535433070866
 30
0.0
 10
-6.0226338582677164
 20
1.0371023622047244
 30
0.0
 10
-6.0226338582677164
 20
1.0371023622047244
 30
0.0
 10
-6.0226338582677164
 20
1.0371023622047244
 30
0.0
 10
-3.2793622047244098
 20
1.0343543307086616
 30
0.0
 10
-3.2793622047244098
 20
1.0343543307086616
 30
0.0
 10
-3.2793622047244098
 20
1.0343543307086616
 30
0.0
 10
-3.2793622047244098
 20
1.0343543307086616
 30
0.0
 10
-3.2791102362204727
 20
1.246956692913386
 30
0.0
 10
-3.2791102362204727
 20
1.246956692913386
 30
0.0
 10
-3.2791102362204727
 20
1.246956692913386
 30
0.0
 10
-3.2791102362204727
 20
1.246956692913386
 30
0.0
 10
-5.0092165354330707
 20
1.2486614173228348
 30
0.0
 10
-5.0092165354330707
 20
1.2486614173228348
 30
0.0
 10
-5.0092165354330707
 20
1.2486614173228348
 30
0.0
 10
-4.9856338582677164
 20
1.5075590551181104
 30
0.0
 10
-4.7852795275590552
 20
1.7152795275590551
 30
0.0
 10
-4.5274055118110237
 20
1.7481929133858269
 30
0.0
 10
-4.5274055118110237
 20
1.7481929133858269
 30
0.0
 10
-4.5274055118110237
 20
1.7481929133858269
 30
0.0
 10
-1.8124803149606299
 20
1.745488188976378
 30
0.0
 10
-1.8124803149606299
 20
1.745488188976378
 30
0.0
 10
-1.8124803149606299
 20
1.745488188976378
 30
0.0
 10
-1.8124803149606299
 20
1.745488188976378
 30
0.0
 10
-1.8142913385826773
 20
-0.0655590551181102
 30
0.0
 10
-1.8142913385826773
 20
-0.0655590551181102
 30
0.0
 10
-1.8142913385826773
 20
-0.0655590551181102
 30
0.0
 10
-1.8142913385826773
 20
-0.0655590551181102
 30
0.0
 10
-1.6016889763779527
 20
-0.0657362204724409
 30
0.0
 10
-1.6016889763779527
 20
-0.0657362204724409
 30
0.0
 10
-1.6016889763779527
 20
-0.0657362204724409
 30
0.0
 10
-1.6016889763779527
 20
-0.0657362204724409
 30
0.0
 10
-1.5998818897637797
 20
1.745236220472441
 30
0.0
 10
-1.5998818897637797
 20
1.745236220472441
 30
0.0
 10
-1.5998818897637797
 20
1.745236220472441
 30
0.0
 10
-1.5998818897637797
 20
1.745236220472441
 30
0.0
 10
-0.9384527559055118
 20
1.7445905511811024
 30
0.0
 10
-0.9384527559055118
 20
1.7445905511811024
 30
0.0
 10
-0.9384527559055118
 20
1.7445905511811024
 30
0.0
 10
-0.9175669291338583
 20
1.7445629921259844
 30
0.0
 10
-0.8975511811023622
 20
1.7362440944881889
 30
0.0
 10
-0.8828031496062992
 20
1.7214566929133859
 30
0.0
 10
-0.8828031496062992
 20
1.7214566929133859
 30
0.0
 10
-0.8680551181102363
 20
1.7066732283464567
 30
0.0
 10
-0.8598070866141733
 20
1.6866338582677165
 30
0.0
 10
-0.8598070866141733
 20
1.6657480314960631
 30
0.0
 10
-0.8598070866141733
 20
1.6657480314960631
 30
0.0
 10
-0.8598070866141733
 20
1.6657480314960631
 30
0.0
 10
-0.8600669291338583
 20
1.4208622047244095
 30
0.0
 10
-0.8600669291338583
 20
1.4208622047244095
 30
0.0
 10
-0.8600669291338583
 20
1.4208622047244095
 30
0.0
 10
0.1678661417322835
 20
1.2704763779527559
 30
0.0
 10
1.02898031496063
 20
0.565251968503937
 30
0.0
 10
1.379023622047244
 20
-0.4128779527559056
 30
0.0
 10
1.379023622047244
 20
-0.4128779527559056
 30
0.0
 10
1.379023622047244
 20
-0.4128779527559056
 30
0.0
 10
1.6554251968503937
 20
-0.4131338582677165
 30
0.0
 10
1.6554251968503937
 20
-0.4131338582677165
 30
0.0
 10
1.6554251968503937
 20
-0.4131338582677165
 30
0.0
 10
1.6971889763779529
 20
-0.4131692913385827
 30
0.0
 10
1.737232283464567
 20
-0.4297913385826772
 30
0.0
 10
1.7667440944881891
 20
-0.4593464566929134
 30
0.0
 10
1.7667440944881891
 20
-0.4593464566929134
 30
0.0
 10
1.796255905511811
 20
-0.4889015748031496
 30
0.0
 10
1.8127834645669292
 20
-0.5289724409448819
 30
0.0
 10
1.8127834645669292
 20
-0.570740157480315
 30
0.0
 10
1.8127834645669292
 20
-0.570740157480315
 30
0.0
 10
1.8127834645669292
 20
-0.570740157480315
 30
0.0
 10
1.8126653543307087
 20
-0.6612913385826772
 30
0.0
 10
1.8126653543307087
 20
-0.6612913385826772
 30
0.0
 10
1.8126653543307087
 20
-0.6612913385826772
 30
0.0
 10
1.8126653543307087
 20
-0.6612913385826772
 30
0.0
 10
1.4189566929133859
 20
-0.6608740157480315
 30
0.0
 10
1.4189566929133859
 20
-0.6608740157480315
 30
0.0
 10
1.4189566929133859
 20
-0.6608740157480315
 30
0.0
 10
1.4189566929133859
 20
-0.6608740157480315
 30
0.0
 10
1.4187834645669293
 20
-0.8734763779527559
 30
0.0
 10
1.4187834645669293
 20
-0.8734763779527559
 30
0.0
 10
1.4187834645669293
 20
-0.8734763779527559
 30
0.0
 10
1.4187834645669293
 20
-0.8734763779527559
 30
0.0
 10
1.812488188976378
 20
-0.8738937007874016
 30
0.0
 10
1.812488188976378
 20
-0.8738937007874016
 30
0.0
 10
1.812488188976378
 20
-0.8738937007874016
 30
0.0
 10
1.812488188976378
 20
-0.8738937007874016
 30
0.0
 10
1.8123700787401575
 20
-0.9644448818897639
 30
0.0
 10
1.8123700787401575
 20
-0.9644448818897639
 30
0.0
 10
1.8123700787401575
 20
-0.9644448818897639
 30
0.0
 10
1.8123700787401575
 20
-1.006228346456693
 30
0.0
 10
1.7957047244094488
 20
-1.0462834645669292
 30
0.0
 10
1.7661299212598427
 20
-1.0757952755905513
 30
0.0
 10
1.7661299212598427
 20
-1.0757952755905513
 30
0.0
 10
1.7365590551181103
 20
-1.1053070866141732
 30
0.0
 10
1.696468503937008
 20
-1.1218622047244096
 30
0.0
 10
1.6546889763779529
 20
-1.1218070866141732
 30
0.0
 10
1.6546889763779529
 20
-1.1218070866141732
 30
0.0
 10
1.6546889763779529
 20
-1.1218070866141732
 30
0.0
 10
1.4185433070866142
 20
-1.1215118110236222
 30
0.0
 10
1.4185433070866142
 20
-1.1215118110236222
 30
0.0
 10
1.4185433070866142
 20
-1.1215118110236222
 30
0.0
 10
1.3046889763779528
 20
-1.3519960629921259
 30
0.0
 10
1.0813976377952756
 20
-1.508728346456693
 30
0.0
 10
0.8259409448818899
 20
-1.537468503937008
 30
0.0
 10
0.8259409448818899
 20
-1.537468503937008
 30
0.0
 10
0.8259409448818899
 20
-1.537468503937008
 30
0.0
 10
-1.8070905511811024
 20
-1.5348346456692914
 30
0.0
 10
-1.8070905511811024
 20
-1.5348346456692914
 30
0.0
 10
-1.8070905511811024
 20
-1.5348346456692914
 30
0.0
 10
-1.8070905511811024
 20
-1.5348346456692914
 30
0.0
 10
-2.3406220472440946
 20
-0.4090826771653544
 30
0.0
 10
-2.3406220472440946
 20
-0.4090826771653544
 30
0.0
 10
-2.3406220472440946
 20
-0.4090826771653544
 30
0.0
 10
-2.3406220472440946
 20
-0.4090826771653544
 30
0.0
 10
-4.3169527559055121
 20
-0.4071141732283465
 30
0.0
 10
-4.3169527559055121
 20
-0.4071141732283465
 30
0.0
 10
-4.3169527559055121
 20
-0.4071141732283465
 30
0.0
 10
-4.3169527559055121
 20
-0.4071141732283465
 30
0.0
 10
-4.3164685039370081
 20
0.1046889763779528
 30
0.0
 10
-4.3164685039370081
 20
0.1046889763779528
 30
0.0
 10
-4.3164685039370081
 20
0.1046889763779528
 30
0.0
 10
-4.3164685039370081
 20
0.1328818897637795
 30
0.0
 10
-4.3276102362204725
 20
0.1599291338582677
 30
0.0
 10
-4.3475275590551181
 20
0.1798858267716536
 30
0.0
 10
-4.3475275590551181
 20
0.1798858267716536
 30
0.0
 10
-4.3674448818897638
 20
0.1998385826771654
 30
0.0
 10
-4.3944724409448819
 20
0.2110629921259843
 30
0.0
 10
-4.4226653543307091
 20
0.2110905511811024
 30
0.0
 10
-4.4226653543307091
 20
0.2110905511811024
 30
0.0
 10
-4.4508582677165354
 20
0.2111141732283465
 30
0.0
 10
-4.477909448818898
 20
0.1999409448818898
 30
0.0
 10
-4.4978661417322838
 20
0.1800196850393701
 30
0.0
 10
-4.4978661417322838
 20
0.1800196850393701
 30
0.0
 10
-4.5178228346456697
 20
0.1601023622047244
 30
0.0
 10
-4.5290669291338581
 20
0.1330708661417323
 30
0.0
 10
-4.5290669291338581
 20
0.1048779527559055
 30
0.0
 10
-4.5290669291338581
 20
0.1048779527559055
 30
0.0
 10
-4.5290669291338581
 20
0.1048779527559055
 30
0.0
 10
-4.5308976377952757
 20
-1.6682992125984253
 30
0.0
 10
-4.5308976377952757
 20
-1.6682992125984253
 30
0.0
 10
-4.5308976377952757
 20
-1.6682992125984253
 30
0.0
 10
-4.5308976377952757
 20
-1.7100629921259842
 30
0.0
 10
-4.5475472440944884
 20
-1.7501062992125984
 30
0.0
 10
-4.5771062992125984
 20
-1.7796102362204724
 30
0.0
 10
-4.5771062992125984
 20
-1.7796102362204724
 30
0.0
 10
-4.6066653543307092
 20
-1.8091181102362206
 30
0.0
 10
-4.6467362204724409
 20
-1.8256692913385828
 30
0.0
 10
-4.6885000000000003
 20
-1.8256220472440945
 30
0.0
 10
-4.6885000000000003
 20
-1.8256220472440945
 30
0.0
 10
-4.6885000000000003
 20
-1.8256220472440945
 30
0.0
 10
-6.347582677165355
 20
-1.8239960629921261
 30
0.0
 10
-6.347582677165355
 20
-1.8239960629921261
 30
0.0
 10
-6.347582677165355
 20
-1.8239960629921261
 30
0.0
 10
-6.347582677165355
 20
-1.8239960629921261
 30
0.0
 10
-8.4680157480314957
 20
-1.8218425196850394
 30
0.0
 10
-8.4680157480314957
 20
-1.8218425196850394
 30
0.0
 10
-8.4680157480314957
 20
-1.8218425196850394
 30
0.0
 10
-8.8217283464566929
 20
-2.0514724409448819
 30
0.0
 10
-9.0850039370078743
 20
-2.3965000000000001
 30
0.0
 10
-9.2131023622047241
 20
-2.7982874015748034
 30
0.0
 10
-9.2131023622047241
 20
-2.7982874015748034
 30
0.0
 10
-9.3770236220472452
 20
-3.3578228346456696
 30
0.0
 10
-9.9457637795275602
 20
-3.6952913385826771
 30
0.0
 10
-10.515413385826772
 20
-3.5710275590551182
 30
0.0
 10
-10.515413385826772
 20
-3.5710275590551182
 30
0.0
 10
-11.306259842519685
 20
-3.3185354330708661
 30
0.0
 10
-11.832779527559056
 20
-2.5710275590551182
 30
0.0
 10
-11.804192913385828
 20
-1.7413543307086614
 30
0.0
  0
SPLINE
  5
2B
100
AcDbEntity
  8
Layer 1
370
     0
100
AcDbSpline
210
0.0
220
0.0
230
1.0
 70
     1
 71
     3
 72
    92
 73
    88
 74
     0
 42
0.0000000001
 43
0.0000000001
 40
0.0
 40
0.0
 40
0.0
 40
0.0
 40
0.0454545454545455
 40
0.0454545454545455
 40
0.0454545454545455
 40
0.0454545454545455
 40
0.0909090909090909
 40
0.0909090909090909
 40
0.0909090909090909
 40
0.0909090909090909
 40
0.1363636363636364
 40
0.1363636363636364
 40
0.1363636363636364
 40
0.1363636363636364
 40
0.1818181818181818
 40
0.1818181818181818
 40
0.1818181818181818
 40
0.1818181818181818
 40
0.2272727272727273
 40
0.2272727272727273
 40
0.2272727272727273
 40
0.2272727272727273
 40
0.2727272727272728
 40
0.2727272727272728
 40
0.2727272727272728
 40
0.2727272727272728
 40
0.3181818181818182
 40
0.3181818181818182
 40
0.3181818181818182
 40
0.3181818181818182
 40
0.3636363636363637
 40
0.3636363636363637
 40
0.3636363636363637
 40
0.3636363636363637
 40
0.4090909090909092
 40
0.4090909090909092
 40
0.4090909090909092
 40
0.4090909090909092
 40
0.4545454545454546
 40
0.4545454545454546
 40
0.4545454545454546
 40
0.4545454545454546
 40
0.5000000000000001
 40
0.5000000000000001
 40
0.5000000000000001
 40
0.5000000000000001
 40
0.5454545454545455
 40
0.5454545454545455
 40
0.5454545454545455
 40
0.5454545454545455
 40
0.5909090909090909
 40
0.5909090909090909
 40
0.5909090909090909
 40
0.5909090909090909
 40
0.6363636363636364
 40
0.6363636363636364
 40
0.6363636363636364
 40
0.6363636363636364
 40
0.6818181818181818
 40
0.6818181818181818
 40
0.6818181818181818
 40
0.6818181818181818
 40
0.7272727272727272
 40
0.7272727272727272
 40
0.7272727272727272
 40
0.7272727272727272
 40
0.7727272727272726
 40
0.7727272727272726
 40
0.7727272727272726
 40
0.7727272727272726
 40
0.818181818181818
 40
0.818181818181818
 40
0.818181818181818
 40
0.818181818181818
 40
0.8636363636363634
 40
0.8636363636363634
 40
0.8636363636363634
 40
0.8636363636363634
 40
0.9090909090909088
 40
0.9090909090909088
 40
0.9090909090909088
 40
0.9090909090909088
 40
0.9545454545454543
 40
0.9545454545454543
 40
0.9545454545454543
 40
0.9545454545454543
 40
1.0
 40
1.0
 40
1.0
 40
1.0
 10
-2.3223031496062991
 20
-3.1230314960629921
 30
0.0
 10
-2.3223070866141735
 20
-3.1230314960629921
 30
0.0
 10
-1.7813582677165356
 20
-3.1223622047244097
 30
0.0
 10
-1.7813582677165356
 20
-3.1223622047244097
 30
0.0
 10
-1.7813582677165356
 20
-3.1223622047244097
 30
0.0
 10
-1.6798858267716537
 20
-3.4116929133858269
 30
0.0
 10
-1.4604015748031496
 20
-3.6443740157480318
 30
0.0
 10
-1.1774803149606299
 20
-3.7625511811023622
 30
0.0
 10
-1.1774803149606299
 20
-3.7625511811023622
 30
0.0
 10
-0.8815669291338583
 20
-3.8429370078740157
 30
0.0
 10
-0.5665275590551181
 20
-3.8131771653543307
 30
0.0
 10
-0.2909015748031496
 20
-3.6787992125984252
 30
0.0
 10
-0.2909015748031496
 20
-3.6787992125984252
 30
0.0
 10
-0.0213661417322835
 20
-3.5515669291338585
 30
0.0
 10
0.2124055118110236
 20
-3.35948031496063
 30
0.0
 10
0.389492125984252
 20
-3.1197362204724413
 30
0.0
 10
0.389492125984252
 20
-3.1197362204724413
 30
0.0
 10
0.389492125984252
 20
-3.1197362204724413
 30
0.0
 10
0.8666653543307087
 20
-3.1191614173228346
 30
0.0
 10
0.8666653543307087
 20
-3.1191614173228346
 30
0.0
 10
0.8666653543307087
 20
-3.1191614173228346
 30
0.0
 10
0.8666653543307087
 20
-3.1191614173228346
 30
0.0
 10
0.8686456692913386
 20
-3.338515748031496
 30
0.0
 10
0.8686456692913386
 20
-3.338515748031496
 30
0.0
 10
0.8686456692913386
 20
-3.338515748031496
 30
0.0
 10
0.8686456692913386
 20
-3.338515748031496
 30
0.0
 10
1.3396141732283464
 20
-3.3416535433070869
 30
0.0
 10
1.3396141732283464
 20
-3.3416535433070869
 30
0.0
 10
1.3396141732283464
 20
-3.3416535433070869
 30
0.0
 10
1.3396141732283464
 20
-3.3416535433070869
 30
0.0
 10
1.3419881889763781
 20
-5.480787401574803
 30
0.0
 10
1.3419881889763781
 20
-5.480787401574803
 30
0.0
 10
1.3419881889763781
 20
-5.480787401574803
 30
0.0
 10
1.3419881889763781
 20
-5.480787401574803
 30
0.0
 10
0.8971062992125984
 20
-5.4813346456692917
 30
0.0
 10
0.8971062992125984
 20
-5.4813346456692917
 30
0.0
 10
0.8971062992125984
 20
-5.4813346456692917
 30
0.0
 10
0.8971062992125984
 20
-5.4813346456692917
 30
0.0
 10
0.895736220472441
 20
-4.3789685039370081
 30
0.0
 10
0.895736220472441
 20
-4.3789685039370081
 30
0.0
 10
0.895736220472441
 20
-4.3789685039370081
 30
0.0
 10
0.895736220472441
 20
-4.3789685039370081
 30
0.0
 10
0.6831377952755906
 20
-4.379255905511811
 30
0.0
 10
0.6831377952755906
 20
-4.379255905511811
 30
0.0
 10
0.6831377952755906
 20
-4.379255905511811
 30
0.0
 10
0.6831377952755906
 20
-4.379255905511811
 30
0.0
 10
0.6845078740157481
 20
-5.4816181102362203
 30
0.0
 10
0.6845078740157481
 20
-5.4816181102362203
 30
0.0
 10
0.6845078740157481
 20
-5.4816181102362203
 30
0.0
 10
0.6845078740157481
 20
-5.4816181102362203
 30
0.0
 10
-0.7375354330708662
 20
-5.4832795275590556
 30
0.0
 10
-0.7375354330708662
 20
-5.4832795275590556
 30
0.0
 10
-0.7375354330708662
 20
-5.4832795275590556
 30
0.0
 10
-0.7375354330708662
 20
-5.4832795275590556
 30
0.0
 10
-1.9869015748031498
 20
-5.4848464566929138
 30
0.0
 10
-1.9869015748031498
 20
-5.4848464566929138
 30
0.0
 10
-1.9869015748031498
 20
-5.4848464566929138
 30
0.0
 10
-1.9869015748031498
 20
-5.4848464566929138
 30
0.0
 10
-1.9882755905511811
 20
-4.3824842519685037
 30
0.0
 10
-1.9882755905511811
 20
-4.3824842519685037
 30
0.0
 10
-1.9882755905511811
 20
-4.3824842519685037
 30
0.0
 10
-1.9882755905511811
 20
-4.3824842519685037
 30
0.0
 10
-2.2008740157480315
 20
-4.382692913385827
 30
0.0
 10
-2.2008740157480315
 20
-4.382692913385827
 30
0.0
 10
-2.2008740157480315
 20
-4.382692913385827
 30
0.0
 10
-2.2008740157480315
 20
-4.382692913385827
 30
0.0
 10
-2.1995039370078739
 20
-5.4850511811023628
 30
0.0
 10
-2.1995039370078739
 20
-5.4850511811023628
 30
0.0
 10
-2.1995039370078739
 20
-5.4850511811023628
 30
0.0
 10
-2.1995039370078739
 20
-5.4850511811023628
 30
0.0
 10
-2.6343818897637794
 20
-5.4855944881889762
 30
0.0
 10
-2.6343818897637794
 20
-5.4855944881889762
 30
0.0
 10
-2.6343818897637794
 20
-5.4855944881889762
 30
0.0
 10
-2.6343818897637794
 20
-5.4855944881889762
 30
0.0
 10
-2.635011811023622
 20
-4.9737795275590555
 30
0.0
 10
-2.6356417322834647
 20
-4.4619724409448818
 30
0.0
 10
-2.6356417322834647
 20
-4.4619724409448818
 30
0.0
 10
-2.6362716535433073
 20
-3.950161417322835
 30
0.0
 10
-2.6369055118110238
 20
-3.4383503937007873
 30
0.0
 10
-2.6369055118110238
 20
-3.4383503937007873
 30
0.0
 10
-2.6369055118110238
 20
-3.4383503937007873
 30
0.0
 10
-2.6369055118110238
 20
-3.3548188976377955
 30
0.0
 10
-2.6039094488188979
 20
-3.2746692913385829
 30
0.0
 10
-2.5449094488188977
 20
-3.2155354330708663
 30
0.0
 10
-2.5449094488188977
 20
-3.2155354330708663
 30
0.0
 10
-2.4859133858267719
 20
-3.1564015748031498
 30
0.0
 10
-2.4058385826771653
 20
-3.1231259842519687
 30
0.0
 10
-2.3223031496062991
 20
-3.1230314960629921
 30
0.0
  0
SPLINE
  5
2C
100
AcDbEntity
  8
Layer 1
370
     0
100
AcDbSpline
210
0.0
220
0.0
230
1.0
 70
     1
 71
     3
 72
    92
 73
    88
 74
     0
 42
0.0000000001
 43
0.0000000001
 40
0.0
 40
0.0
 40
0.0
 40
0.0
 40
0.0454545454545455
 40
0.0454545454545455
 40
0.0454545454545455
 40
0.0454545454545455
 40
0.0909090909090909
 40
0.0909090909090909
 40
0.0909090909090909
 40
0.0909090909090909
 40
0.1363636363636364
 40
0.1363636363636364
 40
0.1363636363636364
 40
0.1363636363636364
 40
0.1818181818181818
 40
0.1818181818181818
 40
0.1818181818181818
 40
0.1818181818181818
 40
0.2272727272727273
 40
0.2272727272727273
 40
0.2272727272727273
 40
0.2272727272727273
 40
0.2727272727272728
 40
0.2727272727272728
 40
0.2727272727272728
 40
0.2727272727272728
 40
0.3181818181818182
 40
0.3181818181818182
 40
0.3181818181818182
 40
0.3181818181818182
 40
0.3636363636363637
 40
0.3636363636363637
 40
0.3636363636363637
 40
0.3636363636363637
 40
0.4090909090909092
 40
0.4090909090909092
 40
0.4090909090909092
 40
0.4090909090909092
 40
0.4545454545454546
 40
0.4545454545454546
 40
0.4545454545454546
 40
0.4545454545454546
 40
0.5000000000000001
 40
0.5000000000000001
 40
0.5000000000000001
 40
0.5000000000000001
 40
0.5454545454545455
 40
0.5454545454545455
 40
0.5454545454545455
 40
0.5454545454545455
 40
0.5909090909090909
 40
0.5909090909090909
 40
0.5909090909090909
 40
0.5909090909090909
 40
0.6363636363636364
 40
0.6363636363636364
 40
0.6363636363636364
 40
0.6363636363636364
 40
0.6818181818181818
 40
0.6818181818181818
 40
0.6818181818181818
 40
0.6818181818181818
 40
0.7272727272727272
 40
0.7272727272727272
 40
0.7272727272727272
 40
0.7272727272727272
 40
0.7727272727272726
 40
0.7727272727272726
 40
0.7727272727272726
 40
0.7727272727272726
 40
0.818181818181818
 40
0.818181818181818
 40
0.818181818181818
 40
0.818181818181818
 40
0.8636363636363634
 40
0.8636363636363634
 40
0.8636363636363634
 40
0.8636363636363634
 40
0.9090909090909088
 40
0.9090909090909088
 40
0.9090909090909088
 40
0.9090909090909088
 40
0.9545454545454543
 40
0.9545454545454543
 40
0.9545454545454543
 40
0.9545454545454543
 40
1.0
 40
1.0
 40
1.0
 40
1.0
 10
-2.4161929133858266
 20
-5.7783070866141735
 30
0.0
 10
-2.416196850393701
 20
-5.7783070866141735
 30
0.0
 10
-1.8752480314960631
 20
-5.7776377952755906
 30
0.0
 10
-1.8752480314960631
 20
-5.7776377952755906
 30
0.0
 10
-1.8752480314960631
 20
-5.7776377952755906
 30
0.0
 10
-1.7737755905511812
 20
-6.0669685039370078
 30
0.0
 10
-1.5542913385826773
 20
-6.2996496062992131
 30
0.0
 10
-1.2713700787401576
 20
-6.4178267716535435
 30
0.0
 10
-1.2713700787401576
 20
-6.4178267716535435
 30
0.0
 10
-0.9754566929133859
 20
-6.4982125984251971
 30
0.0
 10
-0.6604173228346457
 20
-6.4684527559055125
 30
0.0
 10
-0.3847913385826772
 20
-6.3340748031496066
 30
0.0
 10
-0.3847913385826772
 20
-6.3340748031496066
 30
0.0
 10
-0.115255905511811
 20
-6.2068425196850399
 30
0.0
 10
0.1185157480314961
 20
-6.0147559055118114
 30
0.0
 10
0.2956023622047244
 20
-5.7750118110236226
 30
0.0
 10
0.2956023622047244
 20
-5.7750118110236226
 30
0.0
 10
0.2956023622047244
 20
-5.7750118110236226
 30
0.0
 10
0.7727755905511812
 20
-5.7744370078740159
 30
0.0
 10
0.7727755905511812
 20
-5.7744370078740159
 30
0.0
 10
0.7727755905511812
 20
-5.7744370078740159
 30
0.0
 10
0.7727755905511812
 20
-5.7744370078740159
 30
0.0
 10
0.7747559055118111
 20
-5.9937913385826773
 30
0.0
 10
0.7747559055118111
 20
-5.9937913385826773
 30
0.0
 10
0.7747559055118111
 20
-5.9937913385826773
 30
0.0
 10
0.7747559055118111
 20
-5.9937913385826773
 30
0.0
 10
1.0912440944881889
 20
-5.9945551181102363
 30
0.0
 10
1.0912440944881889
 20
-5.9945551181102363
 30
0.0
 10
1.0912440944881889
 20
-5.9945551181102363
 30
0.0
 10
1.0912440944881889
 20
-5.9945551181102363
 30
0.0
 10
1.2457244094488189
 20
-5.9949291338582675
 30
0.0
 10
1.2457244094488189
 20
-5.9949291338582675
 30
0.0
 10
1.2457244094488189
 20
-5.9949291338582675
 30
0.0
 10
1.2457244094488189
 20
-5.9949291338582675
 30
0.0
 10
1.2480984251968505
 20
-8.1360629921259839
 30
0.0
 10
1.2480984251968505
 20
-8.1360629921259839
 30
0.0
 10
1.2480984251968505
 20
-8.1360629921259839
 30
0.0
 10
1.2480984251968505
 20
-8.1360629921259839
 30
0.0
 10
0.8032165354330709
 20
-8.1366102362204735
 30
0.0
 10
0.8032165354330709
 20
-8.1366102362204735
 30
0.0
 10
0.8032165354330709
 20
-8.1366102362204735
 30
0.0
 10
0.8032165354330709
 20
-8.1366102362204735
 30
0.0
 10
0.8018464566929134
 20
-7.034244094488189
 30
0.0
 10
0.8018464566929134
 20
-7.034244094488189
 30
0.0
 10
0.8018464566929134
 20
-7.034244094488189
 30
0.0
 10
0.8018464566929134
 20
-7.034244094488189
 30
0.0
 10
0.589248031496063
 20
-7.0345314960629928
 30
0.0
 10
0.589248031496063
 20
-7.0345314960629928
 30
0.0
 10
0.589248031496063
 20
-7.0345314960629928
 30
0.0
 10
0.589248031496063
 20
-7.0345314960629928
 30
0.0
 10
0.5906181102362205
 20
-8.136893700787402
 30
0.0
 10
0.5906181102362205
 20
-8.136893700787402
 30
0.0
 10
0.5906181102362205
 20
-8.136893700787402
 30
0.0
 10
0.5906181102362205
 20
-8.136893700787402
 30
0.0
 10
-0.8314251968503937
 20
-8.1385551181102365
 30
0.0
 10
-0.8314251968503937
 20
-8.1385551181102365
 30
0.0
 10
-0.8314251968503937
 20
-8.1385551181102365
 30
0.0
 10
-0.8314251968503937
 20
-8.1385551181102365
 30
0.0
 10
-2.0807913385826771
 20
-8.1401220472440947
 30
0.0
 10
-2.0807913385826771
 20
-8.1401220472440947
 30
0.0
 10
-2.0807913385826771
 20
-8.1401220472440947
 30
0.0
 10
-2.0807913385826771
 20
-8.1401220472440947
 30
0.0
 10
-2.0821653543307086
 20
-7.0377598425196854
 30
0.0
 10
-2.0821653543307086
 20
-7.0377598425196854
 30
0.0
 10
-2.0821653543307086
 20
-7.0377598425196854
 30
0.0
 10
-2.0821653543307086
 20
-7.0377598425196854
 30
0.0
 10
-2.2947637795275591
 20
-7.0379685039370079
 30
0.0
 10
-2.2947637795275591
 20
-7.0379685039370079
 30
0.0
 10
-2.2947637795275591
 20
-7.0379685039370079
 30
0.0
 10
-2.2947637795275591
 20
-7.0379685039370079
 30
0.0
 10
-2.2933937007874015
 20
-8.1403267716535428
 30
0.0
 10
-2.2933937007874015
 20
-8.1403267716535428
 30
0.0
 10
-2.2933937007874015
 20
-8.1403267716535428
 30
0.0
 10
-2.2933937007874015
 20
-8.1403267716535428
 30
0.0
 10
-2.7282716535433074
 20
-8.1408700787401571
 30
0.0
 10
-2.7282716535433074
 20
-8.1408700787401571
 30
0.0
 10
-2.7282716535433074
 20
-8.1408700787401571
 30
0.0
 10
-2.7282716535433074
 20
-8.1408700787401571
 30
0.0
 10
-2.7307952755905514
 20
-6.0936259842519691
 30
0.0
 10
-2.7307952755905514
 20
-6.0936259842519691
 30
0.0
 10
-2.7307952755905514
 20
-6.0936259842519691
 30
0.0
 10
-2.7307952755905514
 20
-6.0100944881889768
 30
0.0
 10
-2.6977992125984254
 20
-5.9299448818897638
 30
0.0
 10
-2.6387992125984252
 20
-5.8708110236220472
 30
0.0
 10
-2.6387992125984252
 20
-5.8708110236220472
 30
0.0
 10
-2.5798031496062994
 20
-5.8116771653543307
 30
0.0
 10
-2.4997283464566928
 20
-5.7784015748031496
 30
0.0
 10
-2.4161929133858266
 20
-5.7783070866141735
 30
0.0
  0
SPLINE
  5
2D
100
AcDbEntity
  8
Layer 1
370
     0
100
AcDbSpline
210
0.0
220
0.0
230
1.0
 70
     1
 71
     3
 72
   140
 73
   136
 74
     0
 42
0.0000000001
 43
0.0000000001
 40
0.0
 40
0.0
 40
0.0
 40
0.0
 40
0.0294117647058824
 40
0.0294117647058824
 40
0.0294117647058824
 40
0.0294117647058824
 40
0.0588235294117647
 40
0.0588235294117647
 40
0.0588235294117647
 40
0.0588235294117647
 40
0.0882352941176471
 40
0.0882352941176471
 40
0.0882352941176471
 40
0.0882352941176471
 40
0.1176470588235294
 40
0.1176470588235294
 40
0.1176470588235294
 40
0.1176470588235294
 40
0.1470588235294118
 40
0.1470588235294118
 40
0.1470588235294118
 40
0.1470588235294118
 40
0.1764705882352941
 40
0.1764705882352941
 40
0.1764705882352941
 40
0.1764705882352941
 40
0.2058823529411765
 40
0.2058823529411765
 40
0.2058823529411765
 40
0.2058823529411765
 40
0.2352941176470589
 40
0.2352941176470589
 40
0.2352941176470589
 40
0.2352941176470589
 40
0.2647058823529412
 40
0.2647058823529412
 40
0.2647058823529412
 40
0.2647058823529412
 40
0.2941176470588235
 40
0.2941176470588235
 40
0.2941176470588235
 40
0.2941176470588235
 40
0.3235294117647059
 40
0.3235294117647059
 40
0.3235294117647059
 40
0.3235294117647059
 40
0.3529411764705883
 40
0.3529411764705883
 40
0.3529411764705883
 40
0.3529411764705883
 40
0.3823529411764706
 40
0.3823529411764706
 40
0.3823529411764706
 40
0.3823529411764706
 40
0.411764705882353
 40
0.411764705882353
 40
0.411764705882353
 40
0.411764705882353
 40
0.4411764705882353
 40
0.4411764705882353
 40
0.4411764705882353
 40
0.4411764705882353
 40
0.4705882352941177
 40
0.4705882352941177
 40
0.4705882352941177
 40
0.4705882352941177
 40
0.5
 40
0.5
 40
0.5
 40
0.5
 40
0.5294117647058824
 40
0.5294117647058824
 40
0.5294117647058824
 40
0.5294117647058824
 40
0.5588235294117647
 40
0.5588235294117647
 40
0.5588235294117647
 40
0.5588235294117647
 40
0.5882352941176471
 40
0.5882352941176471
 40
0.5882352941176471
 40
0.5882352941176471
 40
0.6176470588235294
 40
0.6176470588235294
 40
0.6176470588235294
 40
0.6176470588235294
 40
0.6470588235294118
 40
0.6470588235294118
 40
0.6470588235294118
 40
0.6470588235294118
 40
0.6764705882352942
 40
0.6764705882352942
 40
0.6764705882352942
 40
0.6764705882352942
 40
0.7058823529411765
 40
0.7058823529411765
 40
0.7058823529411765
 40
0.7058823529411765
 40
0.7352941176470589
 40
0.7352941176470589
 40
0.7352941176470589
 40
0.7352941176470589
 40
0.7647058823529412
 40
0.7647058823529412
 40
0.7647058823529412
 40
0.7647058823529412
 40
0.7941176470588236
 40
0.7941176470588236
 40
0.7941176470588236
 40
0.7941176470588236
 40
0.823529411764706
 40
0.823529411764706
 40
0.823529411764706
 40
0.823529411764706
 40
0.8529411764705883
 40
0.8529411764705883
 40
0.8529411764705883
 40
0.8529411764705883
 40
0.8823529411764707
 40
0.8823529411764707
 40
0.8823529411764707
 40
0.8823529411764707
 40
0.911764705882353
 40
0.911764705882353
 40
0.911764705882353
 40
0.911764705882353
 40
0.9411764705882354
 40
0.9411764705882354
 40
0.9411764705882354
 40
0.9411764705882354
 40
0.9705882352941178
 40
0.9705882352941178
 40
0.9705882352941178
 40
0.9705882352941178
 40
1.0
 40
1.0
 40
1.0
 40
1.0
 10
-11.788425196850394
 20
-6.9179251968503941
 30
0.0
 10
-11.721015748031496
 20
-6.9311062992125985
 30
0.0
 10
-11.651094488188976
 20
-6.8985511811023628
 30
0.0
 10
-11.604598425196851
 20
-6.8483661417322841
 30
0.0
 10
-11.604598425196851
 20
-6.8483661417322841
 30
0.0
 10
-11.558106299212598
 20
-6.7981889763779533
 30
0.0
 10
-11.535031496062993
 20
-6.7303858267716539
 30
0.0
 10
-11.561307086614173
 20
-6.6730866141732283
 30
0.0
 10
-11.561307086614173
 20
-6.6730866141732283
 30
0.0
 10
-11.577405511811024
 20
-6.6103740157480315
 30
0.0
 10
-11.630196850393702
 20
-6.5638661417322837
 30
0.0
 10
-11.694444881889764
 20
-6.5558228346456699
 30
0.0
 10
-11.694444881889764
 20
-6.5558228346456699
 30
0.0
 10
-11.731429133858269
 20
-6.5513110236220475
 30
0.0
 10
-11.764444881889764
 20
-6.5304763779527564
 30
0.0
 10
-11.784444881889764
 20
-6.4990472440944886
 30
0.0
 10
-11.784444881889764
 20
-6.4990472440944886
 30
0.0
 10
-11.853897637795276
 20
-6.4165748031496062
 30
0.0
 10
-11.913299212598426
 20
-6.3261456692913391
 30
0.0
 10
-11.961413385826772
 20
-6.2296614173228351
 30
0.0
 10
-11.961413385826772
 20
-6.2296614173228351
 30
0.0
 10
-12.142610236220474
 20
-5.8387637795275591
 30
0.0
 10
-12.169350393700787
 20
-5.3938149606299213
 30
0.0
 10
-12.036275590551181
 20
-4.984027559055118
 30
0.0
 10
-12.036275590551181
 20
-4.984027559055118
 30
0.0
 10
-11.997047244094489
 20
-4.8211181102362204
 30
0.0
 10
-11.930606299212599
 20
-4.665996062992126
 30
0.0
 10
-11.839759842519685
 20
-4.5251929133858271
 30
0.0
 10
-11.839759842519685
 20
-4.5251929133858271
 30
0.0
 10
-11.746204724409449
 20
-4.3755787401574802
 30
0.0
 10
-11.630204724409449
 20
-4.241236220472441
 30
0.0
 10
-11.49582283464567
 20
-4.1268740157480313
 30
0.0
 10
-11.49582283464567
 20
-4.1268740157480313
 30
0.0
 10
-11.251374015748032
 20
-3.9067322834645672
 30
0.0
 10
-10.921555118110236
 20
-3.8069370078740157
 30
0.0
 10
-10.596066929133858
 20
-3.8546259842519688
 30
0.0
 10
-10.596066929133858
 20
-3.8546259842519688
 30
0.0
 10
-10.270578740157481
 20
-3.9023149606299214
 30
0.0
 10
-9.9832480314960641
 20
-4.0925275590551182
 30
0.0
 10
-9.812220472440945
 20
-4.3735433070866145
 30
0.0
 10
-9.812220472440945
 20
-4.3735433070866145
 30
0.0
 10
-9.471688976377953
 20
-4.8632047244094494
 30
0.0
 10
-9.2209055118110239
 20
-5.4095039370078739
 30
0.0
 10
-9.071590551181103
 20
-5.9869409448818898
 30
0.0
 10
-9.071590551181103
 20
-5.9869409448818898
 30
0.0
 10
-9.0508070866141743
 20
-6.0671496062992132
 30
0.0
 10
-8.9713779527559065
 20
-6.1174960629921262
 30
0.0
 10
-8.8899685039370073
 20
-6.1020669291338585
 30
0.0
 10
-8.8899685039370073
 20
-6.1020669291338585
 30
0.0
 10
-8.8899685039370073
 20
-6.1020669291338585
 30
0.0
 10
-7.1293070866141734
 20
-5.7723070866141732
 30
0.0
 10
-7.1293070866141734
 20
-5.7723070866141732
 30
0.0
 10
-7.1293070866141734
 20
-5.7723070866141732
 30
0.0
 10
-7.1293070866141734
 20
-5.7723070866141732
 30
0.0
 10
-5.1193897637795276
 20
-5.3960433070866145
 30
0.0
 10
-5.1193897637795276
 20
-5.3960433070866145
 30
0.0
 10
-5.1193897637795276
 20
-5.3960433070866145
 30
0.0
 10
-5.0961811023622046
 20
-5.3915196850393698
 30
0.0
 10
-5.0721653543307088
 20
-5.3976732283464566
 30
0.0
 10
-5.0539842519685045
 20
-5.4127992125984257
 30
0.0
 10
-5.0539842519685045
 20
-5.4127992125984257
 30
0.0
 10
-5.0358110236220472
 20
-5.4279251968503939
 30
0.0
 10
-5.0256259842519686
 20
-5.4504212598425195
 30
0.0
 10
-5.0256259842519686
 20
-5.4740669291338584
 30
0.0
 10
-5.0256259842519686
 20
-5.4740669291338584
 30
0.0
 10
-5.0256259842519686
 20
-5.4740669291338584
 30
0.0
 10
-5.0369212598425195
 20
-6.6661653543307091
 30
0.0
 10
-5.0369212598425195
 20
-6.6661653543307091
 30
0.0
 10
-5.0369212598425195
 20
-6.6661653543307091
 30
0.0
 10
-5.0369212598425195
 20
-6.6661653543307091
 30
0.0
 10
-8.1863740157480311
 20
-6.6363110236220475
 30
0.0
 10
-8.1863740157480311
 20
-6.6363110236220475
 30
0.0
 10
-8.1863740157480311
 20
-6.6363110236220475
 30
0.0
 10
-8.1863740157480311
 20
-6.6363110236220475
 30
0.0
 10
-8.1883582677165361
 20
-6.8488858267716539
 30
0.0
 10
-8.1883582677165361
 20
-6.8488858267716539
 30
0.0
 10
-8.1883582677165361
 20
-6.8488858267716539
 30
0.0
 10
-8.1883582677165361
 20
-6.8488858267716539
 30
0.0
 10
-5.0389094488188979
 20
-6.8787362204724412
 30
0.0
 10
-5.0389094488188979
 20
-6.8787362204724412
 30
0.0
 10
-5.0389094488188979
 20
-6.8787362204724412
 30
0.0
 10
-5.0389094488188979
 20
-6.8787362204724412
 30
0.0
 10
-5.0502244094488189
 20
-8.0762992125984248
 30
0.0
 10
-5.0502244094488189
 20
-8.0762992125984248
 30
0.0
 10
-5.0502244094488189
 20
-8.0762992125984248
 30
0.0
 10
-5.0502244094488189
 20
-8.0999527559055124
 30
0.0
 10
-5.0612755905511815
 20
-8.1222598425196857
 30
0.0
 10
-5.0797322834645673
 20
-8.1370590551181099
 30
0.0
 10
-5.0797322834645673
 20
-8.1370590551181099
 30
0.0
 10
-5.098196850393701
 20
-8.1518582677165359
 30
0.0
 10
-5.1223228346456695
 20
-8.1575748031496058
 30
0.0
 10
-5.14546062992126
 20
-8.1526377952755915
 30
0.0
 10
-5.14546062992126
 20
-8.1526377952755915
 30
0.0
 10
-5.14546062992126
 20
-8.1526377952755915
 30
0.0
 10
-7.0237716535433075
 20
-7.7639055118110241
 30
0.0
 10
-7.0237716535433075
 20
-7.7639055118110241
 30
0.0
 10
-7.0237716535433075
 20
-7.7639055118110241
 30
0.0
 10
-7.0237716535433075
 20
-7.7639055118110241
 30
0.0
 10
-8.9020866141732284
 20
-7.3752204724409456
 30
0.0
 10
-8.9020866141732284
 20
-7.3752204724409456
 30
0.0
 10
-8.9020866141732284
 20
-7.3752204724409456
 30
0.0
 10
-8.9831653543307084
 20
-7.3582755905511812
 30
0.0
 10
-9.0635000000000012
 20
-7.4070669291338582
 30
0.0
 10
-9.0858464566929129
 20
-7.4868307086614179
 30
0.0
 10
-9.0858464566929129
 20
-7.4868307086614179
 30
0.0
 10
-9.2460708661417321
 20
-8.0613582677165354
 30
0.0
 10
-9.5071574803149606
 20
-8.6028188976377962
 30
0.0
 10
-9.8569251968503941
 20
-9.0859488188976378
 30
0.0
 10
-9.8569251968503941
 20
-9.0859488188976378
 30
0.0
 10
-10.033188976377954
 20
-9.3636771653543303
 30
0.0
 10
-10.323968503937008
 20
-9.5484724409448827
 30
0.0
 10
-10.650251968503937
 20
-9.5901338582677162
 30
0.0
 10
-10.650251968503937
 20
-9.5901338582677162
 30
0.0
 10
-10.97653937007874
 20
-9.6317952755905516
 30
0.0
 10
-11.304425196850394
 20
-9.5259881889763776
 30
0.0
 10
-11.544811023622048
 20
-9.301464566929134
 30
0.0
 10
-11.544811023622048
 20
-9.301464566929134
 30
0.0
 10
-11.67707874015748
 20
-9.184342519685039
 30
0.0
 10
-11.790523622047244
 20
-9.0475472440944884
 30
0.0
 10
-11.88116535433071
 20
-8.8959015748031494
 30
0.0
 10
-11.88116535433071
 20
-8.8959015748031494
 30
0.0
 10
-11.96932283464567
 20
-8.7534173228346468
 30
0.0
 10
-12.032799212598425
 20
-8.5970748031496065
 30
0.0
 10
-12.068933070866143
 20
-8.433468503937009
 30
0.0
 10
-12.068933070866143
 20
-8.433468503937009
 30
0.0
 10
-12.180633858267717
 20
-8.0660590551181102
 30
0.0
 10
-12.165232283464567
 20
-7.6717204724409456
 30
0.0
 10
-12.025228346456693
 20
-7.3141377952755908
 30
0.0
 10
-12.025228346456693
 20
-7.3141377952755908
 30
0.0
 10
-12.00003937007874
 20
-7.2408149606299217
 30
0.0
 10
-11.966606299212598
 20
-7.1705866141732288
 30
0.0
 10
-11.925586614173229
 20
-7.1047992125984258
 30
0.0
 10
-11.925586614173229
 20
-7.1047992125984258
 30
0.0
 10
-11.885267716535434
 20
-7.0387244094488191
 30
0.0
 10
-11.839374015748032
 20
-6.9762047244094489
 30
0.0
 10
-11.788425196850394
 20
-6.9179251968503941
 30
0.0
  0
SPLINE
  5
2E
100
AcDbEntity
  8
Layer 1
370
     0
100
AcDbSpline
210
0.0
220
0.0
230
1.0
 70
     1
 71
     3
 72
   208
 73
   204
 74
     0
 42
0.0000000001
 43
0.0000000001
 40
0.0
 40
0.0
 40
0.0
 40
0.0
 40
0.0196078431372549
 40
0.0196078431372549
 40
0.0196078431372549
 40
0.0196078431372549
 40
0.0392156862745098
 40
0.0392156862745098
 40
0.0392156862745098
 40
0.0392156862745098
 40
0.0588235294117647
 40
0.0588235294117647
 40
0.0588235294117647
 40
0.0588235294117647
 40
0.0784313725490196
 40
0.0784313725490196
 40
0.0784313725490196
 40
0.0784313725490196
 40
0.0980392156862745
 40
0.0980392156862745
 40
0.0980392156862745
 40
0.0980392156862745
 40
0.1176470588235294
 40
0.1176470588235294
 40
0.1176470588235294
 40
0.1176470588235294
 40
0.1372549019607843
 40
0.1372549019607843
 40
0.1372549019607843
 40
0.1372549019607843
 40
0.1568627450980392
 40
0.1568627450980392
 40
0.1568627450980392
 40
0.1568627450980392
 40
0.1764705882352941
 40
0.1764705882352941
 40
0.1764705882352941
 40
0.1764705882352941
 40
0.196078431372549
 40
0.196078431372549
 40
0.196078431372549
 40
0.196078431372549
 40
0.2156862745098039
 40
0.2156862745098039
 40
0.2156862745098039
 40
0.2156862745098039
 40
0.2352941176470588
 40
0.2352941176470588
 40
0.2352941176470588
 40
0.2352941176470588
 40
0.2549019607843137
 40
0.2549019607843137
 40
0.2549019607843137
 40
0.2549019607843137
 40
0.2745098039215685
 40
0.2745098039215685
 40
0.2745098039215685
 40
0.2745098039215685
 40
0.2941176470588234
 40
0.2941176470588234
 40
0.2941176470588234
 40
0.2941176470588234
 40
0.3137254901960783
 40
0.3137254901960783
 40
0.3137254901960783
 40
0.3137254901960783
 40
0.3333333333333332
 40
0.3333333333333332
 40
0.3333333333333332
 40
0.3333333333333332
 40
0.3529411764705881
 40
0.3529411764705881
 40
0.3529411764705881
 40
0.3529411764705881
 40
0.372549019607843
 40
0.372549019607843
 40
0.372549019607843
 40
0.372549019607843
 40
0.3921568627450979
 40
0.3921568627450979
 40
0.3921568627450979
 40
0.3921568627450979
 40
0.4117647058823528
 40
0.4117647058823528
 40
0.4117647058823528
 40
0.4117647058823528
 40
0.4313725490196076
 40
0.4313725490196076
 40
0.4313725490196076
 40
0.4313725490196076
 40
0.4509803921568625
 40
0.4509803921568625
 40
0.4509803921568625
 40
0.4509803921568625
 40
0.4705882352941174
 40
0.4705882352941174
 40
0.4705882352941174
 40
0.4705882352941174
 40
0.4901960784313723
 40
0.4901960784313723
 40
0.4901960784313723
 40
0.4901960784313723
 40
0.5098039215686272
 40
0.5098039215686272
 40
0.5098039215686272
 40
0.5098039215686272
 40
0.5294117647058821
 40
0.5294117647058821
 40
0.5294117647058821
 40
0.5294117647058821
 40
0.5490196078431371
 40
0.5490196078431371
 40
0.5490196078431371
 40
0.5490196078431371
 40
0.568627450980392
 40
0.568627450980392
 40
0.568627450980392
 40
0.568627450980392
 40
0.588235294117647
 40
0.588235294117647
 40
0.588235294117647
 40
0.588235294117647
 40
0.6078431372549019
 40
0.6078431372549019
 40
0.6078431372549019
 40
0.6078431372549019
 40
0.6274509803921569
 40
0.6274509803921569
 40
0.6274509803921569
 40
0.6274509803921569
 40
0.6470588235294118
 40
0.6470588235294118
 40
0.6470588235294118
 40
0.6470588235294118
 40
0.6666666666666667
 40
0.6666666666666667
 40
0.6666666666666667
 40
0.6666666666666667
 40
0.6862745098039217
 40
0.6862745098039217
 40
0.6862745098039217
 40
0.6862745098039217
 40
0.7058823529411766
 40
0.7058823529411766
 40
0.7058823529411766
 40
0.7058823529411766
 40
0.7254901960784316
 40
0.7254901960784316
 40
0.7254901960784316
 40
0.7254901960784316
 40
0.7450980392156865
 40
0.7450980392156865
 40
0.7450980392156865
 40
0.7450980392156865
 40
0.7647058823529415
 40
0.7647058823529415
 40
0.7647058823529415
 40
0.7647058823529415
 40
0.7843137254901964
 40
0.7843137254901964
 40
0.7843137254901964
 40
0.7843137254901964
 40
0.8039215686274513
 40
0.8039215686274513
 40
0.8039215686274513
 40
0.8039215686274513
 40
0.8235294117647063
 40
0.8235294117647063
 40
0.8235294117647063
 40
0.8235294117647063
 40
0.8431372549019612
 40
0.8431372549019612
 40
0.8431372549019612
 40
0.8431372549019612
 40
0.8627450980392162
 40
0.8627450980392162
 40
0.8627450980392162
 40
0.8627450980392162
 40
0.8823529411764711
 40
0.8823529411764711
 40
0.8823529411764711
 40
0.8823529411764711
 40
0.9019607843137261
 40
0.9019607843137261
 40
0.9019607843137261
 40
0.9019607843137261
 40
0.921568627450981
 40
0.921568627450981
 40
0.921568627450981
 40
0.921568627450981
 40
0.941176470588236
 40
0.941176470588236
 40
0.941176470588236
 40
0.941176470588236
 40
0.9607843137254909
 40
0.9607843137254909
 40
0.9607843137254909
 40
0.9607843137254909
 40
0.9803921568627458
 40
0.9803921568627458
 40
0.9803921568627458
 40
0.9803921568627458
 40
1.0
 40
1.0
 40
1.0
 40
1.0
 10
-1.1117677165354332
 20
3.8308582677165357
 30
0.0
 10
-1.1117677165354332
 20
3.8308582677165357
 30
0.0
 10
-1.1120236220472441
 20
5.4749566929133859
 30
0.0
 10
-1.1120236220472441
 20
5.4749566929133859
 30
0.0
 10
-1.1120236220472441
 20
5.4749566929133859
 30
0.0
 10
-1.1120236220472441
 20
5.4958385826771652
 30
0.0
 10
-1.1203267716535434
 20
5.5158622047244092
 30
0.0
 10
-1.1350944881889764
 20
5.5306259842519685
 30
0.0
 10
-1.1350944881889764
 20
5.5306259842519685
 30
0.0
 10
-1.1498622047244096
 20
5.5453937007874021
 30
0.0
 10
-1.1698937007874015
 20
5.5536850393700785
 30
0.0
 10
-1.1907755905511812
 20
5.553681102362205
 30
0.0
 10
-1.1907755905511812
 20
5.553681102362205
 30
0.0
 10
-1.1907755905511812
 20
5.553681102362205
 30
0.0
 10
-1.9762874015748033
 20
5.5535629921259844
 30
0.0
 10
-1.9762874015748033
 20
5.5535629921259844
 30
0.0
 10
-1.9762874015748033
 20
5.5535629921259844
 30
0.0
 10
-1.9762874015748033
 20
5.5535629921259844
 30
0.0
 10
-2.9561299212598424
 20
5.5534212598425201
 30
0.0
 10
-2.9561299212598424
 20
5.5534212598425201
 30
0.0
 10
-2.9561299212598424
 20
5.5534212598425201
 30
0.0
 10
-2.9981102362204726
 20
5.5534173228346457
 30
0.0
 10
-3.0327244094488188
 20
5.5205157480314959
 30
0.0
 10
-3.0348582677165354
 20
5.4785905511811022
 30
0.0
 10
-3.0348582677165354
 20
5.4785905511811022
 30
0.0
 10
-3.070704724409449
 20
4.8075275590551181
 30
0.0
 10
-3.6252322834645669
 20
4.2817401574803151
 30
0.0
 10
-4.2972559055118111
 20
4.2816338582677167
 30
0.0
 10
-4.2972559055118111
 20
4.2816338582677167
 30
0.0
 10
-4.9692834645669297
 20
4.2815354330708661
 30
0.0
 10
-5.5239763779527564
 20
4.8071417322834646
 30
0.0
 10
-5.5600275590551185
 20
5.4781968503937009
 30
0.0
 10
-5.5600275590551185
 20
5.4781968503937009
 30
0.0
 10
-5.5621692913385825
 20
5.5201338582677169
 30
0.0
 10
-5.5968149606299216
 20
5.5530275590551179
 30
0.0
 10
-5.6388070866141735
 20
5.5529881889763786
 30
0.0
 10
-5.6388070866141735
 20
5.5529881889763786
 30
0.0
 10
-5.6388070866141735
 20
5.5529881889763786
 30
0.0
 10
-7.4018031496062999
 20
5.552712598425197
 30
0.0
 10
-7.4018031496062999
 20
5.552712598425197
 30
0.0
 10
-7.4018031496062999
 20
5.552712598425197
 30
0.0
 10
-7.4226850393700792
 20
5.552712598425197
 30
0.0
 10
-7.4427086614173232
 20
5.5444094488188975
 30
0.0
 10
-7.4574724409448825
 20
5.5296417322834648
 30
0.0
 10
-7.4574724409448825
 20
5.5296417322834648
 30
0.0
 10
-7.4722401574803152
 20
5.514874015748032
 30
0.0
 10
-7.4805275590551181
 20
5.4948425196850392
 30
0.0
 10
-7.4805275590551181
 20
5.47396062992126
 30
0.0
 10
-7.4805275590551181
 20
5.47396062992126
 30
0.0
 10
-7.4805275590551181
 20
5.47396062992126
 30
0.0
 10
-7.4802755905511811
 20
3.8298661417322837
 30
0.0
 10
-7.4802755905511811
 20
3.8298661417322837
 30
0.0
 10
-7.4802755905511811
 20
3.8298661417322837
 30
0.0
 10
-7.4802755905511811
 20
3.7711614173228347
 30
0.0
 10
-7.527846456692914
 20
3.7235590551181104
 30
0.0
 10
-7.5865511811023625
 20
3.7235511811023625
 30
0.0
 10
-7.5865511811023625
 20
3.7235511811023625
 30
0.0
 10
-7.6452637795275598
 20
3.7235433070866142
 30
0.0
 10
-7.6928700787401576
 20
3.7711259842519684
 30
0.0
 10
-7.6928700787401576
 20
3.8298346456692913
 30
0.0
 10
-7.6928700787401576
 20
3.8298346456692913
 30
0.0
 10
-7.6928700787401576
 20
3.8298346456692913
 30
0.0
 10
-7.693125984251969
 20
5.4739291338582676
 30
0.0
 10
-7.693125984251969
 20
5.4739291338582676
 30
0.0
 10
-7.693125984251969
 20
5.4739291338582676
 30
0.0
 10
-7.693125984251969
 20
5.4948149606299213
 30
0.0
 10
-7.7014251968503942
 20
5.5148385826771653
 30
0.0
 10
-7.7161968503937013
 20
5.5296023622047246
 30
0.0
 10
-7.7161968503937013
 20
5.5296023622047246
 30
0.0
 10
-7.730964566929134
 20
5.5443700787401573
 30
0.0
 10
-7.750996062992126
 20
5.5526614173228346
 30
0.0
 10
-7.7718779527559061
 20
5.5526574803149611
 30
0.0
 10
-7.7718779527559061
 20
5.5526574803149611
 30
0.0
 10
-7.7718779527559061
 20
5.5526574803149611
 30
0.0
 10
-9.4678661417322836
 20
5.5523937007874018
 30
0.0
 10
-9.4678661417322836
 20
5.5523937007874018
 30
0.0
 10
-9.4678661417322836
 20
5.5523937007874018
 30
0.0
 10
-9.4887519685039372
 20
5.5523897637795274
 30
0.0
 10
-9.5087716535433078
 20
5.5440905511811023
 30
0.0
 10
-9.523535433070867
 20
5.5293228346456695
 30
0.0
 10
-9.523535433070867
 20
5.5293228346456695
 30
0.0
 10
-9.5383070866141733
 20
5.5145551181102368
 30
0.0
 10
-9.5465905511811027
 20
5.494523622047244
 30
0.0
 10
-9.5465905511811027
 20
5.4736417322834647
 30
0.0
 10
-9.5465905511811027
 20
5.4736417322834647
 30
0.0
 10
-9.5465905511811027
 20
5.4736417322834647
 30
0.0
 10
-9.5463346456692921
 20
3.8295472440944884
 30
0.0
 10
-9.5463346456692921
 20
3.8295472440944884
 30
0.0
 10
-9.5463346456692921
 20
3.8295472440944884
 30
0.0
 10
-9.5463346456692921
 20
3.7708188976377954
 30
0.0
 10
-9.5939251968503942
 20
3.7232007874015749
 30
0.0
 10
-9.6526574803149607
 20
3.7231889763779531
 30
0.0
 10
-9.6526574803149607
 20
3.7231889763779531
 30
0.0
 10
-9.7113897637795272
 20
3.7231811023622048
 30
0.0
 10
-9.7590118110236226
 20
3.7707834645669291
 30
0.0
 10
-9.7590118110236226
 20
3.8295118110236221
 30
0.0
 10
-9.7590118110236226
 20
3.8295118110236221
 30
0.0
 10
-9.7590157480314961
 20
3.8295118110236221
 30
0.0
 10
-9.7592755905511819
 20
5.4736062992125989
 30
0.0
 10
-9.7592755905511819
 20
5.4736062992125989
 30
0.0
 10
-9.7592755905511819
 20
5.4736062992125989
 30
0.0
 10
-9.7592755905511819
 20
5.4944921259842525
 30
0.0
 10
-9.7675708661417335
 20
5.5145157480314966
 30
0.0
 10
-9.7823385826771663
 20
5.5292795275590549
 30
0.0
 10
-9.7823385826771663
 20
5.5292795275590549
 30
0.0
 10
-9.7971102362204725
 20
5.5440472440944886
 30
0.0
 10
-9.8171377952755901
 20
5.5523385826771658
 30
0.0
 10
-9.8380196850393702
 20
5.5523346456692915
 30
0.0
 10
-9.8380196850393702
 20
5.5523346456692915
 30
0.0
 10
-9.8380196850393702
 20
5.5523346456692915
 30
0.0
 10
-10.467944881889764
 20
5.5522677165354333
 30
0.0
 10
-10.467944881889764
 20
5.5522677165354333
 30
0.0
 10
-10.467944881889764
 20
5.5522677165354333
 30
0.0
 10
-11.431334645669292
 20
5.5520787401574809
 30
0.0
 10
-12.215484251968505
 20
4.7772440944881893
 30
0.0
 10
-12.227188976377953
 20
3.8139173228346457
 30
0.0
 10
-12.227188976377953
 20
3.8139173228346457
 30
0.0
 10
-12.238897637795276
 20
2.8505905511811025
 30
0.0
 10
-11.473807086614174
 20
2.0569330708661417
 30
0.0
 10
-10.510700787401575
 20
2.0333307086614174
 30
0.0
 10
-10.510700787401575
 20
2.0333307086614174
 30
0.0
 10
-10.510700787401575
 20
2.0333307086614174
 30
0.0
 10
-5.3398346456692911
 20
2.0341377952755906
 30
0.0
 10
-5.3398346456692911
 20
2.0341377952755906
 30
0.0
 10
-5.3398346456692911
 20
2.0341377952755906
 30
0.0
 10
-5.3398346456692911
 20
2.0341377952755906
 30
0.0
 10
-0.1689685039370079
 20
2.0349409448818898
 30
0.0
 10
-0.1689685039370079
 20
2.0349409448818898
 30
0.0
 10
-0.1689685039370079
 20
2.0349409448818898
 30
0.0
 10
-0.1689685039370079
 20
2.0349409448818898
 30
0.0
 10
2.0129173228346455
 20
2.0352598425196851
 30
0.0
 10
2.0129173228346455
 20
2.0352598425196851
 30
0.0
 10
2.0129173228346455
 20
2.0352598425196851
 30
0.0
 10
2.9760393700787402
 20
2.0354094488188976
 30
0.0
 10
3.759937007874016
 20
2.8101102362204724
 30
0.0
 10
3.7714488188976381
 20
3.7731653543307089
 30
0.0
 10
3.7714488188976381
 20
3.7731653543307089
 30
0.0
 10
3.7829606299212601
 20
4.736216535433071
 30
0.0
 10
3.0178110236220475
 20
5.5294370078740158
 30
0.0
 10
2.0549685039370078
 20
5.552610236220473
 30
0.0
 10
2.0549685039370078
 20
5.552610236220473
 30
0.0
 10
2.0303110236220472
 20
5.5536574803149605
 30
0.0
 10
2.0056338582677165
 20
5.5541771653543313
 30
0.0
 10
1.9809527559055118
 20
5.5541732283464569
 30
0.0
 10
1.9809527559055118
 20
5.5541732283464569
 30
0.0
 10
1.9809527559055118
 20
5.5541732283464569
 30
0.0
 10
1.3840236220472442
 20
5.5540866141732286
 30
0.0
 10
1.3840236220472442
 20
5.5540866141732286
 30
0.0
 10
1.3840236220472442
 20
5.5540866141732286
 30
0.0
 10
1.3631417322834647
 20
5.5540826771653542
 30
0.0
 10
1.3431141732283465
 20
5.5457795275590556
 30
0.0
 10
1.3283503937007874
 20
5.5310118110236219
 30
0.0
 10
1.3283503937007874
 20
5.5310118110236219
 30
0.0
 10
1.3135866141732284
 20
5.5162440944881892
 30
0.0
 10
1.3052952755905511
 20
5.4962125984251973
 30
0.0
 10
1.3052952755905511
 20
5.4753307086614171
 30
0.0
 10
1.3052952755905511
 20
5.4753307086614171
 30
0.0
 10
1.3052952755905511
 20
5.4753307086614171
 30
0.0
 10
1.3055511811023623
 20
3.8312362204724413
 30
0.0
 10
1.3055511811023623
 20
3.8312362204724413
 30
0.0
 10
1.3055511811023623
 20
3.8312362204724413
 30
0.0
 10
1.3055511811023623
 20
3.7725275590551184
 30
0.0
 10
1.257976377952756
 20
3.724929133858268
 30
0.0
 10
1.1992677165354331
 20
3.7249173228346457
 30
0.0
 10
1.1992677165354331
 20
3.7249173228346457
 30
0.0
 10
1.1405629921259843
 20
3.7249094488188979
 30
0.0
 10
1.0929527559055119
 20
3.7724921259842521
 30
0.0
 10
1.0929527559055119
 20
3.831200787401575
 30
0.0
 10
1.0929527559055119
 20
3.831200787401575
 30
0.0
 10
1.0929527559055119
 20
3.831200787401575
 30
0.0
 10
1.0926968503937009
 20
5.4752952755905513
 30
0.0
 10
1.0926968503937009
 20
5.4752952755905513
 30
0.0
 10
1.0926968503937009
 20
5.4752952755905513
 30
0.0
 10
1.0926968503937009
 20
5.4961771653543305
 30
0.0
 10
1.0843937007874016
 20
5.516204724409449
 30
0.0
 10
1.0696259842519686
 20
5.5309685039370082
 30
0.0
 10
1.0696259842519686
 20
5.5309685039370082
 30
0.0
 10
1.0548582677165355
 20
5.545736220472441
 30
0.0
 10
1.0348267716535433
 20
5.5540275590551182
 30
0.0
 10
1.0139448818897638
 20
5.5540236220472439
 30
0.0
 10
1.0139448818897638
 20
5.5540236220472439
 30
0.0
 10
1.0139448818897638
 20
5.5540236220472439
 30
0.0
 10
-0.8206968503937008
 20
5.5537401574803154
 30
0.0
 10
-0.8206968503937008
 20
5.5537401574803154
 30
0.0
 10
-0.8206968503937008
 20
5.5537401574803154
 30
0.0
 10
-0.8415787401574804
 20
5.553736220472441
 30
0.0
 10
-0.8616062992125985
 20
5.5454370078740158
 30
0.0
 10
-0.8763700787401575
 20
5.5306653543307087
 30
0.0
 10
-0.8763700787401575
 20
5.5306653543307087
 30
0.0
 10
-0.8911338582677165
 20
5.515897637795276
 30
0.0
 10
-0.8994251968503937
 20
5.4958700787401575
 30
0.0
 10
-0.8994251968503937
 20
5.4749842519685039
 30
0.0
 10
-0.8994251968503937
 20
5.4749842519685039
 30
0.0
 10
-0.8994251968503937
 20
5.4749842519685039
 30
0.0
 10
-0.8991692913385827
 20
3.8308937007874015
 30
0.0
 10
-0.8991692913385827
 20
3.8308937007874015
 30
0.0
 10
-0.8991692913385827
 20
3.8308937007874015
 30
0.0
 10
-0.8991692913385827
 20
3.7721850393700791
 30
0.0
 10
-0.946744094488189
 20
3.7245826771653543
 30
0.0
 10
-1.0054527559055118
 20
3.7245748031496064
 30
0.0
 10
-1.0054527559055118
 20
3.7245748031496064
 30
0.0
 10
-1.0641614173228346
 20
3.7245669291338586
 30
0.0
 10
-1.1117677165354332
 20
3.7721496062992128
 30
0.0
 10
-1.1117677165354332
 20
3.8308582677165357
 30
0.0
  0
SPLINE
  5
2F
100
AcDbEntity
  8
Layer 1
370
     0
100
AcDbSpline
210
0.0
220
0.0
230
1.0
 70
     1
 71
     3
 72
   212
 73
   208
 74
     0
 42
0.0000000001
 43
0.0000000001
 40
0.0
 40
0.0
 40
0.0
 40
0.0
 40
0.0192307692307692
 40
0.0192307692307692
 40
0.0192307692307692
 40
0.0192307692307692
 40
0.0384615384615385
 40
0.0384615384615385
 40
0.0384615384615385
 40
0.0384615384615385
 40
0.0576923076923077
 40
0.0576923076923077
 40
0.0576923076923077
 40
0.0576923076923077
 40
0.0769230769230769
 40
0.0769230769230769
 40
0.0769230769230769
 40
0.0769230769230769
 40
0.0961538461538462
 40
0.0961538461538462
 40
0.0961538461538462
 40
0.0961538461538462
 40
0.1153846153846154
 40
0.1153846153846154
 40
0.1153846153846154
 40
0.1153846153846154
 40
0.1346153846153846
 40
0.1346153846153846
 40
0.1346153846153846
 40
0.1346153846153846
 40
0.1538461538461539
 40
0.1538461538461539
 40
0.1538461538461539
 40
0.1538461538461539
 40
0.1730769230769231
 40
0.1730769230769231
 40
0.1730769230769231
 40
0.1730769230769231
 40
0.1923076923076923
 40
0.1923076923076923
 40
0.1923076923076923
 40
0.1923076923076923
 40
0.2115384615384615
 40
0.2115384615384615
 40
0.2115384615384615
 40
0.2115384615384615
 40
0.2307692307692307
 40
0.2307692307692307
 40
0.2307692307692307
 40
0.2307692307692307
 40
0.2499999999999999
 40
0.2499999999999999
 40
0.2499999999999999
 40
0.2499999999999999
 40
0.2692307692307692
 40
0.2692307692307692
 40
0.2692307692307692
 40
0.2692307692307692
 40
0.2884615384615384
 40
0.2884615384615384
 40
0.2884615384615384
 40
0.2884615384615384
 40
0.3076923076923076
 40
0.3076923076923076
 40
0.3076923076923076
 40
0.3076923076923076
 40
0.3269230769230768
 40
0.3269230769230768
 40
0.3269230769230768
 40
0.3269230769230768
 40
0.346153846153846
 40
0.346153846153846
 40
0.346153846153846
 40
0.346153846153846
 40
0.3653846153846153
 40
0.3653846153846153
 40
0.3653846153846153
 40
0.3653846153846153
 40
0.3846153846153845
 40
0.3846153846153845
 40
0.3846153846153845
 40
0.3846153846153845
 40
0.4038461538461537
 40
0.4038461538461537
 40
0.4038461538461537
 40
0.4038461538461537
 40
0.4230769230769229
 40
0.4230769230769229
 40
0.4230769230769229
 40
0.4230769230769229
 40
0.4423076923076921
 40
0.4423076923076921
 40
0.4423076923076921
 40
0.4423076923076921
 40
0.4615384615384613
 40
0.4615384615384613
 40
0.4615384615384613
 40
0.4615384615384613
 40
0.4807692307692306
 40
0.4807692307692306
 40
0.4807692307692306
 40
0.4807692307692306
 40
0.4999999999999998
 40
0.4999999999999998
 40
0.4999999999999998
 40
0.4999999999999998
 40
0.5192307692307691
 40
0.5192307692307691
 40
0.5192307692307691
 40
0.5192307692307691
 40
0.5384615384615383
 40
0.5384615384615383
 40
0.5384615384615383
 40
0.5384615384615383
 40
0.5576923076923076
 40
0.5576923076923076
 40
0.5576923076923076
 40
0.5576923076923076
 40
0.5769230769230769
 40
0.5769230769230769
 40
0.5769230769230769
 40
0.5769230769230769
 40
0.5961538461538462
 40
0.5961538461538462
 40
0.5961538461538462
 40
0.5961538461538462
 40
0.6153846153846154
 40
0.6153846153846154
 40
0.6153846153846154
 40
0.6153846153846154
 40
0.6346153846153847
 40
0.6346153846153847
 40
0.6346153846153847
 40
0.6346153846153847
 40
0.653846153846154
 40
0.653846153846154
 40
0.653846153846154
 40
0.653846153846154
 40
0.6730769230769232
 40
0.6730769230769232
 40
0.6730769230769232
 40
0.6730769230769232
 40
0.6923076923076925
 40
0.6923076923076925
 40
0.6923076923076925
 40
0.6923076923076925
 40
0.7115384615384618
 40
0.7115384615384618
 40
0.7115384615384618
 40
0.7115384615384618
 40
0.7307692307692311
 40
0.7307692307692311
 40
0.7307692307692311
 40
0.7307692307692311
 40
0.7500000000000003
 40
0.7500000000000003
 40
0.7500000000000003
 40
0.7500000000000003
 40
0.7692307692307696
 40
0.7692307692307696
 40
0.7692307692307696
 40
0.7692307692307696
 40
0.7884615384615389
 40
0.7884615384615389
 40
0.7884615384615389
 40
0.7884615384615389
 40
0.8076923076923082
 40
0.8076923076923082
 40
0.8076923076923082
 40
0.8076923076923082
 40
0.8269230769230774
 40
0.8269230769230774
 40
0.8269230769230774
 40
0.8269230769230774
 40
0.8461538461538467
 40
0.8461538461538467
 40
0.8461538461538467
 40
0.8461538461538467
 40
0.865384615384616
 40
0.865384615384616
 40
0.865384615384616
 40
0.865384615384616
 40
0.8846153846153853
 40
0.8846153846153853
 40
0.8846153846153853
 40
0.8846153846153853
 40
0.9038461538461545
 40
0.9038461538461545
 40
0.9038461538461545
 40
0.9038461538461545
 40
0.9230769230769238
 40
0.9230769230769238
 40
0.9230769230769238
 40
0.9230769230769238
 40
0.9423076923076931
 40
0.9423076923076931
 40
0.9423076923076931
 40
0.9423076923076931
 40
0.9615384615384623
 40
0.9615384615384623
 40
0.9615384615384623
 40
0.9615384615384623
 40
0.9807692307692316
 40
0.9807692307692316
 40
0.9807692307692316
 40
0.9807692307692316
 40
1.0
 40
1.0
 40
1.0
 40
1.0
 10
-9.7503937007874022
 20
7.665027559055118
 30
0.0
 10
-9.7503976377952757
 20
7.665027559055118
 30
0.0
 10
-9.7506653543307085
 20
9.3878661417322835
 30
0.0
 10
-9.7506653543307085
 20
9.3878661417322835
 30
0.0
 10
-9.7506653543307085
 20
9.3878661417322835
 30
0.0
 10
-9.7506653543307085
 20
9.3878661417322835
 30
0.0
 10
-10.416023622047245
 20
9.3877559055118116
 30
0.0
 10
-10.416023622047245
 20
9.3877559055118116
 30
0.0
 10
-10.416023622047245
 20
9.3877559055118116
 30
0.0
 10
-10.882657480314961
 20
9.3991692913385823
 30
0.0
 10
-11.334712598425197
 20
9.2247440944881891
 30
0.0
 10
-11.67274409448819
 20
8.9028543307086618
 30
0.0
 10
-11.67274409448819
 20
8.9028543307086618
 30
0.0
 10
-12.010783464566929
 20
8.5809685039370081
 30
0.0
 10
-12.207094488188977
 20
8.1379685039370084
 30
0.0
 10
-12.218507874015749
 20
7.6713346456692912
 30
0.0
 10
-12.218507874015749
 20
7.6713346456692912
 30
0.0
 10
-12.22992125984252
 20
7.2046968503937014
 30
0.0
 10
-12.055496062992127
 20
6.7526377952755912
 30
0.0
 10
-11.733602362204724
 20
6.4146062992125987
 30
0.0
 10
-11.733602362204724
 20
6.4146062992125987
 30
0.0
 10
-11.411720472440946
 20
6.0765787401574807
 30
0.0
 10
-10.968720472440946
 20
5.8802598425196857
 30
0.0
 10
-10.502082677165355
 20
5.8688464566929133
 30
0.0
 10
-10.502082677165355
 20
5.8688464566929133
 30
0.0
 10
-10.502082677165355
 20
5.8688464566929133
 30
0.0
 10
-6.8010629921259849
 20
5.8694251968503943
 30
0.0
 10
-6.8010629921259849
 20
5.8694251968503943
 30
0.0
 10
-6.8010629921259849
 20
5.8694251968503943
 30
0.0
 10
-6.8010629921259849
 20
5.8694251968503943
 30
0.0
 10
-4.3934251968503935
 20
5.8697992125984255
 30
0.0
 10
-4.3934251968503935
 20
5.8697992125984255
 30
0.0
 10
-4.3934251968503935
 20
5.8697992125984255
 30
0.0
 10
-4.3934251968503935
 20
5.8697992125984255
 30
0.0
 10
-4.3936811023622049
 20
7.50838188976378
 30
0.0
 10
-4.3936811023622049
 20
7.50838188976378
 30
0.0
 10
-4.3936811023622049
 20
7.50838188976378
 30
0.0
 10
-4.3936811023622049
 20
7.5670905511811029
 30
0.0
 10
-4.346102362204725
 20
7.6146850393700793
 30
0.0
 10
-4.2873937007874021
 20
7.6146929133858272
 30
0.0
 10
-4.2873937007874021
 20
7.6146929133858272
 30
0.0
 10
-4.2286889763779527
 20
7.6147047244094495
 30
0.0
 10
-4.1810787401574805
 20
7.5671181102362208
 30
0.0
 10
-4.1810787401574805
 20
7.5084094488188979
 30
0.0
 10
-4.1810787401574805
 20
7.5084094488188979
 30
0.0
 10
-4.1810787401574805
 20
7.5084094488188979
 30
0.0
 10
-4.1808228346456691
 20
5.8698307086614179
 30
0.0
 10
-4.1808228346456691
 20
5.8698307086614179
 30
0.0
 10
-4.1808228346456691
 20
5.8698307086614179
 30
0.0
 10
-4.1808228346456691
 20
5.8698307086614179
 30
0.0
 10
-0.9721614173228347
 20
5.8703307086614176
 30
0.0
 10
-0.9721614173228347
 20
5.8703307086614176
 30
0.0
 10
-0.9721614173228347
 20
5.8703307086614176
 30
0.0
 10
-0.9721614173228347
 20
5.8703307086614176
 30
0.0
 10
1.978228346456693
 20
5.8707874015748036
 30
0.0
 10
1.978228346456693
 20
5.8707874015748036
 30
0.0
 10
1.978228346456693
 20
5.8707874015748036
 30
0.0
 10
2.4446574803149606
 20
5.8593779527559056
 30
0.0
 10
2.8965118110236223
 20
6.0337165354330713
 30
0.0
 10
3.2343976377952757
 20
6.3554606299212599
 30
0.0
 10
3.2343976377952757
 20
6.3554606299212599
 30
0.0
 10
3.5722834645669295
 20
6.6772047244094495
 30
0.0
 10
3.7685157480314961
 20
7.1199960629921266
 30
0.0
 10
3.7799291338582677
 20
7.5864212598425196
 30
0.0
 10
3.7799291338582677
 20
7.5864212598425196
 30
0.0
 10
3.7913425196850397
 20
8.0528503937007869
 30
0.0
 10
3.617
 20
8.5047086614173235
 30
0.0
 10
3.2952559055118114
 20
8.8425944881889773
 30
0.0
 10
3.2952559055118114
 20
8.8425944881889773
 30
0.0
 10
2.9735118110236223
 20
9.1804842519685046
 30
0.0
 10
2.5307204724409451
 20
9.3767125984251969
 30
0.0
 10
2.0642913385826773
 20
9.388122047244094
 30
0.0
 10
2.0642913385826773
 20
9.388122047244094
 30
0.0
 10
2.03544094488189
 20
9.3893661417322836
 30
0.0
 10
2.0065590551181103
 20
9.3898818897637799
 30
0.0
 10
1.9776811023622047
 20
9.3896850393700788
 30
0.0
 10
1.9776811023622047
 20
9.3896850393700788
 30
0.0
 10
1.9776811023622047
 20
9.3896850393700788
 30
0.0
 10
1.3139015748031497
 20
9.3895866141732292
 30
0.0
 10
1.3139015748031497
 20
9.3895866141732292
 30
0.0
 10
1.3139015748031497
 20
9.3895866141732292
 30
0.0
 10
1.3139015748031497
 20
9.3895866141732292
 30
0.0
 10
1.3141692913385827
 20
7.6667480314960637
 30
0.0
 10
1.3141692913385827
 20
7.6667480314960637
 30
0.0
 10
1.3141692913385827
 20
7.6667480314960637
 30
0.0
 10
1.3141692913385827
 20
7.6080433070866142
 30
0.0
 10
1.2665905511811024
 20
7.5604409448818899
 30
0.0
 10
1.2078858267716537
 20
7.560433070866142
 30
0.0
 10
1.2078858267716537
 20
7.560433070866142
 30
0.0
 10
1.1491771653543308
 20
7.5604251968503942
 30
0.0
 10
1.1015708661417323
 20
7.6080078740157484
 30
0.0
 10
1.1015708661417323
 20
7.6667165354330713
 30
0.0
 10
1.1015708661417323
 20
7.6667165354330713
 30
0.0
 10
1.1015708661417323
 20
7.6667165354330713
 30
0.0
 10
1.1013031496062993
 20
9.3895551181102359
 30
0.0
 10
1.1013031496062993
 20
9.3895551181102359
 30
0.0
 10
1.1013031496062993
 20
9.3895551181102359
 30
0.0
 10
1.1013031496062993
 20
9.3895551181102359
 30
0.0
 10
-0.8908228346456694
 20
9.3892401574803159
 30
0.0
 10
-0.8908228346456694
 20
9.3892401574803159
 30
0.0
 10
-0.8908228346456694
 20
9.3892401574803159
 30
0.0
 10
-0.8908228346456694
 20
9.3892401574803159
 30
0.0
 10
-0.8905551181102362
 20
7.6664055118110239
 30
0.0
 10
-0.8905551181102362
 20
7.6664055118110239
 30
0.0
 10
-0.8905551181102362
 20
7.6664055118110239
 30
0.0
 10
-0.8905551181102362
 20
7.6382125984251967
 30
0.0
 10
-0.9016417322834646
 20
7.6111535433070872
 30
0.0
 10
-0.9215393700787402
 20
7.5911771653543312
 30
0.0
 10
-0.9215393700787402
 20
7.5911771653543312
 30
0.0
 10
-0.9414330708661418
 20
7.5712047244094487
 30
0.0
 10
-0.9684488188976378
 20
7.559948818897638
 30
0.0
 10
-0.9966417322834646
 20
7.5598937007874021
 30
0.0
 10
-0.9966417322834646
 20
7.5598937007874021
 30
0.0
 10
-1.0248582677165354
 20
7.5598661417322841
 30
0.0
 10
-1.0519330708661419
 20
7.5710433070866143
 30
0.0
 10
-1.0719094488188976
 20
7.5909763779527566
 30
0.0
 10
-1.0719094488188976
 20
7.5909763779527566
 30
0.0
 10
-1.0918818897637796
 20
7.610909448818898
 30
0.0
 10
-1.1031496062992125
 20
7.6379606299212606
 30
0.0
 10
-1.1031496062992125
 20
7.6661771653543314
 30
0.0
 10
-1.1031496062992125
 20
7.6661771653543314
 30
0.0
 10
-1.1031496062992125
 20
7.6661771653543314
 30
0.0
 10
-1.1065708661417324
 20
9.3891141732283465
 30
0.0
 10
-1.1065708661417324
 20
9.3891141732283465
 30
0.0
 10
-1.1065708661417324
 20
9.3891141732283465
 30
0.0
 10
-2.0536023622047246
 20
9.3743503937007873
 30
0.0
 10
-2.8247125984251968
 20
8.6234291338582683
 30
0.0
 10
-2.8646023622047245
 20
7.6771220472440946
 30
0.0
 10
-2.8646023622047245
 20
7.6771220472440946
 30
0.0
 10
-2.8662952755905513
 20
7.6348858267716535
 30
0.0
 10
-2.9010275590551182
 20
7.6015157480314963
 30
0.0
 10
-2.9432992125984252
 20
7.6015157480314963
 30
0.0
 10
-2.9432992125984252
 20
7.6015157480314963
 30
0.0
 10
-2.9432992125984252
 20
7.6015157480314963
 30
0.0
 10
-2.9448740157480318
 20
7.6015196850393707
 30
0.0
 10
-2.9448740157480318
 20
7.6015196850393707
 30
0.0
 10
-2.9448740157480318
 20
7.6015196850393707
 30
0.0
 10
-2.9657598425196849
 20
7.6015157480314963
 30
0.0
 10
-2.9857874015748034
 20
7.6098070866141736
 30
0.0
 10
-3.0005551181102361
 20
7.6245708661417328
 30
0.0
 10
-3.0005551181102361
 20
7.6245708661417328
 30
0.0
 10
-3.0153228346456693
 20
7.6393385826771656
 30
0.0
 10
-3.0236259842519688
 20
7.6593622047244097
 30
0.0
 10
-3.0236259842519688
 20
7.6802440944881889
 30
0.0
 10
-3.0236259842519688
 20
7.6802440944881889
 30
0.0
 10
-3.0236259842519688
 20
7.6802440944881889
 30
0.0
 10
-3.0238897637795277
 20
9.3747322834645672
 30
0.0
 10
-3.0238897637795277
 20
9.3747322834645672
 30
0.0
 10
-3.0238897637795277
 20
9.3747322834645672
 30
0.0
 10
-3.0238897637795277
 20
9.3747322834645672
 30
0.0
 10
-5.5514527559055118
 20
9.3885157480314962
 30
0.0
 10
-5.5514527559055118
 20
9.3885157480314962
 30
0.0
 10
-5.5514527559055118
 20
9.3885157480314962
 30
0.0
 10
-5.5514527559055118
 20
9.3885157480314962
 30
0.0
 10
-5.5511889763779534
 20
7.679854330708662
 30
0.0
 10
-5.5511889763779534
 20
7.679854330708662
 30
0.0
 10
-5.5511889763779534
 20
7.679854330708662
 30
0.0
 10
-5.5511889763779534
 20
7.6589724409448818
 30
0.0
 10
-5.5594724409448819
 20
7.6389409448818899
 30
0.0
 10
-5.5742401574803155
 20
7.6241692913385828
 30
0.0
 10
-5.5742401574803155
 20
7.6241692913385828
 30
0.0
 10
-5.5890039370078739
 20
7.6094055118110235
 30
0.0
 10
-5.6090314960629923
 20
7.6011023622047249
 30
0.0
 10
-5.6299133858267716
 20
7.6010984251968505
 30
0.0
 10
-5.6299133858267716
 20
7.6010984251968505
 30
0.0
 10
-5.6299133858267716
 20
7.6010984251968505
 30
0.0
 10
-5.6330629921259847
 20
7.6011062992125984
 30
0.0
 10
-5.6330629921259847
 20
7.6011062992125984
 30
0.0
 10
-5.6330629921259847
 20
7.6011062992125984
 30
0.0
 10
-5.6753503937007874
 20
7.6010629921259847
 30
0.0
 10
-5.7101259842519685
 20
7.6344212598425196
 30
0.0
 10
-5.7118267716535431
 20
7.6766771653543309
 30
0.0
 10
-5.7118267716535431
 20
7.6766771653543309
 30
0.0
 10
-5.7520039370078742
 20
8.6229606299212609
 30
0.0
 10
-6.5233267716535437
 20
9.3736259842519694
 30
0.0
 10
-7.4703464566929139
 20
9.3881102362204736
 30
0.0
 10
-7.4703464566929139
 20
9.3881102362204736
 30
0.0
 10
-7.4703464566929139
 20
9.3881102362204736
 30
0.0
 10
-7.4708661417322837
 20
7.66538188976378
 30
0.0
 10
-7.4708661417322837
 20
7.66538188976378
 30
0.0
 10
-7.4708661417322837
 20
7.66538188976378
 30
0.0
 10
-7.4708661417322837
 20
7.6064566929133859
 30
0.0
 10
-7.5186181102362211
 20
7.5586811023622049
 30
0.0
 10
-7.5775433070866143
 20
7.5586692913385827
 30
0.0
 10
-7.5775433070866143
 20
7.5586692913385827
 30
0.0
 10
-7.6364685039370084
 20
7.5586614173228348
 30
0.0
 10
-7.6842559055118116
 20
7.60642125984252
 30
0.0
 10
-7.6842559055118116
 20
7.6653464566929133
 30
0.0
 10
-7.6842559055118116
 20
7.6653464566929133
 30
0.0
 10
-7.6842559055118116
 20
7.6653464566929133
 30
0.0
 10
-7.6845236220472444
 20
9.3881850393700788
 30
0.0
 10
-7.6845236220472444
 20
9.3881850393700788
 30
0.0
 10
-7.6845236220472444
 20
9.3881850393700788
 30
0.0
 10
-7.6845236220472444
 20
9.3881850393700788
 30
0.0
 10
-9.5380708661417319
 20
9.3878976377952768
 30
0.0
 10
-9.5380708661417319
 20
9.3878976377952768
 30
0.0
 10
-9.5380708661417319
 20
9.3878976377952768
 30
0.0
 10
-9.5380708661417319
 20
9.3878976377952768
 30
0.0
 10
-9.5377992125984257
 20
7.6650629921259847
 30
0.0
 10
-9.5377992125984257
 20
7.6650629921259847
 30
0.0
 10
-9.5377992125984257
 20
7.6650629921259847
 30
0.0
 10
-9.5377992125984257
 20
7.6063543307086618
 30
0.0
 10
-9.5853740157480321
 20
7.5587519685039375
 30
0.0
 10
-9.6440787401574806
 20
7.5587440944881896
 30
0.0
 10
-9.6440787401574806
 20
7.5587440944881896
 30
0.0
 10
-9.7027913385826778
 20
7.5587362204724409
 30
0.0
 10
-9.7503937007874022
 20
7.606318897637796
 30
0.0
 10
-9.7503937007874022
 20
7.665027559055118
 30
0.0
  0
SPLINE
  5
30
100
AcDbEntity
  8
Layer 1
370
     0
100
AcDbSpline
210
0.0
220
0.0
230
1.0
 70
     1
 71
     3
 72
   168
 73
   164
 74
     0
 42
0.0000000001
 43
0.0000000001
 40
0.0
 40
0.0
 40
0.0
 40
0.0
 40
0.024390243902439
 40
0.024390243902439
 40
0.024390243902439
 40
0.024390243902439
 40
0.0487804878048781
 40
0.0487804878048781
 40
0.0487804878048781
 40
0.0487804878048781
 40
0.0731707317073171
 40
0.0731707317073171
 40
0.0731707317073171
 40
0.0731707317073171
 40
0.0975609756097561
 40
0.0975609756097561
 40
0.0975609756097561
 40
0.0975609756097561
 40
0.1219512195121951
 40
0.1219512195121951
 40
0.1219512195121951
 40
0.1219512195121951
 40
0.1463414634146341
 40
0.1463414634146341
 40
0.1463414634146341
 40
0.1463414634146341
 40
0.1707317073170732
 40
0.1707317073170732
 40
0.1707317073170732
 40
0.1707317073170732
 40
0.1951219512195122
 40
0.1951219512195122
 40
0.1951219512195122
 40
0.1951219512195122
 40
0.2195121951219512
 40
0.2195121951219512
 40
0.2195121951219512
 40
0.2195121951219512
 40
0.2439024390243902
 40
0.2439024390243902
 40
0.2439024390243902
 40
0.2439024390243902
 40
0.2682926829268292
 40
0.2682926829268292
 40
0.2682926829268292
 40
0.2682926829268292
 40
0.2926829268292683
 40
0.2926829268292683
 40
0.2926829268292683
 40
0.2926829268292683
 40
0.3170731707317073
 40
0.3170731707317073
 40
0.3170731707317073
 40
0.3170731707317073
 40
0.3414634146341464
 40
0.3414634146341464
 40
0.3414634146341464
 40
0.3414634146341464
 40
0.3658536585365854
 40
0.3658536585365854
 40
0.3658536585365854
 40
0.3658536585365854
 40
0.3902439024390245
 40
0.3902439024390245
 40
0.3902439024390245
 40
0.3902439024390245
 40
0.4146341463414635
 40
0.4146341463414635
 40
0.4146341463414635
 40
0.4146341463414635
 40
0.4390243902439026
 40
0.4390243902439026
 40
0.4390243902439026
 40
0.4390243902439026
 40
0.4634146341463416
 40
0.4634146341463416
 40
0.4634146341463416
 40
0.4634146341463416
 40
0.4878048780487806
 40
0.4878048780487806
 40
0.4878048780487806
 40
0.4878048780487806
 40
0.5121951219512196
 40
0.5121951219512196
 40
0.5121951219512196
 40
0.5121951219512196
 40
0.5365853658536587
 40
0.5365853658536587
 40
0.5365853658536587
 40
0.5365853658536587
 40
0.5609756097560977
 40
0.5609756097560977
 40
0.5609756097560977
 40
0.5609756097560977
 40
0.5853658536585368
 40
0.5853658536585368
 40
0.5853658536585368
 40
0.5853658536585368
 40
0.6097560975609758
 40
0.6097560975609758
 40
0.6097560975609758
 40
0.6097560975609758
 40
0.6341463414634149
 40
0.6341463414634149
 40
0.6341463414634149
 40
0.6341463414634149
 40
0.6585365853658539
 40
0.6585365853658539
 40
0.6585365853658539
 40
0.6585365853658539
 40
0.682926829268293
 40
0.682926829268293
 40
0.682926829268293
 40
0.682926829268293
 40
0.707317073170732
 40
0.707317073170732
 40
0.707317073170732
 40
0.707317073170732
 40
0.7317073170731711
 40
0.7317073170731711
 40
0.7317073170731711
 40
0.7317073170731711
 40
0.7560975609756101
 40
0.7560975609756101
 40
0.7560975609756101
 40
0.7560975609756101
 40
0.7804878048780491
 40
0.7804878048780491
 40
0.7804878048780491
 40
0.7804878048780491
 40
0.8048780487804882
 40
0.8048780487804882
 40
0.8048780487804882
 40
0.8048780487804882
 40
0.8292682926829272
 40
0.8292682926829272
 40
0.8292682926829272
 40
0.8292682926829272
 40
0.8536585365853663
 40
0.8536585365853663
 40
0.8536585365853663
 40
0.8536585365853663
 40
0.8780487804878053
 40
0.8780487804878053
 40
0.8780487804878053
 40
0.8780487804878053
 40
0.9024390243902444
 40
0.9024390243902444
 40
0.9024390243902444
 40
0.9024390243902444
 40
0.9268292682926834
 40
0.9268292682926834
 40
0.9268292682926834
 40
0.9268292682926834
 40
0.9512195121951225
 40
0.9512195121951225
 40
0.9512195121951225
 40
0.9512195121951225
 40
0.9756097560975615
 40
0.9756097560975615
 40
0.9756097560975615
 40
0.9756097560975615
 40
1.0
 40
1.0
 40
1.0
 40
1.0
 10
5.0051456692913385
 20
-0.7960629921259843
 30
0.0
 10
4.9034488188976377
 20
-0.7866535433070866
 30
0.0
 10
4.8118976377952754
 20
-0.7305157480314961
 30
0.0
 10
4.7573897637795275
 20
-0.6441456692913387
 30
0.0
 10
4.7573897637795275
 20
-0.6441456692913387
 30
0.0
 10
4.702885826771654
 20
-0.5577755905511811
 30
0.0
 10
4.6916062992125989
 20
-0.45098031496063
 30
0.0
 10
4.7268779527559053
 20
-0.3551299212598426
 30
0.0
 10
4.7268779527559053
 20
-0.3551299212598426
 30
0.0
 10
4.7268779527559053
 20
-0.3551299212598426
 30
0.0
 10
5.0631496062992127
 20
0.7511889763779528
 30
0.0
 10
5.0631496062992127
 20
0.7511889763779528
 30
0.0
 10
5.0631496062992127
 20
0.7511889763779528
 30
0.0
 10
5.0631496062992127
 20
0.7511889763779528
 30
0.0
 10
5.3994330708661415
 20
1.857507874015748
 30
0.0
 10
5.3994330708661415
 20
1.857507874015748
 30
0.0
 10
5.3994330708661415
 20
1.857507874015748
 30
0.0
 10
5.5342480314960634
 20
2.1833503937007874
 30
0.0
 10
5.8555787401574806
 20
2.3927362204724409
 30
0.0
 10
6.2081141732283465
 20
2.3844566929133859
 30
0.0
 10
6.2081141732283465
 20
2.3844566929133859
 30
0.0
 10
6.2567559055118114
 20
2.2349291338582677
 30
0.0
 10
6.2621023622047245
 20
2.0746850393700789
 30
0.0
 10
6.2235314960629919
 20
1.922248031496063
 30
0.0
 10
6.2235314960629919
 20
1.922248031496063
 30
0.0
 10
6.2235314960629919
 20
1.922248031496063
 30
0.0
 10
5.8159960629921263
 20
1.2851062992125986
 30
0.0
 10
5.8159960629921263
 20
1.2851062992125986
 30
0.0
 10
5.8159960629921263
 20
1.2851062992125986
 30
0.0
 10
5.8159960629921263
 20
1.2851062992125986
 30
0.0
 10
5.5054448818897637
 20
0.6081338582677166
 30
0.0
 10
5.5054448818897637
 20
0.6081338582677166
 30
0.0
 10
5.5054448818897637
 20
0.6081338582677166
 30
0.0
 10
5.5054448818897637
 20
0.6081338582677166
 30
0.0
 10
5.5103188976377959
 20
0.6187913385826772
 30
0.0
 10
5.5103188976377959
 20
0.6187913385826772
 30
0.0
 10
5.5103188976377959
 20
0.6187913385826772
 30
0.0
 10
5.4960433070866141
 20
0.5932125984251969
 30
0.0
 10
5.493118110236221
 20
0.5628267716535433
 30
0.0
 10
5.5022637795275591
 20
0.535
 30
0.0
 10
5.5022637795275591
 20
0.535
 30
0.0
 10
5.5114055118110237
 20
0.5071692913385827
 30
0.0
 10
5.531775590551181
 20
0.4844330708661417
 30
0.0
 10
5.5584409448818901
 20
0.4723070866141733
 30
0.0
 10
5.5584409448818901
 20
0.4723070866141733
 30
0.0
 10
5.5851732283464566
 20
0.4602007874015748
 30
0.0
 10
5.6157480314960635
 20
0.4598307086614173
 30
0.0
 10
5.6427637795275594
 20
0.4712952755905512
 30
0.0
 10
5.6427637795275594
 20
0.4712952755905512
 30
0.0
 10
5.6697795275590552
 20
0.482755905511811
 30
0.0
 10
5.6907637795275594
 20
0.505
 30
0.0
 10
5.7006338582677172
 20
0.5326338582677166
 30
0.0
 10
5.7006338582677172
 20
0.5326338582677166
 30
0.0
 10
5.7006338582677172
 20
0.5326338582677166
 30
0.0
 10
6.3029960629921264
 20
1.547492125984252
 30
0.0
 10
6.3029960629921264
 20
1.547492125984252
 30
0.0
 10
6.3029960629921264
 20
1.547492125984252
 30
0.0
 10
6.3440511811023628
 20
1.5658622047244095
 30
0.0
 10
6.3909960629921265
 20
1.5658188976377954
 30
0.0
 10
6.4320157480314961
 20
1.5473740157480316
 30
0.0
 10
6.4320157480314961
 20
1.5473740157480316
 30
0.0
 10
6.4730393700787401
 20
1.5289251968503939
 30
0.0
 10
6.5042244094488195
 20
1.4938307086614173
 30
0.0
 10
6.5177204724409448
 20
1.4509291338582677
 30
0.0
 10
6.5177204724409448
 20
1.4509291338582677
 30
0.0
 10
6.5177204724409448
 20
1.4509291338582677
 30
0.0
 10
6.6707716535433077
 20
0.9608188976377953
 30
0.0
 10
6.6707716535433077
 20
0.9608188976377953
 30
0.0
 10
6.6707716535433077
 20
0.9608188976377953
 30
0.0
 10
6.6707716535433077
 20
0.9608188976377953
 30
0.0
 10
7.3610629921259845
 20
0.9114724409448819
 30
0.0
 10
7.3610629921259845
 20
0.9114724409448819
 30
0.0
 10
7.3610629921259845
 20
0.9114724409448819
 30
0.0
 10
7.3610629921259845
 20
0.9114724409448819
 30
0.0
 10
8.1536692913385824
 20
0.8548937007874016
 30
0.0
 10
8.1536692913385824
 20
0.8548937007874016
 30
0.0
 10
8.1536692913385824
 20
0.8548937007874016
 30
0.0
 10
8.1536692913385824
 20
0.8548937007874016
 30
0.0
 10
8.9584724409448828
 20
1.6208700787401575
 30
0.0
 10
8.9584724409448828
 20
1.6208700787401575
 30
0.0
 10
8.9584724409448828
 20
1.6208700787401575
 30
0.0
 10
8.9938307086614184
 20
1.6609133858267717
 30
0.0
 10
9.0470826771653545
 20
1.6802834645669291
 30
0.0
 10
9.0999055118110235
 20
1.6723110236220473
 30
0.0
 10
9.0999055118110235
 20
1.6723110236220473
 30
0.0
 10
9.1527283464566924
 20
1.6643385826771655
 30
0.0
 10
9.197893700787402
 20
1.6301181102362206
 30
0.0
 10
9.219862204724409
 20
1.5814251968503938
 30
0.0
 10
9.219862204724409
 20
1.5814251968503938
 30
0.0
 10
9.219862204724409
 20
1.5814251968503938
 30
0.0
 10
9.1733858267716535
 20
1.4285275590551181
 30
0.0
 10
9.1733858267716535
 20
1.4285275590551181
 30
0.0
 10
9.1733858267716535
 20
1.4285275590551181
 30
0.0
 10
9.1733858267716535
 20
1.4285275590551181
 30
0.0
 10
8.7689803149606309
 20
0.4717125984251969
 30
0.0
 10
8.7689803149606309
 20
0.4717125984251969
 30
0.0
 10
8.7689803149606309
 20
0.4717125984251969
 30
0.0
 10
8.7570196850393707
 20
0.446240157480315
 30
0.0
 10
8.7557244094488187
 20
0.4170472440944882
 30
0.0
 10
8.7653740157480318
 20
0.3906141732283465
 30
0.0
 10
8.7653740157480318
 20
0.3906141732283465
 30
0.0
 10
8.7750275590551183
 20
0.3641850393700787
 30
0.0
 10
8.7948267716535433
 20
0.3426968503937008
 30
0.0
 10
8.8203818897637802
 20
0.3309212598425197
 30
0.0
 10
8.8203818897637802
 20
0.3309212598425197
 30
0.0
 10
8.8458070866141743
 20
0.3190984251968504
 30
0.0
 10
8.8749015748031503
 20
0.3179094488188977
 30
0.0
 10
8.9012007874015744
 20
0.3276181102362205
 30
0.0
 10
8.9012007874015744
 20
0.3276181102362205
 30
0.0
 10
8.9275118110236225
 20
0.3373307086614173
 30
0.0
 10
8.9488503937007877
 20
0.3571377952755906
 30
0.0
 10
8.9604921259842527
 20
0.3826456692913386
 30
0.0
 10
8.9604921259842527
 20
0.3826456692913386
 30
0.0
 10
8.9604921259842527
 20
0.3826456692913386
 30
0.0
 10
9.4148543307086623
 20
1.3687637795275591
 30
0.0
 10
9.4148543307086623
 20
1.3687637795275591
 30
0.0
 10
9.4148543307086623
 20
1.3687637795275591
 30
0.0
 10
9.4148543307086623
 20
1.3687637795275591
 30
0.0
 10
9.5625984251968514
 20
1.8548188976377953
 30
0.0
 10
9.5625984251968514
 20
1.8548188976377953
 30
0.0
 10
9.5625984251968514
 20
1.8548188976377953
 30
0.0
 10
9.6244409448818899
 20
1.945984251968504
 30
0.0
 10
9.7004527559055127
 20
2.0266732283464566
 30
0.0
 10
9.7877677165354342
 20
2.0938307086614172
 30
0.0
 10
9.7877677165354342
 20
2.0938307086614172
 30
0.0
 10
10.121622047244095
 20
1.8521023622047246
 30
0.0
 10
10.225027559055118
 20
1.4006062992125985
 30
0.0
 10
10.029665354330708
 20
1.0376653543307086
 30
0.0
 10
10.029665354330708
 20
1.0376653543307086
 30
0.0
 10
10.013456692913387
 20
1.0035078740157481
 30
0.0
 10
9.9953740157480322
 20
0.970263779527559
 30
0.0
 10
9.975507874015749
 20
0.9380944881889765
 30
0.0
 10
9.975507874015749
 20
0.9380944881889765
 30
0.0
 10
9.910456692913387
 20
0.8225275590551181
 30
0.0
 10
9.829515748031497
 20
0.7166535433070866
 30
0.0
 10
9.7350629921259841
 20
0.6235590551181103
 30
0.0
 10
9.7350629921259841
 20
0.6235590551181103
 30
0.0
 10
9.7350629921259841
 20
0.6235590551181103
 30
0.0
 10
8.8158385826771664
 20
-0.7273346456692914
 30
0.0
 10
8.8158385826771664
 20
-0.7273346456692914
 30
0.0
 10
8.8158385826771664
 20
-0.7273346456692914
 30
0.0
 10
8.6965354330708671
 20
-0.9771732283464567
 30
0.0
 10
8.4095354330708663
 20
-1.0986850393700789
 30
0.0
 10
8.1471023622047252
 20
-1.01046062992126
 30
0.0
 10
8.1471023622047252
 20
-1.01046062992126
 30
0.0
 10
8.1471023622047252
 20
-1.01046062992126
 30
0.0
 10
8.3809960629921267
 20
-0.5523622047244094
 30
0.0
 10
8.3809960629921267
 20
-0.5523622047244094
 30
0.0
 10
8.3809960629921267
 20
-0.5523622047244094
 30
0.0
 10
8.3809960629921267
 20
-0.5523622047244094
 30
0.0
 10
7.9658897637795283
 20
0.2371299212598425
 30
0.0
 10
7.9658897637795283
 20
0.2371299212598425
 30
0.0
 10
7.9658897637795283
 20
0.2371299212598425
 30
0.0
 10
7.9658897637795283
 20
0.2371299212598425
 30
0.0
 10
6.4829921259842518
 20
0.3430590551181103
 30
0.0
 10
6.4829921259842518
 20
0.3430590551181103
 30
0.0
 10
6.4829921259842518
 20
0.3430590551181103
 30
0.0
 10
6.4829921259842518
 20
0.3430590551181103
 30
0.0
 10
5.2309763779527563
 20
-0.3536417322834646
 30
0.0
 10
5.2309763779527563
 20
-0.3536417322834646
 30
0.0
 10
5.2309763779527563
 20
-0.3536417322834646
 30
0.0
 10
5.2309763779527563
 20
-0.3536417322834646
 30
0.0
 10
5.0051456692913385
 20
-0.7960629921259843
 30
0.0
 10
5.0051456692913385
 20
-0.7960629921259843
 30
0.0
  0
SPLINE
  5
31
100
AcDbEntity
  8
Layer 1
370
     0
100
AcDbSpline
210
0.0
220
0.0
230
1.0
 70
     1
 71
     3
 72
   168
 73
   164
 74
     0
 42
0.0000000001
 43
0.0000000001
 40
0.0
 40
0.0
 40
0.0
 40
0.0
 40
0.024390243902439
 40
0.024390243902439
 40
0.024390243902439
 40
0.024390243902439
 40
0.0487804878048781
 40
0.0487804878048781
 40
0.0487804878048781
 40
0.0487804878048781
 40
0.0731707317073171
 40
0.0731707317073171
 40
0.0731707317073171
 40
0.0731707317073171
 40
0.0975609756097561
 40
0.0975609756097561
 40
0.0975609756097561
 40
0.0975609756097561
 40
0.1219512195121951
 40
0.1219512195121951
 40
0.1219512195121951
 40
0.1219512195121951
 40
0.1463414634146341
 40
0.1463414634146341
 40
0.1463414634146341
 40
0.1463414634146341
 40
0.1707317073170732
 40
0.1707317073170732
 40
0.1707317073170732
 40
0.1707317073170732
 40
0.1951219512195122
 40
0.1951219512195122
 40
0.1951219512195122
 40
0.1951219512195122
 40
0.2195121951219512
 40
0.2195121951219512
 40
0.2195121951219512
 40
0.2195121951219512
 40
0.2439024390243902
 40
0.2439024390243902
 40
0.2439024390243902
 40
0.2439024390243902
 40
0.2682926829268292
 40
0.2682926829268292
 40
0.2682926829268292
 40
0.2682926829268292
 40
0.2926829268292683
 40
0.2926829268292683
 40
0.2926829268292683
 40
0.2926829268292683
 40
0.3170731707317073
 40
0.3170731707317073
 40
0.3170731707317073
 40
0.3170731707317073
 40
0.3414634146341464
 40
0.3414634146341464
 40
0.3414634146341464
 40
0.3414634146341464
 40
0.3658536585365854
 40
0.3658536585365854
 40
0.3658536585365854
 40
0.3658536585365854
 40
0.3902439024390245
 40
0.3902439024390245
 40
0.3902439024390245
 40
0.3902439024390245
 40
0.4146341463414635
 40
0.4146341463414635
 40
0.4146341463414635
 40
0.4146341463414635
 40
0.4390243902439026
 40
0.4390243902439026
 40
0.4390243902439026
 40
0.4390243902439026
 40
0.4634146341463416
 40
0.4634146341463416
 40
0.4634146341463416
 40
0.4634146341463416
 40
0.4878048780487806
 40
0.4878048780487806
 40
0.4878048780487806
 40
0.4878048780487806
 40
0.5121951219512196
 40
0.5121951219512196
 40
0.5121951219512196
 40
0.5121951219512196
 40
0.5365853658536587
 40
0.5365853658536587
 40
0.5365853658536587
 40
0.5365853658536587
 40
0.5609756097560977
 40
0.5609756097560977
 40
0.5609756097560977
 40
0.5609756097560977
 40
0.5853658536585368
 40
0.5853658536585368
 40
0.5853658536585368
 40
0.5853658536585368
 40
0.6097560975609758
 40
0.6097560975609758
 40
0.6097560975609758
 40
0.6097560975609758
 40
0.6341463414634149
 40
0.6341463414634149
 40
0.6341463414634149
 40
0.6341463414634149
 40
0.6585365853658539
 40
0.6585365853658539
 40
0.6585365853658539
 40
0.6585365853658539
 40
0.682926829268293
 40
0.682926829268293
 40
0.682926829268293
 40
0.682926829268293
 40
0.707317073170732
 40
0.707317073170732
 40
0.707317073170732
 40
0.707317073170732
 40
0.7317073170731711
 40
0.7317073170731711
 40
0.7317073170731711
 40
0.7317073170731711
 40
0.7560975609756101
 40
0.7560975609756101
 40
0.7560975609756101
 40
0.7560975609756101
 40
0.7804878048780491
 40
0.7804878048780491
 40
0.7804878048780491
 40
0.7804878048780491
 40
0.8048780487804882
 40
0.8048780487804882
 40
0.8048780487804882
 40
0.8048780487804882
 40
0.8292682926829272
 40
0.8292682926829272
 40
0.8292682926829272
 40
0.8292682926829272
 40
0.8536585365853663
 40
0.8536585365853663
 40
0.8536585365853663
 40
0.8536585365853663
 40
0.8780487804878053
 40
0.8780487804878053
 40
0.8780487804878053
 40
0.8780487804878053
 40
0.9024390243902444
 40
0.9024390243902444
 40
0.9024390243902444
 40
0.9024390243902444
 40
0.9268292682926834
 40
0.9268292682926834
 40
0.9268292682926834
 40
0.9268292682926834
 40
0.9512195121951225
 40
0.9512195121951225
 40
0.9512195121951225
 40
0.9512195121951225
 40
0.9756097560975615
 40
0.9756097560975615
 40
0.9756097560975615
 40
0.9756097560975615
 40
1.0
 40
1.0
 40
1.0
 40
1.0
 10
7.3799724409448819
 20
-9.3220826771653549
 30
0.0
 10
7.3799763779527563
 20
-9.3220826771653549
 30
0.0
 10
7.5549251968503937
 20
-8.8571929133858269
 30
0.0
 10
7.5549251968503937
 20
-8.8571929133858269
 30
0.0
 10
7.5549251968503937
 20
-8.8571929133858269
 30
0.0
 10
7.5549251968503937
 20
-8.8571929133858269
 30
0.0
 10
8.7211889763779524
 20
-8.0248700787401575
 30
0.0
 10
8.7211889763779524
 20
-8.0248700787401575
 30
0.0
 10
8.7211889763779524
 20
-8.0248700787401575
 30
0.0
 10
8.7211889763779524
 20
-8.0248700787401575
 30
0.0
 10
10.206637795275592
 20
-7.9643267716535435
 30
0.0
 10
10.206637795275592
 20
-7.9643267716535435
 30
0.0
 10
10.206637795275592
 20
-7.9643267716535435
 30
0.0
 10
10.206637795275592
 20
-7.9643267716535435
 30
0.0
 10
10.707409448818899
 20
-8.7024566929133869
 30
0.0
 10
10.707409448818899
 20
-8.7024566929133869
 30
0.0
 10
10.707409448818899
 20
-8.7024566929133869
 30
0.0
 10
10.707409448818899
 20
-8.7024566929133869
 30
0.0
 10
10.52620472440945
 20
-9.1838425196850402
 30
0.0
 10
10.52620472440945
 20
-9.1838425196850402
 30
0.0
 10
10.52620472440945
 20
-9.1838425196850402
 30
0.0
 10
10.796854330708662
 20
-9.2421692913385822
 30
0.0
 10
11.068464566929133
 20
-9.0893267716535444
 30
0.0
 10
11.159082677165355
 20
-8.8277125984251974
 30
0.0
 10
11.159082677165355
 20
-8.8277125984251974
 30
0.0
 10
11.159082677165355
 20
-8.8277125984251974
 30
0.0
 10
11.921511811023622
 20
-7.3825118110236225
 30
0.0
 10
11.921511811023622
 20
-7.3825118110236225
 30
0.0
 10
11.921511811023622
 20
-7.3825118110236225
 30
0.0
 10
12.004964566929134
 20
-7.2794409448818902
 30
0.0
 10
12.073551181102363
 20
-7.1651811023622054
 30
0.0
 10
12.125279527559055
 20
-7.0430629921259849
 30
0.0
 10
12.125279527559055
 20
-7.0430629921259849
 30
0.0
 10
12.141425196850394
 20
-7.0088779527559062
 30
0.0
 10
12.155673228346457
 20
-6.9738188976377957
 30
0.0
 10
12.167960629921261
 20
-6.9380590551181109
 30
0.0
 10
12.167960629921261
 20
-6.9380590551181109
 30
0.0
 10
12.321519685039371
 20
-6.5555551181102363
 30
0.0
 10
12.168279527559056
 20
-6.118452755905512
 30
0.0
 10
11.809492125984253
 20
-5.9155629921259845
 30
0.0
 10
11.809492125984253
 20
-5.9155629921259845
 30
0.0
 10
11.730236220472442
 20
-5.9920669291338582
 30
0.0
 10
11.663712598425198
 20
-6.0807480314960634
 30
0.0
 10
11.612456692913387
 20
-6.1782559055118114
 30
0.0
 10
11.612456692913387
 20
-6.1782559055118114
 30
0.0
 10
11.612456692913387
 20
-6.1782559055118114
 30
0.0
 10
11.519988188976379
 20
-6.6777834645669296
 30
0.0
 10
11.519988188976379
 20
-6.6777834645669296
 30
0.0
 10
11.519988188976379
 20
-6.6777834645669296
 30
0.0
 10
11.519988188976379
 20
-6.6777834645669296
 30
0.0
 10
11.178736220472441
 20
-7.70851968503937
 30
0.0
 10
11.178736220472441
 20
-7.70851968503937
 30
0.0
 10
11.178736220472441
 20
-7.70851968503937
 30
0.0
 10
11.170019685039371
 20
-7.7351692913385826
 30
0.0
 10
11.151019685039371
 20
-7.757236220472441
 30
0.0
 10
11.125964566929134
 20
-7.7698267716535439
 30
0.0
 10
11.125964566929134
 20
-7.7698267716535439
 30
0.0
 10
11.100917322834647
 20
-7.7824173228346458
 30
0.0
 10
11.071870078740158
 20
-7.7844921259842526
 30
0.0
 10
11.04528346456693
 20
-7.7755826771653549
 30
0.0
 10
11.04528346456693
 20
-7.7755826771653549
 30
0.0
 10
11.018574803149606
 20
-7.7667440944881889
 30
0.0
 10
10.996488188976379
 20
-7.7476023622047245
 30
0.0
 10
10.983944881889764
 20
-7.7224133858267718
 30
0.0
 10
10.983944881889764
 20
-7.7224133858267718
 30
0.0
 10
10.971401574803149
 20
-7.6972283464566935
 30
0.0
 10
10.96942125984252
 20
-7.6680748031496062
 30
0.0
 10
10.978456692913387
 20
-7.6414251968503937
 30
0.0
 10
10.978456692913387
 20
-7.6414251968503937
 30
0.0
 10
10.978456692913387
 20
-7.6414251968503937
 30
0.0
 10
11.273354330708662
 20
-6.6453937007874018
 30
0.0
 10
11.273354330708662
 20
-6.6453937007874018
 30
0.0
 10
11.273354330708662
 20
-6.6453937007874018
 30
0.0
 10
11.273354330708662
 20
-6.6453937007874018
 30
0.0
 10
11.302440944881891
 20
-6.4882598425196853
 30
0.0
 10
11.302440944881891
 20
-6.4882598425196853
 30
0.0
 10
11.302440944881891
 20
-6.4882598425196853
 30
0.0
 10
11.275169291338583
 20
-6.4423267716535433
 30
0.0
 10
11.226452755905513
 20
-6.4133661417322836
 30
0.0
 10
11.173070866141734
 20
-6.4113503937007881
 30
0.0
 10
11.173070866141734
 20
-6.4113503937007881
 30
0.0
 10
11.119688976377953
 20
-6.4093385826771652
 30
0.0
 10
11.068933070866143
 20
-6.4345393700787401
 30
0.0
 10
11.038271653543308
 20
-6.4782834645669292
 30
0.0
 10
11.038271653543308
 20
-6.4782834645669292
 30
0.0
 10
11.038271653543308
 20
-6.4782834645669292
 30
0.0
 10
10.324169291338583
 20
-7.3294448818897644
 30
0.0
 10
10.324169291338583
 20
-7.3294448818897644
 30
0.0
 10
10.324169291338583
 20
-7.3294448818897644
 30
0.0
 10
10.324169291338583
 20
-7.3294448818897644
 30
0.0
 10
9.5301968503937005
 20
-7.3618425196850392
 30
0.0
 10
9.5301968503937005
 20
-7.3618425196850392
 30
0.0
 10
9.5301968503937005
 20
-7.3618425196850392
 30
0.0
 10
9.5301968503937005
 20
-7.3618425196850392
 30
0.0
 10
8.8387204724409454
 20
-7.3899842519685039
 30
0.0
 10
8.8387204724409454
 20
-7.3899842519685039
 30
0.0
 10
8.8387204724409454
 20
-7.3899842519685039
 30
0.0
 10
8.8387204724409454
 20
-7.3899842519685039
 30
0.0
 10
8.6318385826771653
 20
-6.9200590551181103
 30
0.0
 10
8.6318385826771653
 20
-6.9200590551181103
 30
0.0
 10
8.6318385826771653
 20
-6.9200590551181103
 30
0.0
 10
8.6136299212598431
 20
-6.8789330708661423
 30
0.0
 10
8.5787086614173234
 20
-6.8475433070866147
 30
0.0
 10
8.5358818897637807
 20
-6.833799212598425
 30
0.0
 10
8.5358818897637807
 20
-6.833799212598425
 30
0.0
 10
8.4930590551181098
 20
-6.8200551181102362
 30
0.0
 10
8.4463976377952754
 20
-6.8252637795275595
 30
0.0
 10
8.4076535433070863
 20
-6.8481102362204727
 30
0.0
 10
8.4076535433070863
 20
-6.8481102362204727
 30
0.0
 10
8.4076535433070863
 20
-6.8481102362204727
 30
0.0
 10
7.922543307086614
 20
-7.9239488188976379
 30
0.0
 10
7.922543307086614
 20
-7.9239488188976379
 30
0.0
 10
7.922543307086614
 20
-7.9239488188976379
 30
0.0
 10
7.9158228346456694
 20
-7.9525157480314963
 30
0.0
 10
7.8974566929133863
 20
-7.976968503937008
 30
0.0
 10
7.8718937007874015
 20
-7.9913779527559061
 30
0.0
 10
7.8718937007874015
 20
-7.9913779527559061
 30
0.0
 10
7.8463307086614176
 20
-8.0057913385826769
 30
0.0
 10
7.8159015748031502
 20
-8.0088425196850395
 30
0.0
 10
7.7879842519685045
 20
-7.9997992125984254
 30
0.0
 10
7.7879842519685045
 20
-7.9997992125984254
 30
0.0
 10
7.7601338582677171
 20
-7.9907322834645669
 30
0.0
 10
7.7373464566929133
 20
-7.9704173228346455
 30
0.0
 10
7.7251496062992127
 20
-7.9437834645669296
 30
0.0
 10
7.7251496062992127
 20
-7.9437834645669296
 30
0.0
 10
7.7129566929133864
 20
-7.9171496062992128
 30
0.0
 10
7.7124606299212601
 20
-7.8866259842519684
 30
0.0
 10
7.7237874015748034
 20
-7.8596141732283469
 30
0.0
 10
7.7237874015748034
 20
-7.8596141732283469
 30
0.0
 10
7.7237874015748034
 20
-7.8596141732283469
 30
0.0
 10
7.7201377952755905
 20
-7.8707519685039369
 30
0.0
 10
7.7201377952755905
 20
-7.8707519685039369
 30
0.0
 10
7.7201377952755905
 20
-7.8707519685039369
 30
0.0
 10
7.7201377952755905
 20
-7.8707519685039369
 30
0.0
 10
7.9530511811023628
 20
-7.1633031496062998
 30
0.0
 10
7.9530511811023628
 20
-7.1633031496062998
 30
0.0
 10
7.9530511811023628
 20
-7.1633031496062998
 30
0.0
 10
7.9530511811023628
 20
-7.1633031496062998
 30
0.0
 10
8.2867913385826775
 20
-6.4845866141732289
 30
0.0
 10
8.2867913385826775
 20
-6.4845866141732289
 30
0.0
 10
8.2867913385826775
 20
-6.4845866141732289
 30
0.0
 10
8.3080748031496068
 20
-6.3287952755905517
 30
0.0
 10
8.2848464566929145
 20
-6.1701535433070864
 30
0.0
 10
8.2197913385826773
 20
-6.0269960629921266
 30
0.0
 10
8.2197913385826773
 20
-6.0269960629921266
 30
0.0
 10
7.8685393700787403
 20
-6.0581889763779531
 30
0.0
 10
7.5726338582677171
 20
-6.3021889763779528
 30
0.0
 10
7.4750944881889767
 20
-6.6410629921259847
 30
0.0
 10
7.4750944881889767
 20
-6.6410629921259847
 30
0.0
 10
7.4750944881889767
 20
-6.6410629921259847
 30
0.0
 10
7.264622047244095
 20
-7.7780472440944886
 30
0.0
 10
7.264622047244095
 20
-7.7780472440944886
 30
0.0
 10
7.264622047244095
 20
-7.7780472440944886
 30
0.0
 10
7.264622047244095
 20
-7.7780472440944886
 30
0.0
 10
7.0541535433070868
 20
-8.9150354330708659
 30
0.0
 10
7.0541535433070868
 20
-8.9150354330708659
 30
0.0
 10
7.0541535433070868
 20
-8.9150354330708659
 30
0.0
 10
7.0298228346456693
 20
-9.0142244094488184
 30
0.0
 10
7.0529645669291341
 20
-9.119086614173229
 30
0.0
 10
7.1167874015748032
 20
-9.1988188976377963
 30
0.0
 10
7.1167874015748032
 20
-9.1988188976377963
 30
0.0
 10
7.1806141732283466
 20
-9.2785590551181105
 30
0.0
 10
7.2778622047244097
 20
-9.3241023622047248
 30
0.0
 10
7.3799724409448819
 20
-9.3220826771653549
 30
0.0
  0
SPLINE
  5
32
100
AcDbEntity
  8
Layer 1
370
     0
100
AcDbSpline
210
0.0
220
0.0
230
1.0
 70
     1
 71
     3
 72
   168
 73
   164
 74
     0
 42
0.0000000001
 43
0.0000000001
 40
0.0
 40
0.0
 40
0.0
 40
0.0
 40
0.024390243902439
 40
0.024390243902439
 40
0.024390243902439
 40
0.024390243902439
 40
0.0487804878048781
 40
0.0487804878048781
 40
0.0487804878048781
 40
0.0487804878048781
 40
0.0731707317073171
 40
0.0731707317073171
 40
0.0731707317073171
 40
0.0731707317073171
 40
0.0975609756097561
 40
0.0975609756097561
 40
0.0975609756097561
 40
0.0975609756097561
 40
0.1219512195121951
 40
0.1219512195121951
 40
0.1219512195121951
 40
0.1219512195121951
 40
0.1463414634146341
 40
0.1463414634146341
 40
0.1463414634146341
 40
0.1463414634146341
 40
0.1707317073170732
 40
0.1707317073170732
 40
0.1707317073170732
 40
0.1707317073170732
 40
0.1951219512195122
 40
0.1951219512195122
 40
0.1951219512195122
 40
0.1951219512195122
 40
0.2195121951219512
 40
0.2195121951219512
 40
0.2195121951219512
 40
0.2195121951219512
 40
0.2439024390243902
 40
0.2439024390243902
 40
0.2439024390243902
 40
0.2439024390243902
 40
0.2682926829268292
 40
0.2682926829268292
 40
0.2682926829268292
 40
0.2682926829268292
 40
0.2926829268292683
 40
0.2926829268292683
 40
0.2926829268292683
 40
0.2926829268292683
 40
0.3170731707317073
 40
0.3170731707317073
 40
0.3170731707317073
 40
0.3170731707317073
 40
0.3414634146341464
 40
0.3414634146341464
 40
0.3414634146341464
 40
0.3414634146341464
 40
0.3658536585365854
 40
0.3658536585365854
 40
0.3658536585365854
 40
0.3658536585365854
 40
0.3902439024390245
 40
0.3902439024390245
 40
0.3902439024390245
 40
0.3902439024390245
 40
0.4146341463414635
 40
0.4146341463414635
 40
0.4146341463414635
 40
0.4146341463414635
 40
0.4390243902439026
 40
0.4390243902439026
 40
0.4390243902439026
 40
0.4390243902439026
 40
0.4634146341463416
 40
0.4634146341463416
 40
0.4634146341463416
 40
0.4634146341463416
 40
0.4878048780487806
 40
0.4878048780487806
 40
0.4878048780487806
 40
0.4878048780487806
 40
0.5121951219512196
 40
0.5121951219512196
 40
0.5121951219512196
 40
0.5121951219512196
 40
0.5365853658536587
 40
0.5365853658536587
 40
0.5365853658536587
 40
0.5365853658536587
 40
0.5609756097560977
 40
0.5609756097560977
 40
0.5609756097560977
 40
0.5609756097560977
 40
0.5853658536585368
 40
0.5853658536585368
 40
0.5853658536585368
 40
0.5853658536585368
 40
0.6097560975609758
 40
0.6097560975609758
 40
0.6097560975609758
 40
0.6097560975609758
 40
0.6341463414634149
 40
0.6341463414634149
 40
0.6341463414634149
 40
0.6341463414634149
 40
0.6585365853658539
 40
0.6585365853658539
 40
0.6585365853658539
 40
0.6585365853658539
 40
0.682926829268293
 40
0.682926829268293
 40
0.682926829268293
 40
0.682926829268293
 40
0.707317073170732
 40
0.707317073170732
 40
0.707317073170732
 40
0.707317073170732
 40
0.7317073170731711
 40
0.7317073170731711
 40
0.7317073170731711
 40
0.7317073170731711
 40
0.7560975609756101
 40
0.7560975609756101
 40
0.7560975609756101
 40
0.7560975609756101
 40
0.7804878048780491
 40
0.7804878048780491
 40
0.7804878048780491
 40
0.7804878048780491
 40
0.8048780487804882
 40
0.8048780487804882
 40
0.8048780487804882
 40
0.8048780487804882
 40
0.8292682926829272
 40
0.8292682926829272
 40
0.8292682926829272
 40
0.8292682926829272
 40
0.8536585365853663
 40
0.8536585365853663
 40
0.8536585365853663
 40
0.8536585365853663
 40
0.8780487804878053
 40
0.8780487804878053
 40
0.8780487804878053
 40
0.8780487804878053
 40
0.9024390243902444
 40
0.9024390243902444
 40
0.9024390243902444
 40
0.9024390243902444
 40
0.9268292682926834
 40
0.9268292682926834
 40
0.9268292682926834
 40
0.9268292682926834
 40
0.9512195121951225
 40
0.9512195121951225
 40
0.9512195121951225
 40
0.9512195121951225
 40
0.9756097560975615
 40
0.9756097560975615
 40
0.9756097560975615
 40
0.9756097560975615
 40
1.0
 40
1.0
 40
1.0
 40
1.0
 10
6.4003425196850392
 20
-6.4009881889763784
 30
0.0
 10
6.4808307086614176
 20
-6.3257795275590549
 30
0.0
 10
6.5487716535433069
 20
-6.2381811023622049
 30
0.0
 10
6.6016023622047246
 20
-6.1415196850393707
 30
0.0
 10
6.6016023622047246
 20
-6.1415196850393707
 30
0.0
 10
6.6016023622047246
 20
-6.1415196850393707
 30
0.0
 10
6.702149606299213
 20
-5.6435590551181107
 30
0.0
 10
6.702149606299213
 20
-5.6435590551181107
 30
0.0
 10
6.702149606299213
 20
-5.6435590551181107
 30
0.0
 10
6.702149606299213
 20
-5.6435590551181107
 30
0.0
 10
7.0600393700787407
 20
-4.6184763779527565
 30
0.0
 10
7.0600393700787407
 20
-4.6184763779527565
 30
0.0
 10
7.0600393700787407
 20
-4.6184763779527565
 30
0.0
 10
7.0691850393700788
 20
-4.5919685039370082
 30
0.0
 10
7.0885314960629922
 20
-4.5702125984251971
 30
0.0
 10
7.113787401574803
 20
-4.5580275590551187
 30
0.0
 10
7.113787401574803
 20
-4.5580275590551187
 30
0.0
 10
7.1390433070866148
 20
-4.5458464566929138
 30
0.0
 10
7.1681141732283464
 20
-4.5442401574803153
 30
0.0
 10
7.1945511811023621
 20
-4.5535787401574801
 30
0.0
 10
7.1945511811023621
 20
-4.5535787401574801
 30
0.0
 10
7.2211220472440951
 20
-4.5628582677165355
 30
0.0
 10
7.242885826771654
 20
-4.582346456692914
 30
0.0
 10
7.2550236220472444
 20
-4.6077362204724412
 30
0.0
 10
7.2550236220472444
 20
-4.6077362204724412
 30
0.0
 10
7.2671614173228347
 20
-4.633122047244095
 30
0.0
 10
7.2686614173228348
 20
-4.6623031496062994
 30
0.0
 10
7.2592007874015749
 20
-4.688803149606299
 30
0.0
 10
7.2592007874015749
 20
-4.688803149606299
 30
0.0
 10
7.2592007874015749
 20
-4.688803149606299
 30
0.0
 10
6.9482244094488195
 20
-5.6799330708661415
 30
0.0
 10
6.9482244094488195
 20
-5.6799330708661415
 30
0.0
 10
6.9482244094488195
 20
-5.6799330708661415
 30
0.0
 10
6.9482244094488195
 20
-5.6799330708661415
 30
0.0
 10
6.9165984251968506
 20
-5.8365787401574805
 30
0.0
 10
6.9165984251968506
 20
-5.8365787401574805
 30
0.0
 10
6.9165984251968506
 20
-5.8365787401574805
 30
0.0
 10
6.943125984251969
 20
-5.8829409448818897
 30
0.0
 10
6.9913622047244095
 20
-5.9126850393700794
 30
0.0
 10
7.0447047244094492
 20
-5.9155629921259845
 30
0.0
 10
7.0447047244094492
 20
-5.9155629921259845
 30
0.0
 10
7.0980472440944888
 20
-5.9184409448818904
 30
0.0
 10
7.149204724409449
 20
-5.8940629921259848
 30
0.0
 10
7.1805669291338585
 20
-5.8508228346456699
 30
0.0
 10
7.1805669291338585
 20
-5.8508228346456699
 30
0.0
 10
7.1805669291338585
 20
-5.8508228346456699
 30
0.0
 10
7.9083582677165358
 20
-5.0113346456692911
 30
0.0
 10
7.9083582677165358
 20
-5.0113346456692911
 30
0.0
 10
7.9083582677165358
 20
-5.0113346456692911
 30
0.0
 10
7.9083582677165358
 20
-5.0113346456692911
 30
0.0
 10
8.7027440944881889
 20
-4.9917913385826775
 30
0.0
 10
8.7027440944881889
 20
-4.9917913385826775
 30
0.0
 10
8.7027440944881889
 20
-4.9917913385826775
 30
0.0
 10
8.7027440944881889
 20
-4.9917913385826775
 30
0.0
 10
9.3945905511811034
 20
-4.9748425196850397
 30
0.0
 10
9.3945905511811034
 20
-4.9748425196850397
 30
0.0
 10
9.3945905511811034
 20
-4.9748425196850397
 30
0.0
 10
9.3945905511811034
 20
-4.9748425196850397
 30
0.0
 10
9.5938464566929138
 20
-5.448051181102362
 30
0.0
 10
9.5938464566929138
 20
-5.448051181102362
 30
0.0
 10
9.5938464566929138
 20
-5.448051181102362
 30
0.0
 10
9.6113858267716541
 20
-5.4894645669291338
 30
0.0
 10
9.6457834645669287
 20
-5.5214133858267722
 30
0.0
 10
9.6883818897637806
 20
-5.535846456692914
 30
0.0
 10
9.6883818897637806
 20
-5.535846456692914
 30
0.0
 10
9.7309881889763776
 20
-5.5502874015748036
 30
0.0
 10
9.777716535433072
 20
-5.5458346456692915
 30
0.0
 10
9.8168267716535436
 20
-5.523618110236221
 30
0.0
 10
9.8168267716535436
 20
-5.523618110236221
 30
0.0
 10
9.8168267716535436
 20
-5.523618110236221
 30
0.0
 10
10.319291338582678
 20
-4.4557677165354335
 30
0.0
 10
10.319291338582678
 20
-4.4557677165354335
 30
0.0
 10
10.319291338582678
 20
-4.4557677165354335
 30
0.0
 10
10.326472440944883
 20
-4.4273149606299214
 30
0.0
 10
10.34522440944882
 20
-4.4031614173228348
 30
0.0
 10
10.37101968503937
 20
-4.3891692913385825
 30
0.0
 10
10.37101968503937
 20
-4.3891692913385825
 30
0.0
 10
10.396814960629921
 20
-4.375177165354331
 30
0.0
 10
10.42728346456693
 20
-4.3726141732283468
 30
0.0
 10
10.455051181102363
 20
-4.382106299212599
 30
0.0
 10
10.455051181102363
 20
-4.382106299212599
 30
0.0
 10
10.482759842519686
 20
-4.3916259842519683
 30
0.0
 10
10.505208661417322
 20
-4.4123031496062994
 30
0.0
 10
10.516972440944881
 20
-4.439129921259843
 30
0.0
 10
10.516972440944881
 20
-4.439129921259843
 30
0.0
 10
10.528736220472441
 20
-4.46596062992126
 30
0.0
 10
10.528736220472441
 20
-4.4964842519685044
 30
0.0
 10
10.516972440944881
 20
-4.5233110236220471
 30
0.0
 10
10.516972440944881
 20
-4.5233110236220471
 30
0.0
 10
10.516972440944881
 20
-4.5233110236220471
 30
0.0
 10
10.520807086614173
 20
-4.5122401574803153
 30
0.0
 10
10.520807086614173
 20
-4.5122401574803153
 30
0.0
 10
10.520807086614173
 20
-4.5122401574803153
 30
0.0
 10
10.520807086614173
 20
-4.5122401574803153
 30
0.0
 10
10.276480314960631
 20
-5.2158267716535436
 30
0.0
 10
10.276480314960631
 20
-5.2158267716535436
 30
0.0
 10
10.276480314960631
 20
-5.2158267716535436
 30
0.0
 10
10.276480314960631
 20
-5.2158267716535436
 30
0.0
 10
9.931791338582677
 20
-5.8890472440944883
 30
0.0
 10
9.931791338582677
 20
-5.8890472440944883
 30
0.0
 10
9.931791338582677
 20
-5.8890472440944883
 30
0.0
 10
9.907996062992126
 20
-6.0444763779527557
 30
0.0
 10
9.9286496062992136
 20
-6.203472440944882
 30
0.0
 10
9.9913779527559061
 20
-6.3476614173228345
 30
0.0
 10
9.9913779527559061
 20
-6.3476614173228345
 30
0.0
 10
10.343090551181103
 20
-6.3221614173228353
 30
0.0
 10
10.642901574803149
 20
-6.0829803149606301
 30
0.0
 10
10.745909448818898
 20
-5.7457244094488189
 30
0.0
 10
10.745909448818898
 20
-5.7457244094488189
 30
0.0
 10
10.745909448818898
 20
-5.7457244094488189
 30
0.0
 10
10.974767716535434
 20
-4.6123031496062996
 30
0.0
 10
10.974767716535434
 20
-4.6123031496062996
 30
0.0
 10
10.974767716535434
 20
-4.6123031496062996
 30
0.0
 10
10.974767716535434
 20
-4.6123031496062996
 30
0.0
 10
11.203606299212598
 20
-3.4788700787401576
 30
0.0
 10
11.203606299212598
 20
-3.4788700787401576
 30
0.0
 10
11.203606299212598
 20
-3.4788700787401576
 30
0.0
 10
11.229535433070867
 20
-3.3800866141732286
 30
0.0
 10
11.208086614173229
 20
-3.2748582677165357
 30
0.0
 10
11.145562992125985
 20
-3.1941023622047244
 30
0.0
 10
11.145562992125985
 20
-3.1941023622047244
 30
0.0
 10
11.083043307086614
 20
-3.1133464566929137
 30
0.0
 10
10.98653937007874
 20
-3.0662322834645672
 30
0.0
 10
10.884409448818898
 20
-3.0665944881889766
 30
0.0
 10
10.884409448818898
 20
-3.0665944881889766
 30
0.0
 10
10.884409448818898
 20
-3.0665944881889766
 30
0.0
 10
10.701964566929135
 20
-3.5286023622047247
 30
0.0
 10
10.701964566929135
 20
-3.5286023622047247
 30
0.0
 10
10.701964566929135
 20
-3.5286023622047247
 30
0.0
 10
10.701964566929135
 20
-3.5286023622047247
 30
0.0
 10
9.5223779527559067
 20
-4.3419409448818902
 30
0.0
 10
9.5223779527559067
 20
-4.3419409448818902
 30
0.0
 10
9.5223779527559067
 20
-4.3419409448818902
 30
0.0
 10
9.5223779527559067
 20
-4.3419409448818902
 30
0.0
 10
8.0361496062992135
 20
-4.3784330708661416
 30
0.0
 10
8.0361496062992135
 20
-4.3784330708661416
 30
0.0
 10
8.0361496062992135
 20
-4.3784330708661416
 30
0.0
 10
8.0361496062992135
 20
-4.3784330708661416
 30
0.0
 10
7.5473818897637797
 20
-3.6322952755905513
 30
0.0
 10
7.5473818897637797
 20
-3.6322952755905513
 30
0.0
 10
7.5473818897637797
 20
-3.6322952755905513
 30
0.0
 10
7.5473818897637797
 20
-3.6322952755905513
 30
0.0
 10
7.7363503937007874
 20
-3.1539094488188977
 30
0.0
 10
7.7363503937007874
 20
-3.1539094488188977
 30
0.0
 10
7.7363503937007874
 20
-3.1539094488188977
 30
0.0
 10
7.4666811023622053
 20
-3.091212598425197
 30
0.0
 10
7.1926299212598428
 20
-3.2396299212598425
 30
0.0
 10
7.0977913385826774
 20
-3.499744094488189
 30
0.0
 10
7.0977913385826774
 20
-3.499744094488189
 30
0.0
 10
7.0977913385826774
 20
-3.499744094488189
 30
0.0
 10
6.3120826771653542
 20
-4.9324212598425197
 30
0.0
 10
6.3120826771653542
 20
-4.9324212598425197
 30
0.0
 10
6.3120826771653542
 20
-4.9324212598425197
 30
0.0
 10
6.2269724409448823
 20
-5.0341299212598427
 30
0.0
 10
6.1565393700787405
 20
-5.1472637795275595
 30
0.0
 10
6.1028425196850398
 20
-5.268523622047244
 30
0.0
 10
6.1028425196850398
 20
-5.268523622047244
 30
0.0
 10
6.0861496062992124
 20
-5.3024488188976378
 30
0.0
 10
6.0713307086614172
 20
-5.3372677165354334
 30
0.0
 10
6.0584645669291337
 20
-5.3728228346456692
 30
0.0
 10
6.0584645669291337
 20
-5.3728228346456692
 30
0.0
 10
5.8987401574803151
 20
-5.7527992125984255
 30
0.0
 10
6.0448858267716536
 20
-6.1923188976377954
 30
0.0
 10
6.4003425196850392
 20
-6.4009881889763784
 30
0.0
  0
SPLINE
  5
33
100
AcDbEntity
  8
Layer 1
370
     0
100
AcDbSpline
210
0.0
220
0.0
230
1.0
 70
     1
 71
     3
 72
   168
 73
   164
 74
     0
 42
0.0000000001
 43
0.0000000001
 40
0.0
 40
0.0
 40
0.0
 40
0.0
 40
0.024390243902439
 40
0.024390243902439
 40
0.024390243902439
 40
0.024390243902439
 40
0.0487804878048781
 40
0.0487804878048781
 40
0.0487804878048781
 40
0.0487804878048781
 40
0.0731707317073171
 40
0.0731707317073171
 40
0.0731707317073171
 40
0.0731707317073171
 40
0.0975609756097561
 40
0.0975609756097561
 40
0.0975609756097561
 40
0.0975609756097561
 40
0.1219512195121951
 40
0.1219512195121951
 40
0.1219512195121951
 40
0.1219512195121951
 40
0.1463414634146341
 40
0.1463414634146341
 40
0.1463414634146341
 40
0.1463414634146341
 40
0.1707317073170732
 40
0.1707317073170732
 40
0.1707317073170732
 40
0.1707317073170732
 40
0.1951219512195122
 40
0.1951219512195122
 40
0.1951219512195122
 40
0.1951219512195122
 40
0.2195121951219512
 40
0.2195121951219512
 40
0.2195121951219512
 40
0.2195121951219512
 40
0.2439024390243902
 40
0.2439024390243902
 40
0.2439024390243902
 40
0.2439024390243902
 40
0.2682926829268292
 40
0.2682926829268292
 40
0.2682926829268292
 40
0.2682926829268292
 40
0.2926829268292683
 40
0.2926829268292683
 40
0.2926829268292683
 40
0.2926829268292683
 40
0.3170731707317073
 40
0.3170731707317073
 40
0.3170731707317073
 40
0.3170731707317073
 40
0.3414634146341464
 40
0.3414634146341464
 40
0.3414634146341464
 40
0.3414634146341464
 40
0.3658536585365854
 40
0.3658536585365854
 40
0.3658536585365854
 40
0.3658536585365854
 40
0.3902439024390245
 40
0.3902439024390245
 40
0.3902439024390245
 40
0.3902439024390245
 40
0.4146341463414635
 40
0.4146341463414635
 40
0.4146341463414635
 40
0.4146341463414635
 40
0.4390243902439026
 40
0.4390243902439026
 40
0.4390243902439026
 40
0.4390243902439026
 40
0.4634146341463416
 40
0.4634146341463416
 40
0.4634146341463416
 40
0.4634146341463416
 40
0.4878048780487806
 40
0.4878048780487806
 40
0.4878048780487806
 40
0.4878048780487806
 40
0.5121951219512196
 40
0.5121951219512196
 40
0.5121951219512196
 40
0.5121951219512196
 40
0.5365853658536587
 40
0.5365853658536587
 40
0.5365853658536587
 40
0.5365853658536587
 40
0.5609756097560977
 40
0.5609756097560977
 40
0.5609756097560977
 40
0.5609756097560977
 40
0.5853658536585368
 40
0.5853658536585368
 40
0.5853658536585368
 40
0.5853658536585368
 40
0.6097560975609758
 40
0.6097560975609758
 40
0.6097560975609758
 40
0.6097560975609758
 40
0.6341463414634149
 40
0.6341463414634149
 40
0.6341463414634149
 40
0.6341463414634149
 40
0.6585365853658539
 40
0.6585365853658539
 40
0.6585365853658539
 40
0.6585365853658539
 40
0.682926829268293
 40
0.682926829268293
 40
0.682926829268293
 40
0.682926829268293
 40
0.707317073170732
 40
0.707317073170732
 40
0.707317073170732
 40
0.707317073170732
 40
0.7317073170731711
 40
0.7317073170731711
 40
0.7317073170731711
 40
0.7317073170731711
 40
0.7560975609756101
 40
0.7560975609756101
 40
0.7560975609756101
 40
0.7560975609756101
 40
0.7804878048780491
 40
0.7804878048780491
 40
0.7804878048780491
 40
0.7804878048780491
 40
0.8048780487804882
 40
0.8048780487804882
 40
0.8048780487804882
 40
0.8048780487804882
 40
0.8292682926829272
 40
0.8292682926829272
 40
0.8292682926829272
 40
0.8292682926829272
 40
0.8536585365853663
 40
0.8536585365853663
 40
0.8536585365853663
 40
0.8536585365853663
 40
0.8780487804878053
 40
0.8780487804878053
 40
0.8780487804878053
 40
0.8780487804878053
 40
0.9024390243902444
 40
0.9024390243902444
 40
0.9024390243902444
 40
0.9024390243902444
 40
0.9268292682926834
 40
0.9268292682926834
 40
0.9268292682926834
 40
0.9268292682926834
 40
0.9512195121951225
 40
0.9512195121951225
 40
0.9512195121951225
 40
0.9512195121951225
 40
0.9756097560975615
 40
0.9756097560975615
 40
0.9756097560975615
 40
0.9756097560975615
 40
1.0
 40
1.0
 40
1.0
 40
1.0
 10
5.9189842519685039
 20
-3.8467992125984254
 30
0.0
 10
5.9189842519685039
 20
-3.8467992125984254
 30
0.0
 10
6.1108188976377953
 20
-3.3886141732283468
 30
0.0
 10
6.1108188976377953
 20
-3.3886141732283468
 30
0.0
 10
6.1108188976377953
 20
-3.3886141732283468
 30
0.0
 10
6.1108188976377953
 20
-3.3886141732283468
 30
0.0
 10
7.3067480314960633
 20
-2.5995039370078743
 30
0.0
 10
7.3067480314960633
 20
-2.5995039370078743
 30
0.0
 10
7.3067480314960633
 20
-2.5995039370078743
 30
0.0
 10
7.3067480314960633
 20
-2.5995039370078743
 30
0.0
 10
8.7934094488188972
 20
-2.5933385826771653
 30
0.0
 10
8.7934094488188972
 20
-2.5933385826771653
 30
0.0
 10
8.7934094488188972
 20
-2.5933385826771653
 30
0.0
 10
8.7934094488188972
 20
-2.5933385826771653
 30
0.0
 10
9.2668543307086626
 20
-3.3492913385826775
 30
0.0
 10
9.2668543307086626
 20
-3.3492913385826775
 30
0.0
 10
9.2668543307086626
 20
-3.3492913385826775
 30
0.0
 10
9.2668543307086626
 20
-3.3492913385826775
 30
0.0
 10
9.0681692913385827
 20
-3.8237204724409448
 30
0.0
 10
9.0681692913385827
 20
-3.8237204724409448
 30
0.0
 10
9.0681692913385827
 20
-3.8237204724409448
 30
0.0
 10
9.3365039370078744
 20
-3.8919094488188977
 30
0.0
 10
9.6135196850393712
 20
-3.7491062992125985
 30
0.0
 10
9.7136456692913384
 20
-3.4909842519685039
 30
0.0
 10
9.7136456692913384
 20
-3.4909842519685039
 30
0.0
 10
9.7136456692913384
 20
-3.4909842519685039
 30
0.0
 10
10.528425196850394
 20
-2.0746338582677164
 30
0.0
 10
10.528425196850394
 20
-2.0746338582677164
 30
0.0
 10
10.528425196850394
 20
-2.0746338582677164
 30
0.0
 10
10.615590551181104
 20
-1.9746850393700788
 30
0.0
 10
10.688307086614174
 20
-1.8630078740157481
 30
0.0
 10
10.744468503937009
 20
-1.7428661417322835
 30
0.0
 10
10.744468503937009
 20
-1.7428661417322835
 30
0.0
 10
10.761854330708662
 20
-1.7092913385826771
 30
0.0
 10
10.777374015748032
 20
-1.6747795275590551
 30
0.0
 10
10.790964566929134
 20
-1.639496062992126
 30
0.0
 10
10.790964566929134
 20
-1.639496062992126
 30
0.0
 10
10.958409448818898
 20
-1.2628622047244096
 30
0.0
 10
10.821259842519686
 20
-0.8204448818897638
 30
0.0
 10
10.470133858267717
 20
-0.6045708661417323
 30
0.0
 10
10.470133858267717
 20
-0.6045708661417323
 30
0.0
 10
10.388129921259843
 20
-0.6781220472440945
 30
0.0
 10
10.318413385826773
 20
-0.7643149606299213
 30
0.0
 10
10.263622047244095
 20
-0.8598818897637796
 30
0.0
 10
10.263622047244095
 20
-0.8598818897637796
 30
0.0
 10
10.263622047244095
 20
-0.8598818897637796
 30
0.0
 10
10.152940944881891
 20
-1.3556889763779527
 30
0.0
 10
10.152940944881891
 20
-1.3556889763779527
 30
0.0
 10
10.152940944881891
 20
-1.3556889763779527
 30
0.0
 10
10.152940944881891
 20
-1.3556889763779527
 30
0.0
 10
9.7742204724409447
 20
-2.3732559055118112
 30
0.0
 10
9.7742204724409447
 20
-2.3732559055118112
 30
0.0
 10
9.7742204724409447
 20
-2.3732559055118112
 30
0.0
 10
9.7645354330708667
 20
-2.3995708661417323
 30
0.0
 10
9.7447401574803152
 20
-2.4209291338582677
 30
0.0
 10
9.7192440944881895
 20
-2.4325944881889763
 30
0.0
 10
9.7192440944881895
 20
-2.4325944881889763
 30
0.0
 10
9.6937440944881885
 20
-2.4442598425196853
 30
0.0
 10
9.6646456692913389
 20
-2.4452677165354331
 30
0.0
 10
9.6384055118110243
 20
-2.4353937007874018
 30
0.0
 10
9.6384055118110243
 20
-2.4353937007874018
 30
0.0
 10
9.6120354330708668
 20
-2.4255826771653544
 30
0.0
 10
9.5906653543307083
 20
-2.4056456692913386
 30
0.0
 10
9.5790511811023631
 20
-2.3800157480314961
 30
0.0
 10
9.5790511811023631
 20
-2.3800157480314961
 30
0.0
 10
9.5674330708661426
 20
-2.3543897637795275
 30
0.0
 10
9.566523622047244
 20
-2.3251811023622047
 30
0.0
 10
9.5765275590551191
 20
-2.2988818897637797
 30
0.0
 10
9.5765275590551191
 20
-2.2988818897637797
 30
0.0
 10
9.5765275590551191
 20
-2.2988818897637797
 30
0.0
 10
9.907661417322835
 20
-1.3142992125984252
 30
0.0
 10
9.907661417322835
 20
-1.3142992125984252
 30
0.0
 10
9.907661417322835
 20
-1.3142992125984252
 30
0.0
 10
9.907661417322835
 20
-1.3142992125984252
 30
0.0
 10
9.9424724409448828
 20
-1.1583346456692913
 30
0.0
 10
9.9424724409448828
 20
-1.1583346456692913
 30
0.0
 10
9.9424724409448828
 20
-1.1583346456692913
 30
0.0
 10
9.9169015748031502
 20
-1.1114370078740159
 30
0.0
 10
9.8692755905511813
 20
-1.080716535433071
 30
0.0
 10
9.8160039370078742
 20
-1.0767480314960631
 30
0.0
 10
9.8160039370078742
 20
-1.0767480314960631
 30
0.0
 10
9.7627362204724406
 20
-1.0727834645669292
 30
0.0
 10
9.7110866141732295
 20
-1.0961141732283466
 30
0.0
 10
9.6788464566929129
 20
-1.1387047244094488
 30
0.0
 10
9.6788464566929129
 20
-1.1387047244094488
 30
0.0
 10
9.6788464566929129
 20
-1.1387047244094488
 30
0.0
 10
8.934090551181102
 20
-1.9631771653543308
 30
0.0
 10
8.934090551181102
 20
-1.9631771653543308
 30
0.0
 10
8.934090551181102
 20
-1.9631771653543308
 30
0.0
 10
8.934090551181102
 20
-1.9631771653543308
 30
0.0
 10
8.1394685039370085
 20
-1.9665118110236222
 30
0.0
 10
8.1394685039370085
 20
-1.9665118110236222
 30
0.0
 10
8.1394685039370085
 20
-1.9665118110236222
 30
0.0
 10
8.1394685039370085
 20
-1.9665118110236222
 30
0.0
 10
7.4474212598425202
 20
-1.9693464566929135
 30
0.0
 10
7.4474212598425202
 20
-1.9693464566929135
 30
0.0
 10
7.4474212598425202
 20
-1.9693464566929135
 30
0.0
 10
7.4474212598425202
 20
-1.9693464566929135
 30
0.0
 10
7.2578622047244101
 20
-1.4921692913385827
 30
0.0
 10
7.2578622047244101
 20
-1.4921692913385827
 30
0.0
 10
7.2578622047244101
 20
-1.4921692913385827
 30
0.0
 10
7.2411692913385828
 20
-1.4504055118110237
 30
0.0
 10
7.2074251968503944
 20
-1.4177598425196851
 30
0.0
 10
7.1651299212598429
 20
-1.4024566929133859
 30
0.0
 10
7.1651299212598429
 20
-1.4024566929133859
 30
0.0
 10
7.1228346456692915
 20
-1.3871574803149607
 30
0.0
 10
7.0760157480314962
 20
-1.3906535433070866
 30
0.0
 10
7.0364645669291344
 20
-1.4120669291338583
 30
0.0
 10
7.0364645669291344
 20
-1.4120669291338583
 30
0.0
 10
7.0364645669291344
 20
-1.4120669291338583
 30
0.0
 10
6.5123267716535436
 20
-2.4694448818897641
 30
0.0
 10
6.5123267716535436
 20
-2.4694448818897641
 30
0.0
 10
6.5123267716535436
 20
-2.4694448818897641
 30
0.0
 10
6.5045708661417327
 20
-2.4977480314960632
 30
0.0
 10
6.4853188976377956
 20
-2.5215118110236223
 30
0.0
 10
6.4592440944881888
 20
-2.5349763779527561
 30
0.0
 10
6.4592440944881888
 20
-2.5349763779527561
 30
0.0
 10
6.4331732283464573
 20
-2.5484409448818899
 30
0.0
 10
6.4026535433070872
 20
-2.5503779527559054
 30
0.0
 10
6.3750826771653548
 20
-2.5403228346456692
 30
0.0
 10
6.3750826771653548
 20
-2.5403228346456692
 30
0.0
 10
6.3475866141732284
 20
-2.5302401574803151
 30
0.0
 10
6.3255551181102367
 20
-2.5091062992125983
 30
0.0
 10
6.3143385826771654
 20
-2.4820472440944883
 30
0.0
 10
6.3143385826771654
 20
-2.4820472440944883
 30
0.0
 10
6.3031299212598428
 20
-2.4549842519685039
 30
0.0
 10
6.3037480314960632
 20
-2.4244645669291338
 30
0.0
 10
6.3160551181102367
 20
-2.3978818897637795
 30
0.0
 10
6.3160551181102367
 20
-2.3978818897637795
 30
0.0
 10
6.3160551181102367
 20
-2.3978818897637795
 30
0.0
 10
6.3120000000000003
 20
-2.4088779527559057
 30
0.0
 10
6.3120000000000003
 20
-2.4088779527559057
 30
0.0
 10
6.3120000000000003
 20
-2.4088779527559057
 30
0.0
 10
6.3120000000000003
 20
-2.4088779527559057
 30
0.0
 10
6.5706338582677164
 20
-1.7104212598425197
 30
0.0
 10
6.5706338582677164
 20
-1.7104212598425197
 30
0.0
 10
6.5706338582677164
 20
-1.7104212598425197
 30
0.0
 10
6.5706338582677164
 20
-1.7104212598425197
 30
0.0
 10
6.9289763779527558
 20
-1.0443700787401575
 30
0.0
 10
6.9289763779527558
 20
-1.0443700787401575
 30
0.0
 10
6.9289763779527558
 20
-1.0443700787401575
 30
0.0
 10
6.9559448818897645
 20
-0.8894566929133859
 30
0.0
 10
6.9385314960629927
 20
-0.7300748031496064
 30
0.0
 10
6.8787559055118113
 20
-0.5846338582677165
 30
0.0
 10
6.8787559055118113
 20
-0.5846338582677165
 30
0.0
 10
6.5266023622047245
 20
-0.6029566929133858
 30
0.0
 10
6.2219685039370081
 20
-0.8359724409448819
 30
0.0
 10
6.112102362204725
 20
-1.1710511811023623
 30
0.0
 10
6.112102362204725
 20
-1.1710511811023623
 30
0.0
 10
6.112102362204725
 20
-1.1710511811023623
 30
0.0
 10
5.8601771653543313
 20
-2.2995748031496066
 30
0.0
 10
5.8601771653543313
 20
-2.2995748031496066
 30
0.0
 10
5.8601771653543313
 20
-2.2995748031496066
 30
0.0
 10
5.8601771653543313
 20
-2.2995748031496066
 30
0.0
 10
5.6082677165354333
 20
-3.4281023622047244
 30
0.0
 10
5.6082677165354333
 20
-3.4281023622047244
 30
0.0
 10
5.6082677165354333
 20
-3.4281023622047244
 30
0.0
 10
5.5803267716535432
 20
-3.5263385826771656
 30
0.0
 10
5.5996181102362206
 20
-3.6319763779527561
 30
0.0
 10
5.6604803149606298
 20
-3.7139921259842521
 30
0.0
 10
5.6604803149606298
 20
-3.7139921259842521
 30
0.0
 10
5.7213464566929133
 20
-3.7960078740157481
 30
0.0
 10
5.8168661417322838
 20
-3.8450826771653546
 30
0.0
 10
5.9189842519685039
 20
-3.8467992125984254
 30
0.0
  0
SPLINE
  5
34
100
AcDbEntity
  8
Layer 1
370
     0
100
AcDbSpline
210
0.0
220
0.0
230
1.0
 70
     1
 71
     3
 72
   144
 73
   140
 74
     0
 42
0.0000000001
 43
0.0000000001
 40
0.0
 40
0.0
 40
0.0
 40
0.0
 40
0.0285714285714286
 40
0.0285714285714286
 40
0.0285714285714286
 40
0.0285714285714286
 40
0.0571428571428571
 40
0.0571428571428571
 40
0.0571428571428571
 40
0.0571428571428571
 40
0.0857142857142857
 40
0.0857142857142857
 40
0.0857142857142857
 40
0.0857142857142857
 40
0.1142857142857143
 40
0.1142857142857143
 40
0.1142857142857143
 40
0.1142857142857143
 40
0.1428571428571429
 40
0.1428571428571429
 40
0.1428571428571429
 40
0.1428571428571429
 40
0.1714285714285714
 40
0.1714285714285714
 40
0.1714285714285714
 40
0.1714285714285714
 40
0.2
 40
0.2
 40
0.2
 40
0.2
 40
0.2285714285714286
 40
0.2285714285714286
 40
0.2285714285714286
 40
0.2285714285714286
 40
0.2571428571428572
 40
0.2571428571428572
 40
0.2571428571428572
 40
0.2571428571428572
 40
0.2857142857142858
 40
0.2857142857142858
 40
0.2857142857142858
 40
0.2857142857142858
 40
0.3142857142857143
 40
0.3142857142857143
 40
0.3142857142857143
 40
0.3142857142857143
 40
0.3428571428571429
 40
0.3428571428571429
 40
0.3428571428571429
 40
0.3428571428571429
 40
0.3714285714285715
 40
0.3714285714285715
 40
0.3714285714285715
 40
0.3714285714285715
 40
0.4000000000000001
 40
0.4000000000000001
 40
0.4000000000000001
 40
0.4000000000000001
 40
0.4285714285714287
 40
0.4285714285714287
 40
0.4285714285714287
 40
0.4285714285714287
 40
0.4571428571428572
 40
0.4571428571428572
 40
0.4571428571428572
 40
0.4571428571428572
 40
0.4857142857142858
 40
0.4857142857142858
 40
0.4857142857142858
 40
0.4857142857142858
 40
0.5142857142857144
 40
0.5142857142857144
 40
0.5142857142857144
 40
0.5142857142857144
 40
0.5428571428571429
 40
0.5428571428571429
 40
0.5428571428571429
 40
0.5428571428571429
 40
0.5714285714285715
 40
0.5714285714285715
 40
0.5714285714285715
 40
0.5714285714285715
 40
0.6000000000000001
 40
0.6000000000000001
 40
0.6000000000000001
 40
0.6000000000000001
 40
0.6285714285714287
 40
0.6285714285714287
 40
0.6285714285714287
 40
0.6285714285714287
 40
0.6571428571428573
 40
0.6571428571428573
 40
0.6571428571428573
 40
0.6571428571428573
 40
0.6857142857142858
 40
0.6857142857142858
 40
0.6857142857142858
 40
0.6857142857142858
 40
0.7142857142857144
 40
0.7142857142857144
 40
0.7142857142857144
 40
0.7142857142857144
 40
0.742857142857143
 40
0.742857142857143
 40
0.742857142857143
 40
0.742857142857143
 40
0.7714285714285716
 40
0.7714285714285716
 40
0.7714285714285716
 40
0.7714285714285716
 40
0.8000000000000002
 40
0.8000000000000002
 40
0.8000000000000002
 40
0.8000000000000002
 40
0.8285714285714287
 40
0.8285714285714287
 40
0.8285714285714287
 40
0.8285714285714287
 40
0.8571428571428573
 40
0.8571428571428573
 40
0.8571428571428573
 40
0.8571428571428573
 40
0.8857142857142859
 40
0.8857142857142859
 40
0.8857142857142859
 40
0.8857142857142859
 40
0.9142857142857145
 40
0.9142857142857145
 40
0.9142857142857145
 40
0.9142857142857145
 40
0.9428571428571431
 40
0.9428571428571431
 40
0.9428571428571431
 40
0.9428571428571431
 40
0.9714285714285716
 40
0.9714285714285716
 40
0.9714285714285716
 40
0.9714285714285716
 40
1.0
 40
1.0
 40
1.0
 40
1.0
 10
2.6075866141732282
 20
-5.7634094488188978
 30
0.0
 10
2.5682401574803149
 20
-5.6922598425196851
 30
0.0
 10
2.5368188976377954
 20
-5.6170039370078744
 30
0.0
 10
2.5138858267716535
 20
-5.5390000000000006
 30
0.0
 10
2.5138858267716535
 20
-5.5390000000000006
 30
0.0
 10
2.4872755905511812
 20
-5.4617204724409447
 30
0.0
 10
2.4667362204724412
 20
-5.3824724409448823
 30
0.0
 10
2.4524645669291338
 20
-5.3019921259842517
 30
0.0
 10
2.4524645669291338
 20
-5.3019921259842517
 30
0.0
 10
2.4442440944881891
 20
-5.2566102362204727
 30
0.0
 10
2.4379370078740159
 20
-5.2109015748031497
 30
0.0
 10
2.4335669291338582
 20
-5.1649842519685043
 30
0.0
 10
2.4335669291338582
 20
-5.1649842519685043
 30
0.0
 10
2.4013937007874016
 20
-4.8881811023622053
 30
0.0
 10
2.4088149606299214
 20
-4.6082007874015751
 30
0.0
 10
2.4556220472440944
 20
-4.3334881889763786
 30
0.0
 10
2.4556220472440944
 20
-4.3334881889763786
 30
0.0
 10
2.4966023622047246
 20
-4.070779527559055
 30
0.0
 10
2.555263779527559
 20
-3.8111338582677168
 30
0.0
 10
2.6312047244094487
 20
-3.5563228346456692
 30
0.0
 10
2.6312047244094487
 20
-3.5563228346456692
 30
0.0
 10
2.6580314960629923
 20
-3.4639173228346456
 30
0.0
 10
2.6874370078740157
 20
-3.3722795275590554
 30
0.0
 10
2.7193937007874016
 20
-3.2815196850393704
 30
0.0
 10
2.7193937007874016
 20
-3.2815196850393704
 30
0.0
 10
2.7320157480314964
 20
-3.2126417322834646
 30
0.0
 10
2.6977047244094488
 20
-3.1436929133858267
 30
0.0
 10
2.6351456692913389
 20
-3.1122244094488192
 30
0.0
 10
2.6351456692913389
 20
-3.1122244094488192
 30
0.0
 10
2.3977716535433071
 20
-2.9322637795275592
 30
0.0
 10
2.2617007874015749
 20
-2.6489094488188978
 30
0.0
 10
2.2696614173228347
 20
-2.3511299212598424
 30
0.0
 10
2.2696614173228347
 20
-2.3511299212598424
 30
0.0
 10
2.2776299212598428
 20
-2.0533543307086615
 30
0.0
 10
2.4286496062992127
 20
-1.7776771653543308
 30
0.0
 10
2.6753110236220472
 20
-1.6106653543307088
 30
0.0
 10
2.6753110236220472
 20
-1.6106653543307088
 30
0.0
 10
2.7124212598425199
 20
-1.5738700787401576
 30
0.0
 10
2.7289212598425197
 20
-1.5210944881889765
 30
0.0
 10
2.7193858267716537
 20
-1.4697125984251969
 30
0.0
 10
2.7193858267716537
 20
-1.4697125984251969
 30
0.0
 10
2.6874291338582679
 20
-1.3789527559055119
 30
0.0
 10
2.6580275590551183
 20
-1.2873149606299212
 30
0.0
 10
2.6312047244094487
 20
-1.1949055118110237
 30
0.0
 10
2.6312047244094487
 20
-1.1949055118110237
 30
0.0
 10
2.555263779527559
 20
-0.9400944881889765
 30
0.0
 10
2.4965984251968503
 20
-0.6804488188976379
 30
0.0
 10
2.4556181102362205
 20
-0.417740157480315
 30
0.0
 10
2.4556181102362205
 20
-0.417740157480315
 30
0.0
 10
2.4415551181102364
 20
-0.3350275590551181
 30
0.0
 10
2.4310472440944881
 20
-0.251748031496063
 30
0.0
 10
2.4241220472440945
 20
-0.1681338582677165
 30
0.0
 10
2.4241220472440945
 20
-0.1681338582677165
 30
0.0
 10
2.4080314960629923
 20
0.0253976377952756
 30
0.0
 10
2.4111968503937007
 20
0.2200551181102362
 30
0.0
 10
2.4335708661417326
 20
0.4129645669291339
 30
0.0
 10
2.4335708661417326
 20
0.4129645669291339
 30
0.0
 10
2.4386614173228347
 20
0.4681850393700788
 30
0.0
 10
2.446543307086614
 20
0.5231102362204725
 30
0.0
 10
2.457192913385827
 20
0.5775314960629921
 30
0.0
 10
2.457192913385827
 20
0.5775314960629921
 30
0.0
 10
2.471236220472441
 20
0.6485708661417323
 30
0.0
 10
2.4901771653543308
 20
0.7185551181102362
 30
0.0
 10
2.5138818897637796
 20
0.7869803149606299
 30
0.0
 10
2.5138818897637796
 20
0.7869803149606299
 30
0.0
 10
2.536763779527559
 20
0.8652559055118111
 30
0.0
 10
2.5681889763779528
 20
0.9407716535433072
 30
0.0
 10
2.6075866141732282
 20
1.0121771653543308
 30
0.0
 10
2.6075866141732282
 20
1.0121771653543308
 30
0.0
 10
2.720748031496063
 20
1.2315708661417324
 30
0.0
 10
2.9469448818897641
 20
1.3694173228346458
 30
0.0
 10
3.1938070866141732
 20
1.3694173228346458
 30
0.0
 10
3.1938070866141732
 20
1.3694173228346458
 30
0.0
 10
3.4406692913385828
 20
1.3694173228346458
 30
0.0
 10
3.6668661417322834
 20
1.2315708661417324
 30
0.0
 10
3.7800275590551182
 20
1.0121771653543308
 30
0.0
 10
3.7800275590551182
 20
1.0121771653543308
 30
0.0
 10
3.8741968503937008
 20
0.8247677165354331
 30
0.0
 10
3.9331771653543308
 20
0.6216653543307087
 30
0.0
 10
3.9540354330708665
 20
0.4129645669291339
 30
0.0
 10
3.9540354330708665
 20
0.4129645669291339
 30
0.0
 10
3.9861417322834649
 20
0.1364173228346457
 30
0.0
 10
3.9787165354330711
 20
-0.1432874015748032
 30
0.0
 10
3.9319881889763781
 20
-0.417740157480315
 30
0.0
 10
3.9319881889763781
 20
-0.417740157480315
 30
0.0
 10
3.8910078740157483
 20
-0.6804488188976379
 30
0.0
 10
3.8323464566929135
 20
-0.9400944881889765
 30
0.0
 10
3.7564055118110238
 20
-1.1949055118110237
 30
0.0
 10
3.7564055118110238
 20
-1.1949055118110237
 30
0.0
 10
3.7280354330708665
 20
-1.2923976377952757
 30
0.0
 10
3.6967874015748032
 20
-1.3890275590551182
 30
0.0
 10
3.6627047244094491
 20
-1.4846692913385828
 30
0.0
 10
3.6627047244094491
 20
-1.4846692913385828
 30
0.0
 10
3.6519212598425197
 20
-1.5059133858267717
 30
0.0
 10
3.6501889763779527
 20
-1.5306141732283465
 30
0.0
 10
3.6579015748031498
 20
-1.5531574803149606
 30
0.0
 10
3.6579015748031498
 20
-1.5531574803149606
 30
0.0
 10
3.6656141732283465
 20
-1.5756968503937008
 30
0.0
 10
3.6821141732283467
 20
-1.5941614173228347
 30
0.0
 10
3.703653543307087
 20
-1.6043464566929135
 30
0.0
 10
3.703653543307087
 20
-1.6043464566929135
 30
0.0
 10
3.9608228346456693
 20
-1.7744133858267717
 30
0.0
 10
4.1163503937007873
 20
-2.061429133858268
 30
0.0
 10
4.1184055118110239
 20
-2.3697401574803152
 30
0.0
 10
4.1184055118110239
 20
-2.3697401574803152
 30
0.0
 10
4.120464566929134
 20
-2.6780472440944885
 30
0.0
 10
3.9687755905511812
 20
-2.9671141732283464
 30
0.0
 10
3.7138976377952759
 20
-3.1405984251968504
 30
0.0
 10
3.7138976377952759
 20
-3.1405984251968504
 30
0.0
 10
3.689409448818898
 20
-3.1492755905511811
 30
0.0
 10
3.6697952755905514
 20
-3.1680118110236219
 30
0.0
 10
3.6600118110236224
 20
-3.1920826771653545
 30
0.0
 10
3.6600118110236224
 20
-3.1920826771653545
 30
0.0
 10
3.6502283464566929
 20
-3.2161535433070867
 30
0.0
 10
3.6512047244094488
 20
-3.2432598425196852
 30
0.0
 10
3.6626968503937007
 20
-3.2665629921259844
 30
0.0
 10
3.6626968503937007
 20
-3.2665629921259844
 30
0.0
 10
3.6967795275590554
 20
-3.3622047244094491
 30
0.0
 10
3.7280314960629921
 20
-3.4588346456692913
 30
0.0
 10
3.7564055118110238
 20
-3.5563228346456692
 30
0.0
 10
3.7564055118110238
 20
-3.5563228346456692
 30
0.0
 10
3.8323503937007874
 20
-3.8111377952755907
 30
0.0
 10
3.8910118110236223
 20
-4.070779527559055
 30
0.0
 10
3.9319921259842521
 20
-4.3334881889763786
 30
0.0
 10
3.9319921259842521
 20
-4.3334881889763786
 30
0.0
 10
3.9787952755905511
 20
-4.6082047244094486
 30
0.0
 10
3.986216535433071
 20
-4.8881771653543309
 30
0.0
 10
3.9540354330708665
 20
-5.1649842519685043
 30
0.0
 10
3.9540354330708665
 20
-5.1649842519685043
 30
0.0
 10
3.9330866141732286
 20
-5.373417322834646
 30
0.0
 10
3.8741102362204725
 20
-5.5762440944881888
 30
0.0
 10
3.7800314960629922
 20
-5.7634133858267722
 30
0.0
 10
3.7800314960629922
 20
-5.7634133858267722
 30
0.0
 10
3.6668700787401578
 20
-5.9828149606299217
 30
0.0
 10
3.4406692913385828
 20
-6.1206535433070872
 30
0.0
 10
3.1938070866141732
 20
-6.1206535433070872
 30
0.0
 10
3.1938070866141732
 20
-6.1206535433070872
 30
0.0
 10
2.9469448818897641
 20
-6.1206574803149607
 30
0.0
 10
2.7207440944881891
 20
-5.9828070866141738
 30
0.0
 10
2.6075866141732282
 20
-5.7634094488188978
 30
0.0
  0
SPLINE
  5
35
100
AcDbEntity
  8
Layer 1
370
     0
100
AcDbSpline
210
0.0
220
0.0
230
1.0
 70
     1
 71
     3
 72
    36
 73
    32
 74
     0
 42
0.0000000001
 43
0.0000000001
 40
0.0
 40
0.0
 40
0.0
 40
0.0
 40
0.125
 40
0.125
 40
0.125
 40
0.125
 40
0.25
 40
0.25
 40
0.25
 40
0.25
 40
0.375
 40
0.375
 40
0.375
 40
0.375
 40
0.5
 40
0.5
 40
0.5
 40
0.5
 40
0.625
 40
0.625
 40
0.625
 40
0.625
 40
0.75
 40
0.75
 40
0.75
 40
0.75
 40
0.875
 40
0.875
 40
0.875
 40
0.875
 40
1.0
 40
1.0
 40
1.0
 40
1.0
 10
2.7997125984251969
 20
-2.3760078740157482
 30
0.0
 10
2.7997125984251969
 20
-2.4804251968503936
 30
0.0
 10
2.841188976377953
 20
-2.5805629921259845
 30
0.0
 10
2.9150236220472441
 20
-2.6543976377952756
 30
0.0
 10
2.9150236220472441
 20
-2.6543976377952756
 30
0.0
 10
2.9888582677165356
 20
-2.7282322834645671
 30
0.0
 10
3.088996062992126
 20
-2.7697086614173227
 30
0.0
 10
3.1934133858267719
 20
-2.7697086614173227
 30
0.0
 10
3.1934133858267719
 20
-2.7697086614173227
 30
0.0
 10
3.2978307086614174
 20
-2.7697086614173227
 30
0.0
 10
3.3979685039370082
 20
-2.7282322834645671
 30
0.0
 10
3.4717992125984254
 20
-2.6543976377952756
 30
0.0
 10
3.4717992125984254
 20
-2.6543976377952756
 30
0.0
 10
3.5456338582677165
 20
-2.5805629921259845
 30
0.0
 10
3.5871141732283465
 20
-2.4804251968503936
 30
0.0
 10
3.5871141732283465
 20
-2.3760078740157482
 30
0.0
 10
3.5871141732283465
 20
-2.3760078740157482
 30
0.0
 10
3.5871141732283465
 20
-2.2715944881889762
 30
0.0
 10
3.5456338582677165
 20
-2.1714527559055119
 30
0.0
 10
3.4717992125984254
 20
-2.0976181102362204
 30
0.0
 10
3.4717992125984254
 20
-2.0976181102362204
 30
0.0
 10
3.3979685039370082
 20
-2.0237874015748032
 30
0.0
 10
3.2978267716535434
 20
-1.9823070866141732
 30
0.0
 10
3.1934133858267719
 20
-1.9823070866141732
 30
0.0
 10
3.1934133858267719
 20
-1.9823070866141732
 30
0.0
 10
3.088996062992126
 20
-1.9823070866141732
 30
0.0
 10
2.9888543307086617
 20
-2.0237874015748032
 30
0.0
 10
2.9150236220472441
 20
-2.0976181102362204
 30
0.0
 10
2.9150236220472441
 20
-2.0976181102362204
 30
0.0
 10
2.841188976377953
 20
-2.1714527559055119
 30
0.0
 10
2.7997125984251969
 20
-2.2715905511811023
 30
0.0
 10
2.7997125984251969
 20
-2.3760078740157482
 30
0.0
  0
SPLINE
  5
36
100
AcDbEntity
  8
Layer 1
370
     0
100
AcDbSpline
210
0.0
220
0.0
230
1.0
 70
     1
 71
     3
 72
    28
 73
    24
 74
     0
 42
0.0000000001
 43
0.0000000001
 40
0.0
 40
0.0
 40
0.0
 40
0.0
 40
0.1666666666666667
 40
0.1666666666666667
 40
0.1666666666666667
 40
0.1666666666666667
 40
0.3333333333333333
 40
0.3333333333333333
 40
0.3333333333333333
 40
0.3333333333333333
 40
0.5
 40
0.5
 40
0.5
 40
0.5
 40
0.6666666666666666
 40
0.6666666666666666
 40
0.6666666666666666
 40
0.6666666666666666
 40
0.8333333333333333
 40
0.8333333333333333
 40
0.8333333333333333
 40
0.8333333333333333
 40
1.0
 40
1.0
 40
1.0
 40
1.0
 10
-3.9656220472440946
 20
-4.6269133858267715
 30
0.0
 10
-3.7985590551181105
 20
-4.6269055118110236
 30
0.0
 10
-3.6383346456692913
 20
-4.5605275590551182
 30
0.0
 10
-3.5202086614173229
 20
-4.442389763779528
 30
0.0
 10
-3.5202086614173229
 20
-4.442389763779528
 30
0.0
 10
-3.4020826771653545
 20
-4.3242480314960634
 30
0.0
 10
-3.3357322834645671
 20
-4.1640196850393698
 30
0.0
 10
-3.3357322834645671
 20
-3.9969527559055118
 30
0.0
 10
-3.3357322834645671
 20
-3.9969527559055118
 30
0.0
 10
-3.3357322834645671
 20
-3.6490629921259843
 30
0.0
 10
-3.6177755905511813
 20
-3.3670472440944885
 30
0.0
 10
-3.9656692913385827
 20
-3.3670354330708663
 30
0.0
 10
-3.9656692913385827
 20
-3.3670354330708663
 30
0.0
 10
-4.1884763779527558
 20
-3.3670157480314962
 30
0.0
 10
-4.3947204724409454
 20
-3.4846811023622051
 30
0.0
 10
-4.5080905511811027
 20
-3.676492125984252
 30
0.0
 10
-4.5080905511811027
 20
-3.676492125984252
 30
0.0
 10
-4.6214566929133856
 20
-3.8683031496062994
 30
0.0
 10
-4.6250787401574804
 20
-4.1057283464566927
 30
0.0
 10
-4.5176181102362207
 20
-4.300905511811024
 30
0.0
 10
-4.5176181102362207
 20
-4.300905511811024
 30
0.0
 10
-4.4067952755905511
 20
-4.5020629921259845
 30
0.0
 10
-4.1952874015748032
 20
-4.6269763779527562
 30
0.0
 10
-3.9656220472440946
 20
-4.6269133858267715
 30
0.0
  0
SPLINE
  5
37
100
AcDbEntity
  8
Layer 1
370
     0
100
AcDbSpline
210
0.0
220
0.0
230
1.0
 70
     1
 71
     3
 72
    28
 73
    24
 74
     0
 42
0.0000000001
 43
0.0000000001
 40
0.0
 40
0.0
 40
0.0
 40
0.0
 40
0.1666666666666667
 40
0.1666666666666667
 40
0.1666666666666667
 40
0.1666666666666667
 40
0.3333333333333333
 40
0.3333333333333333
 40
0.3333333333333333
 40
0.3333333333333333
 40
0.5
 40
0.5
 40
0.5
 40
0.5
 40
0.6666666666666666
 40
0.6666666666666666
 40
0.6666666666666666
 40
0.6666666666666666
 40
0.8333333333333333
 40
0.8333333333333333
 40
0.8333333333333333
 40
0.8333333333333333
 40
1.0
 40
1.0
 40
1.0
 40
1.0
 10
-4.2381062992125988
 20
-4.2812401574803154
 30
0.0
 10
-4.1647952755905511
 20
-4.3515000000000006
 30
0.0
 10
-4.0671653543307089
 20
-4.3907125984251971
 30
0.0
 10
-3.9656220472440946
 20
-4.3906889763779526
 30
0.0
 10
-3.9656220472440946
 20
-4.3906889763779526
 30
0.0
 10
-3.7482125984251971
 20
-4.390665354330709
 30
0.0
 10
-3.5719724409448821
 20
-4.2144173228346462
 30
0.0
 10
-3.5719724409448821
 20
-3.9970039370078743
 30
0.0
 10
-3.5719724409448821
 20
-3.9970039370078743
 30
0.0
 10
-3.5719724409448821
 20
-3.8925866141732284
 30
0.0
 10
-3.6134448818897638
 20
-3.7924409448818901
 30
0.0
 10
-3.6872755905511814
 20
-3.7186023622047246
 30
0.0
 10
-3.6872755905511814
 20
-3.7186023622047246
 30
0.0
 10
-3.7611062992125985
 20
-3.6447637795275591
 30
0.0
 10
-3.8612519685039373
 20
-3.6032755905511813
 30
0.0
 10
-3.9656692913385827
 20
-3.6032716535433074
 30
0.0
 10
-3.9656692913385827
 20
-3.6032716535433074
 30
0.0
 10
-4.1264370078740162
 20
-3.6032716535433074
 30
0.0
 10
-4.2710551181102367
 20
-3.7010157480314962
 30
0.0
 10
-4.3310000000000004
 20
-3.8501889763779529
 30
0.0
 10
-4.3310000000000004
 20
-3.8501889763779529
 30
0.0
 10
-4.3909448818897641
 20
-3.9993661417322834
 30
0.0
 10
-4.3541692913385832
 20
-4.1699999999999999
 30
0.0
 10
-4.2381062992125988
 20
-4.2812401574803154
 30
0.0
  0
SPLINE
  5
38
100
AcDbEntity
  8
Layer 1
370
     0
100
AcDbSpline
210
0.0
220
0.0
230
1.0
 70
     1
 71
     3
 72
    36
 73
    32
 74
     0
 42
0.0000000001
 43
0.0000000001
 40
0.0
 40
0.0
 40
0.0
 40
0.0
 40
0.125
 40
0.125
 40
0.125
 40
0.125
 40
0.25
 40
0.25
 40
0.25
 40
0.25
 40
0.375
 40
0.375
 40
0.375
 40
0.375
 40
0.5
 40
0.5
 40
0.5
 40
0.5
 40
0.625
 40
0.625
 40
0.625
 40
0.625
 40
0.75
 40
0.75
 40
0.75
 40
0.75
 40
0.875
 40
0.875
 40
0.875
 40
0.875
 40
1.0
 40
1.0
 40
1.0
 40
1.0
 10
-5.069196850393701
 20
-3.0386299212598424
 30
0.0
 10
-5.1860236220472444
 20
-2.9289842519685041
 30
0.0
 10
-5.3402401574803156
 20
-2.8679724409448819
 30
0.0
 10
-5.5004645669291339
 20
-2.8680078740157482
 30
0.0
 10
-5.5004645669291339
 20
-2.8680078740157482
 30
0.0
 10
-5.6675275590551184
 20
-2.8680118110236221
 30
0.0
 10
-5.8277519685039376
 20
-2.9343740157480318
 30
0.0
 10
-5.9458858267716534
 20
-3.0525078740157481
 30
0.0
 10
-5.9458858267716534
 20
-3.0525078740157481
 30
0.0
 10
-6.0640196850393702
 20
-3.1706456692913387
 30
0.0
 10
-6.1303818897637798
 20
-3.3308661417322836
 30
0.0
 10
-6.1303818897637798
 20
-3.4979291338582676
 30
0.0
 10
-6.1303818897637798
 20
-3.4979291338582676
 30
0.0
 10
-6.1303818897637798
 20
-3.665
 30
0.0
 10
-6.0640196850393702
 20
-3.8252204724409449
 30
0.0
 10
-5.9458858267716534
 20
-3.9433543307086616
 30
0.0
 10
-5.9458858267716534
 20
-3.9433543307086616
 30
0.0
 10
-5.8277559055118111
 20
-4.0614881889763783
 30
0.0
 10
-5.6675275590551184
 20
-4.1278582677165359
 30
0.0
 10
-5.5004645669291339
 20
-4.1278582677165359
 30
0.0
 10
-5.5004645669291339
 20
-4.1278582677165359
 30
0.0
 10
-5.2776574803149607
 20
-4.1278858267716538
 30
0.0
 10
-5.0714015748031498
 20
-4.0102244094488189
 30
0.0
 10
-4.9580314960629925
 20
-3.8184133858267719
 30
0.0
 10
-4.9580314960629925
 20
-3.8184133858267719
 30
0.0
 10
-4.8446614173228344
 20
-3.6266062992125985
 30
0.0
 10
-4.841035433070866
 20
-3.3891771653543308
 30
0.0
 10
-4.9484960629921257
 20
-3.193996062992126
 30
0.0
 10
-4.9484960629921257
 20
-3.193996062992126
 30
0.0
 10
-4.9803464566929136
 20
-3.1362047244094491
 30
0.0
 10
-5.0210748031496069
 20
-3.0837795275590554
 30
0.0
 10
-5.069196850393701
 20
-3.0386299212598424
 30
0.0
  0
SPLINE
  5
39
100
AcDbEntity
  8
Layer 1
370
     0
100
AcDbSpline
210
0.0
220
0.0
230
1.0
 70
     1
 71
     3
 72
    32
 73
    28
 74
     0
 42
0.0000000001
 43
0.0000000001
 40
0.0
 40
0.0
 40
0.0
 40
0.0
 40
0.1428571428571429
 40
0.1428571428571429
 40
0.1428571428571429
 40
0.1428571428571429
 40
0.2857142857142857
 40
0.2857142857142857
 40
0.2857142857142857
 40
0.2857142857142857
 40
0.4285714285714286
 40
0.4285714285714286
 40
0.4285714285714286
 40
0.4285714285714286
 40
0.5714285714285714
 40
0.5714285714285714
 40
0.5714285714285714
 40
0.5714285714285714
 40
0.7142857142857142
 40
0.7142857142857142
 40
0.7142857142857142
 40
0.7142857142857142
 40
0.857142857142857
 40
0.857142857142857
 40
0.857142857142857
 40
0.857142857142857
 40
1.0
 40
1.0
 40
1.0
 40
1.0
 10
-5.5004645669291339
 20
-3.1042440944881893
 30
0.0
 10
-5.6048779527559054
 20
-3.1042401574803149
 30
0.0
 10
-5.7050157480314967
 20
-3.1457165354330709
 30
0.0
 10
-5.7788503937007878
 20
-3.2195472440944881
 30
0.0
 10
-5.7788503937007878
 20
-3.2195472440944881
 30
0.0
 10
-5.8526850393700789
 20
-3.2933818897637797
 30
0.0
 10
-5.8941653543307089
 20
-3.3935157480314961
 30
0.0
 10
-5.8941653543307089
 20
-3.4979291338582676
 30
0.0
 10
-5.8941653543307089
 20
-3.4979291338582676
 30
0.0
 10
-5.8941653543307089
 20
-3.6023464566929135
 30
0.0
 10
-5.8526850393700789
 20
-3.7024881889763779
 30
0.0
 10
-5.7788503937007878
 20
-3.7763188976377955
 30
0.0
 10
-5.7788503937007878
 20
-3.7763188976377955
 30
0.0
 10
-5.7050196850393702
 20
-3.8501535433070866
 30
0.0
 10
-5.6048779527559054
 20
-3.8916299212598426
 30
0.0
 10
-5.5004645669291339
 20
-3.8916299212598426
 30
0.0
 10
-5.5004645669291339
 20
-3.8916299212598426
 30
0.0
 10
-5.3397047244094491
 20
-3.8916338582677166
 30
0.0
 10
-5.1950866141732286
 20
-3.7938937007874016
 30
0.0
 10
-5.1351456692913384
 20
-3.6447244094488189
 30
0.0
 10
-5.1351456692913384
 20
-3.6447244094488189
 30
0.0
 10
-5.0752047244094491
 20
-3.4955590551181102
 30
0.0
 10
-5.1119724409448821
 20
-3.324929133858268
 30
0.0
 10
-5.2280314960629921
 20
-3.213688976377953
 30
0.0
 10
-5.2280314960629921
 20
-3.213688976377953
 30
0.0
 10
-5.3013307086614176
 20
-3.143444881889764
 30
0.0
 10
-5.3989370078740162
 20
-3.104232283464567
 30
0.0
 10
-5.5004645669291339
 20
-3.1042440944881893
 30
0.0
  0
ENDSEC
  0
SECTION
  2
OBJECTS
  0
DICTIONARY
  5
19
100
AcDbDictionary
280
     0
281
     1
  3
ACAD_GROUP
350
1A
  3
ACAD_MLINESTYLE
350
1B
  3
ACAD_LAYOUT
350
1E
  3
ACAD_PLOTSETTINGS
350
22
  3
ACAD_PLOTSTYLENAME
350
1F
  3
ACAD_WIPEOUT_VARS
350
23
  0
DICTIONARY
  5
1A
102
{ACAD_REACTORS
330
19
102
}
100
AcDbDictionary
280
     0
281
     1
  0
DICTIONARY
  5
1B
102
{ACAD_REACTORS
330
19
102
}
100
AcDbDictionary
280
     0
281
     1
  3
Standard
350
1C
  0
MLINESTYLE
  5
1C
102
{ACAD_REACTORS
330
1B
102
}
100
AcDbMlineStyle
  2
Standard
 70
     0
  3

 62
     0
 51
90.0
 52
90.0
 71
     2
 49
0.5
 62
   256
  6
BYLAYER
 49
-0.5
 62
   256
  6
BYLAYER
  0
ACDBDICTIONARYWDFLT
  5
1F
102
{ACAD_REACTORS
330
19
102
}
100
AcDbDictionary
281
     1
  3
Normal
350
1D
100
AcDbDictionaryWithDefault
340
1D
  0
ACDBPLACEHOLDER
  5
1D
102
{ACAD_REACTORS
330
1F
102
}
  0
LAYOUT
  5
20
102
{ACAD_REACTORS
330
1E
102
}
100
AcDbPlotSettings
  1

  2

  4

  6

 40
0.0
 41
0.0
 42
0.0
 43
0.0
 44
0.0
 45
0.0
 46
0.0
 47
0.0
 48
0.0
 49
0.0
140
0.0
141
0.0
142
1.0
143
1.0
 70
  1024
 72
     0
 73
     0
 74
     0
  7

 75
     0
147
1.0
148
0.0
149
0.0
100
AcDbLayout
  1
Model
 70
     0
 71
     0
 10
0.0
 20
0.0
 11
0.0
 21
0.0
 12
0.0
 22
0.0
 32
0.0
 14
0.0
 24
0.0
 34
0.0
 15
0.0
 25
0.0
 35
0.0
146
0.0
 13
0.0
 23
0.0
 33
0.0
 16
0.0
 26
0.0
 36
0.0
 17
0.0
 27
0.0
 37
0.0
 76
     0
330
A
331
0
345
0
346
0
  0
LAYOUT
  5
21
102
{ACAD_REACTORS
330
1E
102
}
100
AcDbPlotSettings
  1

  2

  4

  6

 40
0.0
 41
0.0
 42
0.0
 43
0.0
 44
0.0
 45
0.0
 46
0.0
 47
0.0
 48
0.0
 49
0.0
140
0.0
141
0.0
142
1.0
143
1.0
 70
     0
 72
     0
 73
     0
 74
     0
  7

 75
     0
147
1.0
148
0.0
149
0.0
100
AcDbLayout
  1
Layout1
 70
     0
 71
     0
 10
0.0
 20
0.0
 11
0.0
 21
0.0
 12
0.0
 22
0.0
 32
0.0
 14
0.0
 24
0.0
 34
0.0
 15
0.0
 25
0.0
 35
0.0
146
0.0
 13
0.0
 23
0.0
 33
0.0
 16
0.0
 26
0.0
 36
0.0
 17
0.0
 27
0.0
 37
0.0
 76
     0
330
B
331
0
345
0
346
0
  0
DICTIONARY
  5
1E
102
{ACAD_REACTORS
330
19
102
}
100
AcDbDictionary
280
     0
281
     1
  3
Layout1
350
21
  3
Model
350
20
  0
DICTIONARY
  5
22
102
{ACAD_REACTORS
330
19
102
}
100
AcDbDictionary
280
     0
281
     1
  0
WIPEOUTVARIABLES
  5
23
100
AcDbWipeoutVariables
 70
     1
  0
ENDSEC
  0
EOF
