0
SECTION
2
HEADER
9
$INSUNITS
70
4
9
$ACADVER
1
AC1014
9
$HANDSEED
5
FFFF
0
ENDSEC
0
SECTION
2
TABLES
0
TABLE
2
VPORT
5
8
100
AcDbSymbolTable
0
ENDTAB
0
TABLE
2
LTYPE
5
5
100
AcDbSymbolTable
0
LTYPE
5
14
100
AcDbSymbolTableRecord
100
AcDbLinetypeTableRecord
2
BYBLOCK
70
0
0
LTYPE
5
15
100
AcDbSymbolTableRecord
100
AcDbLinetypeTableRecord
2
BYLAYER
70
0
0
ENDTAB
0
TABLE
2
LAYER
5
2
100
AcDbSymbolTable
70
2
0
LAYER
5
50
100
AcDbSymbolTableRecord
100
AcDbLayerTableRecord
2
0
70
0
6
CONTINUOUS
0
ENDTAB
0
TABLE
2
STYLE
5
3
100
AcDbSymbolTable
70
1
0
STYLE
5
11
100
AcDbSymbolTableRecord
100
AcDbTextStyleTableRecord
2
STANDARD
70
0
0
ENDTAB
0
TABLE
2
VIEW
5
6
100
AcDbSymbolTable
70
0
0
ENDTAB
0
TABLE
2
UCS
5
7
100
AcDbSymbolTable
70
0
0
ENDTAB
0
TABLE
2
APPID
5
9
100
AcDbSymbolTable
70
2
0
APPID
5
12
100
AcDbSymbolTableRecord
100
AcDbRegAppTableRecord
2
ACAD
70
0
0
ENDTAB
0
TABLE
2
DIMSTYLE
5
A
100
AcDbSymbolTable
70
1
0
ENDTAB
0
TABLE
2
BLOCK_RECORD
5
1
100
AcDbSymbolTable
70
1
0
BLOCK_RECORD
5
1F
100
AcDbSymbolTableRecord
100
AcDbBlockTableRecord
2
*MODEL_SPACE
0
BLOCK_RECORD
5
1B
100
AcDbSymbolTableRecord
100
AcDbBlockTableRecord
2
*PAPER_SPACE
0
ENDTAB
0
ENDSEC
0
SECTION
2
BLOCKS
0
BLOCK
5
20
100
AcDbEntity
100
AcDbBlockBegin
2
*MODEL_SPACE
0
ENDBLK
5
21
100
AcDbEntity
100
AcDbBlockEnd
0
BLOCK
5
1C
100
AcDbEntity
100
AcDbBlockBegin
2
*PAPER_SPACE
0
ENDBLK
5
1D
100
AcDbEntity
100
AcDbBlockEnd
0
ENDSEC
0
SECTION
2
ENTITIES
0
LWPOLYLINE
5
100
100
AcDbEntity
8
0
100
AcDbPolyline
90
12
70
1
43
0.0
10
-22.085946878891008
20
36.908610213967684
42
-0.67006013311544022
10
-22.235346554816743
20
36.908610213967684
42
0.12999745103013544
10
-21.082344076628608
20
43.305209149368949
42
0.17644416814473005
10
-24.665154325805251
20
41.163954929231423
42
0.17644416814472896
10
-28.24796457498185
20
43.305209149368963
42
0.12999745103013588
10
-27.094962096793729
20
36.908610213967677
42
-0.67006013311543589
10
-27.244361772719468
20
36.908610213967677
42
-0.25747013973473737
10
-29.01864118817894
20
47.196588028434974
42
0.12602768477163989
10
-27.244361772719465
20
44.908610333176966
42
-0.085466179991592159
10
-24.665154325805251
20
42.331911776579155
42
-0.085466179991590924
10
-22.085946878891008
20
44.908610333176966
42
0.12602768477163942
10
-20.311667463431533
20
47.196588028434959
42
-0.25747013973473643
0
CIRCLE
5
101
100
AcDbEntity
8
0
100
AcDbCircle
10
-24.665154325805236
20
42.809873614854403
30
0
40
8.5
0
CIRCLE
5
102
100
AcDbEntity
8
0
100
AcDbCircle
10
-24.665154325805236
20
42.809873614854403
30
0
40
9.5
0
LWPOLYLINE
5
103
100
AcDbEntity
8
0
100
AcDbPolyline
90
25
70
1
43
0.0
10
-7.9469386458376032
20
42.541637511030558
42
-0.54190491581877509
10
-0.55966562392909314
20
56.416524122103951
10
-0.55217450772076404
20
56.417187584983637
10
-10.521616476035085
20
35.974340765778265
10
-6.3551109099840986
20
35.974340765778265
10
-3.0616985403232277
20
43.324929131895075
10
1.9710455191395582
20
43.324929131895075
10
1.9710455191395582
20
41.919337582177789
10
5.5270077501863213
20
44.730520681612347
10
1.9710455191395582
20
48.129337674714002
10
1.9710455191395582
20
46.607318980615261
10
-1.7777242333044185
20
46.607318980615261
10
1.9710455191395582
20
55.581337785757455
10
1.9710455191395582
20
48.95733768705216
10
5.1120393514814921
20
46.059337643868602
10
5.1120393514815028
20
54.745332616882294
42
-0.51550798635026329
10
5.1120393514815001
20
39.533897359287636
42
-0.28842423633119529
10
-4.3154772866509123
20
38.964016395534159
10
-5.0782674302886832
20
37.501744468485015
42
0.26456621429422494
10
5.1120393514814637
20
37.411483790346281
42
0.59126893367839894
10
5.1120393514815055
20
56.823337804264689
10
5.1120393514814921
20
61.270699637778073
10
1.8147564378944381
20
61.270699637778073
10
0.26599010194519934
20
58.094875648313113
42
0.62314133428534946
10
-8.7929546412565109
20
40.677337563670541
0
LWPOLYLINE
5
104
100
AcDbEntity
8
0
100
AcDbPolyline
90
4
70
1
43
0.0
10
5.1120393514814921
20
40.776235911183669
10
1.9710455191395582
20
40.776235911183669
10
1.9710455191395582
20
40.947198692636995
10
5.1120393514814921
20
43.651519053807924
0
LWPOLYLINE
5
105
100
AcDbEntity
8
0
100
AcDbPolyline
90
12
70
1
43
0.0
10
20.652002668907095
20
42.499306708051414
10
20.404490879040367
20
41.912676247827491
10
21.018172802653261
20
41.069487263351256
10
23.4836714131497
20
40.625269212374199
10
23.521620239197475
20
40.989135050613406
42
0.057887847581558745
10
24.857568681175191
20
40.908363761504269
42
0.057887847581550606
10
26.193517123152859
20
40.989135050613406
10
26.23146594920069
20
40.625269212374199
10
28.696964559697093
20
41.069487263351256
10
29.310646483309988
20
41.912676247827491
10
29.063134693443239
20
42.499306708051428
42
-0.14198647235846232
10
24.857568681175195
20
41.343222506643052
42
-0.14198647235846412
0
LWPOLYLINE
5
106
100
AcDbEntity
8
0
100
AcDbPolyline
90
35
70
1
43
0.0
10
26.201295331375576
20
45.199655170312163
10
26.8292945310235
20
49.894967711255191
42
-0.11465811154309616
10
28.612910107373324
20
49.347812560727206
10
28.630055577993513
20
49.3378039779208
42
-0.088890601028155602
10
29.734435795910095
20
48.392190047266574
10
29.56891320759798
20
43.371573120466572
10
30.019551636908517
20
41.722547050502776
10
29.87289273010358
20
41.534141760637759
10
29.74364424604925
20
40.392446818158085
10
28.041416956174778
20
37.705626154879532
10
27.896825534763714
20
36.588270436792165
10
27.223425436068851
20
35.724779517487207
10
26.552517047781734
20
36.176904271710299
10
29.385384439390485
20
40.227303206231404
10
29.318784984169923
20
41.68421543747889
10
29.27432060345037
20
41.682182848645375
10
29.296552793810129
20
40.261829217904925
10
26.439537752991185
20
36.176904271710299
42
-0.05534539669155427
10
24.857568681175191
20
36.053275878175299
42
-0.055345396691555498
10
23.275599609359183
20
36.176904271710299
10
20.41858456854019
20
40.261829217904925
10
20.440816758899985
20
41.682182848645375
10
20.396352378180431
20
41.68421543747889
10
20.329752922959869
20
40.227303206231404
10
23.16262031456862
20
36.176904271710299
10
22.491711926281504
20
35.724779517487207
10
21.818311827586676
20
36.588270436792165
10
21.673720406175576
20
37.705626154879532
10
19.971493116301069
20
40.392446818158085
10
19.842244632246775
20
41.534141760637759
10
19.695585725441838
20
41.722547050502776
10
20.146224154752339
20
43.371573120466572
10
19.980701566439812
20
48.392190047266936
42
-0.20690016637085462
10
22.88584283132689
20
49.894967711255191
10
23.513842030974779
20
45.199655170312163
0
LWPOLYLINE
5
107
100
AcDbEntity
8
0
100
AcDbPolyline
90
5
70
1
43
0.0
10
24.857568681175145
20
48.698533074809959
42
-0.090730692387308048
10
26.640251497986345
20
48.481564438934505
10
26.201295331375576
20
45.199655170312163
10
23.513842030974779
20
45.199655170312163
10
23.074885864363974
20
48.481564438934505
42
-0.090730692387305037
0
LWPOLYLINE
5
108
100
AcDbEntity
8
0
100
AcDbPolyline
90
10
70
1
43
0.0
10
24.857568681175199
20
51.64936103848369
42
-0.18467551702414325
10
28.645161757046509
20
50.326066827516826
10
28.612910107373022
20
49.34781256072668
42
0.11465811154309628
10
26.8292945310235
20
49.894967711255191
10
26.653696486717408
20
48.582087535520017
42
0.089588536302692853
10
24.857568681175
20
48.798708924591566
42
0.089588536302674937
10
23.061440875632933
20
48.582087535520017
10
22.885842831326872
20
49.894967711255191
42
0.10973109321225141
10
21.171986555734073
20
49.387406673404499
10
21.139145276933007
20
50.383545520239331
42
-0.18053885165601052
0
LWPOLYLINE
5
109
100
AcDbEntity
8
0
100
AcDbPolyline
90
6
70
1
43
0.0
10
30.019551636908517
20
41.722547050502776
10
29.56891320759798
20
43.371573120466572
10
29.734435795910095
20
48.392190047266574
10
29.853002066759686
20
48.636097804442912
42
-0.083501282523006731
10
30.438233845520024
20
45.955592992051891
10
30.30547322797009
20
42.089856076706511
0
LWPOLYLINE
5
110
100
AcDbEntity
8
0
100
AcDbPolyline
90
4
70
1
43
0.0
10
28.725759310096034
20
50.255473910752755
42
-0.11225600603992864
10
29.829181356017283
20
48.694962356650358
10
29.686225744870303
20
48.450068421283731
42
0.07971761248452594
10
28.694237043993596
20
49.299343243755224
0
CIRCLE
5
111
100
AcDbEntity
8
0
100
AcDbCircle
10
24.857568681175159
20
42.761951627386956
30
0
40
9.6499999999999986
0
LWPOLYLINE
5
112
100
AcDbEntity
8
0
100
AcDbPolyline
90
57
70
1
43
0.0
10
20.214936809044168
20
38.242027532260884
10
22.909404461211373
20
34.24370420905862
10
23.467619071946082
20
34.015143896001902
10
23.300594227789233
20
34.687638663264948
10
23.232065374827293
20
34.683122145888021
10
23.029490726982296
20
35.785177330241147
10
22.613316797773244
20
35.544329923479545
10
22.491711926281504
20
35.724779517487207
10
23.16262031456862
20
36.176904271710299
10
20.329752922959869
20
40.227303206231404
10
20.396352378180431
20
41.68421543747889
10
20.440816758899985
20
41.682182848645375
10
20.41858456854019
20
40.261829217904925
10
23.275599609359165
20
36.176904271710299
42
0.055345396691555949
10
24.857568681175177
20
36.053275878175299
42
0.055345396691555061
10
26.439537752991207
20
36.176904271710299
10
29.296552793810129
20
40.261829217904925
10
29.27432060345037
20
41.682182848645375
10
29.318784984169923
20
41.68421543747889
10
29.385384439390485
20
40.227303206231404
10
26.552517047781734
20
36.176904271710299
10
27.223425436068851
20
35.724779517487207
10
27.101820564577146
20
35.544329923479545
10
26.685646635368094
20
35.785177330241147
10
26.483071987523026
20
34.683122145888021
10
26.414543134561121
20
34.687638663264948
10
26.247518290404273
20
34.015143896001902
10
26.805732901138946
20
34.24370420905862
10
28.094781651668761
20
36.156524977139696
10
27.834181307685064
20
36.507942677211915
10
27.896825534763714
20
36.588270436792165
10
28.152966727222584
20
36.242865870659749
10
29.500200553306186
20
38.242027532260884
10
29.87289273010358
20
41.534141760637759
10
30.30547322797009
20
42.089856076706511
10
30.438233845520024
20
45.955592992051912
42
0.08350128252300569
10
29.853002066759693
20
48.636097804442898
10
29.734435795910077
20
48.392190047266553
42
0.0045694052868217811
10
29.68622574487032
20
48.450068421283746
10
29.829181356017283
20
48.694962356650358
42
0.11225600603992965
10
28.725759310096031
20
50.255473910752777
10
28.694237043993599
20
49.299343243755231
42
0.0045388505765902318
10
28.63005557799406
20
49.33780397792043
42
0.0012042781687790652
10
28.612910107373324
20
49.347812560727206
10
28.645161757046509
20
50.326066827516826
42
0.18467551702414423
10
24.857568681175177
20
51.649361038483704
42
0.1805388516560098
10
21.139145276933
20
50.383545520239331
10
21.171986555734055
20
49.387406673404477
42
0.0048657989892771664
10
21.102227254977031
20
49.347812560727206
10
21.069975605303863
20
50.326066827516826
42
0.11671991701271364
10
19.897969815618417
20
48.723737226091252
10
20.030241688631961
20
48.451635087320469
42
0.0046940714914999503
10
19.980701566439798
20
48.392190047266944
10
19.862135295590679
20
48.636097804442898
42
0.08350128252300508
10
19.276903516830366
20
45.955592992051891
10
19.409664134380229
20
42.089856076706511
10
19.842244632246775
20
41.534141760637759
0
LWPOLYLINE
5
113
100
AcDbEntity
8
0
100
AcDbPolyline
90
8
70
1
43
0.0
10
24.094370781700967
20
34.687638663264948
10
23.385818589358358
20
34.687638663264948
10
23.552843433515243
20
34.015143896001902
10
26.175141357093885
20
34.015143896001902
10
26.34216620125077
20
34.687638663264948
10
25.620766580649352
20
34.687638663264948
10
25.524231280150005
20
34.892498849399793
10
24.19090608220035
20
34.892498849399793
0
LWPOLYLINE
5
114
100
AcDbEntity
8
0
100
AcDbPolyline
90
8
70
1
43
0.0
10
26.579301655062046
20
35.785177330241147
10
23.094288644572352
20
35.785177330241147
10
23.2944095620498
20
34.754527828721329
10
24.046425995920551
20
34.754527828721329
10
24.142638431950694
20
34.958702855386854
10
25.571553287127458
20
34.958702855386854
10
25.667765723157565
20
34.754527828721329
10
26.389852467048307
20
34.754527828721329
0
LWPOLYLINE
5
115
100
AcDbEntity
8
0
100
AcDbPolyline
90
6
70
1
43
0.0
10
20.146224154752339
20
43.371573120466572
10
19.695585725441838
20
41.722547050502776
10
19.409664134380229
20
42.089856076706511
10
19.276903516830362
20
45.955592992051905
42
-0.083501282523004941
10
19.862135295590697
20
48.636097804442898
10
19.980701566440295
20
48.392190047266574
0
LWPOLYLINE
5
116
100
AcDbEntity
8
0
100
AcDbPolyline
90
4
70
1
43
0.0
10
19.897969815618413
20
48.723737226091259
42
-0.11671991701271325
10
21.069975605303863
20
50.326066827516826
10
21.102227254977031
20
49.347812560727192
42
0.085374343622207333
10
20.030241688631953
20
48.45163508732049
0
LWPOLYLINE
5
117
100
AcDbEntity
8
0
100
AcDbPolyline
90
5
70
1
43
0.0
10
28.935008542087168
20
42.140191141880507
42
-0.070939025338020961
10
26.61169365457603
20
41.240045473572494
10
26.611693654576065
20
41.036797580588022
10
28.460733236840561
20
41.314306060160291
10
29.011252009954163
20
41.959485646324318
0
LWPOLYLINE
5
118
100
AcDbEntity
8
0
100
AcDbPolyline
90
5
70
1
43
0.0
10
20.703885352396192
20
41.959485646324318
10
21.254404125509829
20
41.314306060160291
10
23.103443707774325
20
41.036797580588022
10
23.103443707774318
20
41.240045473572515
42
-0.070939025338021738
10
20.78012882026318
20
42.140191141880521
0
LWPOLYLINE
5
119
100
AcDbEntity
8
0
100
AcDbPolyline
90
12
70
1
43
0.0
10
20.404490879040367
20
41.912676247827491
10
20.652002668907095
20
42.499306708051414
42
0.14198647235846357
10
24.857568681175177
20
41.34322250664308
42
0.14198647235846254
10
29.063134693443224
20
42.499306708051428
10
29.310646483309988
20
41.912676247827491
10
28.696964559697093
20
41.069487263351256
10
26.23146594920069
20
40.625269212374199
10
26.193517123152876
20
40.989135050613413
42
-0.057887847581552666
10
24.857568681175159
20
40.908363761504269
42
-0.057887847581556344
10
23.521620239197496
20
40.989135050613406
10
23.4836714131497
20
40.625269212374199
10
21.018172802653261
20
41.069487263351256
0
LWPOLYLINE
5
120
100
AcDbEntity
8
0
100
AcDbPolyline
90
5
70
1
43
0.0
10
21.254404125509829
20
41.314306060160291
10
20.703885352396192
20
41.959485646324318
10
20.780128820263162
20
42.140191141880514
42
0.070939025338021822
10
23.103443707774325
20
41.240045473572494
10
23.103443707774325
20
41.036797580588022
0
LWPOLYLINE
5
121
100
AcDbEntity
8
0
100
AcDbPolyline
90
5
70
1
43
0.0
10
28.935008542087179
20
42.140191141880514
42
-0.070939025338019948
10
26.611693654576033
20
41.240045473572508
10
26.611693654576065
20
41.036797580588022
10
28.460733236840561
20
41.314306060160291
10
29.011252009954163
20
41.959485646324318
0
CIRCLE
5
122
100
AcDbEntity
8
0
100
AcDbCircle
10
24.857568681175159
20
42.761951627386956
30
0
40
9.6499999999999986
0
CIRCLE
5
123
100
AcDbEntity
8
0
100
AcDbCircle
10
24.857568681175159
20
42.761951627386956
30
0
40
11.64999999999999
0
LWPOLYLINE
5
124
100
AcDbEntity
8
0
100
AcDbPolyline
90
8
70
1
43
0.0
10
23.385818589358358
20
34.687638663264948
10
24.094370781700967
20
34.687638663264948
10
24.19090608220035
20
34.892498849399793
10
25.524231280150005
20
34.892498849399793
10
25.620766580649352
20
34.687638663264948
10
26.34216620125077
20
34.687638663264948
10
26.175141357093885
20
34.015143896001902
10
23.552843433515243
20
34.015143896001902
0
LINE
5
125
100
AcDbEntity
8
0
100
AcDbLine
10
26.389852467048307
20
34.754527828721329
30
0
11
26.579301655062046
21
35.785177330241147
31
0
0
LWPOLYLINE
5
126
100
AcDbEntity
8
0
100
AcDbPolyline
90
8
70
1
43
0.0
10
23.094288644572352
20
35.785177330241147
10
26.579301655062046
20
35.785177330241147
10
26.389852467048307
20
34.754527828721329
10
25.667765723157565
20
34.754527828721329
10
25.571553287127458
20
34.958702855386854
10
24.142638431950694
20
34.958702855386854
10
24.046425995920551
20
34.754527828721329
10
23.2944095620498
20
34.754527828721329
0
LWPOLYLINE
5
127
100
AcDbEntity
8
0
100
AcDbPolyline
90
9
70
1
43
0.0
10
28.094781651668761
20
36.156524977139696
10
26.805732901138946
20
34.24370420905862
10
26.247518290404273
20
34.015143896001902
10
26.414543134561121
20
34.687638663264948
10
26.483071987523026
20
34.683122145888021
10
26.685646635368094
20
35.785177330241147
10
27.101820564577146
20
35.544329923479545
10
27.223425436068851
20
35.724779517487207
10
27.834181307685064
20
36.507942677211915
0
LWPOLYLINE
5
128
100
AcDbEntity
8
0
100
AcDbPolyline
90
5
70
1
43
0.0
10
28.041416956174778
20
37.705626154879532
10
29.74364424604925
20
40.392446818158085
10
29.500200553306186
20
38.242027532260884
10
28.152966727222584
20
36.242865870659749
10
27.896825534763714
20
36.588270436792165
0
LWPOLYLINE
5
129
100
AcDbEntity
8
0
100
AcDbPolyline
90
11
70
1
43
0.0
10
20.214936809044168
20
38.242027532260884
10
19.971493116301069
20
40.392446818158085
10
21.673720406175576
20
37.705626154879532
10
21.818311827586676
20
36.588270436792165
10
22.491711926281504
20
35.724779517487207
10
22.613316797773244
20
35.544329923479545
10
23.029490726982296
20
35.785177330241147
10
23.232065374827293
20
34.683122145888021
10
23.300594227789233
20
34.687638663264948
10
23.467619071946082
20
34.015143896001902
10
22.909404461211373
20
34.24370420905862
0
LWPOLYLINE
5
130
100
AcDbEntity
8
0
100
AcDbPolyline
90
23
70
1
43
0.0
10
39.879922148323431
20
32.002021466207317
42
-0.096492327048520954
10
41.950285285459984
20
32.937093348941417
10
42.166941454087237
20
31.050086021537862
10
43.702055018741106
20
31.050086021537862
10
43.918688464431234
20
32.936895439280519
42
-0.096455751587994909
10
45.988213549368993
20
32.002021466207324
42
-0.2365173648034089
10
47.569965624297481
20
28.532800528759161
10
47.434427975047235
20
24.843075079112925
42
-0.089413424380631115
10
47.210085442396057
20
23.279028625117128
42
-0.059645376597287664
10
46.872651035079222
20
20.775765737377302
10
46.929503216072845
20
20.455019062838549
10
46.522809891134855
20
19.706530283963239
10
46.200816910473677
20
19.67078071437502
10
44.590657244914254
20
17.540523765928484
42
-0.29704511990555615
10
42.934067848846233
20
16.641084067617367
42
-0.29704511990554988
10
41.277478452778205
20
17.540523765928498
10
39.667318787218804
20
19.67078071437502
10
39.345325806557625
20
19.706530283963239
10
38.938632481619564
20
20.455019062838549
10
38.995484662613187
20
20.775765737377295
42
-0.059645376597288219
10
38.658050255296345
20
23.279028625117114
42
-0.089413424380631559
10
38.433707722645167
20
24.843075079112932
10
38.298170073394992
20
28.532800528759164
42
-0.23651736480340294
0
CIRCLE
5
131
100
AcDbEntity
8
0
100
AcDbCircle
10
42.93406784884624
20
24.873056735374917
30
0
40
8.6396656316116349
0
LWPOLYLINE
5
132
100
AcDbEntity
8
0
100
AcDbPolyline
90
14
70
1
43
0.0
10
42.934067848846205
20
22.245390827593695
42
-0.1219883819107858
10
43.768738923736343
20
21.829780161985639
42
0.13708583367980634
10
45.758034434546921
20
21.519928166714966
42
0.21190064959539573
10
46.614010365596705
20
22.103642540183401
42
0.019107804130199059
10
46.800366196634016
20
22.388303324177393
42
-0.091407509735739162
10
46.247867127529929
20
20.198440437308527
10
44.383213784189017
20
17.731485869970037
42
0.13808627479062344
10
42.93406784884624
20
18.050839761167047
42
0.13808627479062335
10
41.484921913503428
20
17.731485869970065
10
39.620268570162516
20
20.198440437308548
42
-0.09140750973573715
10
39.067769501058443
20
22.3883033241774
42
0.019107804130197966
10
39.254125332095704
20
22.10364254018339
42
0.21190064959540214
10
40.110101263145488
20
21.519928166714966
42
0.13708583367981039
10
42.099396773956066
20
21.829780161985646
42
-0.12198838191078433
0
LWPOLYLINE
5
133
100
AcDbEntity
8
0
100
AcDbPolyline
90
6
70
1
43
0.0
10
43.744585706776469
20
23.210559262825452
42
-0.49226034663359403
10
43.941005171252883
20
23.526064150817536
10
46.090353066512925
20
24.314463249546026
42
-0.48045246365468836
10
46.451610209917405
20
24.095844634396109
42
-0.19759832882547926
10
45.671170049935348
20
22.594998172892133
42
-0.21384486336780162
10
44.236671051365555
20
22.678818366593379
42
-0.18664431556693883
0
LWPOLYLINE
5
134
100
AcDbEntity
8
0
100
AcDbPolyline
90
6
70
1
43
0.0
10
39.416525487775111
20
24.095844634396109
42
-0.48045246365464966
10
39.777782631179548
20
24.31446324954598
10
41.927130526439562
20
23.52606415081754
42
-0.49226034663366741
10
42.123549990916004
20
23.210559262825456
42
-0.18664431556695113
10
41.631464646326897
20
22.678818366593351
42
-0.2138448633678037
10
40.196965647757153
20
22.594998172892147
42
-0.19759832882547509
0
LWPOLYLINE
5
135
100
AcDbEntity
8
0
100
AcDbPolyline
90
3
70
1
43
0.0
10
42.93406784884624
20
26.810221490620663
10
42.655970738016791
20
26.023057483789973
10
43.212164959675619
20
26.023057483789973
0
LWPOLYLINE
5
136
100
AcDbEntity
8
0
100
AcDbPolyline
90
8
70
1
43
0.0
10
42.613940088327027
20
27.788271071264603
10
43.254195609365453
20
27.788271071264603
10
44.28411145564958
20
24.873056735374917
10
43.595031069286847
20
24.873056735374917
10
43.404920475076949
20
25.41117170044199
10
42.463215222615531
20
25.41117170044199
10
42.273104628405633
20
24.873056735374917
10
41.58402424204283
20
24.873056735374917
0
LWPOLYLINE
5
137
100
AcDbEntity
8
0
100
AcDbPolyline
90
6
70
1
43
0.0
10
39.416525487775111
20
24.095844634396109
42
-0.48045246365464966
10
39.777782631179548
20
24.31446324954598
10
41.927130526439527
20
23.526064150817547
42
-0.49226034663371598
10
42.123549990915983
20
23.210559262825463
42
-0.18664431556695124
10
41.631464646326897
20
22.678818366593362
42
-0.21384486336780209
10
40.196965647757153
20
22.594998172892147
42
-0.19759832882547509
0
LWPOLYLINE
5
138
100
AcDbEntity
8
0
100
AcDbPolyline
90
4
70
1
43
0.0
10
41.40512921718436
20
31.689828182607499
42
-0.81895115202775415
10
41.561005788923104
20
31.689828182607499
42
0.12435477058704635
10
41.716090358711881
20
30.608594669155792
42
-0.94789872680577636
10
41.561005788923097
20
30.554726993535525
42
-0.1416866986269304
0
LWPOLYLINE
5
139
100
AcDbEntity
8
0
100
AcDbPolyline
90
14
70
1
43
0.0
10
42.934067848846212
20
22.245390827593695
42
-0.12198838191078647
10
43.768738923736343
20
21.829780161985639
42
0.13708583367980756
10
45.758034434546921
20
21.519928166714955
42
0.21190064959539845
10
46.614010365596698
20
22.103642540183372
42
0.019107804130197605
10
46.800366196634009
20
22.388303324177386
42
-0.091407509735739717
10
46.247867127529929
20
20.198440437308541
10
44.383213784188982
20
17.73148586997003
42
0.13808627479062088
10
42.93406784884624
20
18.050839761167026
42
0.1380862747906223
10
41.484921913503463
20
17.731485869970061
10
39.620268570162558
20
20.198440437308527
42
-0.091407509735737927
10
39.067769501058471
20
22.388303324177393
42
0.019107804130195059
10
39.254125332095704
20
22.103642540183401
42
0.2119006495954037
10
40.110101263145488
20
21.519928166714966
42
0.13708583367980842
10
42.099396773956066
20
21.829780161985639
42
-0.12198838191078906
0
LWPOLYLINE
5
140
100
AcDbEntity
8
0
100
AcDbPolyline
90
4
70
1
43
0.0
10
44.307129908769284
20
30.554726993535517
42
-0.94789872680601472
10
44.152045338980557
20
30.608594669155799
42
0.12435477058704422
10
44.307129908769312
20
31.689828182607499
42
-0.81895115202741098
10
44.463006480508042
20
31.689828182607485
42
-0.14168669862693051
0
LWPOLYLINE
5
141
100
AcDbEntity
8
0
100
AcDbPolyline
90
8
70
1
43
0.0
10
43.254195609365453
20
27.788271071264603
10
42.613940088327027
20
27.788271071264603
10
41.58402424204283
20
24.873056735374917
10
42.273104628405633
20
24.873056735374917
10
42.463215222615531
20
25.41117170044199
10
43.404920475076949
20
25.41117170044199
10
43.595031069286847
20
24.873056735374917
10
44.28411145564958
20
24.873056735374917
0
LWPOLYLINE
5
142
100
AcDbEntity
8
0
100
AcDbPolyline
90
6
70
1
43
0.0
10
43.744585706776469
20
23.210559262825452
42
-0.49226034663359403
10
43.941005171252883
20
23.526064150817536
10
46.090353066512925
20
24.314463249546002
42
-0.48045246365468763
10
46.451610209917405
20
24.095844634396109
42
-0.19759832882547845
10
45.671170049935341
20
22.594998172892144
42
-0.21384486336779779
10
44.23667105136559
20
22.678818366593365
42
-0.18664431556694755
0
LWPOLYLINE
5
143
100
AcDbEntity
8
0
100
AcDbPolyline
90
23
70
1
43
0.0
10
46.872651035079258
20
20.775765737377299
10
46.929503216072845
20
20.455019062838549
10
46.522809891134855
20
19.706530283963239
10
46.200816910473677
20
19.67078071437502
10
44.590657244914269
20
17.540523765928477
42
-0.29704511990555627
10
42.934067848846205
20
16.641084067617392
42
-0.29704511990554178
10
41.27747845277824
20
17.540523765928491
10
39.667318787218804
20
19.67078071437502
10
39.345325806557625
20
19.706530283963239
10
38.938632481619564
20
20.455019062838549
10
38.995484662613173
20
20.775765737377316
42
-0.059645376597287886
10
38.658050255296381
20
23.279028625117135
42
-0.089413424380634696
10
38.43370772264521
20
24.843075079112928
10
38.298170073394992
20
28.532800528759171
42
-0.23651736480340257
10
39.879922148323416
20
32.002021466207324
42
-0.093088216148427577
10
41.872387513347036
20
32.918147602587418
10
42.098137401026108
20
30.951936832268387
10
43.769998296666301
20
30.951936832268387
10
43.995748184345381
20
32.918147602587425
42
-0.093088216148430936
10
45.988213549369021
20
32.00202146620731
42
-0.23651736480340646
10
47.569965624297481
20
28.532800528759168
10
47.434427975047228
20
24.843075079112936
42
-0.089413424380635695
10
47.210085442396093
20
23.279028625117107
42
-0.059645376597287213
0
CIRCLE
5
144
100
AcDbEntity
8
0
100
AcDbCircle
10
42.93406784884624
20
24.873056735374917
30
0
40
8.6396656316116349
0
CIRCLE
5
145
100
AcDbEntity
8
0
100
AcDbCircle
10
42.93406784884624
20
24.873056735374917
30
0
40
10.139665631611621
0
LWPOLYLINE
5
146
100
AcDbEntity
8
0
100
AcDbPolyline
90
4
70
1
43
0.0
10
55.939832837851625
20
0.92489881852169442
10
56.605129145547359
20
2.38959723679173
10
55.02943273221323
20
6.2157297132129923
10
53.542863504343437
20
6.7190911430719087
0
LWPOLYLINE
5
147
100
AcDbEntity
8
0
100
AcDbPolyline
90
4
70
1
43
0.0
10
45.064034291280983
20
-3.5181810895374053
10
42.688212222997919
20
2.2746476862557916
10
41.982406425342447
20
0.76475933430934284
10
43.532686788261501
20
-2.9996574619258354
0
LWPOLYLINE
5
148
100
AcDbEntity
8
0
100
AcDbPolyline
90
12
70
1
43
0.0
10
45.583576068879026
20
-3.5172222392335915
10
47.901088055327193
20
-2.562813225063393
10
48.074882360708877
20
-1.9966360366689517
10
48.421100089012029
20
-1.8540549744391612
10
48.595254006558832
20
-2.2769384399232799
10
52.605258592457112
20
-0.6255189236381542
10
52.413181669755502
20
-0.15911451622784262
10
52.76138819864282
20
-0.015714416506140867
10
53.38958307350125
20
-0.30251461594953954
10
55.528578517773369
20
0.57837685094242031
10
52.99845796988685
20
6.7220580293778625
10
43.001148431207795
20
2.6049175800690785
0
LWPOLYLINE
5
149
100
AcDbEntity
8
0
100
AcDbPolyline
90
4
70
1
43
0.0
10
49.506834150935802
20
6.4841293949063585
10
45.637595669595939
20
4.9244872192672204
10
45.908509826226791
20
4.2810660972689805
10
49.752887949664043
20
5.899751622926777
0
LWPOLYLINE
5
150
100
AcDbEntity
8
0
100
AcDbPolyline
90
6
70
1
43
0.0
10
51.251190049118343
20
-6.6445510585129757
10
51.626519626427473
20
-7.5219075297013287
10
52.705584079979133
20
-6.4025662974257909
10
54.204954042764733
20
-6.4025662974257891
10
53.847124076285226
20
-5.56611626615822
10
52.365994611772607
20
-5.5621041536581517
0
LWPOLYLINE
5
151
100
AcDbEntity
8
0
100
AcDbPolyline
90
5
70
1
43
0.0
10
52.053328940356238
20
-1.3988110809485008
10
49.45813657284458
20
-2.4531758893245521
10
49.853343918549974
20
-3.3769978931795719
10
50.924625607213905
20
-2.2657299225254617
10
52.424193341606625
20
-2.2657299225254617
0
LWPOLYLINE
5
152
100
AcDbEntity
8
0
100
AcDbPolyline
90
6
70
1
43
0.0
10
51.193516933937673
20
-2.8213639078525157
10
50.078712371283359
20
-3.903810812707337
10
50.454041948592526
20
-4.78116728389569
10
51.533106402144149
20
-3.6618260516201531
10
53.032476364929757
20
-3.6618260516201531
10
52.674646398450278
20
-2.8253760203525835
0
LWPOLYLINE
5
153
100
AcDbEntity
8
0
100
AcDbPolyline
90
6
70
1
43
0.0
10
50.664951210200833
20
-5.2741809356101541
10
51.04028078751
20
-6.1515374067985089
10
52.119345241061623
20
-5.0321961745229702
10
53.618715203847216
20
-5.0321961745229702
10
53.260885237367752
20
-4.195746143255402
10
51.779755772855147
20
-4.1917340307553328
0
LWPOLYLINE
5
154
100
AcDbEntity
8
0
100
AcDbPolyline
90
3
70
1
43
0.0
10
54.446503611553815
20
-7.066804499286933
10
52.921091721413916
20
-7.066804499286933
10
51.905277724345929
20
-8.1735220996436517
42
-12.325632815324557
0
LWPOLYLINE
5
155
100
AcDbEntity
8
0
100
AcDbPolyline
90
10
70
1
43
0.0
10
49.077126228454674
20
-0.27936417979592065
10
47.088888318649026
20
-1.0981699484520169
10
46.915094013267343
20
-1.6643471368464602
10
46.230146508880665
20
-1.9464255365452265
10
44.58537577349545
20
1.9528188278800818
10
52.34243183044417
20
5.1473672347346513
10
53.953887723130187
20
1.234402990385127
10
53.414319775972395
20
1.0121955042811051
10
52.786124901113965
20
1.2989957037245086
10
50.838490875112321
20
0.49691162321487403
0
LWPOLYLINE
5
156
100
AcDbEntity
8
0
100
AcDbPolyline
90
10
70
1
43
0.0
10
47.088888318649026
20
-1.0981699484520169
10
49.077126228454674
20
-0.27936417979592065
10
50.838490875112321
20
0.49691162321487403
10
52.786124901113965
20
1.2989957037245086
10
53.414319775972395
20
1.0121955042811051
10
53.953887723130187
20
1.2344029903851272
10
52.34243183044417
20
5.1473672347346513
10
44.58537577349545
20
1.9528188278800818
10
46.230146508880665
20
-1.9464255365452265
10
46.915094013267343
20
-1.6643471368464602
0
LWPOLYLINE
5
157
100
AcDbEntity
8
0
100
AcDbPolyline
90
10
70
1
43
0.0
10
48.657826806284589
20
-1.2858285576504453
10
47.719086884288615
20
-1.6724249803457649
10
47.545292578906938
20
-2.238602168740206
10
45.816890701550705
20
-2.9504010036561281
10
43.572816106632786
20
2.3696080586003276
10
52.761731252614297
20
6.1538316125891512
10
54.960352100984657
20
0.81510356821500973
10
53.398509300704831
20
0.17189789936828542
10
52.770314425846401
20
0.45869809881168405
10
51.844955252966834
20
0.077612201044756912
0
LWPOLYLINE
5
158
100
AcDbEntity
8
0
100
AcDbPolyline
90
10
70
1
43
0.0
10
47.719086884288615
20
-1.6724249803457649
10
48.657826806284589
20
-1.2858285576504453
10
51.844955252966834
20
0.077612201044756912
10
52.770314425846401
20
0.45869809881168405
10
53.398509300704831
20
0.17189789936828542
10
54.960352100984657
20
0.81510356821500984
10
52.761731252614297
20
6.1538316125891512
10
43.572816106632786
20
2.3696080586003276
10
45.816890701550705
20
-2.9504010036561281
10
47.545292578906938
20
-2.238602168740206
0
LWPOLYLINE
5
159
100
AcDbEntity
8
0
100
AcDbPolyline
90
12
70
1
43
0.0
10
47.901088055327193
20
-2.562813225063393
10
45.583576068879026
20
-3.5172222392335915
10
43.001148431207795
20
2.6049175800690785
10
52.99845796988685
20
6.7220580293778625
10
55.528578517773369
20
0.57837685094242008
10
53.38958307350125
20
-0.30251461594953954
10
52.76138819864282
20
-0.015714416506140867
10
52.413181669755502
20
-0.15911451622784262
10
52.605258592457112
20
-0.6255189236381542
10
48.595254006558832
20
-2.2769384399232799
10
48.421100089012029
20
-1.8540549744391612
10
48.074882360708877
20
-1.9966360366689517
0
CIRCLE
5
160
100
AcDbEntity
8
0
100
AcDbCircle
10
49.78808945520926
20
0.15884747957699458
30
0
40
10.157745170895282
0
LWPOLYLINE
5
161
100
AcDbEntity
8
0
100
AcDbPolyline
90
3
70
1
43
0.0
10
52.921091721413916
20
-7.066804499286933
10
54.446503611553815
20
-7.0668044992869348
42
12.325632815324591
10
51.905277724345929
20
-8.1735220996436411
0
LWPOLYLINE
5
162
100
AcDbEntity
8
0
100
AcDbPolyline
90
70
70
1
43
0.0
10
36.642970081021993
20
-21.226476484073402
10
36.287316012820696
20
-18.996103513997653
42
2.060712716229522
10
49.680970718479323
20
-18.99610351399765
10
49.325316650278062
20
-21.226476484073402
10
44.894890573446418
20
-24.787238149930456
10
44.758324888148486
20
-25.36439130177942
10
45.69201133765258
20
-26.081585234480549
10
47.846928978237401
20
-24.787238149930459
42
0.27605796085439233
10
46.655386282855211
20
-24.560466899950075
10
45.293144364024585
20
-25.112932431189961
10
45.225173339595095
20
-24.945332873375172
10
48.895160753278226
20
-22.104459328743392
10
49.922031442101336
20
-25.420395928067883
10
45.92607765213252
20
-28.716794439611476
10
46.190733177320098
20
-29.037614645422792
10
47.496930771487023
20
-27.960087719059775
10
47.496930771487023
20
-28.419386842375253
10
46.457717897603636
20
-29.210293827382927
10
46.682255530913821
20
-29.505325232630916
10
47.350833232643055
20
-28.953792693299736
10
47.350833232643055
20
-29.822643623171832
10
45.566898385539254
20
-30.945102359792095
10
45.446590981698556
20
-31.679174448167785
10
44.979268236643861
20
-32.349680995420165
10
44.979268236643861
20
-31.162310883175849
10
43.222411066157882
20
-30.710885199858545
10
43.222411066157882
20
-29.232940374904338
10
43.953674767451396
20
-29.232940374904338
10
44.653271394925689
20
-27.446056543957024
10
45.997634527991593
20
-27.832560944713471
10
48.934893225621074
20
-25.455006997268981
10
48.806215258851147
20
-25.171028036121562
10
45.908742420893844
20
-27.442859725300941
10
44.857132830394768
20
-27.012454112311879
10
45.04918044760899
20
-26.543224367159656
10
44.81725160703153
20
-26.448299904982392
10
43.677304281257889
20
-28.645623115572533
10
42.290982450042165
20
-28.645623115572533
10
41.151035124268489
20
-26.448299904982392
10
40.919106283691029
20
-26.543224367159656
10
41.111153900905251
20
-27.012454112311879
10
40.059544310406174
20
-27.442859725300941
10
37.162071472448908
20
-25.171028036121562
10
37.03339350567898
20
-25.455006997268981
10
39.970652203308425
20
-27.832560944713471
10
41.315015336374366
20
-27.446056543957024
10
42.014611963848658
20
-29.232940374904338
10
42.745875665142172
20
-29.232940374904338
10
42.745875665142172
20
-30.710885199858545
10
40.989018494656193
20
-31.162310883175849
10
40.989018494656193
20
-32.349680995420165
10
40.521695749601498
20
-31.679174448167785
10
40.401388345760765
20
-30.945102359792095
10
38.617453498656964
20
-29.822643623171832
10
38.617453498656964
20
-28.953792693299736
10
39.286031200386233
20
-29.505325232630916
10
39.510568833696418
20
-29.210293827382927
10
38.471355959813032
20
-28.419386842375253
10
38.471355959813032
20
-27.960087719059775
10
39.777553553979956
20
-29.037614645422792
10
40.042209079167534
20
-28.716794439611476
10
36.046255289198719
20
-25.420395928067883
10
37.073125978021828
20
-22.104459328743392
10
40.743113391704924
20
-24.945332873375172
10
40.67514236727547
20
-25.112932431189961
10
39.31290044844485
20
-24.560466899950072
42
0.27605796085439616
10
38.121357753062632
20
-24.787238149930456
10
40.276275393647474
20
-26.081585234480549
10
41.209961843151532
20
-25.36439130177942
10
41.073396157853637
20
-24.787238149930456
0
CIRCLE
5
163
100
AcDbEntity
8
0
100
AcDbCircle
10
42.984143365649985
20
-24.271340798366694
30
0
40
10.206420937478335
0
LWPOLYLINE
5
164
100
AcDbEntity
8
0
100
AcDbPolyline
90
15
70
1
43
0.0
10
37.060482026486284
20
-18.140609900757713
42
-0.40418737083458028
10
48.907804704813678
20
-18.140609900757717
10
47.721292730232783
20
-18.375680720227056
10
47.483069998225353
20
-20.91629572810082
10
44.027660665612487
20
-23.635051112665735
10
43.857720238257478
20
-25.447444063348254
10
44.484059222832641
20
-25.975181402195233
10
44.342346241656898
20
-26.143371822309604
10
42.984143365649992
20
-25.434293978625114
10
41.625940489643121
20
-26.143371822309604
10
41.484227508467413
20
-25.975181402195233
10
42.110566493042576
20
-25.447444063348254
10
41.940626065687567
20
-23.635051112665735
10
38.485216733074701
20
-20.91629572810082
10
38.246994001067272
20
-18.375680720227056
0
LWPOLYLINE
5
165
100
AcDbEntity
8
0
100
AcDbPolyline
90
70
70
1
43
0.0
10
38.471355959813032
20
-28.419386842375253
10
39.510568833696418
20
-29.210293827382927
10
39.286031200386233
20
-29.505325232630916
10
38.617453498656964
20
-28.953792693299736
10
38.617453498656964
20
-29.822643623171832
10
40.401388345760765
20
-30.945102359792095
10
40.521695749601498
20
-31.679174448167785
10
40.989018494656193
20
-32.349680995420165
10
40.989018494656193
20
-31.162310883175849
10
42.745875665142172
20
-30.710885199858545
10
42.745875665142172
20
-29.232940374904338
10
42.014611963848658
20
-29.232940374904338
10
41.315015336374366
20
-27.446056543957024
10
39.970652203308425
20
-27.832560944713471
10
37.03339350567898
20
-25.455006997268981
10
37.162071472448908
20
-25.171028036121562
10
40.059544310406174
20
-27.442859725300941
10
41.111153900905251
20
-27.012454112311879
10
40.919106283691029
20
-26.543224367159656
10
41.151035124268489
20
-26.448299904982392
10
42.290982450042165
20
-28.645623115572533
10
43.677304281257889
20
-28.645623115572533
10
44.81725160703153
20
-26.448299904982392
10
45.04918044760899
20
-26.543224367159656
10
44.857132830394768
20
-27.012454112311879
10
45.908742420893844
20
-27.442859725300941
10
48.806215258851147
20
-25.171028036121562
10
48.934893225621074
20
-25.455006997268981
10
45.997634527991593
20
-27.832560944713471
10
44.653271394925689
20
-27.446056543957024
10
43.953674767451396
20
-29.232940374904338
10
43.222411066157882
20
-29.232940374904338
10
43.222411066157882
20
-30.710885199858545
10
44.979268236643861
20
-31.162310883175849
10
44.979268236643861
20
-32.349680995420165
10
45.446590981698556
20
-31.679174448167785
10
45.566898385539254
20
-30.945102359792095
10
47.350833232643055
20
-29.822643623171832
10
47.350833232643055
20
-28.953792693299736
10
46.682255530913821
20
-29.505325232630916
10
46.457717897603636
20
-29.210293827382927
10
47.496930771487023
20
-28.419386842375253
10
47.496930771487023
20
-27.960087719059775
10
46.190733177320098
20
-29.037614645422792
10
45.92607765213252
20
-28.716794439611476
10
49.922031442101336
20
-25.420395928067883
10
48.895160753278226
20
-22.104459328743392
10
45.225173339595095
20
-24.945332873375172
10
45.293144364024585
20
-25.112932431189961
10
46.655386282855204
20
-24.560466899950086
42
-0.27605796085439055
10
47.846928978237386
20
-24.787238149930456
10
45.69201133765258
20
-26.081585234480549
10
44.758324888148486
20
-25.36439130177942
10
44.894890573446418
20
-24.787238149930456
10
49.325316650278062
20
-21.226476484073402
10
49.680970718479287
20
-18.996103513997657
42
-2.0607127162295233
10
36.287316012820696
20
-18.996103513997653
10
36.642970081021993
20
-21.226476484073402
10
41.073396157853637
20
-24.787238149930456
10
41.209961843151532
20
-25.36439130177942
10
40.276275393647474
20
-26.081585234480549
10
38.121357753062654
20
-24.787238149930459
42
-0.2760579608543916
10
39.312900448444843
20
-24.560466899950075
10
40.67514236727547
20
-25.112932431189961
10
40.743113391704924
20
-24.945332873375172
10
37.073125978021828
20
-22.104459328743392
10
36.046255289198719
20
-25.420395928067883
10
40.042209079167534
20
-28.716794439611476
10
39.777553553979956
20
-29.037614645422792
10
38.471355959813032
20
-27.960087719059775
0
LWPOLYLINE
5
166
100
AcDbEntity
8
0
100
AcDbPolyline
90
10
70
1
43
0.0
10
42.285118247723368
20
-23.29130228519972
10
38.954621354375298
20
-20.916325041301207
10
38.628606548468021
20
-18.375680720227056
10
42.918794504482882
20
-17.2680321934014
10
47.364989295261886
20
-18.375680720227056
10
47.075135777956731
20
-20.91629572810082
10
43.698425775006626
20
-23.29130228519972
10
43.481352741139752
20
-25.193984070034926
10
42.984143365649992
20
-24.839424077920956
10
42.571838319017985
20
-25.193984070034926
0
LWPOLYLINE
5
167
100
AcDbEntity
8
0
100
AcDbPolyline
90
10
70
1
43
0.0
10
38.954621354375298
20
-20.916325041301207
10
42.285118247723368
20
-23.29130228519972
10
42.571838319017985
20
-25.193984070034926
10
42.984143365649992
20
-24.839424077920956
10
43.481352741139752
20
-25.193984070034926
10
43.698425775006626
20
-23.29130228519972
10
47.075135777956731
20
-20.91629572810082
10
47.364989295261886
20
-18.375680720227056
10
42.918794504482882
20
-17.2680321934014
10
38.628606548468021
20
-18.375680720227056
0
LWPOLYLINE
5
168
100
AcDbEntity
8
0
100
AcDbPolyline
90
15
70
1
43
0.0
10
38.485216733074701
20
-20.91629572810082
10
38.246994001067272
20
-18.375680720227056
10
37.060482026486277
20
-18.140609900757713
42
-0.40418737083458101
10
48.907804704813707
20
-18.140609900757717
10
47.721292730232783
20
-18.375680720227056
10
47.483069998225353
20
-20.91629572810082
10
44.027660665612487
20
-23.635051112665735
10
43.857720238257478
20
-25.447444063348254
10
44.484059222832641
20
-25.975181402195233
10
44.342346241656898
20
-26.143371822309604
10
42.984143365649992
20
-25.434293978625114
10
41.625940489643121
20
-26.143371822309604
10
41.484227508467413
20
-25.975181402195233
10
42.110566493042576
20
-25.447444063348254
10
41.940626065687567
20
-23.635051112665735
0
LWPOLYLINE
5
169
100
AcDbEntity
8
0
100
AcDbPolyline
90
3
70
1
43
0.0
10
19.927172917069143
20
-36.401124464290298
42
-0.051553231577883003
10
21.447541594609913
20
-41.143438187835869
42
-0.043639045337335244
10
17.023029476026043
20
-42.698669721385734
42
-0.20887386626634907
0
LWPOLYLINE
5
170
100
AcDbEntity
8
0
100
AcDbPolyline
90
3
70
1
43
0.0
10
26.074254957680974
20
-38.637974861118906
42
-0.04849557150392321
10
25.521179546534629
20
-34.213226384429667
42
-0.13865512890164672
10
30.080398559688128
20
-35.410395052273969
42
-0.047068007535900847
0
LWPOLYLINE
5
171
100
AcDbEntity
8
0
100
AcDbPolyline
90
4
70
1
43
0.0
10
25.277726739406432
20
-41.133381984941167
42
-0.024470577573044355
10
22.814159424327979
20
-42.086383270745237
42
-0.033638674133214523
10
23.226817605030945
20
-44.477426011959302
42
-0.028902782879516625
10
25.850088400391741
20
-43.859608964827629
42
-0.010632530748433688
0
LWPOLYLINE
5
172
100
AcDbEntity
8
0
100
AcDbPolyline
90
3
70
1
43
0.0
10
18.441947617914487
20
-47.627640745210762
42
-0.052690387152547924
10
21.862267244194324
20
-46.296571153666271
42
-0.081868898841786233
10
21.151583998620865
20
-50.256501851281136
42
-0.11028094874572818
0
LWPOLYLINE
5
173
100
AcDbEntity
8
0
100
AcDbPolyline
90
4
70
1
43
0.0
10
17.934922116415898
20
-46.746481614017732
42
-0.090351001975957787
10
17.067162221262077
20
-43.764878158834847
42
0.028233789962444647
10
21.639186786222222
20
-42.279446407895321
42
-0.074532006667981238
10
21.901179435708475
20
-45.119831861580487
42
0.049956354481891473
0
LWPOLYLINE
5
174
100
AcDbEntity
8
0
100
AcDbPolyline
90
4
70
1
43
0.0
10
25.171340205918604
20
-39.2008173056944
42
-0.029770620461052267
10
22.350407583774341
20
-40.758836117800982
42
0.038224663504996252
10
21.012482890614429
20
-35.579122833116365
42
-0.11249102312806818
10
24.634120597929574
20
-34.275527440566329
42
0.021216152105314023
0
LWPOLYLINE
5
175
100
AcDbEntity
8
0
100
AcDbPolyline
90
4
70
1
43
0.0
10
32.254964581264623
20
-37.229906574250052
42
-0.20454859981381879
10
34.305194902700869
20
-43.716583723129325
42
0.07527983103050806
10
27.353346777825557
20
-43.798379305519973
42
-0.019605635185894907
10
26.432275635382332
20
-40.459556790060596
42
0.054922152266803533
0
LWPOLYLINE
5
176
100
AcDbEntity
8
0
100
AcDbPolyline
90
4
70
1
43
0.0
10
28.821716924822685
20
-50.948361707560672
42
-0.15469638508236586
10
23.597388018401467
20
-51.28169717564947
42
0.046791056007228549
10
23.243219616861982
20
-45.905933442362027
42
-0.040460769992277303
10
26.450097660014166
20
-45.38069478387407
42
0.080734843677343626
0
LWPOLYLINE
5
177
100
AcDbEntity
8
0
100
AcDbPolyline
90
3
70
1
43
0.0
10
27.956143749014007
20
-45.31489578766822
42
-0.08282372522981428
10
33.717856579080802
20
-46.113344416745832
42
-0.13840271674700089
10
30.839155905189436
20
-49.835573106281565
42
-0.117093375936851
0
CIRCLE
5
178
100
AcDbEntity
8
0
100
AcDbCircle
10
25.683750872709794
20
-42.874200741504382
30
0
40
9.9416533012321509
0
LWPOLYLINE
5
179
100
AcDbEntity
8
0
100
AcDbPolyline
90
4
70
1
43
0.0
10
2.2114166329965106
20
-48.93356510533971
42
-0.21237931468270665
10
0.1799981281750887
20
-47.985238758783822
10
0.17999812817510735
20
-51.562631975984594
42
0.6067228225955803
10
0.54064845022566033
20
-51.750436350394402
0
LWPOLYLINE
5
180
100
AcDbEntity
8
0
100
AcDbPolyline
90
5
70
1
43
0.0
10
-3.4623627776219319
20
-51.944619405364904
42
-0.21985142469299296
10
-4.0040495996393757
20
-48.967703587557352
42
0.08101958394985509
10
-2.6792611032416569
20
-49.68712506618963
42
-0.12924178744462606
10
-0.93576204934118057
20
-51.901214572691515
42
-0.31523763535553745
10
-1.4757838801953111
20
-52.703532721389045
42
-0.32639837368884655
0
LWPOLYLINE
5
181
100
AcDbEntity
8
0
100
AcDbPolyline
90
6
70
1
43
0.0
10
0.90854583009303269
20
-54.470821517426771
10
0.33323814208216618
20
-52.76005215972809
42
0.15102921450890094
10
0.096207176785081422
20
-52.695983557418167
42
0.1510292145110794
10
-0.14082378851554722
20
-52.76005215972809
10
-0.71613147652639486
20
-54.470821517426799
42
-0.13665732551987594
10
0.096207176783291298
20
-54.255398290932916
42
-0.13665732551988138
0
LWPOLYLINE
5
182
100
AcDbEntity
8
0
100
AcDbPolyline
90
5
70
1
43
0.0
10
-3.2684774978057138
20
-46.242516598542849
42
-0.18262320156991874
10
-4.2457342167866585
20
-47.795309663535271
42
0.1574777473632161
10
-3.606192909859498
20
-48.408992567724368
42
-0.044812737668316734
10
-2.4698720678733821
20
-49.255936148931774
10
-2.2248988090436228
20
-48.934413917556583
0
LWPOLYLINE
5
183
100
AcDbEntity
8
0
100
AcDbPolyline
90
5
70
1
43
0.0
10
1.6681982337619263
20
-52.70353272138906
42
-0.31523763535553828
10
1.1281764029078267
20
-51.901214572691515
42
-0.12924178744462697
10
2.8716754568082683
20
-49.687125066189637
42
0.081019583949856311
10
4.1964639532059964
20
-48.967703587557381
42
-0.21985142469299004
10
3.6547771311885437
20
-51.944619405364946
42
-0.32639837368884106
0
LWPOLYLINE
5
184
100
AcDbEntity
8
0
100
AcDbPolyline
90
6
70
1
43
0.0
10
-0.84111918594267365
20
-54.338330328328759
10
-0.25413603929010264
20
-52.615390766997727
10
-0.29002793107792968
20
-52.242761662466961
10
-0.29002793107792968
20
-52.232481600791729
10
-0.57026954274774466
20
-52.232481600791729
42
-0.35774177091340115
10
-2.0550257431138066
20
-53.262632005786912
42
-0.14119629047918592
0
LWPOLYLINE
5
185
100
AcDbEntity
8
0
100
AcDbPolyline
90
4
70
1
43
0.0
10
1.0974233583077833
20
-54.548254018666633
42
-0.22103092646778416
10
2.7782358204116302
20
-53.262632005786941
10
4.4273624058121914
20
-54.569956073184969
42
-0.081858759955763999
10
1.8569232724996365
20
-57.353939976021657
0
LWPOLYLINE
5
186
100
AcDbEntity
8
0
100
AcDbPolyline
90
4
70
1
43
0.0
10
-4.3325479228107131
20
-54.353782900060203
42
-0.046099713171927237
10
-5.1606891368696122
20
-51.329963566191921
10
-4.5243844997341407
20
-51.049751656102202
42
0.16812910744602358
10
-2.7922575855689589
20
-53.262632005786934
0
LWPOLYLINE
5
187
100
AcDbEntity
8
0
100
AcDbPolyline
90
4
70
1
43
0.0
10
-2.585821466845033
20
-53.262632005786941
10
-4.2349480522455716
20
-54.569956073184969
42
0.081858759955765525
10
-1.6645089189330164
20
-57.353939976021628
10
-0.90500900474116963
20
-54.548254018666604
42
0.22103092646779215
0
LWPOLYLINE
5
188
100
AcDbEntity
8
0
100
AcDbPolyline
90
6
70
1
43
0.0
10
-0.78182927640499389
20
-54.713517258537678
42
-0.16369447960943501
10
0.096207176783308646
20
-54.41671630255258
42
-0.1636944796094463
10
0.97424362997163128
20
-54.713517258537657
10
1.5146673953276135
20
-56.709909017309137
42
0.10536173964437952
10
0.096207176783308229
20
-56.435911240089602
42
0.10536173964437924
10
-1.3222530417609935
20
-56.709909017309137
0
LWPOLYLINE
5
189
100
AcDbEntity
8
0
100
AcDbPolyline
90
5
70
1
43
0.0
10
3.4608918513735176
20
-46.242516598542593
10
2.4173131626102418
20
-48.934413917556583
10
2.662286421439978
20
-49.255936148931774
42
-0.044812737668316845
10
3.7986072634261161
20
-48.408992567724368
42
0.15747774736342751
10
4.4381485703540049
20
-47.795309663534304
42
-0.18262320156991976
0
LWPOLYLINE
5
190
100
AcDbEntity
8
0
100
AcDbPolyline
90
4
70
1
43
0.0
10
-1.661621340686916
20
-50.132282471705039
42
-0.033071511445967469
10
-2.3700325832918718
20
-49.381887270484853
42
0.053731808465612402
10
-2.1260738496725291
20
-49.07590273959029
10
-0.64289183127093619
20
-51.576508641654357
42
-0.11369183135660597
0
LWPOLYLINE
5
191
100
AcDbEntity
8
0
100
AcDbPolyline
90
4
70
1
43
0.0
10
5.3531034904362311
20
-51.329963566191985
42
-0.046099713171927126
10
4.5249622763773285
20
-54.353782900060246
10
2.9846719391355947
20
-53.262632005786941
42
0.16812910744602169
10
4.7167988533007419
20
-51.049751656102217
0
LWPOLYLINE
5
192
100
AcDbEntity
8
0
100
AcDbPolyline
90
5
70
1
43
0.0
10
4.7647600231692877
20
-50.914691546747584
10
5.3781484679848663
20
-51.184811765456857
42
0.017840003286105313
10
5.5367531382037116
20
-49.979741106166585
42
0.020190531192991825
10
5.6351636299049801
20
-48.195320909366757
10
4.9676189562178772
20
-48.087044648961161
42
-0.12425413294750959
0
LWPOLYLINE
5
193
100
AcDbEntity
8
0
100
AcDbPolyline
90
6
70
1
43
0.0
10
0.7626838963144067
20
-52.232481600791729
10
0.48244228464454864
20
-52.237621631629345
10
0.48244228464454864
20
-52.242761662466961
10
0.4465503928567216
20
-52.615390766997727
10
1.0335335395093086
20
-54.338330328328752
42
-0.14119629047918536
10
2.2474400966804353
20
-53.262632005786941
42
-0.35774177091339304
0
LWPOLYLINE
5
194
100
AcDbEntity
8
0
100
AcDbPolyline
90
4
70
1
43
0.0
10
2.318488203239184
20
-49.075902739590269
10
0.83530618483756314
20
-51.576508641654364
42
0.11369183135660763
10
1.854035694253543
20
-50.132282471705054
42
0.033071511445971015
10
2.5624469368585228
20
-49.381887270484846
42
-0.053731808465611833
0
LWPOLYLINE
5
195
100
AcDbEntity
8
0
100
AcDbPolyline
90
8
70
1
43
0.0
10
-3.4333218793498022
20
-45.739624677783006
42
-0.21675980042546397
10
-4.3122505463376939
20
-47.671202231924269
42
-0.14509998377610933
10
-4.5058148378254268
20
-47.15936182973352
42
0.075704104356006191
10
-4.7424450793307384
20
-47.876902927258662
10
-5.4448146184689383
20
-47.99082780767263
42
-0.0099081040440494629
10
-5.4322393042274673
20
-47.113646949126021
42
-0.099099185019473415
10
-4.7732629744737913
20
-44.060561868497565
42
-0.085563450069894936
10
-3.7350477332287282
20
-42.611771915543798
42
0.084536949108352397
0
LWPOLYLINE
5
196
100
AcDbEntity
8
0
100
AcDbPolyline
90
4
70
1
43
0.0
10
0.1799981281751073
20
-44.353244816250132
10
0.17999812817510674
20
-47.657408759721598
42
0.24329698341759301
10
2.2956796432963245
20
-48.716209793315457
10
3.3773216668235211
20
-45.926128609579948
42
-0.23067922994260176
0
LWPOLYLINE
5
197
100
AcDbEntity
8
0
100
AcDbPolyline
90
4
70
1
43
0.0
10
-2.0190022794299267
20
-48.933565105339731
10
-0.3482340966590769
20
-51.750436350394438
42
0.60672282259559507
10
0.012416225391511659
20
-51.562631975984594
10
0.012416225391539137
20
-47.985238758783836
42
-0.21237931468271012
0
LWPOLYLINE
5
198
100
AcDbEntity
8
0
100
AcDbPolyline
90
4
70
1
43
0.0
10
-3.1849073132568861
20
-45.926128609579919
10
-2.1032652897297055
20
-48.716209793315457
42
0.24329698341758987
10
0.012416225391511659
20
-47.657408759721598
10
0.012416225391510549
20
-44.353244816250111
42
-0.2306792299425999
0
LWPOLYLINE
5
199
100
AcDbEntity
8
0
100
AcDbPolyline
90
8
70
1
43
0.0
10
4.6982291913920085
20
-47.159361829733527
42
-0.14509998377610026
10
4.5046648999043217
20
-47.671202231924205
42
-0.21675980042546186
10
3.62573623291647
20
-45.739624677783006
42
0.08453694910835223
10
3.9274620867953551
20
-42.61177191554377
42
-0.085563450069892702
10
4.9656773280404121
20
-44.060561868497523
42
-0.099099185019471736
10
5.6246536577940791
20
-47.113646949126007
42
-0.0099081040440445779
10
5.6372289720355511
20
-47.990827807672503
10
4.9348594328973405
20
-47.876902927258698
42
0.075704104356012381
0
LWPOLYLINE
5
200
100
AcDbEntity
8
0
100
AcDbPolyline
90
5
70
1
43
0.0
10
0.29271108430300785
20
-52.615390766997727
10
0.33204812130513517
20
-52.206994214382263
10
0.096207176783309478
20
-51.952319717151525
10
-0.13963376773851621
20
-52.206994214382263
10
-0.10029673073638889
20
-52.615390766997727
0
LWPOLYLINE
5
201
100
AcDbEntity
8
0
100
AcDbPolyline
90
4
70
1
43
0.0
10
0.1799981281751073
20
-41.10191746639039
10
0.17999812817510674
20
-43.889310227177845
42
0.28544176304077568
10
3.4538961142809486
20
-45.673432932970428
42
0.098298608383087668
10
3.6883228892495907
20
-42.390227728504769
42
0.18414986643228654
0
LWPOLYLINE
5
202
100
AcDbEntity
8
0
100
AcDbPolyline
90
4
70
1
43
0.0
10
0.012416225391547187
20
-43.889310227177845
10
0.012416225391511659
20
-41.10191746639039
42
0.1841498664322905
10
-3.4959085356829811
20
-42.390227728504811
42
0.098298608383089139
10
-3.2614817607143323
20
-45.673432932970442
42
0.28544176304078656
0
LWPOLYLINE
5
203
100
AcDbEntity
8
0
100
AcDbPolyline
90
5
70
1
43
0.0
10
-5.3443387846370936
20
-49.979741106166564
42
-0.02019053119299944
10
-5.4427492763383611
20
-48.19532090936675
10
-4.7752046026512582
20
-48.087044648961168
42
0.12425413294751
10
-4.5723456696026314
20
-50.914691546747584
10
-5.1857341144182376
20
-51.184811765456857
42
-0.017840003286105362
0
LWPOLYLINE
5
204
100
AcDbEntity
8
0
100
AcDbPolyline
90
8
70
1
43
0.0
10
0.096207176783308646
20
-56.634991859723897
42
-0.15003404254017058
10
1.5931477466872923
20
-56.999825073418897
10
1.717881137630666
20
-57.460605538095358
42
-0.013990596139002671
10
1.1869544058189523
20
-57.838744760421349
42
-0.037554571568009121
10
0.096207176783307674
20
-57.895655771524901
42
-0.037554571568003896
10
-0.99454005225233788
20
-57.838744760421356
42
-0.013990596139002671
10
-1.5254667840640368
20
-57.460605538095358
10
-1.4007333931206594
20
-56.999825073418897
42
-0.15003404254015901
0
CIRCLE
5
205
100
AcDbEntity
8
0
100
AcDbCircle
10
0.096207176783309478
20
-49.600785580992692
30
0
40
9.6000000000000085
0
CIRCLE
5
206
100
AcDbEntity
8
0
100
AcDbCircle
10
0.096207176783309478
20
-49.600785580992692
30
0
40
9.6000000000000085
0
CIRCLE
5
207
100
AcDbEntity
8
0
100
AcDbCircle
10
0.096207176783309478
20
-49.600785580992692
30
0
40
11.100000000000012
0
LWPOLYLINE
5
208
100
AcDbEntity
8
0
100
AcDbPolyline
90
12
70
1
43
0.0
10
-23.156612507763654
20
-49.71026063659167
10
-23.156612507763654
20
-50.994057282429424
10
-22.26253984369805
20
-49.914027385227968
10
-22.262539843698043
20
-49.045437373568546
42
0.18800450100118002
10
-24.595225887996293
20
-48.317234674886222
10
-24.640349047603465
20
-48.317234674886222
42
0.188004501001175
10
-26.973035091903625
20
-49.045437373566102
10
-26.973035091901707
20
-49.914027385227968
10
-26.078962427836103
20
-50.994057282429424
10
-26.0789624278361
20
-49.710260636591677
42
-0.18091134398506636
10
-24.632828521002281
20
-49.203423452049961
10
-24.602746414597497
20
-49.203423452049947
42
-0.18091134398506911
0
LWPOLYLINE
5
209
100
AcDbEntity
8
0
100
AcDbPolyline
90
15
70
1
43
0.0
10
-18.742462283122492
20
-37.112629492506343
42
-2.4205371527196342
10
-30.496593342555197
20
-37.021713115175878
10
-30.407612143763494
20
-39.345921264546895
10
-31.247477642599613
20
-40.710904428594205
10
-31.247477642599613
20
-45.864008109768918
10
-27.715461750410419
20
-49.914027385227968
10
-27.213155749655797
20
-49.914027385227968
10
-27.21315574965579
20
-48.823916489973243
42
-0.19631689372499639
10
-24.617787467799879
20
-47.857744330319164
42
-0.19631689372499753
10
-22.02241918594396
20
-48.823916489973243
10
-22.02241918594396
20
-49.914027385227968
10
-21.520113185189338
20
-49.914027385227968
10
-17.988097293000109
20
-45.864008109768918
10
-17.988097293000109
20
-40.710904428594205
10
-18.827962791836264
20
-39.345921264546895
0
LWPOLYLINE
5
210
100
AcDbEntity
8
0
100
AcDbPolyline
90
15
70
1
43
0.0
10
-30.407612143763494
20
-39.345921264546895
10
-30.496593342555229
20
-37.021713115175871
42
2.4205371527196342
10
-18.742462283122521
20
-37.112629492506343
10
-18.827962791836264
20
-39.345921264546895
10
-17.988097293000109
20
-40.710904428594205
10
-17.988097293000109
20
-45.864008109768918
10
-21.520113185189338
20
-49.914027385227968
10
-22.02241918594396
20
-49.914027385227968
10
-22.022419185943967
20
-48.823916489973243
42
0.1963168937249973
10
-24.617787467799879
20
-47.857744330319164
42
0.19631689372499672
10
-27.213155749655797
20
-48.823916489973243
10
-27.213155749655797
20
-49.914027385227968
10
-27.715461750410419
20
-49.914027385227968
10
-31.247477642599613
20
-45.864008109768918
10
-31.247477642599613
20
-40.710904428594205
0
CIRCLE
5
211
100
AcDbEntity
8
0
100
AcDbCircle
10
-24.665154326642167
20
-42.965998762395785
30
0
40
10.000744308274587
0
LWPOLYLINE
5
212
100
AcDbEntity
8
0
100
AcDbPolyline
90
4
70
1
43
0.0
10
-19.161834560361797
20
-44.770782364740768
10
-18.918417445962952
20
-40.743335562868729
10
-19.161834560361797
20
-40.743335562868729
10
-19.781441760649798
20
-44.770782364740768
0
LWPOLYLINE
5
213
100
AcDbEntity
8
0
100
AcDbPolyline
90
4
70
1
43
0.0
10
-30.31715748963677
20
-40.743335562868729
10
-30.073740375237925
20
-44.770782364740768
10
-29.454133174949924
20
-44.770782364740768
10
-30.073740375237925
20
-40.743335562868729
0
LWPOLYLINE
5
214
100
AcDbEntity
8
0
100
AcDbPolyline
90
6
70
1
43
0.0
10
-28.376598533787813
20
-45.430346397992963
10
-28.742241410916769
20
-45.430346397992963
10
-28.742241410916769
20
-46.211115883115028
10
-27.837275290022561
20
-47.313407215207178
10
-27.072882668676499
20
-47.313407215207178
10
-27.072882668676499
20
-46.911200050365316
0
LWPOLYLINE
5
215
100
AcDbEntity
8
0
100
AcDbPolyline
90
6
70
1
43
0.0
10
-22.162692266923258
20
-46.911200050365316
10
-22.162692266923258
20
-47.313407215207178
10
-21.398299645577197
20
-47.313407215207178
10
-20.493333524682953
20
-46.211115883115028
10
-20.493333524682953
20
-45.430346397992963
10
-20.858976401811944
20
-45.430346397992963
0
LWPOLYLINE
5
216
100
AcDbEntity
8
0
100
AcDbPolyline
90
22
70
1
43
0.0
10
-29.883908755671264
20
-36.477176445399692
42
-0.35601594747248405
10
-19.359790865112647
20
-36.547795634329105
10
-19.624883105491548
20
-38.851958636662452
10
-20.070077506420532
20
-38.675776202535786
10
-20.070077506420532
20
-37.704131316195344
10
-21.162692252022097
20
-36.211115734103416
10
-21.813366349176562
20
-41.750476714815662
10
-20.16251330481829
20
-42.084307635121085
10
-20.606592209445971
20
-44.280356494133883
10
-22.378373825911204
20
-44.99924596220572
10
-24.067633000511393
20
-44.435892317253305
10
-24.462971007435286
20
-43.461538617460661
10
-24.772603928164472
20
-43.461538617460661
10
-25.167941935088365
20
-44.435892317253305
10
-26.857201109688553
20
-44.99924596220572
10
-28.628982726153751
20
-44.280356494133883
10
-29.073061630781467
20
-42.084307635121085
10
-27.42220858642316
20
-41.750476714815662
10
-28.07288268357766
20
-36.211115734103416
10
-29.165497429179226
20
-37.704131316195344
10
-29.165497429179226
20
-38.675776202535786
10
-29.610691830108209
20
-38.851958636662452
0
LWPOLYLINE
5
217
100
AcDbEntity
8
0
100
AcDbPolyline
90
10
70
1
43
0.0
10
-26.878794549699876
20
-41.730651881216346
10
-27.527388133446458
20
-36.012787392923983
42
-0.10506774949905137
10
-24.665154326642167
20
-35.384487599468379
10
-24.570420608957573
20
-35.384487599468386
42
-0.10506774949905058
10
-21.7081868021533
20
-36.012787392923997
10
-22.356780385899881
20
-41.730651881216346
10
-24.162692296725581
20
-42.211115823510383
10
-24.320570210931081
20
-42.719070564627529
10
-24.915004724668677
20
-42.719070564627529
10
-25.072882638874177
20
-42.211115823510383
0
LWPOLYLINE
5
218
100
AcDbEntity
8
0
100
AcDbPolyline
90
6
70
1
43
0.0
10
-23.947113759839169
20
-42.900086075184177
10
-21.924634861434278
20
-42.232286438918422
10
-20.682246774216466
20
-42.529140229669565
10
-21.227596492358103
20
-44.022991159737131
10
-22.420714591231707
20
-44.416945248987858
10
-23.576343213052837
20
-44.022991159737131
0
LWPOLYLINE
5
219
100
AcDbEntity
8
0
100
AcDbPolyline
90
6
70
1
43
0.0
10
-28.553328161383291
20
-42.529140229669565
10
-27.310940074165444
20
-42.232286438918422
10
-25.288461175760588
20
-42.900086075184177
10
-25.65923172254692
20
-44.022991159737131
10
-26.814860344368014
20
-44.416945248987858
10
-28.007978443241655
20
-44.022991159737131
0
LWPOLYLINE
5
220
100
AcDbEntity
8
0
100
AcDbPolyline
90
12
70
1
43
0.0
10
-23.156612507763654
20
-50.994057282429424
10
-23.156612507763654
20
-49.71026063659167
42
0.18091134398506467
10
-24.602746414597476
20
-49.203423452049961
10
-24.632828521002263
20
-49.203423452049961
42
0.18091134398506625
10
-26.078962427836103
20
-49.710260636591677
10
-26.078962427836103
20
-50.994057282429424
10
-26.973035091901707
20
-49.914027385227968
10
-26.97303509190364
20
-49.045437373566102
42
-0.18800450100117477
10
-24.640349047603465
20
-48.317234674886222
10
-24.59522588799604
20
-48.317234674889356
42
-0.18800450100117408
10
-22.26253984369805
20
-49.045437373568546
10
-22.26253984369805
20
-49.914027385227968
0
CIRCLE
5
221
100
AcDbEntity
8
0
100
AcDbCircle
10
-42.791729011600204
20
-24.755943149766786
30
0
40
8.5452176285209429
0
LWPOLYLINE
5
222
100
AcDbEntity
8
0
100
AcDbPolyline
90
6
70
1
43
0.0
10
-39.783402661989236
20
-26.094648548286756
10
-40.735705532656006
20
-26.767412380104364
10
-40.816541852913915
20
-28.925258813808163
10
-39.784180675994705
20
-28.195936995511417
10
-39.405222377699367
20
-28.501072248684256
10
-39.028924111651015
20
-26.113370155782238
0
LWPOLYLINE
5
223
100
AcDbEntity
8
0
100
AcDbPolyline
90
60
70
1
43
0.0
10
-47.830541700500326
20
-22.500449050790454
10
-48.484164671452419
20
-22.969453504894425
10
-48.484164671452419
20
-24.626707540962446
10
-48.174274909654322
20
-24.938939488684056
10
-47.851570322369703
20
-27.187114780100174
10
-47.486035339232053
20
-27.27389261378601
10
-47.449163974850777
20
-27.530763118975461
10
-46.504855734295596
20
-27.803158482081898
10
-46.504855734295596
20
-27.27389261378601
10
-47.528416671296618
20
-26.978636000403036
10
-47.547970532587094
20
-26.842410766746067
10
-46.600936018573407
20
-27.115592551294956
10
-46.600936018573407
20
-26.652180767855562
10
-47.61736218544506
20
-26.358982251835936
10
-47.646465976016721
20
-26.156225844186913
10
-46.741429506661056
20
-26.417292863521364
10
-46.741429506661056
20
-25.880237228810419
10
-47.726885118345521
20
-25.595972485963053
10
-47.800985221001859
20
-25.079741770790875
10
-47.375370547247968
20
-25.601840464318851
10
-47.234157312503307
20
-25.486723484367317
10
-47.521296031714471
20
-24.686999927086539
42
-0.11258317196777116
10
-47.434843980649433
20
-21.891092690456372
42
-0.23873454635184393
10
-45.432995603002233
20
-20.829878558253437
42
-0.088627492870889002
10
-43.420901770503342
20
-21.121530442203515
42
0.12012503385633128
10
-42.791729011600204
20
-21.077184090086302
42
0.12012503385633079
10
-42.162556252697073
20
-21.1215304422035
42
-0.088627492870889113
10
-40.150462420198174
20
-20.829878558253423
42
-0.23873454635184757
10
-38.148614042550975
20
-21.891092690456379
42
-0.11258317196777116
10
-38.062161991485937
20
-24.686999927086546
10
-38.349300710697101
20
-25.486723484367317
10
-38.208087475952439
20
-25.601840464318851
10
-37.782472802198548
20
-25.079741770790875
10
-37.856572904854886
20
-25.595972485963053
10
-38.842028516539351
20
-25.880237228810419
10
-38.842028516539351
20
-26.417292863521364
10
-37.936992047183686
20
-26.156225844186913
10
-37.966095837755347
20
-26.358982251835936
10
-38.982522004627
20
-26.652180767855562
10
-38.982522004627
20
-27.115592551294956
10
-38.035487490613313
20
-26.842410766746067
10
-38.055041351903789
20
-26.978636000403036
10
-39.078602288904811
20
-27.27389261378601
10
-39.078602288904811
20
-27.803158482081898
10
-38.134294048349631
20
-27.530763118975461
10
-38.097422683968354
20
-27.27389261378601
10
-37.731887700830704
20
-27.187114780100174
10
-37.409183113546085
20
-24.938939488684056
10
-37.099293351747988
20
-24.626707540962446
10
-37.099293351747988
20
-22.969453504894425
10
-37.752916322700081
20
-22.500449050790433
10
-37.752916322700081
20
-22.11559247678915
42
0.083982993682968493
10
-38.294412907423698
20
-18.914484084631056
42
0.40571599055768076
10
-39.126467447533322
20
-18.914484084631027
42
0.14257220839828397
10
-40.782924708397097
20
-17.115592402283344
42
0.12662687761590627
10
-42.791729011600204
20
-16.55442827240951
42
0.12662687761590805
10
-44.80053331480331
20
-17.115592402283344
42
0.14257220839829002
10
-46.456990575667092
20
-18.914484084631056
42
0.40571599055771695
10
-47.289045115776716
20
-18.914484084631084
42
0.083982993682967882
10
-47.830541700500326
20
-22.11559247678915
0
LWPOLYLINE
5
224
100
AcDbEntity
8
0
100
AcDbPolyline
90
9
70
1
43
0.0
10
-38.344512030087223
20
-27.90620804436552
42
-0.41420266006306417
10
-37.590567805827213
20
-29.254990133345657
10
-38.302938339674988
20
-29.842695823770082
10
-38.302938339674988
20
-30.439306145867597
10
-39.946314585510088
20
-31.928711667334298
42
0.35817467204244019
10
-41.695185769943485
20
-30.252793732745452
10
-41.376730571028055
20
-29.533320875936493
10
-39.784180675994705
20
-28.408248167720032
10
-39.31425342274423
20
-28.786631150856756
0
LWPOLYLINE
5
225
100
AcDbEntity
8
0
100
AcDbPolyline
90
6
70
1
43
0.0
10
-42.279420365813181
20
-29.458769581259354
10
-43.304037657387227
20
-29.458769581259354
10
-43.304037657387227
20
-31.210388890366652
10
-42.957947692630789
20
-31.817299097741891
10
-42.625510330569618
20
-31.817299097741891
10
-42.279420365813181
20
-31.210388890366652
0
LWPOLYLINE
5
226
100
AcDbEntity
8
0
100
AcDbPolyline
90
10
70
1
43
0.0
10
-38.431319234172385
20
-24.804218027254521
42
-0.099494206394349055
10
-40.082649545459823
20
-26.038276700743516
42
0.19375205332982931
10
-42.791729011600204
20
-24.83942407708404
42
0.19375205332982945
10
-45.500808477740584
20
-26.038276700743516
42
-0.099494206394351414
10
-47.152138789028015
20
-24.804218027254521
42
-0.21075973994457137
10
-47.152138789028008
20
-22.365851171458367
42
-0.27008986093657661
10
-44.388262478664657
20
-21.765322530896412
42
0.13627517052436114
10
-42.791729011600204
20
-21.804706225594753
42
0.13627517052435872
10
-41.195195544535757
20
-21.76532253089638
42
-0.27008986093656923
10
-38.431319234172399
20
-22.365851171458367
42
-0.21075973994457101
0
CIRCLE
5
227
100
AcDbEntity
8
0
100
AcDbCircle
10
-41.368013612238528
20
-31.691980186618203
30
0
40
0.74999999999999289
0
LWPOLYLINE
5
228
100
AcDbEntity
8
0
100
AcDbPolyline
90
9
70
1
43
0.0
10
-47.992890217373194
20
-29.254990133345657
42
-0.41420266006305551
10
-47.238945993113184
20
-27.906208044365528
10
-46.269204600456177
20
-28.786631150856756
10
-45.799277347205702
20
-28.408248167720032
10
-44.206727452172352
20
-29.533320875936493
10
-43.888272253256915
20
-30.252793732745449
42
0.35817467204243303
10
-45.637143437690312
20
-31.928711667334291
10
-47.280519683525419
20
-30.439306145867597
10
-47.280519683525419
20
-29.842695823770082
0
CIRCLE
5
229
100
AcDbEntity
8
0
100
AcDbCircle
10
-44.215444410961879
20
-31.691980186618203
30
0
40
0.74999999999999289
0
LWPOLYLINE
5
230
100
AcDbEntity
8
0
100
AcDbPolyline
90
38
70
1
43
0.0
10
-40.516810376280787
20
-26.113370155782238
10
-41.493148774522979
20
-25.435285310513759
42
0.1494688810971137
10
-42.791729011600204
20
-25.018889750563758
42
0.14946888109711209
10
-44.090309248677464
20
-25.435285310513759
10
-45.06664764691962
20
-26.113370155782238
10
-45.065507284222122
20
-26.159326636553235
10
-44.620343239073073
20
-26.473817202555836
10
-44.59860721867031
20
-26.580559874760866
10
-44.518680712891054
20
-26.973068192695603
10
-44.515226954412448
20
-27.065262894187985
10
-44.510776877570706
20
-27.184053339028512
10
-44.492948381011317
20
-27.659967601283615
10
-44.488498304169539
20
-27.778758046124139
10
-44.473909148776265
20
-28.16820126713786
10
-44.469459071934487
20
-28.286991711978395
10
-44.455520643911157
20
-28.659064402888038
10
-44.45107056706938
20
-28.77785484772857
10
-44.437875680509435
20
-29.130079427171207
10
-43.970684828678337
20
-29.112577723282413
10
-43.435057753475554
20
-28.699833560044048
10
-43.12416637366141
20
-28.699833560044048
10
-42.791729011600204
20
-28.906205641663231
10
-42.459291649538997
20
-28.699833560044048
10
-42.148400269724853
20
-28.699833560044048
10
-41.61277319452207
20
-29.112577723282413
10
-41.145582342690972
20
-29.130079427171207
10
-41.132387456131028
20
-28.77785484772857
10
-41.12793737928925
20
-28.659064402888035
10
-41.11399895126592
20
-28.286991711978395
10
-41.109548874424142
20
-28.168201267137864
10
-41.094959719030868
20
-27.778758046124139
10
-41.09050964218909
20
-27.659967601283618
10
-41.072681145629701
20
-27.184053339028512
10
-41.068231068787959
20
-27.065262894187985
10
-41.064777310309353
20
-26.973068192695603
10
-40.984850804530097
20
-26.580559874760862
10
-40.963114784127335
20
-26.473817202555836
10
-40.517950738978286
20
-26.159326636553235
0
LWPOLYLINE
5
231
100
AcDbEntity
8
0
100
AcDbPolyline
90
6
70
1
43
0.0
10
-45.800055361211172
20
-26.094648548286756
10
-46.554533911549392
20
-26.113370155782238
10
-46.17823564550104
20
-28.501072248684256
10
-45.799277347205702
20
-28.195936995511417
10
-44.766916170286493
20
-28.925258813808163
10
-44.847752490544401
20
-26.767412380104364
0
LWPOLYLINE
5
232
100
AcDbEntity
8
0
100
AcDbPolyline
90
14
70
1
43
0.0
10
-42.323226021332978
20
-26.050044135176957
10
-42.036577627725329
20
-25.84753852734146
10
-40.984850804530097
20
-26.580559874760866
10
-41.064777310309353
20
-26.973068192695603
10
-41.068231068787959
20
-27.065262894187985
10
-42.07268335832044
20
-26.365190447186279
10
-42.365201944426616
20
-26.571843110880231
10
-43.218256078773791
20
-26.571843110880231
10
-43.510774664879968
20
-26.365190447186279
10
-44.515226954412448
20
-27.065262894187985
10
-44.518680712891054
20
-26.973068192695603
10
-44.59860721867031
20
-26.580559874760866
10
-43.546880395475078
20
-25.84753852734146
10
-43.260232001867429
20
-26.050044135176957
0
LWPOLYLINE
5
233
100
AcDbEntity
8
0
100
AcDbPolyline
90
13
70
1
43
0.0
10
-40.516810376280787
20
-26.113370155782238
10
-40.517950738978286
20
-26.159326636553235
10
-40.963114784127335
20
-26.473817202555836
10
-42.036966062948231
20
-25.725375787951705
10
-42.354986000840142
20
-25.95004413517696
10
-43.228472022360265
20
-25.95004413517696
10
-43.546491960252176
20
-25.725375787951705
10
-44.620343239073073
20
-26.473817202555836
10
-45.065507284222122
20
-26.159326636553235
10
-45.06664764691962
20
-26.113370155782238
10
-44.090309248677443
20
-25.435285310513759
42
-0.14946888109711134
10
-42.791729011600211
20
-25.018889750563762
42
-0.14946888109711282
10
-41.493148774522979
20
-25.435285310513759
0
LWPOLYLINE
5
234
100
AcDbEntity
8
0
100
AcDbPolyline
90
12
70
1
43
0.0
10
-42.072294923097537
20
-26.487353186576037
10
-41.072681145629701
20
-27.184053339028512
10
-41.09050964218909
20
-27.659967601283618
10
-42.07268335832044
20
-26.975422636830526
10
-42.365201944426616
20
-27.182075300524467
10
-43.218256078773791
20
-27.182075300524467
10
-43.510774664879968
20
-26.975422636830526
10
-44.492948381011317
20
-27.659967601283618
10
-44.510776877570706
20
-27.184053339028512
10
-43.51116310010287
20
-26.487353186576037
10
-43.250016058280956
20
-26.671843110880225
10
-42.333441964919452
20
-26.671843110880225
0
LWPOLYLINE
5
235
100
AcDbEntity
8
0
100
AcDbPolyline
90
12
70
1
43
0.0
10
-42.072294923097537
20
-27.097585376220287
10
-41.094959719030868
20
-27.778758046124139
10
-41.109548874424142
20
-28.168201267137864
10
-42.07268335832044
20
-27.496926063766249
10
-42.346299577906379
20
-27.690224962683999
10
-43.237158445294028
20
-27.690224962683999
10
-43.510774664879968
20
-27.496926063766249
10
-44.473909148776265
20
-28.168201267137864
10
-44.488498304169539
20
-27.778758046124139
10
-43.51116310010287
20
-27.097585376220287
10
-43.250016058280956
20
-27.282075300524468
10
-42.333441964919452
20
-27.282075300524468
0
LWPOLYLINE
5
236
100
AcDbEntity
8
0
100
AcDbPolyline
90
12
70
1
43
0.0
10
-42.072294923097537
20
-27.619088803156004
10
-41.11399895126592
20
-28.286991711978395
10
-41.12793737928925
20
-28.659064402888035
10
-42.07268335832044
20
-28.000605423573823
10
-42.346299577906379
20
-28.193904322491559
10
-43.237158445294028
20
-28.193904322491559
10
-43.510774664879968
20
-28.000605423573823
10
-44.455520643911157
20
-28.659064402888035
10
-44.469459071934487
20
-28.286991711978395
10
-43.51116310010287
20
-27.619088803156004
10
-43.268918424801193
20
-27.790224962684
10
-42.314539598399215
20
-27.790224962684
0
LWPOLYLINE
5
237
100
AcDbEntity
8
0
100
AcDbPolyline
90
15
70
1
43
0.0
10
-42.072294923097537
20
-28.122768162963574
10
-41.132387456131028
20
-28.77785484772857
10
-41.145582342690972
20
-29.130079427171207
10
-41.61277319452207
20
-29.112577723282413
10
-42.148400269724853
20
-28.699833560044048
10
-42.459291649538997
20
-28.699833560044048
10
-42.791729011600204
20
-28.906205641663231
10
-43.12416637366141
20
-28.699833560044048
10
-43.435057753475554
20
-28.699833560044048
10
-43.970684828678337
20
-29.112577723282413
10
-44.437875680509435
20
-29.130079427171207
10
-44.45107056706938
20
-28.77785484772857
10
-43.51116310010287
20
-28.122768162963574
10
-43.268918424801193
20
-28.29390432249156
10
-42.314539598399215
20
-28.29390432249156
0
CIRCLE
5
238
100
AcDbEntity
8
0
100
AcDbCircle
10
-45.056877050950206
20
-23.580971836115552
30
0
40
1.0000000000000142
0
CIRCLE
5
239
100
AcDbEntity
8
0
100
AcDbCircle
10
-40.526580972250201
20
-23.580971836115552
30
0
40
1.0000000000000142
0
LWPOLYLINE
5
240
100
AcDbEntity
8
0
100
AcDbPolyline
90
10
70
1
43
0.0
10
-38.431319234172399
20
-24.804218027254525
42
-0.099494206394347043
10
-40.082649545459823
20
-26.038276700743516
42
0.19375205332983006
10
-42.791729011600204
20
-24.839424077084029
42
0.19375205332982828
10
-45.500808477740577
20
-26.038276700743509
42
-0.099494206394348611
10
-47.152138789028001
20
-24.804218027254507
42
-0.21075973994457206
10
-47.152138789028001
20
-22.365851171458353
42
-0.27008986093657578
10
-44.38826247866465
20
-21.765322530896412
42
0.13627517052436219
10
-42.791729011600204
20
-21.804706225594753
42
0.13627517052435742
10
-41.19519554453575
20
-21.76532253089638
42
-0.27008986093657089
10
-38.431319234172392
20
-22.365851171458363
42
-0.21075973994457312
0
CIRCLE
5
241
100
AcDbEntity
8
0
100
AcDbCircle
10
-45.056877050950206
20
-23.580971836115552
30
0
40
1.0000000000000142
0
CIRCLE
5
242
100
AcDbEntity
8
0
100
AcDbCircle
10
-40.526580972250201
20
-23.580971836115552
30
0
40
1.0000000000000142
0
LWPOLYLINE
5
243
100
AcDbEntity
8
0
100
AcDbPolyline
90
14
70
1
43
0.0
10
-53.64719555404163
20
-2.5014738299020411
10
-50.305151053182854
20
1.8679583101044894
10
-51.84455252826077
20
8.3723974714276057
42
0.019992206824111479
10
-52.51179063979464
20
8.1522628023725385
10
-51.06275735448417
20
2.0296567118743081
10
-53.045047250059447
20
-0.5620146971422546
10
-53.710559716812952
20
0.91358002219712908
10
-52.313684454886094
20
1.9483024384392333
10
-54.241307973611832
20
7.2755047959853822
42
0.022391154307534137
10
-54.879645273975882
20
6.8154529092309613
10
-53.315529032497793
20
2.4928434120266285
10
-54.145536207725385
20
1.878023282228396
10
-54.621469401726195
20
2.9332770045993595
10
-55.943856688027381
20
2.9332770045993595
0
LWPOLYLINE
5
244
100
AcDbEntity
8
0
100
AcDbPolyline
90
4
70
1
43
0.0
10
-51.289239581247976
20
8.5118988159299747
42
-0.10717894713081871
10
-47.563792078179866
20
8.5118988159301008
10
-49.13380462143909
20
1.2108020662039021
10
-49.719227037988759
20
1.2108020662039021
0
LWPOLYLINE
5
245
100
AcDbEntity
8
0
100
AcDbPolyline
90
14
70
1
43
0.0
10
-45.142471942614918
20
0.91358002219712908
10
-45.807984409368402
20
-0.5620146971422546
10
-47.790274304943679
20
2.0296567118743081
10
-46.341241019633237
20
8.1522628023725403
42
0.019992206824111479
10
-47.008479131167093
20
8.3723974714275951
10
-48.547880606245016
20
1.8679583101044894
10
-45.205836105386226
20
-2.5014738299020411
10
-42.909174971400489
20
2.9332770045993595
10
-44.231562257701675
20
2.9332770045993595
10
-44.707495451702464
20
1.878023282228396
10
-45.537502626930063
20
2.4928434120266285
10
-43.973386385451995
20
6.815452909230947
42
0.022391154307535688
10
-44.611723685816038
20
7.2755047959854036
10
-46.539347204541777
20
1.9483024384392333
0
LWPOLYLINE
5
246
100
AcDbEntity
8
0
100
AcDbPolyline
90
6
70
1
43
0.0
10
-46.449605745453738
20
-2.2116078104892001
10
-47.610234886315155
20
-0.26076308436043583
10
-51.242796773112701
20
-0.26076308436043583
10
-52.403425913974132
20
-2.2116078104892001
10
-50.992849749205895
20
-7.1898847356227424
10
-47.860181910221954
20
-7.1898847356227424
0
LWPOLYLINE
5
247
100
AcDbEntity
8
0
100
AcDbPolyline
90
5
70
1
43
0.0
10
-41.986710261789533
20
4.6023721881590802
42
-1.8105366865644221
10
-56.866321397637911
20
4.6023721881588049
10
-51.658815208265182
20
-7.7205161080561613
42
0.25664316390885478
10
-49.426515829713928
20
-8.4282651669459465
42
0.2566431639088545
10
-47.194216451162674
20
-7.7205161080561568
0
CIRCLE
5
248
100
AcDbEntity
8
0
100
AcDbCircle
10
-49.426515829713637
20
-0.078062573529429358
30
0
40
10.226294991234045
0
LWPOLYLINE
5
249
100
AcDbEntity
8
0
100
AcDbPolyline
90
6
70
1
43
0.0
10
-47.744939276294375
20
-2.3813377876953812
10
-48.767407570192475
20
-5.9898847356227325
10
-50.085624089235395
20
-5.9898847356227325
10
-51.108092383133474
20
-2.3813377876953812
10
-50.560408698870916
20
-1.4607630843604458
10
-48.29262296055694
20
-1.4607630843604458
0
LWPOLYLINE
5
250
100
AcDbEntity
8
0
100
AcDbPolyline
90
6
70
1
43
0.0
10
-48.767407570192475
20
-5.9898847356227325
10
-47.744939276294375
20
-2.3813377876953812
10
-48.29262296055694
20
-1.4607630843604458
10
-50.560408698870916
20
-1.4607630843604458
10
-51.108092383133474
20
-2.3813377876953812
10
-50.085624089235395
20
-5.9898847356227325
0
LWPOLYLINE
5
251
100
AcDbEntity
8
0
100
AcDbPolyline
90
6
70
1
43
0.0
10
-48.122025941996505
20
-1.1607630843604344
10
-47.421105893584219
20
-2.3389052933938448
10
-48.540601155199838
20
-6.2898847356227439
10
-50.312430504228018
20
-6.2898847356227439
10
-51.43192576584363
20
-2.3389052933938448
10
-50.731005717431366
20
-1.1607630843604344
0
LWPOLYLINE
5
252
100
AcDbEntity
8
0
100
AcDbPolyline
90
6
70
1
43
0.0
10
-47.421105893584219
20
-2.3389052933938448
10
-48.122025941996505
20
-1.1607630843604344
10
-50.731005717431366
20
-1.1607630843604344
10
-51.43192576584363
20
-2.3389052933938448
10
-50.312430504228018
20
-6.2898847356227439
10
-48.540601155199838
20
-6.2898847356227439
0
LWPOLYLINE
5
253
100
AcDbEntity
8
0
100
AcDbPolyline
90
6
70
1
43
0.0
10
-47.610234886315155
20
-0.26076308436043583
10
-46.449605745453738
20
-2.2116078104892001
10
-47.860181910221954
20
-7.1898847356227424
10
-50.992849749205895
20
-7.1898847356227424
10
-52.403425913974132
20
-2.2116078104892001
10
-51.242796773112701
20
-0.26076308436043583
0
LWPOLYLINE
5
254
100
AcDbEntity
8
0
100
AcDbPolyline
90
5
70
1
43
0.0
10
-56.866321397637911
20
4.6023721881587942
10
-51.658815208265182
20
-7.7205161080561613
42
0.25664316390885478
10
-49.426515829713928
20
-8.4282651669459483
42
0.2566431639088535
10
-47.194216451162688
20
-7.7205161080561613
10
-41.986710261789959
20
4.6023721881588022
42
-1.8105366865643566
0
LWPOLYLINE
5
255
100
AcDbEntity
8
0
100
AcDbPolyline
90
14
70
1
43
0.0
10
-42.909174971400489
20
2.9332770045993595
10
-45.205836105386226
20
-2.5014738299020411
10
-48.547880606245016
20
1.8679583101044894
10
-47.008479131167064
20
8.3723974714276412
42
-0.019992206824109703
10
-46.341241019633216
20
8.1522628023725385
10
-47.790274304943679
20
2.0296567118743081
10
-45.807984409368402
20
-0.5620146971422546
10
-45.142471942614918
20
0.91358002219712908
10
-46.539347204541777
20
1.9483024384392333
10
-44.61172368581601
20
7.2755047959853894
42
-0.022391154307531934
10
-43.973386385451988
20
6.8154529092309613
10
-45.537502626930063
20
2.4928434120266285
10
-44.707495451702464
20
1.878023282228396
10
-44.231562257701675
20
2.9332770045993595
0
LWPOLYLINE
5
256
100
AcDbEntity
8
0
100
AcDbPolyline
90
4
70
1
43
0.0
10
-51.289239581248005
20
8.511898815930099
42
-0.10717894713082197
10
-47.563792078179866
20
8.5118988159301008
10
-49.13380462143909
20
1.2108020662039021
10
-49.719227037988759
20
1.2108020662039021
0
LWPOLYLINE
5
257
100
AcDbEntity
8
0
100
AcDbPolyline
90
14
70
1
43
0.0
10
-53.64719555404163
20
-2.5014738299020411
10
-55.943856688027381
20
2.9332770045993595
10
-54.621469401726195
20
2.9332770045993595
10
-54.145536207725385
20
1.878023282228396
10
-53.315529032497793
20
2.4928434120266285
10
-54.879645273975854
20
6.8154529092308893
42
-0.022391154307543706
10
-54.241307973611811
20
7.2755047959854036
10
-52.313684454886094
20
1.9483024384392333
10
-53.710559716812952
20
0.91358002219712908
10
-53.045047250059447
20
-0.5620146971422546
10
-51.06275735448417
20
2.0296567118743081
10
-52.511790639794611
20
8.1522628023725403
42
-0.019992206824118033
10
-51.844552528260778
20
8.3723974714275951
10
-50.305151053182854
20
1.8679583101044894
0
LWPOLYLINE
5
258
100
AcDbEntity
8
0
100
AcDbPolyline
90
4
70
1
43
0.0
10
-41.848842662086092
20
31.22989156851753
10
-43.734615360147941
20
31.22989156851753
10
-43.121657128767538
20
26.771833447924777
10
-42.461800893466503
20
26.771833447924777
0
LWPOLYLINE
5
259
100
AcDbEntity
8
0
100
AcDbPolyline
90
6
70
1
43
0.0
10
-39.847074635219911
20
32.416968819684186
42
-0.24733254479159097
10
-42.366143659061848
20
26.131926834768354
10
-43.217314363172179
20
26.131926834768358
42
-0.24733254479159064
10
-45.736383387014108
20
32.4169688196842
42
-0.014294940878829062
10
-45.589648097047437
20
32.4595472816588
42
-0.13011638858651306
10
-39.993809925186596
20
32.459547281658793
42
-0.014294940878829951
0
LWPOLYLINE
5
260
100
AcDbEntity
8
0
100
AcDbPolyline
90
18
70
1
43
0.0
10
-37.885294391650213
20
26.447762460981728
10
-37.885294391650213
20
28.927578172621295
42
0.11404888958302635
10
-38.448985072101607
20
31.366701752402179
42
0.18293193708587138
10
-39.993809925186596
20
32.4595472816588
42
0.13011638858651289
10
-45.589648097047437
20
32.4595472816588
42
0.18293193708587241
10
-47.134472950132427
20
31.366701752402175
42
0.11404888958303334
10
-47.698163630583821
20
28.927578172621295
10
-47.698163630583821
20
26.447762460981728
10
-48.32227718542606
20
25.694752432245402
10
-48.32227718542606
20
23.453471869441763
42
0.28985569321062088
10
-47.502214589049956
20
22.538743272103808
10
-46.578225328902775
20
19.360131410376724
10
-43.729537969911391
20
16.949629040108519
10
-41.85392005232265
20
16.949629040108519
10
-39.005232693331266
20
19.360131410376724
10
-38.081243433184078
20
22.538743272103808
42
0.28985569321062321
10
-37.261180836807966
20
23.453471869441763
10
-37.261180836807966
20
25.694752432245402
0
CIRCLE
5
261
100
AcDbEntity
8
0
100
AcDbCircle
10
-42.791729011117013
20
25.125408351648353
30
0
40
8.5016191252971929
0
LWPOLYLINE
5
262
100
AcDbEntity
8
0
100
AcDbPolyline
90
3
70
1
43
0.0
10
-39.48311124610089
20
24.435025391318149
42
-0.27184128939636559
10
-42.006004493237754
20
23.897576892969351
42
-0.29002751344321426
10
-39.483111246100883
20
24.685025391318142
0
LWPOLYLINE
5
263
100
AcDbEntity
8
0
100
AcDbPolyline
90
19
70
1
43
0.0
10
-46.732927852147697
20
25.420026725993544
42
-0.28571259626190348
10
-42.791729011117013
20
24.084126279639925
42
-0.28571259626190409
10
-38.850530170086337
20
25.420026725993527
10
-38.850530170086337
20
25.220026725993527
42
0.29471941501566756
10
-42.539625169004005
20
23.884202243930289
10
-42.539625169003997
20
21.194199963990748
10
-38.848449100926373
20
22.761918321172562
10
-39.627174062912886
20
19.508341425201522
10
-41.365970895841656
20
17.833549383668881
10
-41.744051945638688
20
18.226079390782989
42
0.1944404270067816
10
-42.228447706794952
20
18.442430748717108
10
-43.355010315439074
20
18.442430748717115
42
0.1944404270067763
10
-43.839406076595331
20
18.226079390782996
10
-44.217487126392371
20
17.833549383668881
10
-45.956283959321155
20
19.508341425201522
10
-46.735008921307667
20
22.761918321172562
10
-43.043832853230043
20
21.194199963990748
10
-43.043832853230043
20
23.884202243930286
42
0.2947194150156679
10
-46.732927852147689
20
25.220026725993524
0
LWPOLYLINE
5
264
100
AcDbEntity
8
0
100
AcDbPolyline
90
3
70
1
43
0.0
10
-43.577453528996273
20
23.897576892969372
42
-0.2718412893963657
10
-46.100346776133151
20
24.435025391318142
10
-46.100346776133151
20
24.68502539131816
42
-0.29002751344321681
0
LWPOLYLINE
5
265
100
AcDbEntity
8
0
100
AcDbPolyline
90
20
70
1
43
0.0
10
-37.261180836807974
20
23.453471869441763
42
-0.28985569321062304
10
-38.081243433184078
20
22.538743272103808
10
-39.005232693331266
20
19.360131410376724
10
-41.85392005232265
20
16.949629040108519
10
-43.729537969911391
20
16.949629040108519
10
-46.578225328902775
20
19.360131410376724
10
-47.502214589049956
20
22.538743272103812
42
-0.2898556932106196
10
-48.32227718542606
20
23.45347186944176
10
-48.32227718542606
20
25.694752432245402
10
-47.698163630583821
20
26.447762460981728
10
-47.698163630583821
20
28.927578172621295
42
-0.11404888958303339
10
-47.134472950132427
20
31.366701752402172
42
-0.16819716042640226
10
-45.736383387014129
20
32.416968819684193
42
0.24733254479159042
10
-43.217314363172186
20
26.131926834768354
10
-42.366143659061848
20
26.131926834768354
42
0.2473325447915912
10
-39.847074635219904
20
32.416968819684193
42
-0.16819716042640226
10
-38.448985072101607
20
31.366701752402179
42
-0.11404888958302629
10
-37.885294391650213
20
28.927578172621295
10
-37.885294391650213
20
26.447762460981728
10
-37.261180836807966
20
25.694752432245402
0
LWPOLYLINE
5
266
100
AcDbEntity
8
0
100
AcDbPolyline
90
4
70
1
43
0.0
10
-43.734615360147941
20
31.22989156851753
10
-41.848842662086092
20
31.22989156851753
10
-42.461800893466503
20
26.771833447924777
10
-43.121657128767538
20
26.771833447924777
0
LWPOLYLINE
5
267
100
AcDbEntity
8
0
100
AcDbPolyline
90
19
70
1
43
0.0
10
-46.732927852147697
20
25.420026725993544
42
-0.28571259626190348
10
-42.791729011117013
20
24.084126279639925
42
-0.28571259626190421
10
-38.850530170086337
20
25.420026725993523
10
-38.850530170086337
20
25.220026725993524
42
0.29471941501566823
10
-42.539625169004012
20
23.884202243930286
10
-42.539625169003997
20
21.194199963990748
10
-38.848449100926373
20
22.761918321172562
10
-39.627174062912886
20
19.508341425201522
10
-41.365970895841656
20
17.833549383668881
10
-41.744051945638688
20
18.226079390782989
42
0.19444042700678169
10
-42.228447706794952
20
18.442430748717115
10
-43.355010315439074
20
18.442430748717115
42
0.19444042700677522
10
-43.839406076595324
20
18.226079390782992
10
-44.217487126392371
20
17.833549383668881
10
-45.956283959321155
20
19.508341425201522
10
-46.735008921307667
20
22.761918321172562
10
-43.043832853230043
20
21.194199963990748
10
-43.043832853230043
20
23.884202243930289
42
0.29471941501566828
10
-46.732927852147697
20
25.22002672599352
0
CIRCLE
5
268
100
AcDbEntity
8
0
100
AcDbCircle
10
-42.791729011117013
20
25.125408351648353
30
0
40
8.5016191252971929
0
CIRCLE
5
269
100
AcDbEntity
8
0
100
AcDbCircle
10
-42.791729011117013
20
25.125408351648353
30
0
40
9.7016191252972011
0
LWPOLYLINE
5
270
100
AcDbEntity
8
0
100
AcDbPolyline
90
3
70
1
43
0.0
10
-39.48311124610089
20
24.435025391318149
42
-0.27184128939636559
10
-42.006004493237761
20
23.897576892969354
42
-0.29002751344321609
10
-39.483111246100876
20
24.685025391318142
0
LWPOLYLINE
5
271
100
AcDbEntity
8
0
100
AcDbPolyline
90
3
70
1
43
0.0
10
-43.577453528996273
20
23.897576892969372
42
-0.2718412893963657
10
-46.100346776133151
20
24.435025391318142
10
-46.100346776133151
20
24.68502539131816
42
-0.2900275134432167
0
CIRCLE
5
272
100
AcDbEntity
8
0
100
AcDbCircle
10
-24.665154325805236
20
42.809873614854403
30
0
40
8.5
0
CIRCLE
5
273
100
AcDbEntity
8
0
100
AcDbCircle
10
-24.665154325805236
20
42.809873614854403
30
0
40
9.5
0
ENDSEC
0
SECTION
2
OBJECTS
0
DICTIONARY
5
C
100
AcDbDictionary
3
ACAD_GROUP
350
D
3
ACAD_MLINESTYLE
350
17
0
DICTIONARY
5
D
100
AcDbDictionary
0
DICTIONARY
5
1A
330
C
100
AcDbDictionary
0
DICTIONARY
5
17
100
AcDbDictionary
0
ENDSEC
0
EOF
