  0
SECTION
  2
HEADER
  9
$ACADVER
  1
AC1015
  9
$ACADMAINTVER
 70
     6
  9
$DWGCODEPAGE
  3
ANSI_1252
  9
$INSBASE
 10
0.0
 20
0.0
 30
0.0
  9
$EXTMIN
 10
1.000000E+20
 20
1.000000E+20
 30
1.000000E+20
  9
$EXTMAX
 10
-1.000000E+20
 20
-1.000000E+20
 30
-1.000000E+20
  9
$LIMMIN
 10
0.0
 20
0.0
  9
$LIMMAX
 10
420.0
 20
297.0
  9
$ORTHOMODE
 70
     0
  9
$REGENMODE
 70
     1
  9
$FILLMODE
 70
     1
  9
$QTEXTMODE
 70
     0
  9
$MIRRTEXT
 70
     1
  9
$LTSCALE
 40
1.0
  9
$ATTMODE
 70
     1
  9
$TEXTSIZE
 40
2.5
  9
$TRACEWID
 40
1.0
  9
$TEXTSTYLE
  7
Standard
  9
$CLAYER
  8
0
  9
$CELTYPE
  6
ByLayer
  9
$CECOLOR
 62
   256
  9
$CELTSCALE
 40
1.0
  9
$DISPSILH
 70
     0
  9
$DIMSCALE
 40
1.0
  9
$DIMASZ
 40
2.5
  9
$DIMEXO
 40
0.625
  9
$DIMDLI
 40
3.75
  9
$DIMRND
 40
0.0
  9
$DIMDLE
 40
0.0
  9
$DIMEXE
 40
1.25
  9
$DIMTP
 40
0.0
  9
$DIMTM
 40
0.0
  9
$DIMTXT
 40
2.5
  9
$DIMCEN
 40
2.5
  9
$DIMTSZ
 40
0.0
  9
$DIMTOL
 70
     0
  9
$DIMLIM
 70
     0
  9
$DIMTIH
 70
     0
  9
$DIMTOH
 70
     0
  9
$DIMSE1
 70
     0
  9
$DIMSE2
 70
     0
  9
$DIMTAD
 70
     1
  9
$DIMZIN
 70
     8
  9
$DIMBLK
  1

  9
$DIMASO
 70
     1
  9
$DIMSHO
 70
     1
  9
$DIMPOST
  1

  9
$DIMAPOST
  1

  9
$DIMALT
 70
     0
  9
$DIMALTD
 70
     3
  9
$DIMALTF
 40
0.03937
  9
$DIMLFAC
 40
1.0
  9
$DIMTOFL
 70
     1
  9
$DIMTVP
 40
0.0
  9
$DIMTIX
 70
     0
  9
$DIMSOXD
 70
     0
  9
$DIMSAH
 70
     0
  9
$DIMBLK1
  1

  9
$DIMBLK2
  1

  9
$DIMSTYLE
  2
ISO-25
  9
$DIMCLRD
 70
     0
  9
$DIMCLRE
 70
     0
  9
$DIMCLRT
 70
     0
  9
$DIMTFAC
 40
1.0
  9
$DIMGAP
 40
0.625
  9
$DIMJUST
 70
     0
  9
$DIMSD1
 70
     0
  9
$DIMSD2
 70
     0
  9
$DIMTOLJ
 70
     0
  9
$DIMTZIN
 70
     8
  9
$DIMALTZ
 70
     0
  9
$DIMALTTZ
 70
     0
  9
$DIMUPT
 70
     0
  9
$DIMDEC
 70
     2
  9
$DIMTDEC
 70
     2
  9
$DIMALTU
 70
     2
  9
$DIMALTTD
 70
     3
  9
$DIMTXSTY
  7
Standard
  9
$DIMAUNIT
 70
     0
  9
$DIMADEC
 70
     0
  9
$DIMALTRND
 40
0.0
  9
$DIMAZIN
 70
     0
  9
$DIMDSEP
 70
    44
  9
$DIMATFIT
 70
     3
  9
$DIMFRAC
 70
     0
  9
$DIMLDRBLK
  1

  9
$DIMLUNIT
 70
     2
  9
$DIMLWD
 70
    -2
  9
$DIMLWE
 70
    -2
  9
$DIMTMOVE
 70
     0
  9
$LUNITS
 70
     2
  9
$LUPREC
 70
     4
  9
$SKETCHINC
 40
1.0
  9
$FILLETRAD
 40
10.0
  9
$AUNITS
 70
     0
  9
$AUPREC
 70
     0
  9
$MENU
  1
.
  9
$ELEVATION
 40
0.0
  9
$PELEVATION
 40
0.0
  9
$THICKNESS
 40
0.0
  9
$LIMCHECK
 70
     0
  9
$CHAMFERA
 40
10.0
  9
$CHAMFERB
 40
10.0
  9
$CHAMFERC
 40
20.0
  9
$CHAMFERD
 40
0.0
  9
$SKPOLY
 70
     0
  9
$TDCREATE
 40
2455274.918081412
  9
$TDUCREATE
 40
2455274.376414746
  9
$TDUPDATE
 40
2455274.918081424
  9
$TDUUPDATE
 40
2455274.376414757
  9
$TDINDWG
 40
0.0000000116
  9
$TDUSRTIMER
 40
0.0000000116
  9
$USRTIMER
 70
     1
  9
$ANGBASE
 50
0.0
  9
$ANGDIR
 70
     0
  9
$PDMODE
 70
     3
  9
$PDSIZE
 40
-0.7
  9
$PLINEWID
 40
0.0
  9
$SPLFRAME
 70
     0
  9
$SPLINETYPE
 70
     6
  9
$SPLINESEGS
 70
     8
  9
$HANDSEED
  5
57
  9
$SURFTAB1
 70
     6
  9
$SURFTAB2
 70
     6
  9
$SURFTYPE
 70
     6
  9
$SURFU
 70
     6
  9
$SURFV
 70
     6
  9
$UCSBASE
  2

  9
$UCSNAME
  2

  9
$UCSORG
 10
0.0
 20
0.0
 30
0.0
  9
$UCSXDIR
 10
1.0
 20
0.0
 30
0.0
  9
$UCSYDIR
 10
0.0
 20
1.0
 30
0.0
  9
$UCSORTHOREF
  2

  9
$UCSORTHOVIEW
 70
     0
  9
$UCSORGTOP
 10
0.0
 20
0.0
 30
0.0
  9
$UCSORGBOTTOM
 10
0.0
 20
0.0
 30
0.0
  9
$UCSORGLEFT
 10
0.0
 20
0.0
 30
0.0
  9
$UCSORGRIGHT
 10
0.0
 20
0.0
 30
0.0
  9
$UCSORGFRONT
 10
0.0
 20
0.0
 30
0.0
  9
$UCSORGBACK
 10
0.0
 20
0.0
 30
0.0
  9
$PUCSBASE
  2

  9
$PUCSNAME
  2

  9
$PUCSORG
 10
0.0
 20
0.0
 30
0.0
  9
$PUCSXDIR
 10
1.0
 20
0.0
 30
0.0
  9
$PUCSYDIR
 10
0.0
 20
1.0
 30
0.0
  9
$PUCSORTHOREF
  2

  9
$PUCSORTHOVIEW
 70
     0
  9
$PUCSORGTOP
 10
0.0
 20
0.0
 30
0.0
  9
$PUCSORGBOTTOM
 10
0.0
 20
0.0
 30
0.0
  9
$PUCSORGLEFT
 10
0.0
 20
0.0
 30
0.0
  9
$PUCSORGRIGHT
 10
0.0
 20
0.0
 30
0.0
  9
$PUCSORGFRONT
 10
0.0
 20
0.0
 30
0.0
  9
$PUCSORGBACK
 10
0.0
 20
0.0
 30
0.0
  9
$USERI1
 70
     0
  9
$USERI2
 70
     0
  9
$USERI3
 70
     0
  9
$USERI4
 70
     0
  9
$USERI5
 70
     0
  9
$USERR1
 40
0.0
  9
$USERR2
 40
0.0
  9
$USERR3
 40
0.0
  9
$USERR4
 40
0.0
  9
$USERR5
 40
0.0
  9
$WORLDVIEW
 70
     1
  9
$SHADEDGE
 70
     3
  9
$SHADEDIF
 70
    70
  9
$TILEMODE
 70
     1
  9
$MAXACTVP
 70
    64
  9
$PINSBASE
 10
0.0
 20
0.0
 30
0.0
  9
$PLIMCHECK
 70
     0
  9
$PEXTMIN
 10
1.000000E+20
 20
1.000000E+20
 30
1.000000E+20
  9
$PEXTMAX
 10
-1.000000E+20
 20
-1.000000E+20
 30
-1.000000E+20
  9
$PLIMMIN
 10
0.0
 20
0.0
  9
$PLIMMAX
 10
420.0
 20
297.0
  9
$UNITMODE
 70
     0
  9
$VISRETAIN
 70
     1
  9
$PLINEGEN
 70
     0
  9
$PSLTSCALE
 70
     1
  9
$TREEDEPTH
 70
  3020
  9
$CMLSTYLE
  2
Standard
  9
$CMLJUST
 70
     1
  9
$CMLSCALE
 40
1.0
  9
$PROXYGRAPHICS
 70
     1
  9
$MEASUREMENT
 70
     1
  9
$CELWEIGHT
370
    -1
  9
$ENDCAPS
280
     0
  9
$JOINSTYLE
280
     0
  9
$LWDISPLAY
290
     0
  9
$INSUNITS
 70
     4
  9
$HYPERLINKBASE
  1

  9
$STYLESHEET
  1

  9
$XEDIT
290
     1
  9
$CEPSNTYPE
380
     0
  9
$PSTYLEMODE
290
     1
  9
$FINGERPRINTGUID
  2
{FAEB1C30-E019-11D5-929B-00C0DF256EC4}
  9
$VERSIONGUID
  2
{FAEB1C32-E019-11D5-929B-00C0DF256EC4}
  9
$EXTNAMES
290
     1
  9
$PSVPSCALE
 40
0.0
  9
$OLESTARTUP
290
     0
  0
ENDSEC
  0
SECTION
  2
CLASSES
  0
CLASS
  1
ACDBDICTIONARYWDFLT
  2
AcDbDictionaryWithDefault
  3
ObjectDBX Classes
 90
        0
280
     0
281
     0
  0
CLASS
  1
ACDBPLACEHOLDER
  2
AcDbPlaceHolder
  3
ObjectDBX Classes
 90
        0
280
     0
281
     0
  0
CLASS
  1
LAYOUT
  2
AcDbLayout
  3
ObjectDBX Classes
 90
        0
280
     0
281
     0
  0
ENDSEC
  0
SECTION
  2
TABLES
  0
TABLE
  2
VPORT
  5
8
330
0
100
AcDbSymbolTable
 70
     2
  0
VPORT
  5
29
330
8
100
AcDbSymbolTableRecord
100
AcDbViewportTableRecord
  2
*Active
 70
     0
 10
0.0
 20
0.0
 11
1.0
 21
1.0
 12
50.0
 22
50.0
 13
0.0
 23
0.0
 14
10.0
 24
10.0
 15
10.0
 25
10.0
 16
0.0
 26
0.0
 36
1.0
 17
0.0
 27
0.0
 37
0.0
 40
103.921569
 41
1.0
 42
50.0
 43
0.0
 44
0.0
 50
0.0
 51
0.0
 71
     0
 72
   100
 73
     1
 74
     3
 75
     0
 76
     0
 77
     0
 78
     0
281
     0
 65
     1
110
0.0
120
0.0
130
0.0
111
1.0
121
0.0
131
0.0
112
0.0
122
1.0
132
0.0
 79
     0
146
0.0
  0
ENDTAB
  0
TABLE
  2
LTYPE
  5
5
330
0
100
AcDbSymbolTable
 70
     1
  0
LTYPE
  5
14
330
5
100
AcDbSymbolTableRecord
100
AcDbLinetypeTableRecord
  2
ByBlock
 70
     0
  3

 72
    65
 73
     0
 40
0.0
  0
LTYPE
  5
15
330
5
100
AcDbSymbolTableRecord
100
AcDbLinetypeTableRecord
  2
ByLayer
 70
     0
  3

 72
    65
 73
     0
 40
0.0
  0
LTYPE
  5
16
330
5
100
AcDbSymbolTableRecord
100
AcDbLinetypeTableRecord
  2
Continuous
 70
     0
  3

 72
    65
 73
     0
 40
0.0
  0
ENDTAB
  0
TABLE
  2
LAYER
  5
2
330
0
100
AcDbSymbolTable
 70
     1
  0
LAYER
  5
10
330
2
100
AcDbSymbolTableRecord
100
AcDbLayerTableRecord
  2
0
 70
     0
 62
     7
  6
Continuous
370
    -3
390
F
  0
ENDTAB
  0
TABLE
  2
STYLE
  5
3
330
0
100
AcDbSymbolTable
 70
     1
  0
STYLE
  5
11
330
3
100
AcDbSymbolTableRecord
100
AcDbTextStyleTableRecord
  2
Standard
 70
     0
 40
1.0
 41
1.0
 50
0.0
 71
     0
 42
2.5
  3
RomanS
  4

  0
ENDTAB
  0
TABLE
  2
VIEW
  5
6
330
0
100
AcDbSymbolTable
 70
     0
  0
ENDTAB
  0
TABLE
  2
UCS
  5
7
330
0
100
AcDbSymbolTable
 70
     0
  0
ENDTAB
  0
TABLE
  2
APPID
  5
9
330
0
100
AcDbSymbolTable
 70
     1
  0
APPID
  5
12
330
9
100
AcDbSymbolTableRecord
100
AcDbRegAppTableRecord
  2
ACAD
 70
     0
  0
ENDTAB
  0
TABLE
  2
DIMSTYLE
  5
A
330
0
100
AcDbSymbolTable
 70
     1
100
AcDbDimStyleTable
  0
DIMSTYLE
105
27
330
A
100
AcDbSymbolTableRecord
100
AcDbDimStyleTableRecord
  2
ISO-25
 70
     0
 41
2.5
 42
0.625
 44
1.25
 73
     0
 74
     0
 77
     1
 78
     8
 79
     2
140
2.5
141
2.5
146
0.0
147
0.625
271
     2
272
     0
273
     0
274
     0
278
    44
283
     0
289
     0
340
11
  0
ENDTAB
  0
TABLE
  2
BLOCK_RECORD
  5
1
330
0
100
AcDbSymbolTable
 70
     1
  0
BLOCK_RECORD
  5
1F
330
1
100
AcDbSymbolTableRecord
100
AcDbBlockTableRecord
  2
*Model_Space
340
22
  0
BLOCK_RECORD
  5
1B
330
1
100
AcDbSymbolTableRecord
100
AcDbBlockTableRecord
  2
*Paper_Space
340
1E
  0
BLOCK_RECORD
  5
23
330
1
100
AcDbSymbolTableRecord
100
AcDbBlockTableRecord
  2
*Paper_Space0
340
26
  0
ENDTAB
  0
ENDSEC
  0
SECTION
  2
BLOCKS
  0
BLOCK
  5
20
330
1F
100
AcDbEntity
  8
0
100
AcDbBlockBegin
  2
*Model_Space
 70
     0
 71
     0
 10
0.0
 20
0.0
 30
0.0
  3
*Model_Space
  1

  0
ENDBLK
  5
21
330
1F
100
AcDbEntity
  8
0
100
AcDbBlockEnd
  0
BLOCK
  5
1C
330
1B
100
AcDbEntity
 67
     1
  8
0
100
AcDbBlockBegin
  2
*Paper_Space
 70
     0
 71
     0
 10
0.0
 20
0.0
 30
0.0
  3
*Paper_Space
  1

  0
ENDBLK
  5
1D
330
1B
100
AcDbEntity
 67
     1
  8
0
100
AcDbBlockEnd
  0
BLOCK
  5
24
330
23
100
AcDbEntity
  8
0
100
AcDbBlockBegin
  2
*Paper_Space0
 70
     0
 71
     0
 10
0.0
 20
0.0
 30
0.0
  3
*Paper_Space0
  1

  0
ENDBLK
  5
25
330
23
100
AcDbEntity
  8
0
100
AcDbBlockEnd
  0
ENDSEC
  0
SECTION
  2
ENTITIES
  0
LWPOLYLINE
  5
2A
330
1F
100
AcDbEntity
  8
0
100
AcDbPolyline
 90
      181
 70
   128
 43
0.0
 10
497.203036
 20
307.150104
 10
497.026147
 20
307.165911
 10
496.829435
 20
307.202185
 10
496.61721
 20
307.257132
 10
496.393782
 20
307.328954
 10
496.163461
 20
307.415854
 10
495.930556
 20
307.516036
 10
495.699378
 20
307.627704
 10
495.474236
 20
307.749061
 10
495.259441
 20
307.87831
 10
495.059302
 20
308.013655
 10
494.878128
 20
308.153299
 10
494.720231
 20
308.295445
 10
494.58992
 20
308.438298
 10
494.491504
 20
308.58006
 10
494.455604
 20
308.64997
 10
494.429294
 20
308.718934
 10
494.413113
 20
308.786727
 10
494.4076
 20
308.853125
 10
494.422144
 20
313.844885
 10
494.418443
 20
313.960958
 10
494.404666
 20
314.08032
 10
494.376804
 20
314.197187
 10
494.330846
 20
314.305776
 10
494.262784
 20
314.400302
 10
494.219211
 20
314.440484
 10
494.168607
 20
314.474982
 10
494.110473
 20
314.503072
 10
494.044306
 20
314.524032
 10
493.969605
 20
314.537137
 10
493.88587
 20
314.541667
 10
493.771723
 20
314.556517
 10
493.642603
 20
314.599079
 10
493.502956
 20
314.666368
 10
493.357225
 20
314.7554
 10
493.209854
 20
314.863191
 10
493.065287
 20
314.986756
 10
492.927969
 20
315.123111
 10
492.802344
 20
315.269271
 10
492.650594
 20
315.475264
 10
492.530231
 20
315.671728
 10
492.439512
 20
315.865845
 10
492.376695
 20
316.064793
 10
492.340038
 20
316.275753
 10
492.327797
 20
316.505905
 10
492.338232
 20
316.762429
 10
492.369598
 20
317.052504
 10
492.4163
 20
317.349083
 10
492.475045
 20
317.615713
 10
492.548677
 20
317.853888
 10
492.640035
 20
318.065098
 10
492.693249
 20
318.161058
 10
492.751961
 20
318.250837
 10
492.816525
 20
318.334621
 10
492.887297
 20
318.412596
 10
492.964631
 20
318.484949
 10
493.048883
 20
318.551868
 10
493.140408
 20
318.613537
 10
493.239561
 20
318.670144
 10
493.333814
 20
318.715655
 42
-0.115073
 10
493.466792
 20
318.745488
 10
498.843467
 20
318.700109
 10
498.860347
 20
320.700037
 10
494.736177
 20
320.734846
 42
-0.371619
 10
494.441609
 20
320.993227
 10
494.414098
 20
321.189665
 10
494.398577
 20
321.47585
 10
494.395833
 20
321.851524
 10
494.409426
 20
322.441565
 10
494.432431
 20
322.718979
 10
494.471589
 20
322.977659
 10
494.530909
 20
323.212361
 10
494.569382
 20
323.319079
 10
494.6144
 20
323.417836
 10
494.666463
 20
323.507974
 10
494.726073
 20
323.588839
 10
494.793731
 20
323.659773
 10
494.869937
 20
323.720123
 10
495.014723
 20
323.813046
 10
495.179627
 20
323.902817
 10
495.349604
 20
323.970539
 10
495.431792
 20
323.990226
 10
495.509606
 20
323.997313
 10
505.640625
 20
324.059441
 10
505.882763
 20
324.052647
 10
506.038461
 20
324.032195
 10
506.151647
 20
323.997977
 10
506.266248
 20
323.949885
 10
506.414189
 20
323.876664
 10
506.555792
 20
323.784885
 10
506.690616
 20
323.67447
 10
506.818217
 20
323.545342
 10
506.938154
 20
323.397422
 10
507.049982
 20
323.230634
 10
507.153261
 20
323.044899
 10
507.247548
 20
322.840141
 10
507.332399
 20
322.616282
 10
507.407372
 20
322.373245
 10
507.472026
 20
322.110951
 10
507.525916
 20
321.829324
 10
507.568602
 20
321.528286
 10
507.599639
 20
321.207759
 10
507.618586
 20
320.867667
 10
507.625
 20
320.507931
 10
507.62061
 20
319.887961
 10
507.615853
 20
319.435598
 10
507.623352
 20
319.12466
 10
507.635642
 20
319.014043
 10
507.655729
 20
318.928965
 10
507.685191
 20
318.866153
 10
507.725606
 20
318.822334
 10
507.778552
 20
318.794234
 10
507.845605
 20
318.778583
 10
507.928345
 20
318.772106
 10
508.028349
 20
318.771532
 10
508.286458
 20
318.775
 10
508.462381
 20
318.767325
 10
508.632327
 20
318.744517
 10
508.795556
 20
318.706904
 10
508.951325
 20
318.654813
 10
509.098893
 20
318.588572
 10
509.237518
 20
318.508508
 10
509.36646
 20
318.41495
 10
509.484977
 20
318.308223
 10
509.592328
 20
318.188656
 10
509.687771
 20
318.056576
 10
509.770564
 20
317.912311
 10
509.839966
 20
317.756188
 10
509.895237
 20
317.588535
 10
509.935633
 20
317.409678
 10
509.960415
 20
317.219946
 10
509.96884
 20
317.019666
 10
509.961634
 20
316.749544
 10
509.937795
 20
316.500979
 10
509.893999
 20
316.272541
 10
509.826919
 20
316.062797
 10
509.783608
 20
315.964487
 10
509.733229
 20
315.870314
 10
509.675366
 20
315.780098
 10
509.609602
 20
315.69366
 10
509.535523
 20
315.610822
 10
509.452713
 20
315.531404
 10
509.360755
 20
315.455228
 10
509.259234
 20
315.382113
 10
509.100712
 20
315.292157
 10
508.930347
 20
315.222725
 10
508.754847
 20
315.170847
 10
508.580916
 20
315.133554
 10
508.415262
 20
315.107876
 10
508.264589
 20
315.090843
 10
508.035014
 20
315.070833
 10
507.871874
 20
315.053274
 10
507.757121
 20
315.029516
 10
507.715324
 20
315.011319
 10
507.682545
 20
314.98678
 10
507.657758
 20
314.954302
 10
507.639937
 20
314.912288
 10
507.621088
 20
314.793261
 10
507.617789
 20
314.616921
 10
507.625
 20
314.041183
 10
507.619574
 20
313.751655
 10
507.601082
 20
313.516127
 10
507.549521
 20
313.238148
 42
-0.341288
 10
507.276082
 20
312.993634
 10
500.49682
 20
312.505862
 10
500.64035
 20
310.511018
 10
506.302891
 20
310.918442
 42
-0.383884
 10
506.619761
 20
310.671884
 10
506.711168
 20
310.159315
 10
506.750155
 20
309.874112
 10
506.768934
 20
309.623733
 10
506.766349
 20
309.402234
 10
506.741246
 20
309.203675
 10
506.69247
 20
309.022113
 10
506.618866
 20
308.851606
 10
506.519279
 20
308.686213
 10
506.392554
 20
308.519993
 10
505.9839
 20
308.030184
 42
-0.196796
 10
505.782965
 20
307.923819
 10
501.833244
 20
307.534599
 10
497.203036
 20
307.150104
  0
LWPOLYLINE
  5
2B
330
1F
100
AcDbEntity
  8
0
100
AcDbPolyline
 90
      209
 70
   128
 43
0.0
 10
482.988344
 20
298.077296
 10
485.756127
 20
300.205458
 42
0.414214
 10
485.811087
 20
300.626147
 10
482.715792
 20
304.651735
 10
484.301289
 20
305.870832
 10
488.125648
 20
300.89706
 42
0.46999
 10
488.587287
 20
300.880157
 10
488.650582
 20
300.951071
 10
488.99327
 20
301.344553
 10
489.389849
 20
301.815652
 10
489.794303
 20
302.320972
 10
489.985104
 20
302.572904
 10
490.160619
 20
302.817118
 10
490.315095
 20
303.048189
 10
490.442781
 20
303.260693
 10
490.537924
 20
303.449205
 10
490.594774
 20
303.608302
 10
490.633316
 20
303.790538
 10
490.657578
 20
303.972638
 10
490.667693
 20
304.154247
 10
490.663797
 20
304.335012
 10
490.646022
 20
304.51458
 10
490.614502
 20
304.692598
 10
490.56937
 20
304.868711
 10
490.510762
 20
305.042566
 10
490.438809
 20
305.213811
 10
490.353646
 20
305.382091
 10
490.255407
 20
305.547053
 10
490.144226
 20
305.708344
 10
490.020235
 20
305.86561
 10
489.883569
 20
306.018498
 10
489.734362
 20
306.166655
 10
489.572747
 20
306.309726
 10
488.949254
 20
306.839891
 10
488.368645
 20
307.351414
 10
487.829188
 20
307.846537
 10
487.32915
 20
308.3275
 10
486.866799
 20
308.796542
 10
486.440402
 20
309.255906
 10
486.048226
 20
309.70783
 10
485.68854
 20
310.154556
 10
485.35961
 20
310.598324
 10
485.059703
 20
311.041374
 10
484.787089
 20
311.485947
 10
484.540033
 20
311.934284
 10
484.316803
 20
312.388624
 10
484.115668
 20
312.851208
 10
483.934893
 20
313.324277
 10
483.772747
 20
313.810072
 10
483.661806
 20
314.195273
 10
483.567783
 20
314.582775
 10
483.490314
 20
314.972499
 10
483.429035
 20
315.364364
 10
483.383581
 20
315.758291
 10
483.353589
 20
316.154201
 10
483.338694
 20
316.552014
 10
483.338531
 20
316.951651
 10
483.352737
 20
317.353032
 10
483.380948
 20
317.756077
 10
483.422799
 20
318.160708
 10
483.477926
 20
318.566844
 10
483.545964
 20
318.974406
 10
483.62655
 20
319.383315
 10
483.719319
 20
319.79349
 10
483.823908
 20
320.204853
 10
483.979188
 20
320.736463
 10
484.153488
 20
321.244901
 10
484.346256
 20
321.730579
 10
484.556942
 20
322.193912
 10
484.784993
 20
322.635311
 10
485.029857
 20
323.05519
 10
485.290982
 20
323.453961
 10
485.567818
 20
323.832037
 10
485.859811
 20
324.189832
 10
486.166411
 20
324.527757
 10
486.487065
 20
324.846226
 10
486.821223
 20
325.145651
 10
487.168331
 20
325.426446
 10
487.527839
 20
325.689024
 10
487.899194
 20
325.933796
 10
488.281846
 20
326.161176
 10
488.675241
 20
326.371578
 10
489.078829
 20
326.565412
 10
489.492057
 20
326.743094
 10
489.914375
 20
326.905035
 10
490.345229
 20
327.051648
 10
490.784069
 20
327.183346
 10
491.230343
 20
327.300542
 10
491.683498
 20
327.403649
 10
492.142983
 20
327.493079
 10
492.608247
 20
327.569246
 10
493.078738
 20
327.632563
 10
493.553903
 20
327.683441
 10
494.033192
 20
327.722294
 10
494.516052
 20
327.749536
 10
495.001932
 20
327.765578
 10
495.49028
 20
327.770833
 10
495.809223
 20
327.77584
 10
496.078748
 20
327.791262
 10
496.30098
 20
327.817703
 10
496.478042
 20
327.855766
 10
496.612059
 20
327.906054
 10
496.66359
 20
327.935971
 10
496.705156
 20
327.969171
 10
496.737022
 20
328.005729
 10
496.759455
 20
328.04572
 10
496.772721
 20
328.089221
 10
496.777083
 20
328.136305
 10
496.772548
 20
328.186758
 10
496.759069
 20
328.240602
 10
496.706039
 20
328.357916
 10
496.619512
 20
328.487154
 10
496.501007
 20
328.627222
 10
496.352043
 20
328.777029
 10
496.17414
 20
328.935482
 10
495.968815
 20
329.101486
 10
495.737589
 20
329.27395
 10
495.481979
 20
329.45178
 10
495.203506
 20
329.633883
 10
494.903687
 20
329.819167
 10
494.584042
 20
330.006539
 10
494.246091
 20
330.194904
 10
493.891351
 20
330.383172
 10
493.521342
 20
330.570248
 10
493.137583
 20
330.755039
 10
492.595082
 20
331.001557
 10
492.112471
 20
331.197681
 10
491.883584
 20
331.278961
 10
491.657623
 20
331.350181
 10
491.430571
 20
331.412187
 10
491.198412
 20
331.465825
 10
490.957132
 20
331.511942
 10
490.702714
 20
331.551383
 10
490.1384
 20
331.613623
 10
489.473346
 20
331.659315
 10
488.675426
 20
331.695228
 10
488.156694
 20
331.708088
 10
487.647163
 20
331.706885
 10
487.146895
 20
331.691653
 10
486.655949
 20
331.662424
 10
486.174386
 20
331.619232
 10
485.702267
 20
331.562111
 10
485.239652
 20
331.491092
 10
484.786603
 20
331.406209
 10
484.34318
 20
331.307495
 10
483.909444
 20
331.194983
 10
483.485455
 20
331.068707
 10
483.071273
 20
330.928699
 10
482.666961
 20
330.774993
 10
482.272578
 20
330.607621
 10
481.888184
 20
330.426617
 10
481.513842
 20
330.232013
 10
481.149611
 20
330.023843
 10
480.795551
 20
329.802141
 10
480.451725
 20
329.566938
 10
480.118192
 20
329.318268
 10
479.795013
 20
329.056165
 10
479.482248
 20
328.78066
 10
479.179959
 20
328.491788
 10
478.888207
 20
328.189582
 10
478.60705
 20
327.874074
 10
478.336552
 20
327.545297
 10
478.076771
 20
327.203286
 10
477.827769
 20
326.848072
 10
477.589607
 20
326.479689
 10
477.362344
 20
326.09817
 10
477.146043
 20
325.703548
 10
476.940763
 20
325.295856
 10
476.694886
 20
324.7587
 10
476.469519
 20
324.209776
 10
476.264629
 20
323.649426
 10
476.080181
 20
323.077989
 10
475.916141
 20
322.495807
 10
475.772476
 20
321.903218
 10
475.649151
 20
321.300564
 10
475.546131
 20
320.688185
 10
475.463384
 20
320.066422
 10
475.400874
 20
319.435613
 10
475.358569
 20
318.796101
 10
475.336433
 20
318.148224
 10
475.334433
 20
317.492324
 10
475.352534
 20
316.82874
 10
475.390703
 20
316.157814
 10
475.448905
 20
315.479885
 10
475.527107
 20
314.795293
 10
475.625274
 20
314.104379
 10
475.743373
 20
313.407484
 10
475.881369
 20
312.704946
 10
476.039227
 20
311.997108
 10
476.216915
 20
311.284309
 10
476.414398
 20
310.566889
 10
476.631642
 20
309.845189
 10
476.868613
 20
309.119549
 10
477.125276
 20
308.390309
 10
477.401598
 20
307.65781
 10
477.697545
 20
306.922391
 10
478.013083
 20
306.184394
 10
478.348177
 20
305.444159
 10
478.702793
 20
304.702025
 10
479.076898
 20
303.958333
 10
479.362463
 20
303.419665
 10
479.67758
 20
302.851889
 10
480.011869
 20
302.272099
 10
480.354949
 20
301.697386
 10
480.696443
 20
301.144842
 10
481.025969
 20
300.63156
 10
481.333147
 20
300.17463
 10
481.607598
 20
299.791146
 10
482.988344
 20
298.077296
  0
LWPOLYLINE
  5
2C
330
1F
100
AcDbEntity
  8
0
100
AcDbPolyline
 90
      146
 70
   128
 43
0.0
 10
562.12365
 20
252.790664
 10
561.917043
 20
252.890975
 10
561.748491
 20
252.98571
 10
561.588149
 20
253.087197
 10
561.436126
 20
253.196855
 10
561.292528
 20
253.316108
 10
561.157465
 20
253.446375
 10
561.031044
 20
253.58908
 10
560.913374
 20
253.745643
 10
560.804562
 20
253.917486
 10
560.704716
 20
254.10603
 10
560.613945
 20
254.312697
 10
560.532356
 20
254.53891
 10
560.460059
 20
254.786088
 10
560.39716
 20
255.055654
 10
560.343767
 20
255.34903
 10
560.299988
 20
255.667636
 10
560.265933
 20
256.012895
 10
560.237434
 20
256.285145
 10
560.197561
 20
256.541593
 10
560.14646
 20
256.782771
 10
560.084275
 20
257.009211
 10
560.011153
 20
257.221443
 10
559.927238
 20
257.420001
 10
559.832676
 20
257.605414
 10
559.727614
 20
257.778215
 10
559.612195
 20
257.938934
 10
559.486564
 20
258.088104
 10
559.350869
 20
258.226255
 10
559.205253
 20
258.35392
 10
559.049862
 20
258.471629
 10
558.884841
 20
258.579915
 10
558.710336
 20
258.679309
 10
558.529365
 20
258.766376
 10
558.34647
 20
258.840585
 10
558.161296
 20
258.901515
 10
557.973488
 20
258.948744
 10
557.782692
 20
258.981849
 10
557.588553
 20
259.000411
 10
557.390716
 20
259.004006
 10
557.188827
 20
258.992213
 10
556.982531
 20
258.964611
 10
556.771473
 20
258.920778
 10
556.5553
 20
258.860292
 10
556.333655
 20
258.782731
 10
556.106186
 20
258.687674
 10
555.872536
 20
258.574699
 10
555.632352
 20
258.443384
 10
555.328944
 20
258.275137
 10
555.041936
 20
258.130041
 10
554.77022
 20
258.007197
 10
554.512689
 20
257.905709
 10
554.268234
 20
257.824679
 10
554.035746
 20
257.763212
 10
553.814119
 20
257.720409
 10
553.602243
 20
257.695375
 10
553.39901
 20
257.687211
 10
553.203314
 20
257.695021
 10
553.014044
 20
257.717908
 10
552.830094
 20
257.754975
 10
552.650354
 20
257.805325
 10
552.473718
 20
257.868061
 10
552.299076
 20
257.942286
 10
552.125322
 20
258.027103
 10
551.925348
 20
258.14006
 10
551.728186
 20
258.270017
 10
551.535226
 20
258.415292
 10
551.347862
 20
258.574203
 10
551.167485
 20
258.745067
 10
550.995488
 20
258.926202
 10
550.833264
 20
259.115927
 10
550.682204
 20
259.312559
 10
550.543702
 20
259.514416
 10
550.419149
 20
259.719817
 10
550.309938
 20
259.927078
 10
550.217461
 20
260.134519
 10
550.143111
 20
260.340456
 10
550.08828
 20
260.543208
 10
550.05436
 20
260.741093
 10
550.042744
 20
260.932428
 10
550.047726
 20
261.042913
 10
550.061578
 20
261.156754
 10
550.10933
 20
261.389245
 10
550.172873
 20
261.619384
 10
550.239084
 20
261.836652
 10
555.925064
 20
270.025521
 10
556.089022
 20
270.219743
 10
556.251035
 20
270.386302
 10
556.413488
 20
270.526637
 10
556.578767
 20
270.642191
 10
556.749256
 20
270.734404
 10
556.92734
 20
270.804719
 10
557.115406
 20
270.854576
 10
557.315839
 20
270.885417
 10
557.429831
 20
270.892571
 10
557.549749
 20
270.886325
 10
557.668827
 20
270.859436
 10
557.725937
 20
270.835987
 10
557.780301
 20
270.804661
 10
559.09693
 20
270.174534
 10
560.781506
 20
269.375891
 10
562.242193
 20
268.681145
 10
562.431402
 20
268.587727
 42
-0.421398
 10
562.564259
 20
268.179374
 10
560.120208
 20
263.519937
 10
561.89134
 20
262.590911
 10
564.335391
 20
267.250348
 42
-0.421398
 10
564.746873
 20
267.373175
 10
564.931285
 20
267.270614
 10
566.333198
 20
266.463818
 10
567.947859
 20
265.531887
 10
569.214718
 20
264.806876
 10
569.271394
 20
264.779958
 10
569.32315
 20
264.746302
 10
569.412963
 20
264.66362
 10
569.486269
 20
264.568513
 10
569.545183
 20
264.470663
 10
569.633747
 20
264.288232
 10
569.699636
 20
264.105166
 10
569.74302
 20
263.918683
 10
569.76407
 20
263.726
 10
569.762956
 20
263.524336
 10
569.739848
 20
263.310909
 10
569.694914
 20
263.082937
 10
569.628328
 20
262.83764
 10
566.123455
 20
253.504698
 10
565.982343
 20
253.326718
 10
565.829126
 20
253.143617
 10
565.664997
 20
252.97217
 10
565.579213
 20
252.89606
 10
565.491147
 20
252.829156
 10
565.32713
 20
252.729947
 10
565.145045
 20
252.645365
 10
564.947069
 20
252.575219
 10
564.735377
 20
252.519322
 10
564.512144
 20
252.477483
 10
564.279546
 20
252.449514
 10
564.039757
 20
252.435224
 10
563.794954
 20
252.434425
 10
563.547311
 20
252.446928
 10
563.299004
 20
252.472542
 10
563.052209
 20
252.511079
 10
562.809101
 20
252.562349
 10
562.571855
 20
252.626163
 10
562.342646
 20
252.702331
 10
562.12365
 20
252.790664
  0
LWPOLYLINE
  5
2D
330
1F
100
AcDbEntity
  8
0
100
AcDbPolyline
 90
      238
 70
   128
 43
0.0
 10
468.623678
 20
277.656792
 10
468.077377
 20
274.187112
 10
468.225786
 20
274.103694
 10
468.409874
 20
274.024795
 10
468.632785
 20
273.947425
 10
469.207662
 20
273.785315
 10
469.975581
 20
273.593442
 10
470.532239
 20
273.470033
 10
471.223798
 20
273.338693
 10
472.022806
 20
273.203456
 10
472.901811
 20
273.068357
 10
473.833361
 20
272.937428
 10
474.790002
 20
272.814704
 10
475.744282
 20
272.704217
 10
476.66875
 20
272.610002
 10
479.578613
 20
272.349474
 10
481.088323
 20
272.216982
 10
482.489583
 20
272.102446
 10
482.850476
 20
272.08291
 10
483.320122
 20
272.070151
 10
484.506457
 20
272.063576
 10
485.890161
 20
272.07994
 10
487.312805
 20
272.116466
 10
488.588405
 20
272.246952
 10
489.964753
 20
272.378583
 10
490.658268
 20
272.450856
 10
491.338043
 20
272.530648
 10
491.991103
 20
272.620371
 10
492.604472
 20
272.722436
 10
493.169386
 20
272.834594
 10
493.705373
 20
272.956352
 10
494.214951
 20
273.087765
 10
494.700641
 20
273.228889
 10
495.164962
 20
273.379782
 10
495.610434
 20
273.540498
 10
496.039577
 20
273.711095
 10
496.45491
 20
273.891628
 10
496.858954
 20
274.082154
 10
497.254228
 20
274.282728
 10
497.643253
 20
274.493408
 10
498.028547
 20
274.714249
 10
498.412631
 20
274.945307
 10
498.798024
 20
275.186639
 10
499.582818
 20
275.700348
 10
500.104863
 20
276.058485
 10
500.609209
 20
276.422665
 10
501.095777
 20
276.792742
 10
501.564484
 20
277.168568
 10
502.015252
 20
277.549998
 10
502.447998
 20
277.936883
 10
502.862643
 20
278.329077
 10
503.259106
 20
278.726433
 10
503.637306
 20
279.128804
 10
503.997164
 20
279.536044
 10
504.338598
 20
279.948004
 10
504.661527
 20
280.364539
 10
504.965872
 20
280.785502
 10
505.251552
 20
281.210745
 10
505.518485
 20
281.640121
 10
505.766593
 20
282.073484
 10
505.995793
 20
282.510687
 10
506.206006
 20
282.951583
 10
506.397151
 20
283.396024
 10
506.569147
 20
283.843865
 10
506.721914
 20
284.294957
 10
506.855372
 20
284.749155
 10
506.969439
 20
285.206311
 10
507.064035
 20
285.666278
 10
507.13908
 20
286.12891
 10
507.194493
 20
286.594059
 10
507.230194
 20
287.061578
 10
507.246101
 20
287.531321
 10
507.242135
 20
288.003141
 10
507.218215
 20
288.47689
 10
507.17426
 20
288.952423
 10
507.11019
 20
289.429591
 10
507.050086
 20
289.787021
 10
506.980629
 20
290.145023
 10
506.901882
 20
290.503486
 10
506.813908
 20
290.862295
 10
506.716771
 20
291.221338
 10
506.610535
 20
291.580503
 10
506.495262
 20
291.939674
 10
506.371015
 20
292.298741
 10
506.237859
 20
292.65759
 10
506.095855
 20
293.016107
 10
505.945068
 20
293.374181
 10
505.785561
 20
293.731697
 10
505.617397
 20
294.088543
 10
505.440639
 20
294.444606
 10
505.25535
 20
294.799772
 10
505.061594
 20
295.15393
 10
504.859435
 20
295.506965
 10
504.648934
 20
295.858765
 10
504.430157
 20
296.209216
 10
504.203165
 20
296.558206
 10
503.968022
 20
296.905623
 10
503.724791
 20
297.251351
 10
503.473536
 20
297.59528
 10
503.214321
 20
297.937295
 10
502.672259
 20
298.615134
 10
502.099112
 20
299.283963
 10
501.495386
 20
299.942879
 10
500.861587
 20
300.590977
 10
500.492146
 20
300.949648
 10
500.105392
 20
301.311846
 10
499.706651
 20
301.673456
 10
499.301247
 20
302.030358
 10
498.491753
 20
302.713576
 10
497.719512
 20
303.328562
 10
497.360674
 20
303.600176
 10
497.027125
 20
303.842381
 10
496.72419
 20
304.05106
 10
496.457195
 20
304.222096
 10
496.231463
 20
304.351372
 10
496.052321
 20
304.434771
 10
495.981886
 20
304.45798
 10
495.925094
 20
304.468175
 10
495.882613
 20
304.464843
 10
495.855107
 20
304.447468
 10
495.807092
 20
304.393872
 10
495.787702
 20
304.36408
 10
495.782072
 20
304.333802
 10
495.84864
 20
303.916165
 10
495.939552
 20
303.474364
 10
496.048823
 20
303.016545
 10
496.170468
 20
302.550858
 10
496.426941
 20
301.62847
 10
496.661094
 20
300.772383
 10
496.863159
 20
300.027517
 10
497.084062
 20
299.2674
 10
497.547981
 20
297.735012
 10
497.773796
 20
296.979543
 10
497.984047
 20
296.242424
 10
498.170136
 20
295.532055
 10
498.323461
 20
294.856836
 10
498.39934
 20
294.451356
 10
498.478902
 20
293.966727
 10
498.638198
 20
292.864638
 10
498.779604
 20
291.759805
 10
498.881376
 20
290.861458
 10
498.898069
 20
290.643871
 10
498.906332
 20
290.412684
 10
498.905329
 20
289.927461
 10
498.893897
 20
289.441685
 10
498.887563
 20
288.991251
 10
498.877738
 20
288.362689
 10
498.843708
 20
287.764866
 10
498.785034
 20
287.196871
 10
498.70128
 20
286.657794
 10
498.64986
 20
286.398814
 10
498.592005
 20
286.146722
 10
498.527662
 20
285.901403
 10
498.456774
 20
285.662745
 10
498.379287
 20
285.430631
 10
498.295146
 20
285.20495
 10
498.204297
 20
284.985587
 10
498.106684
 20
284.772427
 10
498.002253
 20
284.565358
 10
497.89095
 20
284.364265
 10
497.772719
 20
284.169034
 10
497.647505
 20
283.979551
 10
497.515255
 20
283.795703
 10
497.375912
 20
283.617375
 10
497.229423
 20
283.444454
 10
497.075733
 20
283.276825
 10
496.914786
 20
283.114375
 10
496.746528
 20
282.95699
 10
496.570904
 20
282.804556
 10
496.38786
 20
282.656958
 10
496.19734
 20
282.514084
 10
495.999291
 20
282.375818
 10
495.793656
 20
282.242048
 10
495.580382
 20
282.112659
 10
495.179463
 20
281.884785
 10
494.783
 20
281.674189
 10
494.389534
 20
281.480781
 10
493.997608
 20
281.304469
 10
493.605762
 20
281.145161
 10
493.212538
 20
281.002766
 10
492.816478
 20
280.877191
 10
492.416123
 20
280.768345
 10
492.010015
 20
280.676136
 10
491.596694
 20
280.600473
 10
491.174704
 20
280.541264
 10
490.742585
 20
280.498417
 10
490.298878
 20
280.471841
 10
489.842126
 20
280.461443
 10
489.370869
 20
280.467133
 10
488.88365
 20
280.488817
 10
488.379009
 20
280.526406
 10
487.855489
 20
280.579806
 10
487.31163
 20
280.648927
 10
486.745975
 20
280.733676
 10
486.157065
 20
280.833962
 10
485.543441
 20
280.949693
 10
484.903644
 20
281.080778
 10
484.236218
 20
281.227124
 10
482.812638
 20
281.565236
 10
481.261035
 20
281.963293
 10
479.569739
 20
282.420564
 10
477.727083
 20
282.936313
 10
477.03223
 20
283.128155
 10
476.280592
 20
283.325451
 10
475.526314
 20
283.512128
 10
474.82354
 20
283.672111
 10
474.346861
 20
283.770085
 10
473.831266
 20
283.867214
 10
473.313996
 20
283.954397
 10
472.832292
 20
284.022531
 10
472.430664
 20
284.063764
 10
472.05462
 20
284.084953
 10
471.702002
 20
284.085632
 10
471.370655
 20
284.065337
 10
471.058419
 20
284.023603
 10
470.763138
 20
283.959964
 10
470.482655
 20
283.873955
 10
470.214811
 20
283.765112
 10
469.957451
 20
283.632969
 10
469.708416
 20
283.477061
 10
469.465549
 20
283.296924
 10
469.226693
 20
283.092091
 10
468.98969
 20
282.862098
 10
468.752383
 20
282.60648
 10
468.512616
 20
282.324772
 10
468.268229
 20
282.016509
 10
468.019277
 20
281.688575
 10
467.809163
 20
281.397895
 10
467.640812
 20
281.141118
 10
467.517149
 20
280.91489
 10
467.47299
 20
280.812185
 10
467.441099
 20
280.71586
 10
467.394808
 20
280.498639
 42
0.43006
 10
467.641559
 20
280.139761
 10
473.88538
 20
279.156673
 10
473.574313
 20
277.181012
 10
468.966687
 20
277.906482
 42
0.414214
 10
468.623678
 20
277.656792
  0
LWPOLYLINE
  5
2E
330
1F
100
AcDbEntity
  8
0
100
AcDbPolyline
 90
      143
 70
   128
 43
0.0
 10
543.285368
 20
225.919715
 10
543.080641
 20
226.013123
 10
542.891098
 20
226.121735
 10
542.330608
 20
226.481308
 10
536.817819
 20
233.679088
 10
536.731816
 20
234.016076
 10
536.690686
 20
234.191475
 10
536.66351
 20
234.356041
 10
536.642133
 20
234.602297
 10
536.632671
 20
234.839506
 10
536.634588
 20
235.068212
 10
536.647351
 20
235.288958
 10
536.670426
 20
235.502288
 10
536.703277
 20
235.708745
 10
536.745371
 20
235.908873
 10
536.796174
 20
236.103215
 10
536.855151
 20
236.292316
 10
536.921768
 20
236.476716
 10
537.075783
 20
236.833599
 10
537.253947
 20
237.178207
 10
537.451983
 20
237.514892
 10
537.723618
 20
237.931336
 10
538.001941
 20
238.315411
 10
538.27964
 20
238.659607
 10
538.549407
 20
238.956411
 10
538.803932
 20
239.198316
 10
538.923194
 20
239.296332
 10
539.028553
 20
239.372493
 42
-0.377212
 10
539.423016
 20
239.334708
 10
542.105311
 20
236.477776
 10
542.834349
 20
237.16225
 10
543.563387
 20
237.846723
 10
540.881092
 20
240.703655
 42
-0.377212
 10
540.868229
 20
241.099715
 10
540.950876
 20
241.200067
 10
541.05621
 20
241.312918
 10
541.313667
 20
241.5517
 10
541.626875
 20
241.802235
 10
541.98788
 20
242.057701
 10
542.388724
 20
242.311277
 10
542.821452
 20
242.55614
 10
543.169943
 20
242.732575
 10
543.52509
 20
242.888677
 10
543.890965
 20
243.019906
 10
544.079196
 20
243.074775
 10
544.271636
 20
243.121723
 10
544.468792
 20
243.160183
 10
544.671174
 20
243.189587
 10
544.879291
 20
243.209368
 10
545.093651
 20
243.218959
 10
545.314762
 20
243.217791
 10
545.543135
 20
243.205298
 10
545.779277
 20
243.180912
 10
546.023697
 20
243.144066
 10
546.186224
 20
243.106577
 10
546.358684
 20
243.05448
 10
546.689585
 20
242.947421
 10
553.525811
 20
236.992179
 10
553.849363
 20
236.410152
 10
553.94582
 20
236.214143
 10
554.026146
 20
236.003939
 10
554.090532
 20
235.781875
 10
554.139166
 20
235.550284
 10
554.172238
 20
235.311503
 10
554.189936
 20
235.067863
 10
554.19245
 20
234.8217
 10
554.179969
 20
234.575348
 10
554.152683
 20
234.331141
 10
554.110781
 20
234.091413
 10
554.054451
 20
233.858499
 10
553.983883
 20
233.634732
 10
553.899267
 20
233.422447
 10
553.800791
 20
233.223979
 10
553.688645
 20
233.041661
 10
553.563018
 20
232.877827
 10
553.386105
 20
232.663263
 10
553.251194
 20
232.47538
 10
553.156018
 20
232.304995
 10
553.122622
 20
232.223495
 10
553.09831
 20
232.142924
 10
553.082798
 20
232.062136
 10
553.075804
 20
231.979982
 10
553.077043
 20
231.895315
 10
553.086232
 20
231.806985
 10
553.127329
 20
231.614749
 10
553.196828
 20
231.394089
 10
553.232014
 20
231.28129
 10
553.259897
 20
231.166148
 10
553.29443
 20
230.929484
 10
553.301787
 20
230.685396
 10
553.283323
 20
230.435186
 10
553.240399
 20
230.180154
 10
553.17437
 20
229.9216
 10
553.086596
 20
229.660824
 10
552.978434
 20
229.399127
 10
552.851241
 20
229.137809
 10
552.706377
 20
228.878171
 10
552.545199
 20
228.621512
 10
552.369064
 20
228.369134
 10
552.179331
 20
228.122336
 10
551.977357
 20
227.882418
 10
551.764501
 20
227.650682
 10
551.519817
 20
227.452846
 10
551.267653
 20
227.266386
 10
551.009393
 20
227.092576
 10
550.746421
 20
226.932689
 10
550.480119
 20
226.787998
 10
550.211872
 20
226.659777
 10
549.943061
 20
226.549298
 10
549.67507
 20
226.457835
 10
549.409283
 20
226.386662
 10
549.147083
 20
226.337051
 10
548.889854
 20
226.310277
 10
548.638977
 20
226.307611
 10
548.395838
 20
226.330329
 10
548.161819
 20
226.379701
 10
548.048662
 20
226.414782
 10
547.938303
 20
226.457003
 10
547.722459
 20
226.540264
 10
547.533194
 20
226.593389
 10
547.445618
 20
226.608124
 10
547.361197
 20
226.614694
 10
547.278766
 20
226.612888
 10
547.197161
 20
226.602496
 10
547.115219
 20
226.583308
 10
547.031777
 20
226.555112
 10
546.855735
 20
226.470858
 10
546.659727
 20
226.34805
 10
546.434445
 20
226.185004
 10
546.263023
 20
226.069947
 10
546.074003
 20
225.969508
 10
545.869726
 20
225.883729
 10
545.652532
 20
225.812654
 10
545.424764
 20
225.756321
 10
545.188765
 20
225.714775
 10
544.946873
 20
225.688057
 10
544.701432
 20
225.676208
 10
544.454783
 20
225.67927
 10
544.209268
 20
225.697285
 10
543.967226
 20
225.730296
 10
543.731003
 20
225.778343
 10
543.502935
 20
225.841469
 10
543.285368
 20
225.919715
  0
LWPOLYLINE
  5
2F
330
1F
100
AcDbEntity
  8
0
100
AcDbPolyline
 90
       94
 70
   128
 43
0.0
 10
538.240269
 20
220.776816
 10
538.290566
 20
222.763576
 42
0.423131
 10
537.989151
 20
223.071165
 10
534.617538
 20
223.05418
 10
534.607462
 20
225.054154
 10
538.016529
 20
225.071328
 42
0.395501
 10
538.314491
 20
225.353553
 10
538.316667
 20
225.390223
 10
538.308398
 20
225.559969
 10
538.284154
 20
225.736359
 10
538.244774
 20
225.917575
 10
538.191098
 20
226.101802
 10
538.123967
 20
226.287222
 10
538.044221
 20
226.47202
 10
537.9527
 20
226.654378
 10
537.850246
 20
226.832481
 10
537.737698
 20
227.004513
 10
537.615896
 20
227.168656
 10
537.485682
 20
227.323095
 10
537.347895
 20
227.466013
 10
537.203375
 20
227.595593
 10
537.052964
 20
227.71002
 10
536.897501
 20
227.807476
 10
536.737827
 20
227.886146
 10
536.489978
 20
228.006085
 10
536.231059
 20
228.132246
 10
536.091073
 20
228.18744
 10
535.940669
 20
228.231925
 10
535.777296
 20
228.261614
 10
535.598406
 20
228.272419
 10
521.657738
 20
228.2875
 10
521.224448
 20
228.340767
 10
520.760209
 20
228.42068
 10
520.297023
 20
228.509001
 10
519.86689
 20
228.587493
 10
519.31339
 20
228.665761
 10
519.046013
 20
228.692512
 10
518.784922
 20
228.711026
 10
518.530146
 20
228.721314
 10
518.281711
 20
228.723392
 10
518.039647
 20
228.71727
 10
517.803981
 20
228.702963
 10
517.574742
 20
228.680483
 10
517.351956
 20
228.649843
 10
517.135654
 20
228.611056
 10
516.925861
 20
228.564135
 10
516.722608
 20
228.509094
 10
516.525921
 20
228.445945
 10
516.335828
 20
228.374701
 10
516.152358
 20
228.295375
 10
515.975539
 20
228.20798
 10
515.805399
 20
228.112529
 10
515.641966
 20
228.009035
 10
515.485267
 20
227.897511
 10
515.335332
 20
227.77797
 10
515.192187
 20
227.650425
 10
515.055862
 20
227.514889
 10
514.926384
 20
227.371375
 10
514.80378
 20
227.219896
 10
514.688081
 20
227.060465
 10
514.579312
 20
226.893095
 10
514.477503
 20
226.717798
 10
514.382681
 20
226.534589
 10
514.294874
 20
226.343479
 10
514.214111
 20
226.144482
 10
514.140419
 20
225.937611
 10
514.051829
 20
225.700907
 10
513.952717
 20
225.496969
 10
513.839146
 20
225.321968
 10
513.775709
 20
225.244122
 10
513.707181
 20
225.172074
 10
513.633071
 20
225.105346
 10
513.552887
 20
225.043458
 10
513.372327
 20
224.932291
 10
513.161565
 20
224.834743
 10
512.916667
 20
224.746986
 10
512.711505
 20
224.668791
 10
512.51494
 20
224.568846
 10
512.327791
 20
224.448556
 10
512.150876
 20
224.309328
 10
511.985017
 20
224.152565
 10
511.83103
 20
223.979675
 10
511.689738
 20
223.792062
 10
511.561957
 20
223.591132
 10
511.448509
 20
223.378289
 10
511.350211
 20
223.154941
 10
511.267885
 20
222.922491
 10
511.202348
 20
222.682346
 10
511.154421
 20
222.43591
 10
511.124922
 20
222.18459
 10
511.114672
 20
221.92979
 10
511.124488
 20
221.672917
 10
511.196875
 20
220.746875
 10
538.240269
 20
220.776816
  0
LWPOLYLINE
  5
30
330
1F
100
AcDbEntity
  8
0
100
AcDbPolyline
 90
       80
 70
   128
 43
0.0
 10
477.713649
 20
260.889413
 10
492.487633
 20
261.224875
 10
492.625049
 20
261.261726
 10
492.751358
 20
261.313891
 10
492.867032
 20
261.379187
 10
492.972539
 20
261.455431
 10
493.068349
 20
261.540439
 10
493.154933
 20
261.632028
 10
493.302301
 20
261.826213
 10
493.43837
 20
262.03678
 10
493.564519
 20
262.247138
 10
493.678215
 20
262.45768
 10
493.776922
 20
262.668797
 10
493.858107
 20
262.880882
 10
493.919234
 20
263.094328
 10
493.957769
 20
263.309526
 10
493.971177
 20
263.526868
 10
493.967881
 20
263.825833
 10
493.967553
 20
263.830903
 42
0.392346
 10
493.671363
 20
264.111514
 10
490.068465
 20
264.149756
 10
490.089693
 20
266.149644
 10
493.667203
 20
266.111671
 42
0.417223
 10
493.970387
 20
266.411549
 10
493.971177
 20
268.665943
 10
470.42326
 20
268.665943
 10
470.42326
 20
267.704985
 10
470.43307
 20
267.459364
 10
470.461966
 20
267.212445
 10
470.509147
 20
266.966081
 10
470.573811
 20
266.722122
 10
470.655156
 20
266.482419
 10
470.752383
 20
266.248823
 10
470.864689
 20
266.023186
 10
470.991272
 20
265.80736
 10
471.131333
 20
265.603194
 10
471.284069
 20
265.41254
 10
471.448679
 20
265.237251
 10
471.624362
 20
265.079176
 10
471.810316
 20
264.940166
 10
472.00574
 20
264.822075
 10
472.209834
 20
264.726751
 10
472.421795
 20
264.656047
 10
472.73449
 20
264.583731
 10
472.958701
 20
264.545201
 10
473.110283
 20
264.516909
 10
473.163792
 20
264.499244
 10
473.20509
 20
264.475308
 10
473.236158
 20
264.442157
 10
473.258979
 20
264.396849
 10
473.287803
 20
264.257987
 10
473.307417
 20
264.035173
 10
473.333677
 20
263.70486
 10
473.35498
 20
263.527271
 10
473.386646
 20
263.354779
 10
473.428385
 20
263.187452
 10
473.479905
 20
263.025358
 10
473.540917
 20
262.868567
 10
473.611129
 20
262.717147
 10
473.690251
 20
262.571165
 10
473.777991
 20
262.430691
 10
473.87406
 20
262.295792
 10
473.978167
 20
262.166538
 10
474.09002
 20
262.042997
 10
474.20933
 20
261.925236
 10
474.335805
 20
261.813325
 10
474.469155
 20
261.707332
 10
474.609089
 20
261.607326
 10
474.755317
 20
261.513374
 10
474.907547
 20
261.425545
 10
475.065489
 20
261.343907
 10
475.228852
 20
261.26853
 10
475.397346
 20
261.199481
 10
475.57068
 20
261.136829
 10
475.748564
 20
261.080642
 10
476.116815
 20
260.987938
 10
476.499775
 20
260.921916
 10
476.895117
 20
260.883122
 10
477.300517
 20
260.872106
 10
477.713649
 20
260.889413
  0
LWPOLYLINE
  5
31
330
1F
100
AcDbEntity
  8
0
100
AcDbPolyline
 90
      311
 70
   128
 43
0.0
 10
485.56378
 20
209.261243
 10
486.243264
 20
209.263131
 10
486.947319
 20
209.285248
 10
487.682156
 20
209.330084
 10
488.453986
 20
209.400128
 10
489.269022
 20
209.49787
 10
490.133475
 20
209.625798
 10
491.053556
 20
209.786404
 10
492.035478
 20
209.982174
 10
493.085451
 20
210.2156
 10
494.209688
 20
210.489171
 10
495.414401
 20
210.805376
 10
496.7058
 20
211.166703
 10
498.090098
 20
211.575644
 10
499.573506
 20
212.034686
 10
501.162236
 20
212.546321
 10
502.8625
 20
213.113035
 10
503.686037
 20
213.401178
 10
504.568303
 20
213.723375
 10
506.897431
 20
214.644144
 10
506.940511
 20
218.133582
 42
0.414214
 10
506.644237
 20
218.437262
 10
501.867469
 20
218.496235
 10
501.892159
 20
220.496083
 10
508.316933
 20
220.416764
 42
0.484911
 10
508.613216
 20
220.783051
 10
508.544943
 20
221.084291
 10
508.494921
 20
221.263924
 10
508.435743
 20
221.444079
 10
508.367764
 20
221.624392
 10
508.291341
 20
221.804499
 10
508.206828
 20
221.984036
 10
508.014955
 20
222.339942
 10
507.794991
 20
222.689198
 10
507.549779
 20
223.028892
 10
507.282164
 20
223.35611
 10
506.994989
 20
223.667939
 10
506.691098
 20
223.961468
 10
506.373336
 20
224.233782
 10
506.044546
 20
224.481969
 10
505.707573
 20
224.703117
 10
505.365261
 20
224.894313
 10
505.192991
 20
224.977768
 10
505.020453
 20
225.052643
 10
504.848002
 20
225.118573
 10
504.675993
 20
225.175195
 10
504.504783
 20
225.222144
 10
504.334727
 20
225.259056
 10
504.106695
 20
225.291859
 10
503.850243
 20
225.309103
 10
503.561645
 20
225.310081
 10
503.237176
 20
225.294084
 10
502.87311
 20
225.260404
 10
502.465723
 20
225.208332
 10
502.011288
 20
225.13716
 10
501.506081
 20
225.04618
 10
500.946376
 20
224.934683
 10
500.328448
 20
224.801962
 10
498.903023
 20
224.470011
 10
497.200002
 20
224.044661
 10
495.189583
 20
223.520247
 10
493.489868
 20
223.03022
 10
491.6597
 20
222.494239
 10
490.735052
 20
222.228876
 10
489.825019
 20
221.975855
 10
488.945344
 20
221.743121
 10
488.111768
 20
221.538617
 10
487.642836
 20
221.435003
 10
487.175968
 20
221.343111
 10
486.71139
 20
221.26272
 10
486.24933
 20
221.193608
 10
485.790016
 20
221.135555
 10
485.333676
 20
221.08834
 10
484.880537
 20
221.05174
 10
484.430828
 20
221.025537
 10
483.984775
 20
221.009507
 10
483.542607
 20
221.003431
 10
483.104552
 20
221.007086
 10
482.670836
 20
221.020253
 10
482.241689
 20
221.042709
 10
481.817337
 20
221.074235
 10
481.398008
 20
221.114607
 10
480.983931
 20
221.163607
 10
480.575332
 20
221.221012
 10
480.17244
 20
221.286601
 10
479.775481
 20
221.360154
 10
479.384685
 20
221.441449
 10
479.000279
 20
221.530265
 10
478.62249
 20
221.626382
 10
478.251546
 20
221.729577
 10
477.887675
 20
221.83963
 10
477.531105
 20
221.95632
 10
477.182063
 20
222.079425
 10
476.840777
 20
222.208725
 10
476.507475
 20
222.343999
 10
476.182385
 20
222.485025
 10
475.865734
 20
222.631583
 10
475.55775
 20
222.78345
 10
475.25866
 20
222.940407
 10
474.897817
 20
223.147198
 10
474.544035
 20
223.372874
 10
474.197602
 20
223.616864
 10
473.858806
 20
223.878597
 10
473.527933
 20
224.157501
 10
473.205272
 20
224.453007
 10
472.89111
 20
224.764543
 10
472.585733
 20
225.091538
 10
472.289429
 20
225.433421
 10
472.002486
 20
225.789622
 10
471.72519
 20
226.159568
 10
471.45783
 20
226.542691
 10
471.200693
 20
226.938417
 10
470.954065
 20
227.346177
 10
470.718234
 20
227.7654
 10
470.493488
 20
228.195514
 10
470.280114
 20
228.635949
 10
470.078399
 20
229.086134
 10
469.888631
 20
229.545497
 10
469.711097
 20
230.013469
 10
469.546084
 20
230.489477
 10
469.393879
 20
230.972951
 10
469.25477
 20
231.46332
 10
469.129045
 20
231.960013
 10
469.01699
 20
232.462459
 10
468.918893
 20
232.970087
 10
468.835042
 20
233.482326
 10
468.765723
 20
233.998606
 10
468.711224
 20
234.518355
 10
468.671832
 20
235.041002
 10
468.647835
 20
235.565977
 10
468.63952
 20
236.092708
 10
468.650166
 20
236.704646
 10
468.682954
 20
237.310168
 10
468.737843
 20
237.90945
 10
468.814786
 20
238.502669
 10
468.913742
 20
239.090001
 10
469.034664
 20
239.67162
 10
469.177511
 20
240.247704
 10
469.342237
 20
240.818428
 10
469.528798
 20
241.383969
 10
469.737151
 20
241.944501
 10
469.967251
 20
242.500201
 10
470.219055
 20
243.051246
 10
470.492519
 20
243.59781
 10
470.787598
 20
244.14007
 10
471.104249
 20
244.678202
 10
471.442427
 20
245.212382
 10
471.802088
 20
245.742785
 10
472.18319
 20
246.269588
 10
472.585686
 20
246.792966
 10
473.009535
 20
247.313096
 10
473.45469
 20
247.830154
 10
473.92111
 20
248.344315
 10
474.408749
 20
248.855755
 10
474.917563
 20
249.36465
 10
475.447509
 20
249.871177
 10
475.998542
 20
250.375511
 10
476.570619
 20
250.877828
 10
477.163696
 20
251.378304
 10
477.777728
 20
251.877115
 10
478.412672
 20
252.374436
 10
479.068483
 20
252.870445
 10
479.745118
 20
253.365317
 10
480.459737
 20
253.90161
 10
481.215824
 20
254.498593
 10
481.966597
 20
255.102641
 10
482.665274
 20
255.66013
 10
482.066729
 20
255.733798
 10
481.433401
 20
255.801004
 10
480.651956
 20
255.867032
 10
480.22317
 20
255.894583
 10
479.778332
 20
255.915813
 10
479.324434
 20
255.928714
 10
478.868468
 20
255.931277
 10
478.417428
 20
255.921493
 10
477.978305
 20
255.897355
 10
477.558091
 20
255.856852
 10
477.16378
 20
255.797977
 10
476.818951
 20
255.725376
 10
476.444479
 20
255.627871
 10
476.0437
 20
255.506987
 10
475.619947
 20
255.364248
 10
475.176556
 20
255.201181
 10
474.716861
 20
255.01931
 10
474.244196
 20
254.820159
 10
473.761895
 20
254.605255
 10
473.273294
 20
254.376121
 10
472.781727
 20
254.134283
 10
472.290527
 20
253.881266
 10
471.803031
 20
253.618595
 10
471.322571
 20
253.347795
 10
470.852483
 20
253.070391
 10
470.396101
 20
252.787908
 10
469.956759
 20
252.501871
 10
469.508024
 20
252.196449
 10
469.070287
 20
251.887544
 10
468.643442
 20
251.575021
 10
468.227385
 20
251.258743
 10
467.822009
 20
250.938575
 10
467.42721
 20
250.61438
 10
467.042883
 20
250.286021
 10
466.668921
 20
249.953364
 10
466.30522
 20
249.616272
 10
465.951674
 20
249.274609
 10
465.608178
 20
248.928238
 10
465.274626
 20
248.577024
 10
464.950913
 20
248.220831
 10
464.636933
 20
247.859522
 10
464.332582
 20
247.492961
 10
464.037753
 20
247.121012
 10
463.752343
 20
246.74354
 10
463.476244
 20
246.360407
 10
463.209352
 20
245.971479
 10
462.951561
 20
245.576618
 10
462.702766
 20
245.17569
 10
462.462862
 20
244.768556
 10
462.231743
 20
244.355083
 10
462.009304
 20
243.935132
 10
461.795439
 20
243.508569
 10
461.590044
 20
243.075258
 10
461.393012
 20
242.635061
 10
461.204239
 20
242.187843
 10
461.023618
 20
241.733469
 10
460.851045
 20
241.271801
 10
460.686415
 20
240.802704
 10
460.529621
 20
240.326042
 10
460.365467
 20
239.777336
 10
460.233017
 20
239.249912
 10
460.17766
 20
238.985084
 10
460.129005
 20
238.714659
 10
460.086642
 20
238.434999
 10
460.050165
 20
238.142466
 10
459.993232
 20
237.504223
 10
459.954941
 20
236.770818
 10
459.932027
 20
235.913142
 10
459.921225
 20
234.902083
 10
459.920611
 20
233.824014
 10
459.935097
 20
232.92705
 10
459.970277
 20
232.163617
 10
459.997375
 20
231.817108
 10
460.031744
 20
231.486142
 10
460.074083
 20
231.164773
 10
460.125092
 20
230.847054
 10
460.18547
 20
230.527037
 10
460.255916
 20
230.198778
 10
460.42981
 20
229.493743
 10
460.652368
 20
228.684375
 10
460.808041
 20
228.154786
 10
460.973237
 20
227.630536
 10
461.147914
 20
227.111684
 10
461.332033
 20
226.598291
 10
461.525552
 20
226.090415
 10
461.728432
 20
225.588117
 10
461.940631
 20
225.091457
 10
462.162109
 20
224.600495
 10
462.392825
 20
224.115291
 10
462.632739
 20
223.635904
 10
462.881809
 20
223.162394
 10
463.139996
 20
222.694821
 10
463.407258
 20
222.233245
 10
463.683555
 20
221.777727
 10
463.968847
 20
221.328325
 10
464.263092
 20
220.8851
 10
464.56625
 20
220.448112
 10
464.878281
 20
220.01742
 10
465.199143
 20
219.593084
 10
465.528797
 20
219.175165
 10
465.867201
 20
218.763722
 10
466.214315
 20
218.358814
 10
466.570098
 20
217.960503
 10
466.93451
 20
217.568847
 10
467.307509
 20
217.183907
 10
467.689056
 20
216.805743
 10
468.07911
 20
216.434413
 10
468.477629
 20
216.06998
 10
468.884574
 20
215.712501
 10
469.299904
 20
215.362037
 10
469.723577
 20
215.018648
 10
470.155555
 20
214.682394
 10
470.592211
 20
214.355538
 10
471.031948
 20
214.038774
 10
471.474747
 20
213.732109
 10
471.920589
 20
213.435548
 10
472.369455
 20
213.1491
 10
472.821328
 20
212.872769
 10
473.276187
 20
212.606564
 10
473.734015
 20
212.35049
 10
474.194792
 20
212.104553
 10
474.6585
 20
211.868762
 10
475.125121
 20
211.643122
 10
475.594635
 20
211.427639
 10
476.067024
 20
211.222321
 10
476.54227
 20
211.027173
 10
477.020352
 20
210.842203
 10
477.501254
 20
210.667417
 10
477.984956
 20
210.502822
 10
478.471439
 20
210.348424
 10
478.960685
 20
210.20423
 10
479.452674
 20
210.070246
 10
479.94739
 20
209.946479
 10
480.444811
 20
209.832936
 10
480.944921
 20
209.729622
 10
481.4477
 20
209.636546
 10
481.953129
 20
209.553712
 10
482.461191
 20
209.481129
 10
482.971865
 20
209.418802
 10
483.485134
 20
209.366738
 10
484.000978
 20
209.324943
 10
484.51938
 20
209.293425
 10
485.04032
 20
209.272189
 10
485.56378
 20
209.261243
  0
LWPOLYLINE
  5
32
330
1F
100
AcDbEntity
  8
0
100
AcDbPolyline
 90
      146
 70
   128
 43
0.0
 10
349.31047
 20
288.359264
 10
349.328399
 20
288.639195
 10
349.357722
 20
288.910386
 10
349.398771
 20
289.172316
 10
349.451876
 20
289.424466
 10
349.517372
 20
289.666314
 10
349.595586
 20
289.897339
 10
349.686853
 20
290.11702
 10
349.791504
 20
290.324836
 10
349.909869
 20
290.520266
 10
350.042281
 20
290.70279
 10
350.189072
 20
290.871886
 10
350.350572
 20
291.027033
 10
350.527114
 20
291.167712
 10
350.719027
 20
291.2934
 10
350.926645
 20
291.403576
 10
351.251826
 20
291.558238
 10
351.48911
 20
291.679084
 10
351.656259
 20
291.785056
 10
351.719086
 20
291.838381
 10
351.771041
 20
291.895091
 10
351.814345
 20
291.957551
 10
351.851218
 20
292.028129
 10
351.914556
 20
292.20311
 10
351.97882
 20
292.438974
 10
352.061774
 20
292.754658
 10
352.122376
 20
292.947009
 10
352.1986
 20
293.136927
 10
352.289374
 20
293.323312
 10
352.393627
 20
293.505061
 10
352.510285
 20
293.681073
 10
352.638277
 20
293.850244
 10
352.776531
 20
294.011475
 10
352.923975
 20
294.163663
 10
353.079536
 20
294.305707
 10
353.242141
 20
294.436504
 10
353.41072
 20
294.554953
 10
353.584201
 20
294.659952
 10
353.761509
 20
294.750399
 10
353.941575
 20
294.825194
 10
354.123326
 20
294.883232
 10
354.305689
 20
294.923414
 10
354.478541
 20
294.945137
 10
354.666065
 20
294.958783
 10
355.028244
 20
294.979544
 10
359.565268
 20
294.752479
 10
364.108002
 20
294.392296
 10
364.174694
 20
294.378161
 10
364.247593
 20
294.350302
 10
364.326152
 20
294.309376
 10
364.409822
 20
294.25604
 10
364.590316
 20
294.114767
 10
364.7847
 20
293.931742
 10
364.9886
 20
293.712223
 10
365.197643
 20
293.461467
 10
365.407455
 20
293.184732
 10
365.613663
 20
292.887275
 10
365.811892
 20
292.574354
 10
365.99777
 20
292.251228
 10
366.16692
 20
291.923154
 10
366.314972
 20
291.59539
 10
366.43755
 20
291.273192
 10
366.530281
 20
290.961821
 10
366.564087
 20
290.811837
 10
366.58879
 20
290.666531
 10
366.603846
 20
290.526561
 10
366.608705
 20
290.392584
 10
366.604028
 20
289.968846
 10
366.595599
 20
289.797428
 10
366.579788
 20
289.650482
 10
366.563434
 20
289.571325
 42
-0.356179
 10
366.269157
 20
289.332022
 10
362.323134
 20
289.338361
 10
362.319921
 20
287.338364
 10
366.265944
 20
287.332024
 42
-0.356179
 10
366.559451
 20
287.091777
 10
366.57555
 20
287.012568
 10
366.590889
 20
286.865572
 10
366.598767
 20
286.694128
 10
366.602083
 20
286.270377
 10
366.596793
 20
286.136416
 10
366.581288
 20
285.996495
 10
366.556118
 20
285.851269
 10
366.52183
 20
285.701395
 10
366.428099
 20
285.390323
 10
366.304487
 20
285.068521
 10
366.155383
 20
284.741234
 10
365.985179
 20
284.413705
 10
365.798264
 20
284.091178
 10
365.599031
 20
283.778896
 10
365.391868
 20
283.482103
 10
365.181168
 20
283.206043
 10
364.97132
 20
282.95596
 10
364.766716
 20
282.737097
 10
364.571745
 20
282.554698
 10
364.390798
 20
282.414006
 10
364.306957
 20
282.360939
 10
364.228267
 20
282.320265
 10
364.155279
 20
282.292641
 10
364.088542
 20
282.27872
 10
359.544674
 20
281.933134
 10
355.006944
 20
281.720647
 10
354.644834
 20
281.742572
 10
354.457354
 20
281.75682
 10
354.284573
 20
281.779099
 10
354.10234
 20
281.819866
 10
353.920777
 20
281.878488
 10
353.740952
 20
281.953861
 10
353.563935
 20
282.044877
 10
353.390793
 20
282.150433
 10
353.222595
 20
282.269423
 10
353.060411
 20
282.400742
 10
352.905307
 20
282.543285
 10
352.758353
 20
282.695946
 10
352.620618
 20
282.85762
 10
352.49317
 20
283.027202
 10
352.377078
 20
283.203588
 10
352.27341
 20
283.385671
 10
352.183235
 20
283.572346
 10
352.107621
 20
283.762508
 10
352.047638
 20
283.955053
 10
351.965698
 20
284.271002
 10
351.902193
 20
284.507071
 10
351.839417
 20
284.682255
 10
351.802771
 20
284.752951
 10
351.759668
 20
284.81555
 10
351.707895
 20
284.872426
 10
351.64524
 20
284.925953
 10
351.478432
 20
285.032461
 10
351.241538
 20
285.154069
 10
350.916856
 20
285.309775
 10
350.709593
 20
285.420618
 10
350.518084
 20
285.546922
 10
350.341995
 20
285.688167
 10
350.180995
 20
285.843832
 10
350.034748
 20
286.013399
 10
349.902923
 20
286.196347
 10
349.785186
 20
286.392157
 10
349.681204
 20
286.600308
 10
349.590643
 20
286.820281
 10
349.513171
 20
287.051556
 10
349.448453
 20
287.293613
 10
349.396158
 20
287.545932
 10
349.355951
 20
287.807993
 10
349.3275
 20
288.079277
 10
349.31047
 20
288.359264
  0
LWPOLYLINE
  5
33
330
1F
100
AcDbEntity
  8
0
100
AcDbPolyline
 90
       76
 70
   128
 43
0.0
 10
514.305228
 20
236.742342
 10
514.470487
 20
236.745781
 42
0.413324
 10
514.764198
 20
237.051047
 10
514.706538
 20
240.295459
 10
516.706222
 20
240.330997
 10
516.766064
 20
236.963795
 42
0.400636
 10
517.057375
 20
236.66925
 10
519.145963
 20
236.609062
 10
519.151783
 20
253.179333
 10
518.619658
 20
253.192614
 10
518.343637
 20
253.197316
 10
518.08763
 20
253.194784
 10
517.828008
 20
253.179289
 10
517.582374
 20
253.149818
 10
517.350295
 20
253.106367
 10
517.131337
 20
253.048927
 10
516.925068
 20
252.977494
 10
516.731055
 20
252.892061
 10
516.548866
 20
252.792623
 10
516.378067
 20
252.679174
 10
516.218225
 20
252.551707
 10
516.068907
 20
252.410216
 10
515.929681
 20
252.254696
 10
515.800114
 20
252.08514
 10
515.679773
 20
251.901543
 10
515.568224
 20
251.703899
 10
515.465035
 20
251.492201
 10
515.369774
 20
251.266444
 10
515.251946
 20
250.983931
 10
515.139342
 20
250.755264
 10
515.026673
 20
250.575445
 10
514.968661
 20
250.502291
 10
514.908648
 20
250.439475
 10
514.845974
 20
250.386371
 10
514.779977
 20
250.342356
 10
514.709996
 20
250.306803
 10
514.635369
 20
250.279088
 10
514.555436
 20
250.258587
 10
514.469535
 20
250.244674
 10
514.277183
 20
250.234114
 10
514.094986
 20
250.223648
 10
513.902424
 20
250.193701
 10
513.702156
 20
250.145689
 10
513.496844
 20
250.081031
 10
513.289147
 20
250.001142
 10
513.081727
 20
249.90744
 10
512.877243
 20
249.801343
 10
512.678357
 20
249.684266
 10
512.487729
 20
249.557627
 10
512.30802
 20
249.422843
 10
512.14189
 20
249.281331
 10
511.992
 20
249.134508
 10
511.861011
 20
248.983791
 10
511.751582
 20
248.830597
 10
511.666375
 20
248.676343
 10
511.608051
 20
248.522446
 10
511.5362
 20
248.192899
 10
511.476705
 20
247.860357
 10
511.638817
 20
238.990312
 10
511.76147
 20
238.386792
 10
511.8037
 20
238.247924
 10
511.873052
 20
238.106399
 10
511.967051
 20
237.963816
 10
512.083219
 20
237.821776
 10
512.219082
 20
237.681881
 10
512.372163
 20
237.54573
 10
512.539985
 20
237.414925
 10
512.720074
 20
237.291067
 10
512.909953
 20
237.175755
 10
513.107145
 20
237.070591
 10
513.309175
 20
236.977175
 10
513.513567
 20
236.897107
 10
513.717844
 20
236.83199
 10
513.919531
 20
236.783423
 10
514.116151
 20
236.753007
 10
514.305228
 20
236.742342
  0
LWPOLYLINE
  5
34
330
1F
100
AcDbEntity
  8
0
100
AcDbPolyline
 90
       83
 70
   128
 43
0.0
 10
461.194116
 20
251.258743
 10
459.974969
 20
251.258743
 10
460.113701
 20
270.970202
 10
460.409803
 20
270.984928
 10
461.066245
 20
271.010655
 10
461.783573
 20
271.020061
 10
462.071492
 20
271.010104
 10
462.30681
 20
270.980161
 42
-0.368311
 10
462.568782
 20
270.692356
 10
462.686109
 20
267.10109
 10
464.685043
 20
267.166396
 10
464.57039
 20
270.675801
 42
-0.428598
 10
464.87509
 20
270.985557
 10
464.972682
 20
270.983976
 10
465.156498
 20
270.965164
 10
465.3522
 20
270.931339
 10
465.556585
 20
270.883566
 10
465.766447
 20
270.822909
 10
465.978584
 20
270.750434
 10
466.189791
 20
270.667205
 10
466.396865
 20
270.574288
 10
466.596602
 20
270.472745
 10
466.785798
 20
270.363643
 10
466.961249
 20
270.248047
 10
467.119752
 20
270.12702
 10
467.258103
 20
270.001628
 10
467.373097
 20
269.872935
 10
467.91891
 20
269.179047
 10
468.21413
 20
259.337806
 10
468.227385
 20
258.693976
 10
468.217993
 20
258.222784
 10
468.189394
 20
257.760969
 10
468.140954
 20
257.311432
 10
468.07204
 20
256.877075
 10
467.982015
 20
256.460797
 10
467.870248
 20
256.065499
 10
467.736103
 20
255.694083
 10
467.66044
 20
255.518236
 10
467.578946
 20
255.349447
 10
467.49154
 20
255.188079
 10
467.398143
 20
255.034494
 10
467.298676
 20
254.889055
 10
467.19306
 20
254.752124
 10
467.081215
 20
254.624064
 10
466.963063
 20
254.505237
 10
466.838523
 20
254.396007
 10
466.707517
 20
254.296734
 10
466.569965
 20
254.207784
 10
466.425789
 20
254.129516
 10
466.274908
 20
254.062296
 10
466.117244
 20
254.006484
 10
465.952717
 20
253.962443
 10
465.781248
 20
253.930537
 10
465.602758
 20
253.911127
 10
465.417167
 20
253.904577
 10
465.169075
 20
253.897348
 10
464.962449
 20
253.872644
 10
464.872557
 20
253.852325
 10
464.790476
 20
253.825939
 10
464.715355
 20
253.792921
 10
464.646342
 20
253.752706
 10
464.582584
 20
253.704727
 10
464.523231
 20
253.648418
 10
464.46743
 20
253.583214
 10
464.41433
 20
253.508549
 10
464.312824
 20
253.328572
 10
464.211899
 20
253.103962
 10
464.113394
 20
252.889085
 10
464.001132
 20
252.686416
 10
463.875484
 20
252.496182
 10
463.736826
 20
252.318612
 10
463.585532
 20
252.153935
 10
463.421974
 20
252.002379
 10
463.246526
 20
251.864173
 10
463.059562
 20
251.739545
 10
462.861456
 20
251.628723
 10
462.652581
 20
251.531936
 10
462.433312
 20
251.449412
 10
462.20402
 20
251.381381
 10
461.965082
 20
251.32807
 10
461.716869
 20
251.289707
 10
461.459756
 20
251.266522
 10
461.194116
 20
251.258743
  0
LWPOLYLINE
  5
35
330
1F
100
AcDbEntity
  8
0
100
AcDbPolyline
 90
      247
 70
   128
 43
0.0
 10
397.022797
 20
323.670877
 10
397.625058
 20
323.431456
 10
397.890812
 20
323.303616
 10
398.187473
 20
323.143398
 10
398.508139
 20
322.955647
 10
398.845909
 20
322.745208
 10
399.193885
 20
322.516925
 10
399.545163
 20
322.275643
 10
399.892846
 20
322.026206
 10
400.230031
 20
321.77346
 10
400.549819
 20
321.522248
 10
400.845307
 20
321.277416
 10
401.109598
 20
321.043807
 10
401.335789
 20
320.826268
 10
401.516981
 20
320.629642
 10
401.646272
 20
320.458774
 10
401.736586
 20
320.307633
 10
401.815013
 20
320.15235
 10
401.881627
 20
319.993096
 10
401.936503
 20
319.830042
 10
401.979718
 20
319.663357
 10
402.011344
 20
319.493215
 10
402.031456
 20
319.319787
 10
402.04013
 20
319.143244
 10
402.037439
 20
318.963757
 10
402.023459
 20
318.781498
 10
401.998267
 20
318.596638
 10
401.961933
 20
318.409349
 10
401.914535
 20
318.219801
 10
401.856146
 20
318.028167
 10
401.786843
 20
317.834618
 10
401.706699
 20
317.639324
 10
401.615788
 20
317.442459
 10
401.514187
 20
317.244192
 10
401.401969
 20
317.044695
 10
401.279211
 20
316.84414
 10
401.145984
 20
316.642699
 10
401.002366
 20
316.440541
 10
400.848431
 20
316.237839
 10
400.684253
 20
316.034765
 10
400.509907
 20
315.831488
 10
400.325467
 20
315.628182
 10
399.926609
 20
315.222165
 10
399.488276
 20
314.818085
 10
399.011067
 20
314.417311
 10
398.616053
 20
314.110953
 10
398.21528
 20
313.821757
 10
397.808566
 20
313.549704
 10
397.39573
 20
313.29478
 10
396.976591
 20
313.056972
 10
396.550966
 20
312.836262
 10
396.118676
 20
312.632637
 10
395.679537
 20
312.446081
 10
395.233369
 20
312.276579
 10
394.779991
 20
312.124117
 10
394.319221
 20
311.988679
 10
393.850877
 20
311.870248
 10
393.374779
 20
311.768811
 10
392.890743
 20
311.684352
 10
392.398591
 20
311.616858
 10
391.898139
 20
311.56631
 10
391.389208
 20
311.532697
 10
390.871614
 20
311.516001
 10
390.345177
 20
311.516207
 10
389.809715
 20
311.533303
 10
389.265047
 20
311.56727
 10
388.710994
 20
311.618094
 10
388.147369
 20
311.685761
 10
387.573995
 20
311.770255
 10
386.99069
 20
311.871561
 10
386.397272
 20
311.989665
 10
385.793558
 20
312.124549
 10
385.179369
 20
312.276202
 10
384.554523
 20
312.444604
 10
383.918838
 20
312.629744
 10
383.272133
 20
312.831604
 10
382.614227
 20
313.050172
 10
381.216101
 20
313.518045
 10
379.743922
 20
313.993612
 10
378.372792
 20
314.42125
 10
377.27781
 20
314.745339
 10
374.536875
 20
315.531822
 10
371.005823
 20
316.558826
 10
368.210854
 20
317.364787
 10
366.760404
 20
317.780901
 10
365.413048
 20
318.160696
 10
364.920021
 20
318.295814
 10
364.554528
 20
318.386841
 10
364.415735
 20
318.414565
 10
364.304178
 20
318.429761
 10
364.21831
 20
318.431927
 10
364.156581
 20
318.420561
 10
364.117442
 20
318.395161
 10
364.099346
 20
318.355224
 10
364.100742
 20
318.300251
 10
364.120082
 20
318.229739
 10
364.206396
 20
318.040087
 10
364.345902
 20
317.782256
 10
364.46121
 20
317.546815
 10
364.55203
 20
317.304005
 10
364.618763
 20
317.055536
 10
364.661811
 20
316.803119
 10
364.681578
 20
316.548461
 10
364.678463
 20
316.293276
 10
364.652872
 20
316.039272
 10
364.605203
 20
315.788159
 10
364.535859
 20
315.541645
 10
364.445244
 20
315.301442
 10
364.333758
 20
315.06926
 10
364.201805
 20
314.846808
 10
364.049785
 20
314.635796
 10
363.878102
 20
314.437934
 10
363.687157
 20
314.254931
 10
363.477351
 20
314.0885
 10
363.241501
 20
313.929465
 10
363.013064
 20
313.797238
 10
362.790949
 20
313.69148
 10
362.574068
 20
313.611852
 10
362.361328
 20
313.558014
 10
362.151637
 20
313.529628
 10
361.943905
 20
313.526355
 10
361.737043
 20
313.547857
 10
361.524877
 20
313.594934
 10
361.304564
 20
313.667488
 10
361.07759
 20
313.764224
 10
360.845439
 20
313.883847
 10
360.609598
 20
314.025065
 10
360.371551
 20
314.186582
 10
360.132782
 20
314.367103
 10
359.894778
 20
314.565337
 10
359.659022
 20
314.779986
 10
359.427001
 20
315.009759
 10
359.200198
 20
315.25336
 10
358.9801
 20
315.509494
 10
358.768191
 20
315.776868
 10
358.565958
 20
316.054188
 10
358.374883
 20
316.340159
 10
358.196455
 20
316.633486
 10
357.941409
 20
317.068994
 10
357.832863
 20
317.244102
 10
357.732758
 20
317.392804
 10
357.637933
 20
317.516619
 10
357.545229
 20
317.617068
 10
357.451488
 20
317.69567
 10
357.353551
 20
317.753943
 10
357.248259
 20
317.793407
 10
357.132451
 20
317.815581
 10
357.002971
 20
317.821984
 10
356.856658
 20
317.814136
 10
356.500898
 20
317.761762
 10
356.039901
 20
317.670614
 10
355.681482
 20
317.606277
 10
355.323357
 20
317.559377
 10
354.966178
 20
317.52979
 10
354.610602
 20
317.517397
 10
354.25728
 20
317.522071
 10
353.906872
 20
317.543693
 10
353.560029
 20
317.582141
 10
353.217407
 20
317.637292
 10
352.879662
 20
317.709024
 10
352.547446
 20
317.797214
 10
352.221418
 20
317.901741
 10
351.902229
 20
318.022485
 10
351.590536
 20
318.15932
 10
351.286994
 20
318.312125
 10
350.992256
 20
318.480778
 10
350.70698
 20
318.665158
 10
350.370873
 20
318.900468
 10
350.072504
 20
319.121443
 10
349.810298
 20
319.331874
 10
349.582681
 20
319.535551
 10
349.388079
 20
319.736262
 10
349.224918
 20
319.937799
 10
349.091623
 20
320.143952
 10
348.986621
 20
320.358511
 10
348.908337
 20
320.585264
 10
348.855197
 20
320.828005
 10
348.825627
 20
321.090521
 10
348.818055
 20
321.376604
 10
348.830903
 20
321.690043
 10
348.8626
 20
322.034629
 10
348.911569
 20
322.414151
 10
348.976239
 20
322.832399
 10
349.057333
 20
323.268908
 10
349.155605
 20
323.694516
 10
349.271038
 20
324.109213
 10
349.403619
 20
324.512986
 10
349.55333
 20
324.905823
 10
349.72016
 20
325.287714
 10
349.904088
 20
325.658645
 10
350.105101
 20
326.018605
 10
350.323186
 20
326.367582
 10
350.558323
 20
326.705564
 10
350.8105
 20
327.03254
 10
351.079699
 20
327.348497
 10
351.365907
 20
327.653423
 10
351.669108
 20
327.947307
 10
351.989285
 20
328.230136
 10
352.326425
 20
328.501901
 10
352.680511
 20
328.762586
 10
353.051527
 20
329.012181
 10
353.439459
 20
329.250674
 10
353.84429
 20
329.478054
 10
354.266006
 20
329.694309
 10
354.704591
 20
329.899425
 10
355.160031
 20
330.093393
 10
355.632307
 20
330.2762
 10
356.121407
 20
330.447833
 10
356.627315
 20
330.608281
 10
357.150014
 20
330.757531
 10
357.68949
 20
330.895574
 10
358.245726
 20
331.022395
 10
358.818709
 20
331.137983
 10
359.408422
 20
331.242329
 10
360.014849
 20
331.335417
 10
360.587611
 20
331.40759
 10
361.217166
 20
331.469552
 10
361.899845
 20
331.521252
 10
362.631981
 20
331.562644
 10
363.409903
 20
331.593681
 10
364.229943
 20
331.614315
 10
365.088431
 20
331.6245
 10
365.981698
 20
331.624186
 10
366.906076
 20
331.613329
 10
367.857895
 20
331.591879
 10
368.833484
 20
331.55979
 10
369.829178
 20
331.517015
 10
370.841305
 20
331.463504
 10
371.866196
 20
331.399213
 10
372.900183
 20
331.324093
 10
373.939597
 20
331.238098
 10
374.669806
 20
331.1661
 10
375.59504
 20
331.064115
 10
377.670672
 20
330.818841
 10
380.203152
 20
330.50363
 10
383.274079
 20
324.297019
 10
386.283995
 20
325.468201
 10
388.700789
 20
326.402803
 10
390.602669
 20
327.127835
 10
391.503797
 20
325.334939
 10
392.110123
 20
324.092935
 10
392.192624
 20
323.913
 42
-0.403454
 10
392.054926
 20
323.520058
 10
388.452582
 20
321.704764
 10
389.352606
 20
319.918719
 10
396.776969
 20
323.660004
 42
-0.214491
 10
397.022797
 20
323.670877
  0
LWPOLYLINE
  5
36
330
1F
100
AcDbEntity
  8
0
100
AcDbPolyline
 90
       33
 70
   128
 43
0.0
 10
396.383447
 20
342.068622
 10
396.741516
 20
342.01295
 10
397.081362
 20
341.932759
 10
397.402984
 20
341.828048
 10
397.706383
 20
341.698818
 10
397.85125
 20
341.625009
 10
397.991561
 20
341.545069
 10
398.127317
 20
341.459001
 10
398.258516
 20
341.366802
 10
398.385162
 20
341.268472
 10
398.507251
 20
341.164013
 10
398.624785
 20
341.053424
 10
398.737765
 20
340.936704
 10
398.848441
 20
340.809845
 10
398.952312
 20
340.676515
 10
399.049411
 20
340.537244
 10
399.139768
 20
340.392559
 10
399.223415
 20
340.242986
 10
399.300385
 20
340.089055
 10
399.434418
 20
339.770226
 10
399.542119
 20
339.440293
 10
399.623744
 20
339.103477
 10
399.679545
 20
338.763998
 10
399.709776
 20
338.426077
 10
399.711956
 20
338.272477
 10
399.703144
 20
338.120046
 10
399.684476
 20
337.968663
 10
399.65709
 20
337.818198
 10
399.580702
 20
337.519534
 10
399.483069
 20
337.223052
 10
399.260418
 20
336.632641
 10
399.153575
 20
336.336712
 10
399.061839
 20
336.038968
  0
LWPOLYLINE
  5
37
330
1F
100
AcDbEntity
  8
0
100
AcDbPolyline
 90
       33
 70
   128
 43
0.0
 10
373.762389
 20
286.327574
 10
374.117589
 20
286.25584
 10
374.464181
 20
286.213418
 10
374.802165
 20
286.200308
 10
375.131542
 20
286.216509
 10
375.293002
 20
286.235602
 10
375.452312
 20
286.262022
 10
375.60947
 20
286.29577
 10
375.764475
 20
286.336845
 10
375.91733
 20
286.38525
 10
376.068033
 20
286.440983
 10
376.216586
 20
286.504042
 10
376.362987
 20
286.57443
 10
376.510738
 20
286.655128
 10
376.654345
 20
286.744253
 10
376.793654
 20
286.841297
 10
376.928514
 20
286.945753
 10
377.058771
 20
287.057117
 10
377.184272
 20
287.174882
 10
377.420395
 20
287.427593
 10
377.635658
 20
287.699837
 10
377.828841
 20
287.987566
 10
377.998719
 20
288.286733
 10
378.144069
 20
288.593291
 10
378.199291
 20
288.736638
 10
378.243795
 20
288.882694
 10
378.27869
 20
289.031179
 10
378.305089
 20
289.18182
 10
378.336822
 20
289.48846
 10
378.347869
 20
289.800409
 10
378.343387
 20
290.431391
 10
378.345602
 20
290.746008
 10
378.362618
 20
291.057099
  0
LWPOLYLINE
  5
38
330
1F
100
AcDbEntity
  8
0
100
AcDbPolyline
 90
        5
 70
   128
 43
0.0
 10
374.329809
 20
292.42209
 42
0.414214
 10
372.395591
 20
290.516927
 42
0.414214
 10
374.300753
 20
288.582709
 42
0.414214
 10
376.234972
 20
290.487871
 42
0.414214
 10
374.329809
 20
292.42209
  0
LWPOLYLINE
  5
39
330
1F
100
AcDbEntity
  8
0
100
AcDbPolyline
 90
      204
 70
   128
 43
0.0
 10
409.932436
 20
273.092889
 42
0.427907
 10
409.982761
 20
273.523979
 10
405.196704
 20
279.294071
 10
406.736076
 20
280.570918
 10
411.771163
 20
274.500593
 42
0.285975
 10
412.072159
 20
274.400422
 10
412.699094
 20
274.551064
 10
412.956211
 20
274.629217
 10
413.257342
 20
274.732788
 10
413.59199
 20
274.857725
 10
413.94966
 20
274.999979
 10
414.319852
 20
275.155498
 10
414.692069
 20
275.320229
 10
415.055817
 20
275.490122
 10
415.625579
 20
275.767881
 10
415.856114
 20
275.887932
 10
416.053797
 20
276.000948
 10
416.221163
 20
276.111064
 10
416.360748
 20
276.222415
 10
416.475084
 20
276.339139
 10
416.566709
 20
276.465375
 10
416.638157
 20
276.605254
 10
416.691961
 20
276.762918
 10
416.730658
 20
276.942502
 10
416.756781
 20
277.148139
 10
416.772865
 20
277.38397
 10
416.781447
 20
277.654128
 10
416.786237
 20
278.313979
 10
416.782266
 20
278.913364
 10
416.763575
 20
279.406661
 10
416.746868
 20
279.621096
 10
416.724271
 20
279.81809
 10
416.695047
 20
280.000672
 10
416.658462
 20
280.171871
 10
416.613775
 20
280.334713
 10
416.560253
 20
280.492224
 10
416.497158
 20
280.647435
 10
416.423754
 20
280.803373
 10
416.243071
 20
281.129532
 10
416.01231
 20
281.494927
 10
415.837183
 20
281.748603
 10
415.647946
 20
281.996953
 10
415.444524
 20
282.240014
 10
415.226844
 20
282.477817
 10
414.994822
 20
282.710396
 10
414.748389
 20
282.937783
 10
414.487465
 20
283.160011
 10
414.211973
 20
283.377115
 10
413.92184
 20
283.589128
 10
413.616987
 20
283.796081
 10
413.297338
 20
283.998008
 10
412.962817
 20
284.194945
 10
412.613347
 20
284.386921
 10
412.248851
 20
284.573973
 10
411.869255
 20
284.75613
 10
411.474482
 20
284.93343
 10
411.064455
 20
285.105902
 10
410.639096
 20
285.273582
 10
410.198332
 20
285.436501
 10
409.742083
 20
285.594695
 10
409.270277
 20
285.748194
 10
408.782833
 20
285.897033
 10
408.279678
 20
286.041245
 10
407.760733
 20
286.180863
 10
407.225923
 20
286.315922
 10
406.675173
 20
286.446451
 10
406.108404
 20
286.572486
 10
405.525541
 20
286.694061
 10
404.311229
 20
286.92396
 10
403.031622
 20
287.136412
 10
400.124846
 20
287.560379
 10
397.216981
 20
287.97666
 10
393.060723
 20
288.533095
 10
388.902978
 20
289.078547
 10
388.16745
 20
289.164553
 10
387.383669
 20
289.237957
 10
386.568824
 20
289.307912
 10
385.740108
 20
289.383565
 10
384.91471
 20
289.474067
 10
384.508628
 20
289.527745
 10
384.109822
 20
289.588566
 10
383.720441
 20
289.657673
 10
383.342633
 20
289.736212
 10
382.978547
 20
289.825325
 10
382.630333
 20
289.926156
 10
382.466456
 20
289.986033
 10
382.29768
 20
290.061561
 10
381.953793
 20
290.243143
 10
381.615395
 20
290.438041
 10
381.29921
 20
290.613396
 10
380.994251
 20
290.78645
 10
380.637132
 20
291.015555
 10
380.24086
 20
291.290859
 10
379.818446
 20
291.602512
 10
379.3829
 20
291.940659
 10
378.947229
 20
292.295447
 10
378.524441
 20
292.657025
 10
378.127547
 20
293.01554
 10
377.676661
 20
293.420225
 10
377.240792
 20
293.779243
 10
376.818274
 20
294.092902
 10
376.6115
 20
294.232818
 10
376.407438
 20
294.361508
 10
376.205881
 20
294.479012
 10
376.006619
 20
294.585368
 10
375.809445
 20
294.680614
 10
375.614149
 20
294.764787
 10
375.420526
 20
294.837928
 10
375.228363
 20
294.900073
 10
375.037456
 20
294.951262
 10
374.847596
 20
294.991531
 10
374.658571
 20
295.020922
 10
374.470177
 20
295.039468
 10
374.282205
 20
295.047212
 10
374.094444
 20
295.044191
 10
373.906687
 20
295.030442
 10
373.718728
 20
295.006006
 10
373.530357
 20
294.970918
 10
373.341365
 20
294.925218
 10
373.151543
 20
294.868944
 10
372.960685
 20
294.802134
 10
372.768582
 20
294.724828
 10
372.575025
 20
294.637062
 10
372.379806
 20
294.538876
 10
372.182717
 20
294.430307
 10
371.983548
 20
294.311394
 10
371.782094
 20
294.182176
 10
371.616748
 20
294.06681
 10
371.458338
 20
293.94468
 10
371.306929
 20
293.816039
 10
371.162589
 20
293.681139
 10
371.02538
 20
293.540229
 10
370.895372
 20
293.393562
 10
370.77263
 20
293.241391
 10
370.65722
 20
293.083966
 10
370.549208
 20
292.92154
 10
370.448661
 20
292.754363
 10
370.355643
 20
292.582688
 10
370.270221
 20
292.406766
 10
370.192463
 20
292.226849
 10
370.122434
 20
292.043188
 10
370.060198
 20
291.856036
 10
370.005825
 20
291.665644
 10
369.959376
 20
291.472262
 10
369.920923
 20
291.276146
 10
369.890528
 20
291.077542
 10
369.868258
 20
290.876706
 10
369.85418
 20
290.673888
 10
369.84836
 20
290.469339
 10
369.850863
 20
290.263313
 10
369.861756
 20
290.056059
 10
369.881105
 20
289.84783
 10
369.908976
 20
289.638879
 10
369.945435
 20
289.429455
 10
369.990549
 20
289.21981
 10
370.044382
 20
289.010197
 10
370.107003
 20
288.800869
 10
370.178476
 20
288.592074
 10
370.258867
 20
288.384066
 10
370.337987
 20
288.20216
 10
370.427209
 20
288.018556
 10
370.52644
 20
287.833307
 10
370.635589
 20
287.646468
 10
370.883272
 20
287.268241
 10
371.169522
 20
286.884308
 10
371.493604
 20
286.495107
 10
371.854778
 20
286.101075
 10
372.252312
 20
285.702647
 10
372.685468
 20
285.300258
 10
373.153511
 20
284.894345
 10
373.655703
 20
284.485345
 10
374.19131
 20
284.073693
 10
374.759596
 20
283.659826
 10
375.359823
 20
283.244179
 10
375.991258
 20
282.827189
 10
376.653161
 20
282.409292
 10
377.344798
 20
281.990924
 10
378.065435
 20
281.572521
 10
378.814332
 20
281.154519
 10
379.590755
 20
280.737355
 10
380.393969
 20
280.321463
 10
381.223236
 20
279.90728
 10
382.077821
 20
279.495244
 10
382.956987
 20
279.08579
 10
383.86
 20
278.679354
 10
384.786121
 20
278.276371
 10
385.734616
 20
277.877279
 10
386.704749
 20
277.482511
 10
387.695783
 20
277.092508
 10
388.706981
 20
276.707703
 10
389.737609
 20
276.328532
 10
390.786931
 20
275.95543
 10
391.854211
 20
275.588837
 10
393.221827
 20
275.138303
 10
394.013426
 20
274.895557
 10
394.383201
 20
274.795328
 10
394.485349
 20
274.77234
 10
399.461938
 20
278.953566
 10
407.218294
 20
271.249593
 10
407.708091
 20
271.569137
 10
408.756164
 20
272.265219
 10
409.31355
 20
272.646552
 10
409.799297
 20
272.992531
 10
409.932436
 20
273.092889
  0
LWPOLYLINE
  5
3A
330
1F
100
AcDbEntity
  8
0
100
AcDbPolyline
 90
      247
 70
   128
 43
0.0
 10
453.372723
 20
313.274886
 10
454.004481
 20
313.41953
 10
454.28664
 20
313.505289
 10
454.604287
 20
313.618326
 10
454.949864
 20
313.754908
 10
455.315807
 20
313.9113
 10
455.694562
 20
314.083768
 10
456.078565
 20
314.268578
 10
456.46026
 20
314.461997
 10
456.832086
 20
314.660289
 10
457.186485
 20
314.859722
 10
457.515895
 20
315.056559
 10
457.812759
 20
315.24707
 10
458.069517
 20
315.427518
 10
458.278609
 20
315.594169
 10
458.432476
 20
315.743289
 10
458.544811
 20
315.878866
 10
458.646031
 20
316.020351
 10
458.736182
 20
316.167566
 10
458.815315
 20
316.320328
 10
458.883476
 20
316.478458
 10
458.940712
 20
316.641776
 10
458.987072
 20
316.810098
 10
459.022603
 20
316.983246
 10
459.047352
 20
317.161039
 10
459.061369
 20
317.343295
 10
459.064701
 20
317.529834
 10
459.057393
 20
317.720475
 10
459.039495
 20
317.915038
 10
459.011055
 20
318.11334
 10
458.972121
 20
318.315202
 10
458.922738
 20
318.520444
 10
458.862956
 20
318.728883
 10
458.792823
 20
318.94034
 10
458.712386
 20
319.154634
 10
458.621692
 20
319.371582
 10
458.520789
 20
319.591005
 10
458.409726
 20
319.812723
 10
458.28855
 20
320.036554
 10
458.157308
 20
320.262318
 10
458.016048
 20
320.489834
 10
457.864818
 20
320.71892
 10
457.532638
 20
321.181083
 10
457.161151
 20
321.647359
 10
456.750739
 20
322.116305
 10
456.40714
 20
322.479391
 10
456.055229
 20
322.826396
 10
455.694828
 20
323.157365
 10
455.325762
 20
323.472341
 10
454.947854
 20
323.771365
 10
454.560924
 20
324.054481
 10
454.164799
 20
324.321731
 10
453.759298
 20
324.573157
 10
453.344246
 20
324.808803
 10
452.919467
 20
325.02871
 10
452.484783
 20
325.232922
 10
452.040018
 20
325.421482
 10
451.584993
 20
325.594432
 10
451.119531
 20
325.751815
 10
450.643458
 20
325.893672
 10
450.156594
 20
326.020048
 10
449.658765
 20
326.130984
 10
449.149791
 20
326.226523
 10
448.629496
 20
326.306708
 10
448.097704
 20
326.371581
 10
447.554237
 20
326.421186
 10
446.998921
 20
326.455564
 10
446.431573
 20
326.47476
 10
445.852021
 20
326.478813
 10
445.260087
 20
326.467769
 10
444.655594
 20
326.441668
 10
444.038363
 20
326.400556
 10
443.408219
 20
326.344472
 10
442.764985
 20
326.273461
 10
442.108484
 20
326.187565
 10
441.438539
 20
326.086827
 10
440.754973
 20
325.971289
 10
439.301797
 20
325.722403
 10
437.774263
 20
325.477223
 10
436.353911
 20
325.263978
 10
435.222282
 20
325.1109
 10
432.393393
 20
324.752195
 10
428.746926
 20
324.276445
 10
425.861661
 20
323.906742
 10
424.364681
 20
323.717
 10
422.975129
 20
323.547407
 10
422.467252
 20
323.489161
 10
422.092145
 20
323.455014
 10
421.950746
 20
323.44881
 10
421.838178
 20
323.450827
 10
421.752986
 20
323.461799
 10
421.693717
 20
323.482458
 10
421.658915
 20
323.513537
 10
421.64713
 20
323.555769
 10
421.656904
 20
323.609884
 10
421.686784
 20
323.676616
 10
421.801048
 20
323.850863
 10
421.978289
 20
324.084366
 10
422.128198
 20
324.299438
 10
422.255031
 20
324.525532
 10
422.358924
 20
324.760896
 10
422.440012
 20
325.00378
 10
422.498435
 20
325.252432
 10
422.534325
 20
325.5051
 10
422.547821
 20
325.760032
 10
422.539057
 20
326.01548
 10
422.50817
 20
326.269692
 10
422.455299
 20
326.520915
 10
422.380576
 20
326.767398
 10
422.28414
 20
327.007391
 10
422.166125
 20
327.239143
 10
422.02667
 20
327.460901
 10
421.86591
 20
327.670916
 10
421.68398
 20
327.867434
 10
421.475181
 20
328.060619
 10
421.269614
 20
328.226178
 10
421.066254
 20
328.364614
 10
420.864077
 20
328.476428
 10
420.662053
 20
328.56212
 10
420.459156
 20
328.622194
 10
420.25436
 20
328.65715
 10
420.04664
 20
328.667489
 10
419.829774
 20
328.653363
 10
419.600965
 20
328.615303
 10
419.361882
 20
328.554362
 10
419.114187
 20
328.471592
 10
418.859547
 20
328.368044
 10
418.599627
 20
328.244772
 10
418.336092
 20
328.10283
 10
418.070608
 20
327.943265
 10
417.804839
 20
327.767135
 10
417.540452
 20
327.575488
 10
417.27911
 20
327.369378
 10
417.02248
 20
327.149857
 10
416.772228
 20
326.917978
 10
416.530017
 20
326.674794
 10
416.297514
 20
326.421355
 10
416.076386
 20
326.158714
 10
415.757827
 20
325.767261
 10
415.623815
 20
325.610782
 10
415.502176
 20
325.47911
 10
415.389556
 20
325.371228
 10
415.282601
 20
325.286113
 10
415.177956
 20
325.222748
 10
415.07227
 20
325.180114
 10
414.962186
 20
325.157192
 10
414.84435
 20
325.152962
 10
414.715411
 20
325.166406
 10
414.572012
 20
325.196504
 10
414.228423
 20
325.30259
 10
413.78675
 20
325.463066
 10
413.44236
 20
325.581381
 10
413.095597
 20
325.682419
 10
412.747125
 20
325.766201
 10
412.397612
 20
325.832748
 10
412.04772
 20
325.882082
 10
411.698119
 20
325.914223
 10
411.349473
 20
325.92919
 10
411.002448
 20
325.927007
 10
410.65771
 20
325.907691
 10
410.315923
 20
325.871266
 10
409.977757
 20
325.817751
 10
409.643873
 20
325.747166
 10
409.314941
 20
325.659533
 10
408.991625
 20
325.554872
 10
408.674589
 20
325.433205
 10
408.364503
 20
325.29455
 10
407.996405
 20
325.113325
 10
407.667792
 20
324.940504
 10
407.376526
 20
324.772581
 10
407.120477
 20
324.606051
 10
406.897507
 20
324.437411
 10
406.705485
 20
324.263153
 10
406.542272
 20
324.079772
 10
406.405737
 20
323.883765
 10
406.293745
 20
323.671625
 10
406.204161
 20
323.439846
 10
406.134851
 20
323.184924
 10
406.083681
 20
322.903353
 10
406.048515
 20
322.591628
 10
406.027219
 20
322.246243
 10
406.01766
 20
321.863694
 10
406.017702
 20
321.440475
 10
406.031189
 20
320.996702
 10
406.063315
 20
320.56108
 10
406.114068
 20
320.133619
 10
406.183436
 20
319.714336
 10
406.271404
 20
319.303245
 10
406.37796
 20
318.900357
 10
406.503087
 20
318.50569
 10
406.646776
 20
318.119256
 10
406.809012
 20
317.741069
 10
406.98978
 20
317.371144
 10
407.189068
 20
317.009494
 10
407.406862
 20
316.656135
 10
407.64315
 20
316.311079
 10
407.897918
 20
315.974342
 10
408.17115
 20
315.645937
 10
408.462836
 20
315.325877
 10
408.772961
 20
315.014179
 10
409.101512
 20
314.710854
 10
409.448474
 20
314.415919
 10
409.813836
 20
314.129386
 10
410.197582
 20
313.85127
 10
410.599702
 20
313.581585
 10
411.02018
 20
313.320344
 10
411.459002
 20
313.067562
 10
411.916157
 20
312.823255
 10
412.39163
 20
312.587434
 10
412.885407
 20
312.360115
 10
413.397476
 20
312.14131
 10
413.927823
 20
311.931037
 10
414.476435
 20
311.729307
 10
415.043297
 20
311.536133
 10
415.628397
 20
311.351533
 10
416.18342
 20
311.192742
 10
416.79613
 20
311.03537
 10
417.462908
 20
310.880029
 10
418.180137
 20
310.727321
 10
418.944195
 20
310.577856
 10
419.751467
 20
310.43224
 10
420.598331
 20
310.291079
 10
421.48117
 20
310.154983
 10
422.396364
 20
310.024555
 10
423.340296
 20
309.900407
 10
424.309343
 20
309.783142
 10
425.299891
 20
309.673368
 10
426.308319
 20
309.571694
 10
427.331007
 20
309.478725
 10
428.364339
 20
309.395069
 10
429.404694
 20
309.321332
 10
430.137333
 20
309.28098
 10
431.06729
 20
309.24048
 10
433.156033
 20
309.165919
 10
435.706946
 20
309.090711
 10
439.689637
 20
314.755584
 10
442.485406
 20
313.138509
 10
444.731138
 20
311.845812
 10
446.499996
 20
310.838857
 10
447.66434
 20
312.473118
 10
448.453215
 20
313.607967
 10
448.562225
 20
313.773193
 42
0.403454
 10
448.486146
 20
314.182554
 10
445.203255
 20
316.526654
 10
446.365462
 20
318.154314
 10
453.131438
 20
313.32317
 42
0.214491
 10
453.372723
 20
313.274886
  0
LWPOLYLINE
  5
3B
330
1F
100
AcDbEntity
  8
0
100
AcDbPolyline
 90
      365
 70
   128
 43
0.0
 10
394.883402
 20
292.801271
 10
394.705343
 20
292.741379
 10
394.525028
 20
292.705625
 10
394.340384
 20
292.693762
 10
394.158243
 20
292.707839
 10
393.986907
 20
292.748316
 10
393.826507
 20
292.81256
 10
393.677173
 20
292.897937
 10
393.539036
 20
293.001815
 10
393.412225
 20
293.12156
 10
393.296873
 20
293.25454
 10
393.193109
 20
293.398121
 10
393.101063
 20
293.549671
 10
393.020867
 20
293.706557
 10
392.952651
 20
293.866145
 10
392.896544
 20
294.025803
 10
392.852679
 20
294.182897
 10
392.821185
 20
294.334795
 10
392.802193
 20
294.478864
 10
392.795833
 20
294.61247
 10
392.789381
 20
295.026652
 10
392.774057
 20
295.134939
 10
392.761254
 20
295.165114
 10
392.744216
 20
295.179588
 10
392.72234
 20
295.178571
 10
392.695019
 20
295.162273
 10
392.621626
 20
295.084667
 10
392.519198
 20
294.948444
 10
392.382897
 20
294.755277
 10
392.283519
 20
294.628354
 10
392.159053
 20
294.493525
 10
392.014493
 20
294.354914
 10
391.854833
 20
294.216647
 10
391.68507
 20
294.082848
 10
391.510196
 20
293.957644
 10
391.335209
 20
293.845159
 10
391.165101
 20
293.749519
 10
390.932429
 20
293.635775
 10
390.727485
 20
293.552241
 10
390.54136
 20
293.498392
 10
390.365145
 20
293.473702
 10
390.189929
 20
293.477644
 10
390.006804
 20
293.509693
 10
389.806859
 20
293.569322
 10
389.581186
 20
293.656006
 10
389.382106
 20
293.748603
 10
389.198115
 20
293.85561
 10
389.028907
 20
293.977739
 10
388.874179
 20
294.115698
 10
388.733626
 20
294.270198
 10
388.606945
 20
294.441949
 10
388.493832
 20
294.631661
 10
388.393983
 20
294.840043
 10
388.307093
 20
295.067807
 10
388.232859
 20
295.315662
 10
388.170976
 20
295.584318
 10
388.121141
 20
295.874485
 10
388.08305
 20
296.186873
 10
388.056398
 20
296.522193
 10
388.040882
 20
296.881153
 10
388.036197
 20
297.264465
 10
388.044014
 20
297.684248
 10
388.066071
 20
298.09891
 10
388.102296
 20
298.508344
 10
388.152619
 20
298.912444
 10
388.216967
 20
299.311102
 10
388.295268
 20
299.704212
 10
388.387452
 20
300.091668
 10
388.493446
 20
300.473361
 10
388.613178
 20
300.849186
 10
388.746578
 20
301.219036
 10
388.893572
 20
301.582804
 10
389.05409
 20
301.940382
 10
389.228059
 20
302.291665
 10
389.415409
 20
302.636546
 10
389.616067
 20
302.974917
 10
389.829961
 20
303.306672
 10
390.05702
 20
303.631704
 10
390.297173
 20
303.949906
 10
390.550347
 20
304.261172
 10
390.816471
 20
304.565394
 10
391.095473
 20
304.862467
 10
391.387281
 20
305.152282
 10
391.691824
 20
305.434734
 10
392.00903
 20
305.709715
 10
392.338827
 20
305.977118
 10
392.681144
 20
306.236838
 10
393.035909
 20
306.488767
 10
393.40305
 20
306.732798
 10
393.782495
 20
306.968824
 10
394.174174
 20
307.196739
 10
394.578013
 20
307.416436
 10
394.993941
 20
307.627808
 10
395.336107
 20
307.791082
 10
395.689392
 20
307.950503
 10
396.053065
 20
308.105923
 10
396.426395
 20
308.257195
 10
397.199096
 20
308.546707
 10
398.001644
 20
308.817861
 10
398.828184
 20
309.06948
 10
399.672865
 20
309.300385
 10
400.529834
 20
309.509399
 10
401.393238
 20
309.695344
 10
402.257224
 20
309.857041
 10
403.115939
 20
309.993313
 10
403.963531
 20
310.102982
 10
404.794146
 20
310.18487
 10
405.601932
 20
310.237799
 10
406.381037
 20
310.260592
 10
406.758005
 20
310.260318
 10
407.125607
 20
310.25207
 10
407.483112
 20
310.235697
 10
407.829789
 20
310.211055
 10
408.311728
 20
310.180607
 10
408.832096
 20
310.153772
 10
409.350482
 20
310.113383
 10
409.596304
 20
310.082741
 10
409.826478
 20
310.042273
 10
410.07747
 20
309.985428
 10
410.335348
 20
309.918913
 10
410.867533
 20
309.761343
 10
411.414589
 20
309.5785
 10
411.968068
 20
309.37932
 10
413.060514
 20
308.967693
 10
414.077301
 20
308.597948
 10
414.974404
 20
308.298526
 10
415.894835
 20
308.001238
 10
416.812478
 20
307.713874
 10
417.701216
 20
307.444224
 10
418.534934
 20
307.200079
 10
419.287513
 20
306.989229
 10
419.932838
 20
306.819465
 10
420.444792
 20
306.698577
 10
420.95259
 20
306.579579
 10
421.49906
 20
306.445715
 10
422.047563
 20
306.32452
 10
422.311126
 20
306.277279
 10
422.561458
 20
306.24353
 10
423.135597
 20
306.18798
 10
423.731267
 20
306.141188
 10
424.345404
 20
306.102848
 10
424.974945
 20
306.072654
 10
425.616825
 20
306.050299
 10
426.26798
 20
306.035476
 10
427.585862
 20
306.027202
 10
428.904078
 20
306.045379
 10
430.198119
 20
306.087554
 10
431.443471
 20
306.151274
 10
432.615625
 20
306.234088
 10
432.803118
 20
306.255132
 10
433.00421
 20
306.28653
 10
433.389525
 20
306.361348
 10
433.735436
 20
306.427413
 10
433.865135
 20
306.442546
 10
433.965657
 20
306.44286
 10
434.036743
 20
306.426189
 10
434.061168
 20
306.410807
 10
434.078139
 20
306.390366
 10
434.087623
 20
306.364597
 10
434.089588
 20
306.333228
 10
434.070833
 20
306.252607
 10
434.024157
 20
306.143058
 10
433.961537
 20
306.025352
 10
433.883954
 20
305.900159
 10
433.792392
 20
305.76815
 10
433.571259
 20
305.486367
 10
433.305996
 20
305.185366
 10
433.004464
 20
304.870512
 10
432.674522
 20
304.547171
 10
432.324029
 20
304.220707
 10
431.960844
 20
303.896483
 10
431.592827
 20
303.579866
 10
431.227838
 20
303.276219
 10
430.538378
 20
302.729295
 10
429.955342
 20
302.298628
 10
429.72338
 20
302.140303
 10
429.541602
 20
302.027136
 10
429.039695
 20
301.747954
 10
428.512088
 20
301.472029
 10
427.96275
 20
301.198442
 10
427.395647
 20
300.92627
 10
426.224021
 20
300.382493
 10
425.028951
 20
299.833332
 10
423.842179
 20
299.271419
 10
423.261825
 20
298.983379
 10
422.695448
 20
298.689389
 10
422.147017
 20
298.388528
 10
421.620499
 20
298.079875
 10
421.119862
 20
297.76251
 10
420.649074
 20
297.435511
 10
420.395636
 20
297.259972
 10
420.079589
 20
297.043476
 10
419.736146
 20
296.790014
 10
419.565155
 20
296.650668
 10
419.40052
 20
296.503577
 10
419.246643
 20
296.34924
 10
419.107925
 20
296.188154
 10
418.988768
 20
296.02082
 10
418.893573
 20
295.847736
 10
418.826742
 20
295.669401
 10
418.805339
 20
295.57842
 10
418.792677
 20
295.486313
 10
418.789307
 20
295.393143
 10
418.795779
 20
295.298972
 10
418.812644
 20
295.203862
 10
418.84045
 20
295.107875
 10
418.976802
 20
294.670974
 10
419.081003
 20
294.241149
 10
419.15396
 20
293.819663
 10
419.196577
 20
293.407782
 10
419.209762
 20
293.006767
 10
419.19442
 20
292.617882
 10
419.151458
 20
292.242391
 10
419.081781
 20
291.881558
 10
418.986295
 20
291.536646
 10
418.865907
 20
291.208918
 10
418.721523
 20
290.899637
 10
418.554047
 20
290.610069
 10
418.461934
 20
290.473071
 10
418.364388
 20
290.341475
 10
418.261522
 20
290.215438
 10
418.15345
 20
290.095119
 10
418.040284
 20
289.980676
 10
417.922139
 20
289.872265
 10
417.799128
 20
289.770047
 10
417.671363
 20
289.674177
 10
417.525321
 20
289.575291
 10
417.378771
 20
289.486235
 10
417.231737
 20
289.406997
 10
417.084247
 20
289.33757
 10
416.936326
 20
289.277945
 10
416.788001
 20
289.228111
 10
416.639298
 20
289.188061
 10
416.490243
 20
289.157785
 10
416.340863
 20
289.137273
 10
416.191184
 20
289.126517
 10
416.041232
 20
289.125508
 10
415.891033
 20
289.134237
 10
415.740613
 20
289.152694
 10
415.59
 20
289.18087
 10
415.439218
 20
289.218756
 10
415.288295
 20
289.266343
 10
415.137257
 20
289.323622
 10
414.986129
 20
289.390584
 10
414.834938
 20
289.46722
 10
414.683711
 20
289.55352
 10
414.532474
 20
289.649475
 10
414.381252
 20
289.755077
 10
414.230073
 20
289.870316
 10
414.078962
 20
289.995183
 10
413.77705
 20
290.273765
 10
413.475727
 20
290.59075
 10
413.175203
 20
290.946064
 10
412.875688
 20
291.339636
 10
412.721961
 20
291.543749
 10
412.578547
 20
291.718511
 10
412.448586
 20
291.861214
 10
412.335215
 20
291.969155
 10
412.241574
 20
292.039628
 10
412.170801
 20
292.069928
 10
412.144972
 20
292.069167
 10
412.126036
 20
292.057349
 10
412.114387
 20
292.034135
 10
412.110417
 20
291.999187
 10
412.103403
 20
291.88793
 10
412.082811
 20
291.770811
 10
412.049311
 20
291.648454
 10
412.003578
 20
291.521484
 10
411.946283
 20
291.390527
 10
411.878097
 20
291.256207
 10
411.711748
 20
290.979978
 10
411.509907
 20
290.697794
 10
411.277954
 20
290.414656
 10
411.021267
 20
290.13556
 10
410.745226
 20
289.865506
 10
410.455207
 20
289.609493
 10
410.156591
 20
289.372518
 10
409.854755
 20
289.159581
 10
409.555079
 20
288.97568
 10
409.26294
 20
288.825813
 10
409.121378
 20
288.765205
 10
408.983717
 20
288.71498
 10
408.85063
 20
288.675763
 10
408.72279
 20
288.648178
 10
408.600867
 20
288.632852
 10
408.485535
 20
288.630407
 10
408.364406
 20
288.639965
 10
408.242693
 20
288.659316
 10
408.120686
 20
288.6881
 10
407.998676
 20
288.725959
 10
407.876952
 20
288.77253
 10
407.755806
 20
288.827455
 10
407.516408
 20
288.960926
 10
407.282806
 20
289.123488
 10
407.057324
 20
289.312263
 10
406.842287
 20
289.52437
 10
406.640018
 20
289.756928
 10
406.452841
 20
290.007057
 10
406.283081
 20
290.271875
 10
406.133062
 20
290.548504
 10
406.005107
 20
290.834061
 10
405.901541
 20
291.125668
 10
405.824688
 20
291.420442
 10
405.776872
 20
291.715504
 10
405.764579
 20
291.862243
 10
405.760417
 20
292.007973
 10
405.752313
 20
292.31167
 10
405.740661
 20
292.412487
 10
405.722591
 20
292.481459
 10
405.697089
 20
292.520215
 10
405.663139
 20
292.530387
 10
405.619729
 20
292.513605
 10
405.565843
 20
292.471501
 10
405.422588
 20
292.31785
 10
405.225261
 20
292.08248
 10
404.965749
 20
291.778439
 10
404.635938
 20
291.418775
 10
404.349939
 20
291.133153
 10
404.073723
 20
290.883022
 10
403.805458
 20
290.667207
 10
403.54331
 20
290.484533
 10
403.285449
 20
290.333826
 10
403.030044
 20
290.213913
 10
402.775262
 20
290.123618
 10
402.519271
 20
290.061767
 10
402.301716
 20
290.025429
 10
402.087372
 20
289.998119
 10
401.87648
 20
289.979689
 10
401.669283
 20
289.969987
 10
401.466023
 20
289.968865
 10
401.266944
 20
289.976173
 10
401.072286
 20
289.991761
 10
400.882293
 20
290.015479
 10
400.697207
 20
290.047179
 10
400.51727
 20
290.086709
 10
400.342725
 20
290.133921
 10
400.173815
 20
290.188664
 10
400.01078
 20
290.25079
 10
399.853865
 20
290.320148
 10
399.703312
 20
290.396589
 10
399.559362
 20
290.479963
 10
399.422258
 20
290.570121
 10
399.292243
 20
290.666912
 10
399.169559
 20
290.770188
 10
399.054448
 20
290.879798
 10
398.947153
 20
290.995592
 10
398.847917
 20
291.117422
 10
398.756981
 20
291.245137
 10
398.674588
 20
291.378588
 10
398.600981
 20
291.517625
 10
398.536401
 20
291.662099
 10
398.481092
 20
291.811859
 10
398.435295
 20
291.966756
 10
398.399254
 20
292.126641
 10
398.373209
 20
292.291364
 10
398.357405
 20
292.460775
 10
398.352083
 20
292.634724
 10
398.355611
 20
292.865376
 10
398.388564
 20
293.486506
 42
-0.157492
 10
398.454463
 20
293.658745
 10
401.63307
 20
297.606867
 10
400.07521
 20
298.861089
 10
395.432666
 20
293.094623
 42
-0.113105
 10
395.327434
 20
293.011645
 10
394.883402
 20
292.801271
  0
LWPOLYLINE
  5
3C
330
1F
100
AcDbEntity
  8
0
100
AcDbPolyline
 90
      385
 70
   128
 43
0.0
 10
380.879015
 20
335.182946
 10
380.960904
 20
335.075607
 10
381.036569
 20
334.967752
 10
381.109396
 20
334.857756
 10
381.180636
 20
334.746804
 10
381.251535
 20
334.636079
 10
381.323343
 20
334.526764
 10
381.397307
 20
334.420044
 10
381.474463
 20
334.316849
 10
381.55499
 20
334.217107
 10
381.638853
 20
334.120491
 10
381.726016
 20
334.026678
 10
381.816446
 20
333.935342
 10
381.910106
 20
333.846159
 10
382.006963
 20
333.758801
 10
382.106981
 20
333.672946
 10
382.210106
 20
333.588324
 10
382.316202
 20
333.504906
 10
382.425115
 20
333.422714
 10
382.536689
 20
333.341774
 10
382.650768
 20
333.262111
 10
382.767198
 20
333.183749
 10
382.885824
 20
333.106715
 10
383.00649
 20
333.031033
 10
383.12898
 20
332.956676
 10
383.252837
 20
332.883406
 10
383.377544
 20
332.810935
 10
383.50258
 20
332.738976
 10
383.62743
 20
332.667236
 10
383.751575
 20
332.595429
 10
383.874495
 20
332.523264
 10
383.995675
 20
332.450455
 10
384.114571
 20
332.376784
 10
384.230542
 20
332.30233
 10
384.342925
 20
332.227247
 10
384.451053
 20
332.151688
 10
384.554265
 20
332.075806
 10
384.651894
 20
331.999753
 10
384.743276
 20
331.923684
 10
384.827747
 20
331.84775
 10
384.904981
 20
331.771894
 10
384.97602
 20
331.695214
 10
385.04224
 20
331.616601
 10
385.105022
 20
331.534943
 10
385.165745
 20
331.449126
 10
385.225787
 20
331.358043
 10
385.286529
 20
331.260579
 10
385.34935
 20
331.155623
 10
385.415371
 20
331.042514
 10
385.484684
 20
330.922379
 10
385.557127
 20
330.796793
 10
385.632535
 20
330.667332
 10
385.710744
 20
330.535572
 10
385.79159
 20
330.403089
 10
385.874909
 20
330.271458
 10
385.960535
 20
330.142256
 10
386.048249
 20
330.016903
 10
386.137593
 20
329.896191
 10
386.228057
 20
329.780757
 10
386.319127
 20
329.671238
 10
386.410289
 20
329.568274
 10
386.501033
 20
329.472498
 10
386.590844
 20
329.38455
 10
386.679212
 20
329.305066
 10
386.765818
 20
329.234491
 10
386.85114
 20
329.172498
 10
386.935847
 20
329.118567
 10
387.020613
 20
329.07218
 10
387.106107
 20
329.032818
 10
387.193005
 20
328.999961
 10
387.281975
 20
328.97309
 10
387.373691
 20
328.951685
 10
387.468655
 20
328.935242
 10
387.566692
 20
328.923303
 10
387.667455
 20
328.915425
 10
387.770604
 20
328.911165
 10
387.875791
 20
328.910081
 10
387.982673
 20
328.911727
 10
388.090903
 20
328.915663
 10
388.200141
 20
328.921443
 10
388.310032
 20
328.928478
 10
388.420196
 20
328.93559
 10
388.53025
 20
328.94145
 10
388.639805
 20
328.944736
 10
388.748478
 20
328.944119
 10
388.855879
 20
328.938275
 10
388.961625
 20
328.925876
 10
389.065327
 20
328.905598
 10
389.166701
 20
328.876632
 10
389.265862
 20
328.84025
 10
389.363027
 20
328.798241
 10
389.458412
 20
328.752394
 10
389.552232
 20
328.704498
 10
389.644704
 20
328.656342
 10
389.736043
 20
328.609716
 10
389.826467
 20
328.566408
 10
389.916042
 20
328.528024
 10
390.004248
 20
328.495425
 10
390.090417
 20
328.469289
 10
390.173878
 20
328.450294
 10
390.253963
 20
328.439118
 10
390.330002
 20
328.436439
 10
390.401329
 20
328.442932
 10
390.467272
 20
328.459279
 10
390.527341
 20
328.486188
 10
390.581759
 20
328.524512
 10
390.630922
 20
328.575136
 10
390.675233
 20
328.638945
 10
390.715089
 20
328.716826
 10
390.750891
 20
328.809661
 10
390.783038
 20
328.918338
 10
390.811929
 20
329.043741
 10
390.837762
 20
329.186435
 10
390.859926
 20
329.345693
 10
390.877607
 20
329.520469
 10
390.889991
 20
329.709717
 10
390.896266
 20
329.912389
 10
390.895618
 20
330.127438
 10
390.887234
 20
330.353817
 10
390.870301
 20
330.590481
 10
390.844078
 20
330.836085
 10
390.80812
 20
331.088105
 10
390.762055
 20
331.343723
 10
390.705511
 20
331.600119
 10
390.638115
 20
331.854473
 10
390.559496
 20
332.103964
 10
390.469281
 20
332.345774
 10
390.367098
 20
332.577083
 10
390.252858
 20
332.795777
 10
390.127592
 20
333.002571
 10
389.992621
 20
333.198883
 10
389.849256
 20
333.386134
 10
389.698817
 20
333.565744
 10
389.542618
 20
333.739133
 10
389.381975
 20
333.907721
 10
389.218206
 20
334.072928
 10
389.05261
 20
334.236005
 10
388.886428
 20
334.39753
 10
388.720887
 20
334.557912
 10
388.557211
 20
334.717562
 10
388.396626
 20
334.876887
 10
388.240359
 20
335.036299
 10
388.089633
 20
335.196206
 10
387.945677
 20
335.357016
 10
387.809616
 20
335.518977
 10
387.682186
 20
335.68168
 10
387.564024
 20
335.844555
 10
387.45577
 20
336.00703
 10
387.358058
 20
336.168535
 10
387.271526
 20
336.328497
 10
387.196813
 20
336.486346
 10
387.134556
 20
336.641511
 10
387.085181
 20
336.793681
 10
387.048275
 20
336.943586
 10
387.023213
 20
337.092217
 10
387.009372
 20
337.240565
 10
387.006126
 20
337.38962
 10
387.012853
 20
337.540372
 10
387.028927
 20
337.693813
 10
387.053724
 20
337.850933
 10
387.08655
 20
338.012437
 10
387.12642
 20
338.17789
 10
387.172283
 20
338.346568
 10
387.223084
 20
338.517752
 10
387.27777
 20
338.690719
 10
387.335286
 20
338.864748
 10
387.394579
 20
339.039118
 10
387.454596
 20
339.213106
 10
387.51425
 20
339.386037
 10
387.572329
 20
339.55742
 10
387.627589
 20
339.726811
 10
387.678784
 20
339.893762
 10
387.72467
 20
340.057831
 10
387.764002
 20
340.218573
 10
387.795535
 20
340.375539
 10
387.818024
 20
340.528288
 10
387.830228
 20
340.6766
 10
387.830903
 20
340.821166
 10
387.818811
 20
340.962904
 10
387.792717
 20
341.102731
 10
387.751376
 20
341.241567
 10
387.693553
 20
341.380326
 10
387.618009
 20
341.519928
 10
387.523504
 20
341.66129
 10
387.407401
 20
341.805829
 10
387.261479
 20
341.956959
 10
387.076118
 20
342.118591
 10
386.841698
 20
342.294639
 10
386.548598
 20
342.489015
 10
386.371287
 20
342.595292
 42
0.423497
 10
385.954994
 20
342.484
 10
383.654182
 20
338.354943
 10
381.907107
 20
339.328456
 10
384.207919
 20
343.457513
 42
0.423497
 10
384.083535
 20
343.870084
 10
383.899867
 20
343.964953
 10
383.58036
 20
344.111936
 10
383.307312
 20
344.218663
 10
383.072334
 20
344.291253
 10
382.867039
 20
344.33583
 10
382.683038
 20
344.358517
 10
382.5131
 20
344.364508
 10
382.354636
 20
344.355301
 10
382.206212
 20
344.331467
 10
382.066396
 20
344.293578
 10
381.933758
 20
344.242201
 10
381.806861
 20
344.177909
 10
381.684278
 20
344.101274
 10
381.564573
 20
344.012865
 10
381.446508
 20
343.913373
 10
381.329614
 20
343.803971
 10
381.213615
 20
343.685951
 10
381.098233
 20
343.560607
 10
380.983191
 20
343.429231
 10
380.868216
 20
343.293117
 10
380.753029
 20
343.153555
 10
380.637356
 20
343.011839
 10
380.520972
 20
342.86926
 10
380.403885
 20
342.727095
 10
380.286152
 20
342.586621
 10
380.167833
 20
342.449112
 10
380.048985
 20
342.315844
 10
379.929672
 20
342.188094
 10
379.809948
 20
342.067138
 10
379.689875
 20
341.95425
 10
379.569307
 20
341.850496
 10
379.447278
 20
341.756096
 10
379.322618
 20
341.671059
 10
379.194154
 20
341.595396
 10
379.060717
 20
341.529116
 10
378.921135
 20
341.472228
 10
378.774238
 20
341.424743
 10
378.618854
 20
341.386669
 10
378.454146
 20
341.357974
 10
378.280602
 20
341.338461
 10
378.099043
 20
341.327885
 10
377.910289
 20
341.326006
 10
377.715164
 20
341.332583
 10
377.514485
 20
341.347373
 10
377.309077
 20
341.370135
 10
377.099759
 20
341.400627
 10
376.887265
 20
341.438441
 10
376.671978
 20
341.482484
 10
376.454197
 20
341.531503
 10
376.234217
 20
341.584236
 10
376.012335
 20
341.639429
 10
375.788848
 20
341.695822
 10
375.564053
 20
341.752158
 10
375.338246
 20
341.807181
 10
375.11159
 20
341.85953
 10
374.883703
 20
341.90744
 10
374.65407
 20
341.949045
 10
374.422179
 20
341.98248
 10
374.187511
 20
342.005878
 10
373.949553
 20
342.017371
 10
373.70779
 20
342.015095
 10
373.461706
 20
341.997183
 10
373.211239
 20
341.962379
 10
372.958138
 20
341.911872
 10
372.704606
 20
341.847464
 10
372.452845
 20
341.770952
 10
372.205055
 20
341.684139
 10
371.963441
 20
341.588823
 10
371.730204
 20
341.486804
 10
371.507546
 20
341.379882
 10
371.297378
 20
341.269766
 10
371.100454
 20
341.157789
 10
370.917235
 20
341.045195
 10
370.748184
 20
340.933226
 10
370.593764
 20
340.823124
 10
370.454437
 20
340.716133
 10
370.330665
 20
340.613493
 10
370.222909
 20
340.516448
 10
370.131466
 20
340.425901
 10
370.055961
 20
340.341383
 10
369.99585
 20
340.262094
 10
369.950592
 20
340.187224
 10
369.919641
 20
340.11597
 10
369.902457
 20
340.047526
 10
369.898498
 20
339.981087
 10
369.907218
 20
339.915845
 10
369.928012
 20
339.851167
 10
369.960017
 20
339.787094
 10
370.002304
 20
339.723839
 10
370.053943
 20
339.661615
 10
370.114008
 20
339.600634
 10
370.18157
 20
339.541107
 10
370.255701
 20
339.483248
 10
370.335472
 20
339.427268
 10
370.419877
 20
339.373158
 10
370.507584
 20
339.320015
 10
370.597189
 20
339.266713
 10
370.687282
 20
339.212129
 10
370.776455
 20
339.155135
 10
370.863302
 20
339.094609
 10
370.946414
 20
339.029423
 10
371.024382
 20
338.958455
 10
371.096188
 20
338.880935
 10
371.162368
 20
338.797533
 10
371.223846
 20
338.709273
 10
371.281547
 20
338.617184
 10
371.336394
 20
338.522289
 10
371.389313
 20
338.425615
 10
371.441228
 20
338.328189
 10
371.493062
 20
338.231037
 10
371.54562
 20
338.135101
 10
371.599218
 20
338.04099
 10
371.654052
 20
337.949231
 10
371.710317
 20
337.860351
 10
371.76821
 20
337.774875
 10
371.827926
 20
337.69333
 10
371.889658
 20
337.616241
 10
371.953606
 20
337.544135
 10
372.020063
 20
337.477402
 10
372.089725
 20
337.415879
 10
372.163386
 20
337.359269
 10
372.241842
 20
337.307274
 10
372.325888
 20
337.259595
 10
372.416317
 20
337.215935
 10
372.513927
 20
337.175994
 10
372.619512
 20
337.139477
 10
372.733598
 20
337.106148
 10
372.855642
 20
337.076046
 10
372.984832
 20
337.049267
 10
373.120358
 20
337.025916
 10
373.261408
 20
337.006091
 10
373.407168
 20
336.989895
 10
373.55683
 20
336.977427
 10
373.70958
 20
336.96879
 10
373.864504
 20
336.96395
 10
374.02028
 20
336.962351
 10
374.175479
 20
336.963304
 10
374.328677
 20
336.966118
 10
374.478445
 20
336.970106
 10
374.62336
 20
336.974576
 10
374.761991
 20
336.978839
 10
374.892914
 20
336.982206
 10
375.01522
 20
336.984004
 10
375.130062
 20
336.983628
 10
375.239111
 20
336.980491
 10
375.344037
 20
336.974003
 10
375.446512
 20
336.963577
 10
375.548206
 20
336.948624
 10
375.650789
 20
336.928557
 10
375.755934
 20
336.902787
 10
375.864951
 20
336.870904
 10
375.97772
 20
336.833217
 10
376.093761
 20
336.790206
 10
376.212595
 20
336.74236
 10
376.33374
 20
336.690161
 10
376.456719
 20
336.634095
 10
376.581051
 20
336.574645
 10
376.706256
 20
336.512297
 10
376.831931
 20
336.447555
 10
376.957973
 20
336.380991
 10
377.084354
 20
336.313199
 10
377.211049
 20
336.244771
 10
377.338031
 20
336.1763
 10
377.465272
 20
336.10838
 10
377.592746
 20
336.0416
 10
377.720426
 20
335.976557
 10
377.848273
 20
335.913761
 10
377.976196
 20
335.853413
 10
378.104093
 20
335.795629
 10
378.23186
 20
335.740529
 10
378.359395
 20
335.688233
 10
378.486594
 20
335.638859
 10
378.613353
 20
335.592523
 10
378.739573
 20
335.549348
 10
378.865208
 20
335.509464
 10
378.990456
 20
335.473059
 10
379.115577
 20
335.440333
 10
379.240828
 20
335.411486
 10
379.366466
 20
335.386722
 10
379.492751
 20
335.366238
 10
379.619939
 20
335.350235
 10
379.748291
 20
335.338917
 10
379.877962
 20
335.332166
 10
380.008703
 20
335.328615
 10
380.140166
 20
335.326579
 10
380.272002
 20
335.324373
 10
380.403859
 20
335.320313
 10
380.535389
 20
335.312715
 10
380.669756
 20
335.29955
 42
-0.208289
 10
380.879015
 20
335.182946
  0
LWPOLYLINE
  5
3D
330
1F
100
AcDbEntity
  8
0
100
AcDbPolyline
 90
      181
 70
   128
 43
0.0
 10
454.411031
 20
329.434117
 10
454.58792
 20
329.449924
 10
454.784632
 20
329.486198
 10
454.996857
 20
329.541145
 10
455.220285
 20
329.612967
 10
455.450606
 20
329.699867
 10
455.683511
 20
329.800049
 10
455.914689
 20
329.911717
 10
456.139831
 20
330.033074
 10
456.354626
 20
330.162323
 10
456.554765
 20
330.297668
 10
456.735939
 20
330.437312
 10
456.893836
 20
330.579458
 10
457.024147
 20
330.722311
 10
457.122563
 20
330.864073
 10
457.158463
 20
330.933983
 10
457.184773
 20
331.002947
 10
457.200954
 20
331.07074
 10
457.206467
 20
331.137138
 10
457.191923
 20
336.128898
 10
457.195624
 20
336.244971
 10
457.209401
 20
336.364333
 10
457.237263
 20
336.4812
 10
457.283221
 20
336.589789
 10
457.351283
 20
336.684315
 10
457.394856
 20
336.724497
 10
457.44546
 20
336.758995
 10
457.503594
 20
336.787085
 10
457.569761
 20
336.808045
 10
457.644462
 20
336.82115
 10
457.728197
 20
336.82568
 10
457.842344
 20
336.84053
 10
457.971464
 20
336.883092
 10
458.111111
 20
336.950381
 10
458.256842
 20
337.039413
 10
458.404213
 20
337.147204
 10
458.54878
 20
337.270769
 10
458.686098
 20
337.407124
 10
458.811723
 20
337.553284
 10
458.963473
 20
337.759277
 10
459.083836
 20
337.955741
 10
459.174555
 20
338.149858
 10
459.237372
 20
338.348806
 10
459.274029
 20
338.559766
 10
459.28627
 20
338.789918
 10
459.275835
 20
339.046442
 10
459.244469
 20
339.336517
 10
459.197767
 20
339.633096
 10
459.139022
 20
339.899726
 10
459.06539
 20
340.137901
 10
458.974032
 20
340.349111
 10
458.920818
 20
340.445071
 10
458.862106
 20
340.53485
 10
458.797542
 20
340.618634
 10
458.72677
 20
340.696609
 10
458.649436
 20
340.768962
 10
458.565184
 20
340.835881
 10
458.473659
 20
340.89755
 10
458.374506
 20
340.954157
 10
458.280253
 20
340.999668
 42
0.115073
 10
458.147275
 20
341.029501
 10
452.7706
 20
340.984122
 10
452.75372
 20
342.98405
 10
456.87789
 20
343.018859
 42
0.371619
 10
457.172458
 20
343.27724
 10
457.199969
 20
343.473678
 10
457.21549
 20
343.759863
 10
457.218234
 20
344.135537
 10
457.204641
 20
344.725578
 10
457.181636
 20
345.002992
 10
457.142478
 20
345.261672
 10
457.083158
 20
345.496374
 10
457.044685
 20
345.603092
 10
456.999667
 20
345.701849
 10
456.947604
 20
345.791987
 10
456.887994
 20
345.872852
 10
456.820336
 20
345.943786
 10
456.74413
 20
346.004136
 10
456.599344
 20
346.097059
 10
456.43444
 20
346.18683
 10
456.264463
 20
346.254552
 10
456.182275
 20
346.274239
 10
456.104461
 20
346.281326
 10
445.973442
 20
346.343454
 10
445.731304
 20
346.33666
 10
445.575606
 20
346.316208
 10
445.46242
 20
346.28199
 10
445.347819
 20
346.233898
 10
445.199878
 20
346.160677
 10
445.058275
 20
346.068898
 10
444.923451
 20
345.958483
 10
444.79585
 20
345.829355
 10
444.675913
 20
345.681435
 10
444.564085
 20
345.514647
 10
444.460806
 20
345.328912
 10
444.366519
 20
345.124154
 10
444.281668
 20
344.900295
 10
444.206695
 20
344.657258
 10
444.142041
 20
344.394964
 10
444.088151
 20
344.113337
 10
444.045465
 20
343.812299
 10
444.014428
 20
343.491772
 10
443.995481
 20
343.15168
 10
443.989067
 20
342.791944
 10
443.993457
 20
342.171974
 10
443.998214
 20
341.719611
 10
443.990715
 20
341.408673
 10
443.978425
 20
341.298056
 10
443.958338
 20
341.212978
 10
443.928876
 20
341.150166
 10
443.888461
 20
341.106347
 10
443.835515
 20
341.078247
 10
443.768462
 20
341.062596
 10
443.685722
 20
341.056119
 10
443.585718
 20
341.055545
 10
443.327609
 20
341.059013
 10
443.151686
 20
341.051338
 10
442.98174
 20
341.02853
 10
442.818511
 20
340.990917
 10
442.662742
 20
340.938826
 10
442.515174
 20
340.872585
 10
442.376549
 20
340.792521
 10
442.247607
 20
340.698963
 10
442.12909
 20
340.592236
 10
442.021739
 20
340.472669
 10
441.926296
 20
340.340589
 10
441.843503
 20
340.196324
 10
441.774101
 20
340.040201
 10
441.71883
 20
339.872548
 10
441.678434
 20
339.693691
 10
441.653652
 20
339.503959
 10
441.645227
 20
339.303679
 10
441.652433
 20
339.033557
 10
441.676272
 20
338.784992
 10
441.720068
 20
338.556554
 10
441.787148
 20
338.34681
 10
441.830459
 20
338.2485
 10
441.880838
 20
338.154327
 10
441.938701
 20
338.064111
 10
442.004465
 20
337.977673
 10
442.078544
 20
337.894835
 10
442.161354
 20
337.815417
 10
442.253312
 20
337.739241
 10
442.354833
 20
337.666126
 10
442.513355
 20
337.57617
 10
442.68372
 20
337.506738
 10
442.85922
 20
337.45486
 10
443.033151
 20
337.417567
 10
443.198805
 20
337.391889
 10
443.349478
 20
337.374856
 10
443.579053
 20
337.354846
 10
443.742193
 20
337.337287
 10
443.856946
 20
337.313529
 10
443.898743
 20
337.295332
 10
443.931522
 20
337.270793
 10
443.956309
 20
337.238315
 10
443.97413
 20
337.196301
 10
443.992979
 20
337.077274
 10
443.996278
 20
336.900934
 10
443.989067
 20
336.325196
 10
443.994493
 20
336.035668
 10
444.012985
 20
335.80014
 10
444.064546
 20
335.522161
 42
0.341288
 10
444.337985
 20
335.277647
 10
451.117247
 20
334.789875
 10
450.973717
 20
332.795031
 10
445.311176
 20
333.202455
 42
0.383884
 10
444.994306
 20
332.955897
 10
444.902899
 20
332.443328
 10
444.863912
 20
332.158125
 10
444.845133
 20
331.907746
 10
444.847718
 20
331.686247
 10
444.872821
 20
331.487688
 10
444.921597
 20
331.306126
 10
444.995201
 20
331.135619
 10
445.094788
 20
330.970226
 10
445.221513
 20
330.804006
 10
445.630167
 20
330.314197
 42
0.196796
 10
445.831102
 20
330.207832
 10
449.780823
 20
329.818612
 10
454.411031
 20
329.434117
  0
LWPOLYLINE
  5
3E
330
1F
100
AcDbEntity
  8
0
100
AcDbPolyline
 90
      209
 70
   128
 43
0.0
 10
535.964438
 20
298.419819
 10
534.79993
 20
301.711265
 42
-0.414214
 10
534.982689
 20
302.094148
 10
539.769916
 20
303.78786
 10
539.102839
 20
305.673333
 10
533.188032
 20
303.580685
 42
-0.46999
 10
532.791495
 20
303.817654
 10
532.776967
 20
303.911591
 10
532.703505
 20
304.428182
 10
532.627052
 20
305.039217
 10
532.562609
 20
305.68325
 10
532.539579
 20
305.99844
 10
532.525176
 20
306.298837
 10
532.521275
 20
306.57676
 10
532.529751
 20
306.82453
 10
532.552479
 20
307.034464
 10
532.591335
 20
307.198884
 10
532.658141
 20
307.372759
 10
532.736854
 20
307.538751
 10
532.827171
 20
307.696634
 10
532.928784
 20
307.846186
 10
533.041391
 20
307.987184
 10
533.164688
 20
308.119402
 10
533.29837
 20
308.242617
 10
533.44213
 20
308.356606
 10
533.595668
 20
308.461144
 10
533.758676
 20
308.556008
 10
533.930851
 20
308.640974
 10
534.111888
 20
308.715819
 10
534.301483
 20
308.780317
 10
534.499332
 20
308.834246
 10
534.705129
 20
308.877383
 10
534.91857
 20
308.909501
 10
535.730149
 20
309.015131
 10
536.495604
 20
309.12845
 10
537.217608
 20
309.250397
 10
537.898833
 20
309.381908
 10
538.541952
 20
309.523921
 10
539.149637
 20
309.677374
 10
539.724562
 20
309.843202
 10
540.269398
 20
310.022344
 10
540.786818
 20
310.215738
 10
541.279496
 20
310.424318
 10
541.750103
 20
310.649025
 10
542.201312
 20
310.890796
 10
542.635796
 20
311.150565
 10
543.056226
 20
311.429272
 10
543.465277
 20
311.727854
 10
543.865621
 20
312.047248
 10
544.168274
 20
312.310097
 10
544.457983
 20
312.58408
 10
544.735011
 20
312.868933
 10
544.99962
 20
313.164391
 10
545.252073
 20
313.470189
 10
545.492631
 20
313.786063
 10
545.721557
 20
314.111746
 10
545.939114
 20
314.446976
 10
546.145564
 20
314.791485
 10
546.341168
 20
315.145011
 10
546.52619
 20
315.507288
 10
546.700892
 20
315.87805
 10
546.865536
 20
316.257033
 10
547.020385
 20
316.643973
 10
547.165701
 20
317.038603
 10
547.301745
 20
317.440661
 10
547.460676
 20
317.971191
 10
547.591042
 20
318.492626
 10
547.693529
 20
319.005011
 10
547.768826
 20
319.508396
 10
547.81762
 20
320.002825
 10
547.840598
 20
320.488344
 10
547.838449
 20
320.964999
 10
547.811859
 20
321.432837
 10
547.761517
 20
321.891904
 10
547.688109
 20
322.342246
 10
547.592324
 20
322.78391
 10
547.474847
 20
323.216941
 10
547.33637
 20
323.641387
 10
547.177577
 20
324.057293
 10
546.999156
 20
324.464704
 10
546.801795
 20
324.863669
 10
546.586183
 20
325.254232
 10
546.353004
 20
325.63644
 10
546.10295
 20
326.01034
 10
545.836705
 20
326.375978
 10
545.554958
 20
326.733398
 10
545.258396
 20
327.082649
 10
544.947708
 20
327.423776
 10
544.62358
 20
327.756826
 10
544.2867
 20
328.081843
 10
543.937756
 20
328.398876
 10
543.577435
 20
328.707971
 10
543.206425
 20
329.009172
 10
542.825413
 20
329.302526
 10
542.435087
 20
329.588082
 10
542.036134
 20
329.865882
 10
541.629242
 20
330.135975
 10
541.364355
 20
330.313696
 10
541.146599
 20
330.473269
 10
540.974519
 20
330.616359
 10
540.846662
 20
330.744626
 10
540.761573
 20
330.859732
 10
540.734612
 20
330.912869
 10
540.717798
 20
330.963339
 10
540.71095
 20
331.01135
 10
540.713884
 20
331.057109
 10
540.72642
 20
331.100826
 10
540.748376
 20
331.142705
 10
540.779629
 20
331.182571
 10
540.820233
 20
331.220416
 10
540.928552
 20
331.289998
 10
541.071464
 20
331.351362
 10
541.2471
 20
331.404414
 10
541.453591
 20
331.449068
 10
541.689067
 20
331.485231
 10
541.95166
 20
331.512812
 10
542.2395
 20
331.531721
 10
542.550718
 20
331.541867
 10
542.883445
 20
331.54316
 10
543.235813
 20
331.535509
 10
543.605951
 20
331.518823
 10
543.99199
 20
331.493011
 10
544.392063
 20
331.457984
 10
544.804299
 20
331.413649
 10
545.226829
 20
331.359917
 10
545.816135
 20
331.271614
 10
546.327773
 20
331.173611
 10
546.564042
 20
331.117285
 10
546.792383
 20
331.054109
 10
547.016626
 20
330.982609
 10
547.240602
 20
330.901309
 10
547.468139
 20
330.808737
 10
547.703068
 20
330.703415
 10
548.21042
 20
330.448626
 10
548.793296
 20
330.125144
 10
549.482334
 20
329.721173
 10
549.924575
 20
329.449749
 10
550.351446
 20
329.171532
 10
550.762912
 20
328.886583
 10
551.158941
 20
328.594962
 10
551.539501
 20
328.296729
 10
551.904559
 20
327.991947
 10
552.254081
 20
327.680675
 10
552.588034
 20
327.362974
 10
552.906386
 20
327.038905
 10
553.209103
 20
326.70853
 10
553.496154
 20
326.371908
 10
553.767505
 20
326.029099
 10
554.023122
 20
325.680168
 10
554.262974
 20
325.325171
 10
554.487027
 20
324.964171
 10
554.695248
 20
324.597228
 10
554.887604
 20
324.224404
 10
555.064064
 20
323.845759
 10
555.224592
 20
323.461353
 10
555.369157
 20
323.071248
 10
555.497727
 20
322.675505
 10
555.610267
 20
322.274183
 10
555.706745
 20
321.867344
 10
555.787127
 20
321.45505
 10
555.851383
 20
321.037359
 10
555.899477
 20
320.614334
 10
555.931378
 20
320.186035
 10
555.947052
 20
319.752522
 10
555.946466
 20
319.313857
 10
555.929589
 20
318.8701
 10
555.896385
 20
318.421313
 10
555.846824
 20
317.967555
 10
555.760891
 20
317.383082
 10
555.651347
 20
316.799895
 10
555.518406
 20
316.21826
 10
555.36228
 20
315.638445
 10
555.183186
 20
315.060716
 10
554.981333
 20
314.485341
 10
554.756939
 20
313.912586
 10
554.510217
 20
313.342718
 10
554.241379
 20
312.776006
 10
553.95064
 20
312.212714
 10
553.638212
 20
311.653112
 10
553.304311
 20
311.097464
 10
552.94915
 20
310.546039
 10
552.572943
 20
309.999103
 10
552.175903
 20
309.456924
 10
551.758244
 20
308.919768
 10
551.320179
 20
308.387903
 10
550.861923
 20
307.861594
 10
550.383689
 20
307.341112
 10
549.88569
 20
306.826719
 10
549.368142
 20
306.318685
 10
548.831257
 20
305.817278
 10
548.275249
 20
305.322762
 10
547.700332
 20
304.835406
 10
547.106719
 20
304.355476
 10
546.494625
 20
303.883239
 10
545.864263
 20
303.418963
 10
545.215845
 20
302.962914
 10
544.549588
 20
302.515361
 10
543.865704
 20
302.076568
 10
543.164407
 20
301.646804
 10
542.445909
 20
301.226334
 10
541.913245
 20
300.929722
 10
541.339948
 20
300.624764
 10
540.744029
 20
300.320156
 10
540.143496
 20
300.024591
 10
539.556354
 20
299.746764
 10
539.000615
 20
299.495369
 10
538.494285
 20
299.279098
 10
538.055373
 20
299.106647
 10
535.964438
 20
298.419819
  0
LWPOLYLINE
  5
3F
330
1F
100
AcDbEntity
  8
0
100
AcDbPolyline
 90
      279
 70
   128
 43
0.0
 10
484.69217
 20
251.252275
 10
485.430913
 20
252.17642
 10
486.235859
 20
253.166239
 10
486.649897
 20
253.658555
 10
487.064572
 20
254.134622
 10
487.47458
 20
254.583554
 10
487.874616
 20
254.994459
 10
488.062303
 20
255.16643
 10
488.259144
 20
255.324064
 10
488.458146
 20
255.465361
 10
488.954852
 20
255.779918
 42
-0.217313
 10
489.20155
 20
255.813818
 10
496.860122
 20
253.516639
 10
497.434727
 20
255.432319
 10
492.061315
 20
257.044067
 42
-0.622129
 10
491.972207
 20
257.574873
 10
492.414502
 20
257.893347
 10
492.530633
 20
257.963199
 10
492.670905
 20
258.036546
 10
493.031238
 20
258.19854
 10
493.510229
 20
258.388971
 10
494.122605
 20
258.617477
 10
494.703706
 20
258.823331
 10
495.291075
 20
259.01751
 10
495.881364
 20
259.199381
 10
496.471224
 20
259.368317
 10
497.057307
 20
259.523684
 10
497.636264
 20
259.664853
 10
498.204746
 20
259.791193
 10
498.759406
 20
259.902074
 10
499.296895
 20
259.996864
 10
499.813865
 20
260.074934
 10
500.306966
 20
260.135653
 10
500.772851
 20
260.17839
 10
501.208169
 20
260.202516
 10
501.609575
 20
260.207397
 10
501.973718
 20
260.192406
 10
502.297252
 20
260.15691
 10
502.606187
 20
260.101336
 10
502.909468
 20
260.029766
 10
503.206723
 20
259.942709
 10
503.497582
 20
259.84067
 10
503.781675
 20
259.724161
 10
504.058632
 20
259.593688
 10
504.328081
 20
259.44976
 10
504.589654
 20
259.292884
 10
504.842978
 20
259.123567
 10
505.087685
 20
258.94232
 10
505.323402
 20
258.749648
 10
505.549761
 20
258.546061
 10
505.766392
 20
258.332067
 10
505.972922
 20
258.108173
 10
506.168982
 20
257.874887
 10
506.354201
 20
257.632718
 10
506.528211
 20
257.382172
 10
506.690638
 20
257.123761
 10
506.841115
 20
256.857989
 10
506.979269
 20
256.585366
 10
507.104731
 20
256.306398
 10
507.21713
 20
256.021596
 10
507.316096
 20
255.731466
 10
507.401259
 20
255.436517
 10
507.472249
 20
255.137257
 10
507.528694
 20
254.834192
 10
507.570223
 20
254.527832
 10
507.596469
 20
254.218685
 10
507.607059
 20
253.907259
 10
507.601622
 20
253.594061
 10
507.57979
 20
253.2796
 10
507.541192
 20
252.964384
 10
507.490952
 20
252.681761
 10
507.42614
 20
252.409085
 10
507.34677
 20
252.146374
 10
507.252855
 20
251.893646
 10
507.144409
 20
251.650919
 10
507.021447
 20
251.418211
 10
506.883982
 20
251.195542
 10
506.732029
 20
250.982927
 10
506.5656
 20
250.780387
 10
506.384712
 20
250.58794
 10
506.189377
 20
250.405604
 10
505.979609
 20
250.233396
 10
505.755422
 20
250.071336
 10
505.516831
 20
249.91944
 10
505.263849
 20
249.777728
 10
504.99649
 20
249.646218
 10
504.686987
 20
249.493401
 10
504.400882
 20
249.329892
 10
504.134883
 20
249.152944
 10
503.885698
 20
248.959802
 10
503.650035
 20
248.747717
 10
503.4246
 20
248.513936
 10
503.206103
 20
248.255707
 10
502.99125
 20
247.970279
 10
502.818651
 20
247.74114
 10
502.634801
 20
247.519824
 10
502.44536
 20
247.311713
 10
502.255982
 20
247.12219
 10
502.072323
 20
246.956642
 10
501.900041
 20
246.82045
 10
501.744791
 20
246.718998
 10
501.612229
 20
246.65767
 10
501.42561
 20
246.599489
 10
501.279022
 20
246.569205
 10
501.217731
 20
246.567076
 10
501.162839
 20
246.574984
 10
501.113142
 20
246.593949
 10
501.067438
 20
246.624992
 10
501.024522
 20
246.669135
 10
500.983193
 20
246.727395
 10
500.900479
 20
246.890359
 10
500.809672
 20
247.122049
 10
500.701148
 20
247.43063
 10
500.589462
 20
247.746224
 10
500.540461
 20
247.868567
 10
500.493439
 20
247.966447
 10
500.446454
 20
248.039243
 10
500.39757
 20
248.086334
 10
500.344848
 20
248.1071
 10
500.286349
 20
248.10092
 10
500.220135
 20
248.067173
 10
500.144266
 20
248.00524
 10
500.056805
 20
247.914498
 10
499.955813
 20
247.794329
 10
499.70548
 20
247.463222
 10
499.37776
 20
247.006953
 10
499.173706
 20
246.730011
 10
498.977319
 20
246.481379
 10
498.788942
 20
246.261206
 10
498.608909
 20
246.069643
 10
498.437561
 20
245.906839
 10
498.275237
 20
245.772943
 10
498.122274
 20
245.668103
 10
497.979012
 20
245.59247
 10
497.845788
 20
245.546192
 10
497.722942
 20
245.529419
 10
497.665515
 20
245.532143
 10
497.610811
 20
245.5423
 10
497.55887
 20
245.559908
 10
497.509734
 20
245.584985
 10
497.463448
 20
245.61755
 10
497.420052
 20
245.657621
 10
497.3421
 20
245.76036
 10
497.276218
 20
245.893351
 10
497.222745
 20
246.056741
 10
497.179497
 20
246.202274
 10
497.130104
 20
246.328885
 10
497.072964
 20
246.434228
 10
497.006479
 20
246.515955
 10
496.92905
 20
246.57172
 10
496.885732
 20
246.589133
 10
496.839078
 20
246.599175
 10
496.788888
 20
246.601553
 10
496.734963
 20
246.595973
 10
496.615106
 20
246.559768
 10
496.477908
 20
246.488212
 10
496.321771
 20
246.378958
 10
496.145093
 20
246.229658
 10
495.946278
 20
246.037967
 10
495.723724
 20
245.801537
 10
495.475834
 20
245.518021
 10
495.201008
 20
245.185071
 10
494.897646
 20
244.800341
 10
494.508922
 20
244.30687
 10
494.266602
 20
244.017526
 10
494.008007
 20
243.731209
 10
493.74491
 20
243.471491
 10
493.615353
 20
243.358974
 10
493.489085
 20
243.261948
 10
493.367579
 20
243.183359
 10
493.252306
 20
243.126152
 10
493.144736
 20
243.093277
 10
493.046343
 20
243.087679
 10
492.94048
 20
243.104203
 10
492.846991
 20
243.135016
 10
492.764502
 20
243.184619
 10
492.691644
 20
243.257509
 10
492.627042
 20
243.358185
 10
492.569327
 20
243.491145
 10
492.517126
 20
243.660888
 10
492.469067
 20
243.871911
 10
492.411659
 20
244.152253
 10
492.359939
 20
244.356859
 10
492.333017
 20
244.432064
 10
492.303682
 20
244.489895
 10
492.270657
 20
244.530875
 10
492.232662
 20
244.555525
 10
492.188419
 20
244.564362
 10
492.136651
 20
244.55791
 10
492.076078
 20
244.536689
 10
492.005422
 20
244.501219
 10
491.828751
 20
244.389612
 10
491.596409
 20
244.227256
 10
491.433234
 20
244.103007
 10
491.238519
 20
243.939869
 10
490.783664
 20
243.524716
 10
490.290246
 20
243.037376
 10
489.81666
 20
242.533427
 10
489.585991
 20
242.289019
 10
489.343056
 20
242.053324
 10
489.095155
 20
241.832053
 10
488.849589
 20
241.630912
 10
488.613658
 20
241.455609
 10
488.394665
 20
241.311851
 10
488.199906
 20
241.205348
 10
488.113898
 20
241.167851
 10
488.036686
 20
241.141806
 10
487.81055
 20
241.082098
 10
487.634224
 20
241.048061
 10
487.561436
 20
241.042593
 10
487.497135
 20
241.04585
 10
487.44
 20
241.058603
 10
487.38871
 20
241.081618
 10
487.341941
 20
241.115668
 10
487.298373
 20
241.16152
 10
487.215554
 20
241.291706
 10
487.129679
 20
241.478332
 10
487.030172
 20
241.727549
 10
486.947525
 20
241.929204
 10
486.871631
 20
242.089522
 10
486.800549
 20
242.210379
 10
486.732334
 20
242.29365
 10
486.665046
 20
242.34121
 10
486.631143
 20
242.352186
 10
486.596742
 20
242.354937
 10
486.52548
 20
242.336702
 10
486.449319
 20
242.288383
 10
485.514729
 20
241.560121
 10
484.646409
 20
240.907282
 10
483.844851
 20
240.330194
 10
483.110551
 20
239.829181
 10
482.444
 20
239.404569
 10
482.136286
 20
239.221015
 10
481.845694
 20
239.056685
 10
481.572285
 20
238.911617
 10
481.316123
 20
238.785853
 10
481.077267
 20
238.679434
 10
480.855782
 20
238.592401
 10
480.595297
 20
238.503551
 10
480.333145
 20
238.425194
 10
480.071755
 20
238.357421
 10
479.813547
 20
238.300323
 10
479.560947
 20
238.253988
 10
479.316376
 20
238.218507
 10
479.082261
 20
238.193971
 10
478.861024
 20
238.180469
 10
478.65509
 20
238.178092
 10
478.466881
 20
238.18693
 10
478.298822
 20
238.207071
 10
478.153337
 20
238.238608
 10
478.032849
 20
238.281629
 10
477.939783
 20
238.336226
 10
477.90429
 20
238.367893
 10
477.876562
 20
238.402488
 10
477.8569
 20
238.440021
 10
477.845609
 20
238.480505
 10
477.81351
 20
238.596795
 10
477.801924
 20
238.656701
 10
477.807139
 20
238.710953
 10
477.977139
 20
239.173926
 10
478.17246
 20
239.650803
 10
478.390156
 20
240.139504
 10
478.627284
 20
240.637947
 10
478.880898
 20
241.14405
 10
479.148056
 20
241.655733
 10
479.711219
 20
242.687511
 10
480.293219
 20
243.716629
 10
480.870498
 20
244.726436
 10
481.419502
 20
245.700282
 10
481.916673
 20
246.621514
 10
482.358088
 20
247.480472
 10
482.653505
 20
248.041438
 10
482.992545
 20
248.659768
 10
483.370569
 20
249.312739
 10
483.78294
 20
249.977627
 10
484.000556
 20
250.307441
 10
484.22502
 20
250.631714
 10
484.455751
 20
250.947605
 10
484.69217
 20
251.252275
  0
LWPOLYLINE
  5
40
330
1F
100
AcDbEntity
  8
0
100
AcDbPolyline
 90
      311
 70
   128
 43
0.0
 10
569.808304
 20
233.137537
 10
569.87255
 20
232.461094
 10
569.919056
 20
231.758229
 10
569.945945
 20
231.022517
 10
569.951346
 20
230.247534
 10
569.933386
 20
229.426854
 10
569.890192
 20
228.554055
 10
569.819889
 20
227.622711
 10
569.720606
 20
226.626398
 10
569.590469
 20
225.558693
 10
569.427605
 20
224.413169
 10
569.230141
 20
223.183402
 10
568.996206
 20
221.862969
 10
568.723923
 20
220.445444
 10
568.411422
 20
218.924405
 10
568.056827
 20
217.293425
 10
567.658269
 20
215.54608
 10
567.451639
 20
214.69841
 10
567.216831
 20
213.788977
 10
566.527099
 20
211.381297
 10
563.058417
 20
210.998837
 42
-0.414214
 10
562.727345
 20
211.264151
 10
562.203787
 20
216.012506
 10
560.215834
 20
215.793313
 10
560.920022
 20
209.406754
 42
-0.484911
 10
560.584307
 20
209.076231
 10
560.277853
 20
209.114864
 10
560.094205
 20
209.147167
 10
559.909146
 20
209.188532
 10
559.723073
 20
209.23864
 10
559.536384
 20
209.297173
 10
559.349474
 20
209.363813
 10
558.976585
 20
209.520139
 10
558.60758
 20
209.70507
 10
558.245635
 20
209.91606
 10
557.893927
 20
210.15056
 10
557.555631
 20
210.406025
 10
557.233921
 20
210.679908
 10
556.931975
 20
210.969661
 10
556.652969
 20
211.272737
 10
556.400078
 20
211.586589
 10
556.176476
 20
211.90867
 10
556.076652
 20
212.072
 10
555.985342
 20
212.236433
 10
555.902942
 20
212.401649
 10
555.829849
 20
212.567331
 10
555.766461
 20
212.733159
 10
555.713175
 20
212.898816
 10
555.658336
 20
213.122573
 10
555.616217
 20
213.37613
 10
555.587157
 20
213.663263
 10
555.571502
 20
213.987749
 10
555.569592
 20
214.353364
 10
555.581771
 20
214.763885
 10
555.60838
 20
215.223089
 10
555.649763
 20
215.734752
 10
555.706261
 20
216.302651
 10
555.778217
 20
216.930562
 10
555.969873
 20
218.381526
 10
556.227469
 20
220.117857
 10
556.553745
 20
222.169768
 10
556.876033
 20
223.909104
 10
557.231362
 20
225.782745
 10
557.40548
 20
226.728829
 10
557.568738
 20
227.659166
 10
557.714759
 20
228.557314
 10
557.837171
 20
229.406836
 10
557.894657
 20
229.883625
 10
557.940679
 20
230.35722
 10
557.975476
 20
230.827416
 10
557.999294
 20
231.294009
 10
558.012372
 20
231.756792
 10
558.014952
 20
232.215561
 10
558.00728
 20
232.670111
 10
557.989594
 20
233.120235
 10
557.962139
 20
233.565731
 10
557.925155
 20
234.006391
 10
557.878887
 20
234.442012
 10
557.823574
 20
234.872387
 10
557.759461
 20
235.297312
 10
557.686788
 20
235.716582
 10
557.605799
 20
236.129991
 10
557.516735
 20
236.537334
 10
557.419838
 20
236.938407
 10
557.315352
 20
237.333004
 10
557.203517
 20
237.720921
 10
557.084576
 20
238.10195
 10
556.958772
 20
238.475888
 10
556.826346
 20
238.84253
 10
556.687541
 20
239.201671
 10
556.5426
 20
239.553104
 10
556.391763
 20
239.896626
 10
556.235274
 20
240.232031
 10
556.073375
 20
240.559114
 10
555.906307
 20
240.877669
 10
555.734313
 20
241.187492
 10
555.557635
 20
241.488377
 10
555.376516
 20
241.78012
 10
555.191197
 20
242.062515
 10
554.950272
 20
242.401521
 10
554.691237
 20
242.731661
 10
554.414691
 20
243.052705
 10
554.12123
 20
243.364422
 10
553.81145
 20
243.666582
 10
553.485946
 20
243.958953
 10
553.145315
 20
244.241306
 10
552.790154
 20
244.513411
 10
552.421058
 20
244.775037
 10
552.038623
 20
245.025954
 10
551.643447
 20
245.265931
 10
551.236124
 20
245.494737
 10
550.817252
 20
245.712143
 10
550.387426
 20
245.917918
 10
549.947242
 20
246.111831
 10
549.497298
 20
246.293653
 10
549.038189
 20
246.463152
 10
548.57051
 20
246.620098
 10
548.09486
 20
246.764261
 10
547.611832
 20
246.895411
 10
547.122025
 20
247.013316
 10
546.626033
 20
247.117748
 10
546.124454
 20
247.208475
 10
545.617883
 20
247.285266
 10
545.106917
 20
247.347892
 10
544.592152
 20
247.396122
 10
544.074184
 20
247.429725
 10
543.553609
 20
247.448472
 10
543.031023
 20
247.452132
 10
542.507024
 20
247.440474
 10
541.982205
 20
247.413267
 10
541.457165
 20
247.370283
 10
540.849168
 20
247.300135
 10
540.249711
 20
247.208574
 10
539.658615
 20
247.095625
 10
539.0757
 20
246.961316
 10
538.500786
 20
246.805672
 10
537.933696
 20
246.628722
 10
537.374248
 20
246.43049
 10
536.822263
 20
246.211004
 10
536.277563
 20
245.970291
 10
535.739968
 20
245.708378
 10
535.209298
 20
245.42529
 10
534.685374
 20
245.121055
 10
534.168017
 20
244.795699
 10
533.657048
 20
244.449249
 10
533.152286
 20
244.081731
 10
532.653552
 20
243.693173
 10
532.160668
 20
243.283601
 10
531.673454
 20
242.853041
 10
531.19173
 20
242.401521
 10
530.715317
 20
241.929066
 10
530.244035
 20
241.435705
 10
529.777705
 20
240.921462
 10
529.316149
 20
240.386366
 10
528.859186
 20
239.830442
 10
528.406637
 20
239.253718
 10
527.958322
 20
238.656219
 10
527.514063
 20
238.037973
 10
527.073679
 20
237.399006
 10
526.636992
 20
236.739346
 10
526.203823
 20
236.059017
 10
525.773991
 20
235.358049
 10
525.347316
 20
234.636466
 10
524.883114
 20
233.873048
 10
524.362546
 20
233.062452
 10
523.834428
 20
232.256458
 10
523.347579
 20
231.506844
 10
523.216012
 20
232.095379
 10
523.087491
 20
232.71916
 10
522.945728
 20
233.49047
 10
522.876579
 20
233.91454
 10
522.812159
 20
234.3552
 10
522.755147
 20
234.805688
 10
522.708222
 20
235.259241
 10
522.674066
 20
235.709092
 10
522.655355
 20
236.14848
 10
522.654771
 20
236.570641
 10
522.674993
 20
236.96881
 10
522.713691
 20
237.319067
 10
522.774291
 20
237.701251
 10
522.855598
 20
238.111891
 10
522.956421
 20
238.547524
 10
523.075564
 20
239.00468
 10
523.211835
 20
239.479892
 10
523.364042
 20
239.969694
 10
523.530989
 20
240.47062
 10
523.711486
 20
240.979201
 10
523.904338
 20
241.49197
 10
524.108351
 20
242.005461
 10
524.322334
 20
242.516206
 10
524.545091
 20
243.020739
 10
524.77543
 20
243.515592
 10
525.012158
 20
243.997298
 10
525.254082
 20
244.462391
 10
525.514384
 20
244.938719
 10
525.779223
 20
245.404441
 10
526.048723
 20
245.859674
 10
526.32301
 20
246.304535
 10
526.602208
 20
246.739145
 10
526.886443
 20
247.16362
 10
527.175842
 20
247.578078
 10
527.470526
 20
247.982638
 10
527.770624
 20
248.377418
 10
528.076259
 20
248.762536
 10
528.387557
 20
249.13811
 10
528.704644
 20
249.504258
 10
529.027643
 20
249.861098
 10
529.356681
 20
250.20875
 10
529.691883
 20
250.547329
 10
530.033375
 20
250.876956
 10
530.381279
 20
251.197746
 10
530.735724
 20
251.50982
 10
531.096833
 20
251.813295
 10
531.464732
 20
252.108289
 10
531.839545
 20
252.39492
 10
532.221399
 20
252.673307
 10
532.610418
 20
252.943567
 10
533.006728
 20
253.205819
 10
533.410453
 20
253.460181
 10
533.821719
 20
253.70677
 10
534.240652
 20
253.945706
 10
534.667376
 20
254.177105
 10
535.102016
 20
254.401088
 10
535.544698
 20
254.61777
 10
535.995547
 20
254.82727
 10
536.454687
 20
255.029708
 10
536.984814
 20
255.246481
 10
537.496844
 20
255.429631
 10
537.755028
 20
255.510497
 10
538.019435
 20
255.585238
 10
538.293644
 20
255.654616
 10
538.581239
 20
255.719389
 10
539.210912
 20
255.838164
 10
539.937109
 20
255.947647
 10
540.788484
 20
256.053919
 10
541.793693
 20
256.163064
 10
542.866585
 20
256.26859
 10
543.760701
 20
256.341464
 10
544.523934
 20
256.380746
 10
544.871435
 20
256.387499
 10
545.204175
 20
256.385502
 10
545.528139
 20
256.374639
 10
545.849314
 20
256.354791
 10
546.173688
 20
256.325843
 10
546.507244
 20
256.287677
 10
547.225856
 20
256.183221
 10
548.053041
 20
256.040486
 10
548.595266
 20
255.93709
 10
549.133104
 20
255.823697
 10
549.666492
 20
255.700343
 10
550.195367
 20
255.56706
 10
550.719665
 20
255.423885
 10
551.239322
 20
255.27085
 10
551.754276
 20
255.107993
 10
552.264461
 20
254.935345
 10
552.769815
 20
254.752943
 10
553.270274
 20
254.560821
 10
553.765775
 20
254.359014
 10
554.256255
 20
254.147556
 10
554.74165
 20
253.926482
 10
555.221894
 20
253.695827
 10
555.696927
 20
253.455624
 10
556.166683
 20
253.205909
 10
556.6311
 20
252.946717
 10
557.090114
 20
252.678081
 10
557.543661
 20
252.400037
 10
557.991678
 20
252.112619
 10
558.4341
 20
251.815862
 10
558.870867
 20
251.509801
 10
559.301911
 20
251.194469
 10
559.727172
 20
250.869902
 10
560.146584
 20
250.536135
 10
560.560085
 20
250.193201
 10
560.967611
 20
249.841136
 10
561.369097
 20
249.479974
 10
561.764483
 20
249.10975
 10
562.153702
 20
248.730498
 10
562.536692
 20
248.342254
 10
562.913389
 20
247.94505
 10
563.281188
 20
247.542275
 10
563.639243
 20
247.135452
 10
563.987545
 20
246.724599
 10
564.326086
 20
246.309734
 10
564.654857
 20
245.890875
 10
564.973852
 20
245.468039
 10
565.283059
 20
245.041246
 10
565.582473
 20
244.610511
 10
565.872084
 20
244.175855
 10
566.151883
 20
243.737295
 10
566.421862
 20
243.294848
 10
566.682015
 20
242.848533
 10
566.93233
 20
242.398367
 10
567.172802
 20
241.944368
 10
567.40342
 20
241.486557
 10
567.624176
 20
241.024947
 10
567.835063
 20
240.559559
 10
568.036072
 20
240.090411
 10
568.227193
 20
239.61752
 10
568.408421
 20
239.140905
 10
568.579745
 20
238.660582
 10
568.741157
 20
238.176572
 10
568.89265
 20
237.68889
 10
569.034214
 20
237.197556
 10
569.165842
 20
236.702587
 10
569.287524
 20
236.204
 10
569.399253
 20
235.701816
 10
569.50102
 20
235.19605
 10
569.592817
 20
234.686722
 10
569.674635
 20
234.173848
 10
569.746467
 20
233.657447
 10
569.808304
 20
233.137537
  0
LWPOLYLINE
  5
41
330
1F
100
AcDbEntity
  8
0
100
AcDbPolyline
 90
      238
 70
   128
 43
0.0
 10
532.6629
 20
341.227869
 10
532.414262
 20
344.731482
 10
532.56924
 20
344.80195
 10
532.759382
 20
344.864874
 10
532.988075
 20
344.922967
 10
533.574676
 20
345.035498
 10
534.356152
 20
345.161234
 10
534.921302
 20
345.236757
 10
535.621538
 20
345.308687
 10
536.429164
 20
345.375343
 10
537.316484
 20
345.435044
 10
538.255803
 20
345.486113
 10
539.219422
 20
345.526869
 10
540.179646
 20
345.555633
 10
541.10878
 20
345.570725
 10
544.03026
 20
345.582336
 10
545.545768
 20
345.585693
 10
546.951692
 20
345.580402
 10
547.312937
 20
345.569112
 10
547.781962
 20
345.541803
 10
548.964542
 20
345.447259
 10
550.341818
 20
345.313039
 10
551.756174
 20
345.155413
 10
553.016014
 20
344.916699
 10
554.376139
 20
344.668258
 10
555.060972
 20
344.537149
 10
555.731475
 20
344.399719
 10
556.374513
 20
344.254671
 10
556.976953
 20
344.100708
 10
557.530255
 20
343.940817
 10
558.053916
 20
343.773827
 10
558.550442
 20
343.599468
 10
559.022339
 20
343.417468
 10
559.472112
 20
343.227556
 10
559.902268
 20
343.029463
 10
560.315312
 20
342.822916
 10
560.71375
 20
342.607646
 10
561.100088
 20
342.383382
 10
561.476832
 20
342.149854
 10
561.846489
 20
341.906788
 10
562.211562
 20
341.653917
 10
562.574559
 20
341.390969
 10
562.937984
 20
341.117673
 10
563.676147
 20
340.538955
 10
564.165773
 20
340.137634
 10
564.637251
 20
339.7318
 10
565.090512
 20
339.321605
 10
565.525487
 20
338.907204
 10
565.942111
 20
338.488749
 10
566.340314
 20
338.066394
 10
566.720029
 20
337.640292
 10
567.081188
 20
337.210596
 10
567.423724
 20
336.77746
 10
567.747569
 20
336.341035
 10
568.052655
 20
335.901478
 10
568.338914
 20
335.458939
 10
568.606278
 20
335.013572
 10
568.854681
 20
334.565531
 10
569.084053
 20
334.114969
 10
569.294329
 20
333.66204
 10
569.485438
 20
333.206895
 10
569.657315
 20
332.74969
 10
569.809891
 20
332.290576
 10
569.943097
 20
331.829708
 10
570.056868
 20
331.367238
 10
570.151135
 20
330.903319
 10
570.22583
 20
330.438106
 10
570.280885
 20
329.971751
 10
570.316233
 20
329.504407
 10
570.331806
 20
329.036228
 10
570.327536
 20
328.567367
 10
570.303355
 20
328.097977
 10
570.259197
 20
327.628211
 10
570.194992
 20
327.158224
 10
570.110674
 20
326.688166
 10
570.006174
 20
326.218194
 10
569.91583
 20
325.867186
 10
569.816117
 20
325.516405
 10
569.70711
 20
325.165957
 10
569.588879
 20
324.81595
 10
569.461499
 20
324.466491
 10
569.325043
 20
324.117685
 10
569.179581
 20
323.769644
 10
569.025188
 20
323.422471
 10
568.861936
 20
323.076274
 10
568.689897
 20
322.731163
 10
568.509145
 20
322.387241
 10
568.319751
 20
322.044618
 10
568.12179
 20
321.703401
 10
567.915332
 20
321.363695
 10
567.700451
 20
321.025611
 10
567.47722
 20
320.689253
 10
567.245711
 20
320.354729
 10
567.005997
 20
320.022147
 10
566.758151
 20
319.691615
 10
566.502245
 20
319.363238
 10
566.238352
 20
319.037122
 10
565.966544
 20
318.713379
 10
565.686894
 20
318.392113
 10
565.399476
 20
318.073431
 10
564.801623
 20
317.444251
 10
564.173565
 20
316.826697
 10
563.515885
 20
316.221625
 10
562.829162
 20
315.629895
 10
562.4305
 20
315.304011
 10
562.014288
 20
314.976089
 10
561.586182
 20
314.649774
 10
561.151838
 20
314.328717
 10
560.287067
 20
313.716967
 10
559.465228
 20
313.170026
 10
559.084549
 20
312.929979
 10
558.731574
 20
312.717079
 10
558.411958
 20
312.534974
 10
558.131359
 20
312.387313
 10
557.895431
 20
312.277743
 10
557.709834
 20
312.209914
 10
557.637678
 20
312.192791
 10
557.580223
 20
312.187473
 10
557.538181
 20
312.194413
 10
557.512255
 20
312.214069
 10
557.468982
 20
312.271562
 10
557.452202
 20
312.302898
 10
557.449172
 20
312.333545
 10
557.551088
 20
312.74399
 10
557.679318
 20
313.176437
 10
557.827206
 20
313.623279
 10
557.988093
 20
314.076906
 10
558.322236
 20
314.974083
 10
558.62849
 20
315.807102
 10
558.893295
 20
316.532039
 10
559.178169
 20
317.270566
 10
559.770986
 20
318.757846
 10
560.060358
 20
319.491324
 10
560.33266
 20
320.207845
 10
560.578607
 20
320.899772
 10
560.788914
 20
321.559469
 10
560.899071
 20
321.957008
 10
561.019642
 20
322.433094
 10
561.272276
 20
323.517599
 10
561.507318
 20
324.606363
 10
561.685274
 20
325.492769
 10
561.720448
 20
325.708142
 10
561.748382
 20
325.937784
 10
561.788732
 20
326.421328
 10
561.818738
 20
326.906311
 10
561.850811
 20
327.355646
 10
561.894586
 20
327.982759
 10
561.911625
 20
328.581307
 10
561.901567
 20
329.152236
 10
561.864056
 20
329.69649
 10
561.834892
 20
329.958909
 10
561.79873
 20
330.215015
 10
561.755527
 20
330.464924
 10
561.705234
 20
330.708755
 10
561.647809
 20
330.946628
 10
561.583206
 20
331.178658
 10
561.511381
 20
331.404965
 10
561.432288
 20
331.625668
 10
561.345883
 20
331.840883
 10
561.252121
 20
332.050729
 10
561.150957
 20
332.255326
 10
561.042346
 20
332.45479
 10
560.926244
 20
332.649239
 10
560.802604
 20
332.838793
 10
560.671384
 20
333.023568
 10
560.532538
 20
333.203684
 10
560.38602
 20
333.379259
 10
560.231786
 20
333.550409
 10
560.06979
 20
333.717255
 10
559.89999
 20
333.879915
 10
559.722338
 20
334.038504
 10
559.536792
 20
334.193145
 10
559.343305
 20
334.343952
 10
559.141833
 20
334.491045
 10
558.761791
 20
334.752255
 10
558.384716
 20
334.99587
 10
558.009163
 20
335.222104
 10
557.633688
 20
335.431174
 10
557.256843
 20
335.623294
 10
556.877184
 20
335.79868
 10
556.493265
 20
335.95755
 10
556.103642
 20
336.100117
 10
555.706869
 20
336.226598
 10
555.301499
 20
336.337207
 10
554.88609
 20
336.432162
 10
554.459194
 20
336.511677
 10
554.019366
 20
336.575967
 10
553.565162
 20
336.62525
 10
553.095134
 20
336.65974
 10
552.607839
 20
336.679654
 10
552.101831
 20
336.685206
 10
551.575665
 20
336.676613
 10
551.027894
 20
336.654089
 10
550.457074
 20
336.617852
 10
549.86176
 20
336.568116
 10
549.240506
 20
336.505097
 10
548.591866
 20
336.42901
 10
547.914396
 20
336.340073
 10
546.467182
 20
336.124504
 10
544.887302
 20
335.860117
 10
543.163191
 20
335.548637
 10
541.283287
 20
335.191789
 10
540.574614
 20
335.059858
 10
539.808897
 20
334.927332
 10
539.041454
 20
334.805611
 10
538.327604
 20
334.706099
 10
537.84431
 20
334.649102
 10
537.322313
 20
334.596264
 10
536.799495
 20
334.553478
 10
536.313737
 20
334.526641
 10
535.910056
 20
334.519784
 10
535.533575
 20
334.530717
 10
535.182181
 20
334.56009
 10
534.853769
 20
334.608547
 10
534.546225
 20
334.676737
 10
534.257442
 20
334.765307
 10
533.985308
 20
334.874906
 10
533.727714
 20
335.006177
 10
533.482551
 20
335.159771
 10
533.247708
 20
335.336334
 10
533.021075
 20
335.536512
 10
532.800543
 20
335.760955
 10
532.584001
 20
336.010308
 10
532.369341
 20
336.285218
 10
532.154452
 20
336.586334
 10
531.937223
 20
336.914301
 10
531.717122
 20
337.262257
 10
531.532544
 20
337.569785
 10
531.386687
 20
337.839975
 10
531.282752
 20
338.075918
 10
531.247506
 20
338.182012
 10
531.223939
 20
338.280705
 10
531.196327
 20
338.501081
 42
-0.43006
 10
531.472763
 20
338.837625
 10
537.777648
 20
339.285059
 10
537.636072
 20
341.280041
 10
532.983384
 20
340.949858
 42
-0.414214
 10
532.6629
 20
341.227869
  0
LWPOLYLINE
  5
42
330
1F
100
AcDbEntity
  8
0
100
AcDbPolyline
 90
       80
 70
   128
 43
0.0
 10
536.00652
 20
217.970907
 10
550.780504
 20
217.635445
 10
550.91792
 20
217.598594
 10
551.044229
 20
217.546429
 10
551.159903
 20
217.481133
 10
551.26541
 20
217.404889
 10
551.36122
 20
217.319881
 10
551.447804
 20
217.228292
 10
551.595172
 20
217.034107
 10
551.731241
 20
216.82354
 10
551.85739
 20
216.613182
 10
551.971086
 20
216.40264
 10
552.069793
 20
216.191523
 10
552.150978
 20
215.979438
 10
552.212105
 20
215.765992
 10
552.25064
 20
215.550794
 10
552.264048
 20
215.333452
 10
552.260752
 20
215.034487
 10
552.260424
 20
215.029417
 42
-0.392346
 10
551.964234
 20
214.748806
 10
548.361336
 20
214.710564
 10
548.382564
 20
212.710676
 10
551.960074
 20
212.748649
 42
-0.417223
 10
552.263258
 20
212.448771
 10
552.264048
 20
210.194377
 10
528.716131
 20
210.194377
 10
528.716131
 20
211.155335
 10
528.725941
 20
211.400956
 10
528.754837
 20
211.647875
 10
528.802018
 20
211.894239
 10
528.866682
 20
212.138198
 10
528.948027
 20
212.377901
 10
529.045254
 20
212.611497
 10
529.15756
 20
212.837134
 10
529.284143
 20
213.05296
 10
529.424204
 20
213.257126
 10
529.57694
 20
213.44778
 10
529.74155
 20
213.623069
 10
529.917233
 20
213.781144
 10
530.103187
 20
213.920154
 10
530.298611
 20
214.038245
 10
530.502705
 20
214.133569
 10
530.714666
 20
214.204273
 10
531.027361
 20
214.276589
 10
531.251572
 20
214.315119
 10
531.403154
 20
214.343411
 10
531.456663
 20
214.361076
 10
531.497961
 20
214.385012
 10
531.529029
 20
214.418163
 10
531.55185
 20
214.463471
 10
531.580674
 20
214.602333
 10
531.600288
 20
214.825147
 10
531.626548
 20
215.15546
 10
531.647851
 20
215.333049
 10
531.679517
 20
215.505541
 10
531.721256
 20
215.672868
 10
531.772776
 20
215.834962
 10
531.833788
 20
215.991753
 10
531.904
 20
216.143173
 10
531.983122
 20
216.289155
 10
532.070862
 20
216.429629
 10
532.166931
 20
216.564528
 10
532.271038
 20
216.693782
 10
532.382891
 20
216.817323
 10
532.502201
 20
216.935084
 10
532.628676
 20
217.046995
 10
532.762026
 20
217.152988
 10
532.90196
 20
217.252994
 10
533.048188
 20
217.346946
 10
533.200418
 20
217.434775
 10
533.35836
 20
217.516413
 10
533.521723
 20
217.59179
 10
533.690217
 20
217.660839
 10
533.863551
 20
217.723491
 10
534.041435
 20
217.779678
 10
534.409686
 20
217.872382
 10
534.792646
 20
217.938404
 10
535.187988
 20
217.977198
 10
535.593388
 20
217.988214
 10
536.00652
 20
217.970907
  0
LWPOLYLINE
  5
43
330
1F
100
AcDbEntity
  8
0
100
AcDbPolyline
 90
       94
 70
   128
 43
0.0
 10
547.345094
 20
291.24568
 10
546.179908
 20
292.855676
 42
-0.423131
 10
546.254508
 20
293.279818
 10
549.044621
 20
295.172788
 10
547.921749
 20
296.827828
 10
545.100642
 20
294.91383
 42
-0.395501
 10
544.695293
 20
294.978049
 10
544.672758
 20
295.00706
 10
544.583569
 20
295.151723
 10
544.503797
 20
295.310901
 10
544.433777
 20
295.482619
 10
544.373845
 20
295.664907
 10
544.324333
 20
295.855789
 10
544.285577
 20
296.053292
 10
544.257911
 20
296.255443
 10
544.241668
 20
296.460269
 10
544.237184
 20
296.665798
 10
544.244793
 20
296.870054
 10
544.264827
 20
297.071066
 10
544.297624
 20
297.26686
 10
544.343516
 20
297.455462
 10
544.402838
 20
297.6349
 10
544.475924
 20
297.8032
 10
544.563109
 20
297.958389
 10
544.699668
 20
298.197483
 10
544.841838
 20
298.44797
 10
544.926064
 20
298.572663
 10
545.024939
 20
298.694417
 10
545.142877
 20
298.811304
 10
545.284293
 20
298.921395
 10
556.772371
 20
306.818642
 10
557.09957
 20
307.107638
 10
557.43722
 20
307.436113
 10
557.769247
 20
307.770927
 10
558.079575
 20
308.07894
 10
558.491768
 20
308.456545
 10
558.697138
 20
308.629834
 10
558.901983
 20
308.792774
 10
559.106274
 20
308.945359
 10
559.309978
 20
309.087587
 10
559.513066
 20
309.219449
 10
559.715508
 20
309.340943
 10
559.917271
 20
309.452061
 10
560.118329
 20
309.5528
 10
560.318647
 20
309.643153
 10
560.518197
 20
309.723117
 10
560.716947
 20
309.792685
 10
560.914869
 20
309.851853
 10
561.11193
 20
309.900615
 10
561.308101
 20
309.938967
 10
561.503351
 20
309.966902
 10
561.697649
 20
309.984416
 10
561.890965
 20
309.991504
 10
562.083269
 20
309.988161
 10
562.27453
 20
309.974381
 10
562.464718
 20
309.950159
 10
562.653802
 20
309.91549
 10
562.841751
 20
309.870369
 10
563.028536
 20
309.814792
 10
563.214125
 20
309.748751
 10
563.398489
 20
309.672244
 10
563.581596
 20
309.585263
 10
563.763417
 20
309.487805
 10
563.943921
 20
309.379863
 10
564.123077
 20
309.261434
 10
564.300855
 20
309.132511
 10
564.507793
 20
308.987412
 10
564.704876
 20
308.875286
 10
564.897516
 20
308.795201
 10
564.993861
 20
308.766883
 10
565.091125
 20
308.746226
 10
565.189983
 20
308.733113
 10
565.291113
 20
308.727427
 10
565.502893
 20
308.737874
 10
565.731878
 20
308.776634
 10
565.983476
 20
308.842776
 10
566.196896
 20
308.89433
 10
566.415528
 20
308.923083
 10
566.637902
 20
308.929734
 10
566.862547
 20
308.914978
 10
567.087993
 20
308.879508
 10
567.312769
 20
308.824023
 10
567.535404
 20
308.749217
 10
567.754428
 20
308.655786
 10
567.96837
 20
308.544424
 10
568.175759
 20
308.415831
 10
568.375125
 20
308.270697
 10
568.564998
 20
308.109721
 10
568.743906
 20
307.933598
 10
568.910379
 20
307.743023
 10
569.062947
 20
307.538692
 10
569.200138
 20
307.321302
 10
569.664209
 20
306.51667
 10
547.345094
 20
291.24568
  0
LWPOLYLINE
  5
44
330
1F
100
AcDbEntity
  8
0
100
AcDbPolyline
 90
       76
 70
   128
 43
0.0
 10
525.149604
 20
214.910561
 10
525.150801
 20
214.74527
 42
-0.413324
 10
524.853892
 20
214.443114
 10
521.609139
 20
214.409761
 10
521.629697
 20
212.409867
 10
524.997252
 20
212.444482
 42
-0.400636
 10
525.299851
 20
212.161546
 10
525.418591
 20
210.075468
 10
508.855001
 20
209.604933
 10
508.826801
 20
210.136476
 10
508.81436
 20
210.412257
 10
508.809711
 20
210.668234
 10
508.817919
 20
210.928189
 10
508.84049
 20
211.174553
 10
508.877415
 20
211.407759
 10
508.928692
 20
211.628242
 10
508.994312
 20
211.836433
 10
509.07427
 20
212.032766
 10
509.168559
 20
212.217672
 10
509.277174
 20
212.391585
 10
509.400108
 20
212.554939
 10
509.537355
 20
212.708167
 10
509.688909
 20
212.851699
 10
509.854765
 20
212.985971
 10
510.034915
 20
213.111413
 10
510.229353
 20
213.228461
 10
510.438073
 20
213.337547
 10
510.66107
 20
213.439102
 10
510.940167
 20
213.564807
 10
511.165586
 20
213.683779
 10
511.342175
 20
213.801447
 10
511.413673
 20
213.861488
 10
511.474781
 20
213.923239
 10
511.526107
 20
213.987378
 10
511.568254
 20
214.054583
 10
511.60183
 20
214.125534
 10
511.627441
 20
214.200909
 10
511.645692
 20
214.281385
 10
511.657191
 20
214.367643
 10
511.662352
 20
214.560215
 10
511.667704
 20
214.742634
 10
511.692239
 20
214.93596
 10
511.734615
 20
215.137496
 10
511.79349
 20
215.34454
 10
511.867523
 20
215.554396
 10
511.955371
 20
215.764363
 10
512.055691
 20
215.971742
 10
512.167144
 20
216.173833
 10
512.288387
 20
216.367937
 10
512.418078
 20
216.551356
 10
512.554875
 20
216.721389
 10
512.697437
 20
216.875338
 10
512.844421
 20
217.010502
 10
512.994486
 20
217.124185
 10
513.14629
 20
217.213684
 10
513.29849
 20
217.276301
 10
513.625893
 20
217.357366
 10
513.956635
 20
217.426164
 10
522.827738
 20
217.512878
 10
523.43446
 20
217.407199
 10
523.574458
 20
217.368881
 10
523.717872
 20
217.303525
 10
523.863035
 20
217.213562
 10
524.008277
 20
217.101423
 10
524.151928
 20
216.969537
 10
524.292318
 20
216.820334
 10
524.427779
 20
216.656247
 10
524.556638
 20
216.479702
 10
524.67723
 20
216.293132
 10
524.787883
 20
216.098967
 10
524.886928
 20
215.899636
 10
524.972697
 20
215.69757
 10
525.043518
 20
215.4952
 10
525.097722
 20
215.294954
 10
525.13364
 20
215.099264
 10
525.149604
 20
214.910561
  0
LWPOLYLINE
  5
45
330
1F
100
AcDbEntity
  8
0
100
AcDbPolyline
 90
       83
 70
   128
 43
0.0
 10
369.674062
 20
344.574372
 10
369.679199
 20
345.793508
 10
349.967331
 20
345.737835
 10
349.951357
 20
345.441798
 10
349.922865
 20
344.78547
 10
349.910436
 20
344.068188
 10
349.91918
 20
343.78023
 10
349.948131
 20
343.544788
 42
0.368311
 10
350.234829
 20
343.281605
 10
353.825569
 20
343.149147
 10
353.751841
 20
341.150506
 10
350.24295
 20
341.279945
 42
0.428598
 10
349.931913
 20
340.976553
 10
349.933083
 20
340.878955
 10
349.95112
 20
340.695062
 10
349.98412
 20
340.499219
 10
350.031031
 20
340.294634
 10
350.090804
 20
340.084519
 10
350.162384
 20
339.872078
 10
350.244722
 20
339.660522
 10
350.336766
 20
339.453059
 10
350.437467
 20
339.252895
 10
350.54577
 20
339.063241
 10
350.660626
 20
338.887305
 10
350.780984
 20
338.728293
 10
350.905792
 20
338.589415
 10
351.033999
 20
338.47388
 10
351.725581
 20
337.925148
 10
361.565491
 20
337.588463
 10
362.209259
 20
337.572495
 10
362.680487
 20
337.579901
 10
363.142418
 20
337.606554
 10
363.592155
 20
337.653099
 10
364.026799
 20
337.720183
 10
364.443452
 20
337.808453
 10
364.839218
 20
337.918553
 10
365.211196
 20
338.051132
 10
365.38736
 20
338.126053
 10
365.556491
 20
338.206835
 10
365.718226
 20
338.293561
 10
365.872203
 20
338.38631
 10
366.01806
 20
338.485163
 10
366.155435
 20
338.590201
 10
366.283965
 20
338.701505
 10
366.403289
 20
338.819156
 10
366.513042
 20
338.943234
 10
366.612867
 20
339.073821
 10
366.702395
 20
339.210997
 10
366.78127
 20
339.354842
 10
366.849125
 20
339.505438
 10
366.905601
 20
339.662865
 10
366.950335
 20
339.827205
 10
366.982963
 20
339.998538
 10
367.003125
 20
340.176945
 10
367.010457
 20
340.362507
 10
367.018732
 20
340.610566
 10
367.044306
 20
340.817086
 10
367.065004
 20
340.906892
 10
367.091735
 20
340.988861
 10
367.125069
 20
341.063842
 10
367.165575
 20
341.132685
 10
367.213822
 20
341.19624
 10
367.270381
 20
341.255356
 10
367.335819
 20
341.310881
 10
367.410707
 20
341.363666
 10
367.59111
 20
341.464413
 10
367.816144
 20
341.564391
 10
368.031434
 20
341.661989
 10
368.234574
 20
341.773396
 10
368.425336
 20
341.898242
 10
368.603489
 20
342.03615
 10
368.768802
 20
342.186749
 10
368.921045
 20
342.349667
 10
369.05999
 20
342.524531
 10
369.185404
 20
342.710968
 10
369.29706
 20
342.908605
 10
369.394726
 20
343.117071
 10
369.478173
 20
343.33599
 10
369.54717
 20
343.564993
 10
369.601487
 20
343.803705
 10
369.640896
 20
344.051754
 10
369.665164
 20
344.308767
 10
369.674062
 20
344.574372
  0
LWPOLYLINE
  5
46
330
1F
100
AcDbEntity
  8
0
100
AcDbPolyline
 90
        5
 70
   128
 43
0.0
 10
394.805857
 20
336.154546
 42
-0.414214
 10
393.650817
 20
338.611522
 42
-0.414214
 10
396.107791
 20
339.766562
 42
-0.414214
 10
397.262833
 20
337.309587
 42
-0.414214
 10
394.805857
 20
336.154546
  0
LWPOLYLINE
  5
47
330
1F
100
AcDbEntity
  8
0
100
AcDbPolyline
 90
      287
 70
   128
 43
0.0
 10
517.811544
 20
305.445611
 10
517.71463
 20
305.500646
 10
517.62284
 20
305.566491
 10
517.536159
 20
305.643144
 10
517.454572
 20
305.730609
 10
517.378063
 20
305.828885
 10
517.306617
 20
305.937973
 10
517.24022
 20
306.057873
 10
517.178854
 20
306.188588
 10
517.122505
 20
306.330118
 10
517.07116
 20
306.482462
 10
517.0248
 20
306.645624
 10
516.983412
 20
306.819602
 10
516.904288
 20
307.148551
 10
516.817708
 20
307.421683
 10
516.769025
 20
307.540611
 10
516.715364
 20
307.649537
 10
516.655688
 20
307.749779
 10
516.588958
 20
307.842654
 10
516.514136
 20
307.92948
 10
516.430184
 20
308.011575
 10
516.336064
 20
308.090256
 10
516.23074
 20
308.166842
 10
515.982323
 20
308.318993
 10
515.676629
 20
308.47857
 10
515.418295
 20
308.616805
 10
515.186979
 20
308.762768
 10
514.981852
 20
308.917296
 10
514.802086
 20
309.081224
 10
514.64685
 20
309.255391
 10
514.515317
 20
309.440632
 10
514.406656
 20
309.637785
 10
514.320039
 20
309.847685
 10
514.247264
 20
310.026042
 10
514.153545
 20
310.209391
 10
514.04278
 20
310.392509
 10
513.918867
 20
310.570171
 10
513.785703
 20
310.73715
 10
513.647187
 20
310.888221
 10
513.507216
 20
311.018158
 10
513.369687
 20
311.121736
 10
513.099773
 20
311.310431
 10
512.848743
 20
311.506447
 10
512.644628
 20
311.686616
 10
512.568921
 20
311.763518
 10
512.515455
 20
311.827772
 10
512.462069
 20
311.915006
 10
512.416893
 20
312.016578
 10
512.379866
 20
312.130971
 10
512.350922
 20
312.256668
 10
512.329997
 20
312.39215
 10
512.31703
 20
312.5359
 10
512.311953
 20
312.686401
 10
512.314705
 20
312.842135
 10
512.343436
 20
313.16323
 10
512.369289
 20
313.325557
 10
512.402715
 20
313.487046
 10
512.443648
 20
313.646182
 10
512.492027
 20
313.801444
 10
512.547786
 20
313.951316
 10
512.610863
 20
314.09428
 10
512.943471
 20
314.707628
 42
-0.27257
 10
513.204348
 20
314.864604
 10
517.861621
 20
314.908729
 10
517.807619
 20
320.608473
 42
-0.414214
 10
518.104764
 20
320.911301
 10
521.779856
 20
320.94612
 10
521.770382
 20
321.946075
 10
521.760908
 20
322.946031
 10
518.085816
 20
322.911212
 42
-0.414214
 10
517.782987
 20
323.208356
 10
517.728986
 20
328.9081
 10
513.071714
 20
328.863976
 42
-0.27257
 10
512.807909
 20
329.015981
 10
512.46374
 20
329.622917
 10
512.397966
 20
329.76466
 10
512.339377
 20
329.913449
 10
512.288065
 20
330.067767
 10
512.244124
 20
330.226098
 10
512.207645
 20
330.386925
 10
512.178721
 20
330.548733
 10
512.143911
 20
330.869226
 10
512.138209
 20
331.02488
 10
512.140433
 20
331.17545
 10
512.150675
 20
331.31942
 10
512.169029
 20
331.455274
 10
512.195586
 20
331.581497
 10
512.230439
 20
331.696571
 10
512.273682
 20
331.798981
 10
512.325406
 20
331.887211
 10
512.377645
 20
331.952466
 10
512.451881
 20
332.030789
 10
512.652546
 20
332.214793
 10
512.899817
 20
332.41553
 10
513.166108
 20
332.609305
 10
513.301649
 20
332.71547
 10
513.439133
 20
332.848036
 10
513.574762
 20
333.001704
 10
513.704738
 20
333.171176
 10
513.825263
 20
333.351154
 10
513.932539
 20
333.536338
 10
514.022767
 20
333.72143
 10
514.09215
 20
333.901133
 10
514.174774
 20
334.112637
 10
514.27968
 20
334.311813
 10
514.40768
 20
334.499513
 10
514.559588
 20
334.67659
 10
514.736216
 20
334.843895
 10
514.938378
 20
335.002281
 10
515.166887
 20
335.152601
 10
515.422556
 20
335.295706
 10
515.725171
 20
335.461046
 10
515.970661
 20
335.617877
 10
516.074515
 20
335.696444
 10
516.167127
 20
335.776894
 10
516.249509
 20
335.860565
 10
516.322672
 20
335.948793
 10
516.387631
 20
336.042916
 10
516.445397
 20
336.144271
 10
516.496984
 20
336.254194
 10
516.543405
 20
336.374023
 10
516.624795
 20
336.648746
 10
516.697672
 20
336.979135
 10
516.735756
 20
337.153866
 10
516.779016
 20
337.317877
 10
516.827466
 20
337.471167
 10
516.881123
 20
337.613739
 10
516.940001
 20
337.745593
 10
517.004115
 20
337.86673
 10
517.073481
 20
337.977152
 10
517.148114
 20
338.07686
 10
517.228029
 20
338.165855
 10
517.313242
 20
338.244137
 10
517.403768
 20
338.311709
 10
517.499622
 20
338.36857
 10
517.600819
 20
338.414723
 10
517.707375
 20
338.450168
 10
517.819305
 20
338.474907
 10
517.936624
 20
338.48894
 10
518.059348
 20
338.492268
 10
518.187491
 20
338.484894
 10
518.32107
 20
338.466817
 10
518.460098
 20
338.438039
 10
518.604592
 20
338.398561
 10
518.754567
 20
338.348384
 10
518.910038
 20
338.28751
 10
519.07102
 20
338.215939
 10
519.40958
 20
338.040711
 10
519.770368
 20
337.82271
 10
520.153507
 20
337.561944
 10
520.559119
 20
337.258423
 10
521.190113
 20
336.766667
 10
524.263286
 20
336.766256
 10
525.095113
 20
336.761104
 10
525.799186
 20
336.744638
 10
526.391627
 20
336.714984
 10
526.88856
 20
336.670266
 10
527.30611
 20
336.608607
 10
527.490154
 20
336.570839
 10
527.660399
 20
336.528133
 10
527.81886
 20
336.480254
 10
527.967552
 20
336.426967
 10
528.108491
 20
336.368039
 10
528.243692
 20
336.303235
 10
528.446784
 20
336.192776
 10
528.640328
 20
336.073563
 10
528.824008
 20
335.94602
 10
528.997504
 20
335.810574
 10
529.160499
 20
335.667652
 10
529.312674
 20
335.51768
 10
529.453712
 20
335.361083
 10
529.583293
 20
335.198289
 10
529.7011
 20
335.029723
 10
529.806814
 20
334.855812
 10
529.900118
 20
334.676981
 10
529.980692
 20
334.493658
 10
530.04822
 20
334.306267
 10
530.102382
 20
334.115237
 10
530.14286
 20
333.920991
 10
530.196437
 20
333.522292
 42
-0.442989
 10
529.910009
 20
333.182535
 10
521.347001
 20
332.871215
 10
521.419665
 20
330.872535
 10
535.470391
 20
331.38337
 42
-0.194167
 10
535.681526
 20
331.306963
 10
535.866566
 20
331.141107
 10
536.003957
 20
330.998135
 10
536.143173
 20
330.821804
 10
536.283656
 20
330.613565
 10
536.424848
 20
330.374869
 10
536.566191
 20
330.107167
 10
536.707128
 20
329.81191
 10
536.847101
 20
329.490551
 10
536.985552
 20
329.14454
 10
537.121924
 20
328.775328
 10
537.255659
 20
328.384368
 10
537.3862
 20
327.973109
 10
537.512988
 20
327.543005
 10
537.635467
 20
327.095505
 10
537.753077
 20
326.632061
 10
537.865263
 20
326.154125
 10
537.971465
 20
325.663147
 10
538.036587
 20
325.321012
 10
538.092787
 20
324.967009
 10
538.140197
 20
324.602082
 10
538.178949
 20
324.227176
 10
538.209174
 20
323.843235
 10
538.231003
 20
323.451204
 10
538.244568
 20
323.052028
 10
538.25
 20
322.64665
 10
538.248698
 20
322.102196
 10
538.260315
 20
321.557864
 10
538.262565
 20
321.152456
 10
538.256566
 20
320.753095
 10
538.242168
 20
320.36072
 10
538.219223
 20
319.976276
 10
538.187582
 20
319.600703
 10
538.147094
 20
319.234943
 10
538.097612
 20
318.879939
 10
538.038984
 20
318.536631
 10
537.942103
 20
318.043729
 10
537.838993
 20
317.563753
 10
537.730185
 20
317.098164
 10
537.616206
 20
316.648424
 10
537.49759
 20
316.215995
 10
537.374865
 20
315.802336
 10
537.248561
 20
315.408913
 10
537.119209
 20
315.037183
 10
536.987339
 20
314.688611
 10
536.85348
 20
314.364658
 10
536.718162
 20
314.066783
 10
536.581917
 20
313.796451
 10
536.445273
 20
313.555123
 10
536.30876
 20
313.34426
 10
536.17291
 20
313.165323
 10
536.038253
 20
313.019773
 10
535.856389
 20
312.850441
 42
-0.194167
 10
535.646739
 20
312.770048
 10
521.588857
 20
313.014573
 10
521.554074
 20
311.014876
 10
530.121444
 20
310.865853
 42
-0.442989
 10
530.414257
 20
310.531585
 10
530.368244
 20
310.131942
 10
530.331454
 20
309.936964
 10
530.280921
 20
309.744942
 10
530.216956
 20
309.556305
 10
530.13987
 20
309.371488
 10
530.049971
 20
309.190922
 10
529.947571
 20
309.015039
 10
529.832979
 20
308.844271
 10
529.706505
 20
308.679051
 10
529.56846
 20
308.51981
 10
529.419154
 20
308.366982
 10
529.258896
 20
308.220997
 10
529.087997
 20
308.082288
 10
528.906767
 20
307.951288
 10
528.715516
 20
307.828429
 10
528.514553
 20
307.714142
 10
528.380604
 20
307.646788
 10
528.240807
 20
307.5852
 10
528.093152
 20
307.529106
 10
527.935626
 20
307.478233
 10
527.766221
 20
307.432309
 10
527.582926
 20
307.391061
 10
527.166619
 20
307.321502
 10
526.670622
 20
307.267376
 10
526.078849
 20
307.226503
 10
525.375215
 20
307.1967
 10
524.543635
 20
307.175788
 10
521.471021
 20
307.11715
 10
520.849458
 20
306.613527
 10
520.449669
 20
306.302375
 10
520.07154
 20
306.034397
 10
519.714947
 20
305.809599
 10
519.379768
 20
305.627988
 10
519.220171
 20
305.55338
 10
519.065881
 20
305.489571
 10
518.916884
 20
305.436561
 10
518.773164
 20
305.394353
 10
518.634706
 20
305.362946
 10
518.501493
 20
305.342341
 10
518.373513
 20
305.332541
 10
518.250748
 20
305.333543
 10
518.133184
 20
305.34535
 10
518.020805
 20
305.367964
 10
517.913597
 20
305.401384
 10
517.811544
 20
305.445611
  0
LWPOLYLINE
  5
48
330
1F
100
AcDbEntity
  8
0
100
AcDbPolyline
 90
      492
 70
   128
 43
0.0
 10
525.230349
 20
257.947411
 10
525.670532
 20
257.947671
 10
526.10552
 20
257.959639
 10
526.536101
 20
257.983487
 10
526.963064
 20
258.019388
 10
527.387198
 20
258.067515
 10
527.809291
 20
258.128043
 10
528.230134
 20
258.201143
 10
528.650514
 20
258.286989
 10
529.071221
 20
258.385755
 10
529.493044
 20
258.497613
 10
529.916771
 20
258.622736
 10
530.343191
 20
258.761299
 10
530.773094
 20
258.913473
 10
531.207268
 20
259.079432
 10
531.646502
 20
259.259349
 10
532.091585
 20
259.453398
 10
532.29266
 20
259.556017
 10
532.560624
 20
259.711305
 10
533.25397
 20
260.147771
 10
534.085123
 20
260.698572
 10
534.967579
 20
261.299485
 10
536.540396
 20
262.394756
 10
537.280407
 20
262.919798
 10
538.668395
 20
263.93924
 10
540.297677
 20
265.123496
 10
541.981642
 20
266.332722
 10
543.533675
 20
267.427073
 10
545.48061
 20
268.777732
 10
547.588201
 20
270.221006
 10
548.657311
 20
270.940382
 10
549.712666
 20
271.638519
 10
550.736295
 20
272.300623
 10
551.710223
 20
272.911894
 10
552.803142
 20
273.574764
 10
553.92894
 20
274.241279
 10
556.165945
 20
275.540003
 10
556.338909
 20
275.632742
 10
556.53193
 20
275.722603
 10
556.743343
 20
275.808299
 10
556.971482
 20
275.888545
 10
557.214683
 20
275.962054
 10
557.471279
 20
276.027541
 10
557.739605
 20
276.083719
 10
558.017996
 20
276.129302
 10
558.304786
 20
276.163005
 10
558.59831
 20
276.183541
 10
558.896903
 20
276.189625
 10
559.198898
 20
276.17997
 10
559.502631
 20
276.153291
 10
559.806437
 20
276.108301
 10
560.108648
 20
276.043714
 10
560.407601
 20
275.958245
 10
561.020031
 20
275.761959
 10
561.513654
 20
275.595531
 10
561.723717
 20
275.514527
 10
561.913444
 20
275.430204
 10
562.085955
 20
275.338969
 10
562.244374
 20
275.237226
 10
562.39182
 20
275.121382
 10
562.531417
 20
274.987842
 10
562.666286
 20
274.833013
 10
562.799548
 20
274.653299
 10
562.934325
 20
274.445107
 10
563.07374
 20
274.204842
 10
563.220912
 20
273.92891
 10
563.378965
 20
273.613717
 10
563.523988
 20
273.330559
 10
563.669872
 20
273.069927
 10
563.812668
 20
272.837275
 10
563.948426
 20
272.638053
 10
564.073195
 20
272.477714
 10
564.183026
 20
272.361709
 10
564.231105
 20
272.322036
 10
564.273967
 20
272.29549
 10
564.31112
 20
272.282754
 10
564.34207
 20
272.284509
 10
564.407045
 20
272.317286
 10
564.489024
 20
272.376477
 10
564.584686
 20
272.458741
 10
564.690707
 20
272.560736
 10
564.920544
 20
272.810556
 10
565.151961
 20
273.099204
 10
565.302917
 20
273.322099
 10
565.367117
 20
273.436243
 10
565.424293
 20
273.554863
 10
565.474814
 20
273.679968
 10
565.519051
 20
273.81357
 10
565.557373
 20
273.957676
 10
565.590152
 20
274.114296
 10
565.640559
 20
274.473119
 10
565.673232
 20
274.906114
 10
565.691134
 20
275.429357
 10
565.697227
 20
276.058925
 10
565.700534
 20
276.773379
 10
565.711963
 20
277.316798
 10
565.737915
 20
277.712538
 10
565.758336
 20
277.862329
 10
565.784788
 20
277.983958
 10
565.81807
 20
278.080348
 10
565.858983
 20
278.154416
 10
565.908326
 20
278.209083
 10
565.966899
 20
278.247269
 10
566.035502
 20
278.271893
 10
566.114936
 20
278.285874
 10
566.309493
 20
278.293591
 10
566.484123
 20
278.301427
 10
566.662619
 20
278.324623
 10
566.844428
 20
278.362843
 10
567.028993
 20
278.41575
 10
567.215759
 20
278.483011
 10
567.40417
 20
278.564288
 10
567.593672
 20
278.659246
 10
567.783709
 20
278.767551
 10
567.973725
 20
278.888865
 10
568.163165
 20
279.022855
 10
568.351474
 20
279.169183
 10
568.538095
 20
279.327516
 10
568.722475
 20
279.497516
 10
568.904057
 20
279.678848
 10
569.082286
 20
279.871178
 10
569.256606
 20
280.074168
 10
569.527376
 20
280.404137
 10
569.721076
 20
280.656147
 10
569.789112
 20
280.757785
 10
569.837984
 20
280.845775
 10
569.867729
 20
280.922064
 10
569.87838
 20
280.988598
 10
569.869973
 20
281.047325
 10
569.842542
 20
281.100191
 10
569.796123
 20
281.149145
 10
569.73075
 20
281.196132
 10
569.543282
 20
281.291997
 10
569.280418
 20
281.403363
 10
569.116192
 20
281.47529
 10
568.972266
 20
281.547329
 10
568.848496
 20
281.620353
 10
568.744738
 20
281.695234
 10
568.660849
 20
281.772845
 10
568.596685
 20
281.854058
 10
568.552103
 20
281.939746
 10
568.526958
 20
282.030781
 10
568.521108
 20
282.128036
 10
568.534408
 20
282.232382
 10
568.566716
 20
282.344693
 10
568.617887
 20
282.465841
 10
568.687778
 20
282.596698
 10
568.776245
 20
282.738137
 10
569.008333
 20
283.05625
 10
569.147445
 20
283.244933
 10
569.264849
 20
283.427696
 10
569.360513
 20
283.604732
 10
569.434406
 20
283.776233
 10
569.486496
 20
283.942391
 10
569.516752
 20
284.103399
 10
569.525142
 20
284.259449
 10
569.511633
 20
284.410734
 10
569.476196
 20
284.557447
 10
569.418797
 20
284.699779
 10
569.339407
 20
284.837922
 10
569.237992
 20
284.972071
 10
569.114521
 20
285.102416
 10
568.968963
 20
285.229151
 10
568.801286
 20
285.352467
 10
568.611458
 20
285.472558
 10
568.430953
 20
285.58565
 10
568.270762
 20
285.700302
 10
568.130746
 20
285.817137
 10
568.010762
 20
285.93678
 10
567.910671
 20
286.059855
 10
567.830332
 20
286.186986
 10
567.769603
 20
286.318797
 10
567.728344
 20
286.455914
 10
567.706414
 20
286.59896
 10
567.703673
 20
286.748559
 10
567.719979
 20
286.905337
 10
567.755191
 20
287.069918
 10
567.80917
 20
287.242925
 10
567.881773
 20
287.424983
 10
567.972861
 20
287.616716
 10
568.082292
 20
287.81875
 10
568.182603
 20
288.002141
 10
568.266795
 20
288.173721
 10
568.334737
 20
288.334091
 10
568.3863
 20
288.483856
 10
568.42135
 20
288.623618
 10
568.439759
 20
288.753979
 10
568.441395
 20
288.875543
 10
568.426127
 20
288.988911
 10
568.393824
 20
289.094688
 10
568.344355
 20
289.193476
 10
568.27759
 20
289.285877
 10
568.193398
 20
289.372495
 10
568.091648
 20
289.453931
 10
567.972209
 20
289.53079
 10
567.83495
 20
289.603674
 10
567.67974
 20
289.673185
 10
567.32262
 20
289.829399
 10
567.178351
 20
289.901821
 10
567.056078
 20
289.972855
 10
566.955154
 20
290.044303
 10
566.874932
 20
290.117967
 10
566.814763
 20
290.195649
 10
566.774
 20
290.279151
 10
566.751995
 20
290.370275
 10
566.748101
 20
290.470822
 10
566.76167
 20
290.582594
 10
566.792054
 20
290.707394
 10
566.838606
 20
290.847022
 10
566.900678
 20
291.003282
 10
567.068791
 20
291.372902
 10
567.210203
 20
291.681251
 10
567.265054
 20
291.817395
 10
567.309095
 20
291.946668
 10
567.342143
 20
292.07293
 10
567.364018
 20
292.200045
 10
567.374539
 20
292.331873
 10
567.373526
 20
292.472277
 10
567.360796
 20
292.625118
 10
567.33617
 20
292.794258
 10
567.250502
 20
293.196882
 10
567.115075
 20
293.711043
 10
566.92844
 20
294.367635
 10
566.693022
 20
295.221086
 10
566.488792
 20
296.029357
 10
566.337635
 20
296.701293
 10
566.288799
 20
296.957648
 10
566.261438
 20
297.145736
 10
566.217056
 20
297.48145
 10
566.18968
 20
297.619266
 10
566.157534
 20
297.737838
 10
566.119633
 20
297.837754
 10
566.074991
 20
297.919602
 10
566.022625
 20
297.983969
 10
565.961548
 20
298.031442
 10
565.890776
 20
298.062609
 10
565.809323
 20
298.078057
 10
565.716205
 20
298.078375
 10
565.610436
 20
298.06415
 10
565.491031
 20
298.035968
 10
565.357005
 20
297.994419
 10
565.04115
 20
297.873565
 10
564.86179
 20
297.790093
 10
564.677633
 20
297.686694
 10
564.489236
 20
297.564235
 10
564.297159
 20
297.423578
 10
564.101961
 20
297.265588
 10
563.904199
 20
297.091127
 10
563.704433
 20
296.901062
 10
563.503221
 20
296.696254
 10
563.301123
 20
296.477568
 10
563.098696
 20
296.245869
 10
562.8965
 20
296.002019
 10
562.695093
 20
295.746883
 10
562.296883
 20
295.206208
 10
561.908534
 20
294.630755
 10
561.534518
 20
294.027436
 10
561.179303
 20
293.40316
 10
560.84736
 20
292.764841
 10
560.543157
 20
292.119389
 10
560.402856
 20
291.796147
 10
560.271166
 20
291.473715
 10
560.148647
 20
291.152954
 10
560.035856
 20
290.83473
 10
559.933353
 20
290.519906
 10
559.841696
 20
290.209346
 10
559.761445
 20
289.903914
 10
559.693157
 20
289.604474
 10
559.590762
 20
289.125612
 10
559.502284
 20
288.768971
 10
559.458688
 20
288.63213
 10
559.413081
 20
288.520618
 10
559.363632
 20
288.432694
 10
559.308512
 20
288.366617
 10
559.24589
 20
288.320646
 10
559.173936
 20
288.293037
 10
559.090819
 20
288.282051
 10
558.99471
 20
288.285944
 10
558.756194
 20
288.331403
 10
558.443745
 20
288.415483
 10
558.142266
 20
288.486473
 10
557.803216
 20
288.542072
 10
557.427252
 20
288.582404
 10
557.015032
 20
288.607593
 10
556.567213
 20
288.617766
 10
556.084452
 20
288.613045
 10
555.567408
 20
288.593556
 10
555.016736
 20
288.559423
 10
554.433096
 20
288.510772
 10
553.817143
 20
288.447726
 10
553.169536
 20
288.370411
 10
552.490932
 20
288.27895
 10
551.781989
 20
288.173469
 10
551.043363
 20
288.054093
 10
550.275712
 20
287.920945
 10
549.479694
 20
287.774151
 10
548.655966
 20
287.613835
 10
547.805185
 20
287.440122
 10
546.025095
 20
287.053004
 10
544.144683
 20
286.613792
 10
542.169209
 20
286.123485
 10
540.103932
 20
285.583079
 10
537.954111
 20
284.993572
 10
535.725006
 20
284.355961
 10
533.421875
 20
283.671244
 10
530.675085
 20
282.839663
 42
0.25054
 10
530.474961
 20
282.639719
 10
529.686726
 20
280.044534
 10
527.77305
 20
280.625774
 10
530.262814
 20
288.823076
 42
0.160679
 10
530.258348
 20
289.010986
 10
529.652875
 20
290.709684
 10
529.525385
 20
291.053329
 10
529.393771
 20
291.381482
 10
529.259134
 20
291.692561
 10
529.122575
 20
291.984984
 10
528.985196
 20
292.25717
 10
528.848099
 20
292.507538
 10
528.712386
 20
292.734505
 10
528.579158
 20
292.93649
 10
528.449516
 20
293.11191
 10
528.324563
 20
293.259186
 10
528.196419
 20
293.385593
 42
0.574722
 10
527.696045
 20
293.249975
 10
526.814643
 20
289.97458
 10
524.883347
 20
290.494288
 10
526.438523
 20
296.273504
 42
0.203086
 10
526.406361
 20
296.505334
 10
526.138403
 20
296.953805
 10
525.984985
 20
297.176216
 10
525.801708
 20
297.41922
 10
525.341696
 20
297.993399
 10
525.149544
 20
298.219553
 10
524.901682
 20
298.494873
 10
524.619174
 20
298.796182
 10
524.323087
 20
299.100302
 10
524.034484
 20
299.384055
 10
523.77443
 20
299.624264
 10
523.563991
 20
299.797751
 10
523.483959
 20
299.852232
 10
523.42423
 20
299.88134
 10
523.308
 20
299.911473
 10
523.186979
 20
299.927433
 42
0.419167
 10
522.849711
 20
299.664205
 10
522.551569
 20
297.065748
 10
520.564605
 20
297.293728
 10
521.061501
 20
301.624427
 42
0.306261
 10
520.906302
 20
301.922433
 10
520.411173
 20
302.190532
 10
520.026268
 20
302.367065
 10
519.609862
 20
302.533162
 10
519.187901
 20
302.679164
 10
518.786336
 20
302.795411
 10
518.60131
 20
302.839357
 10
518.431114
 20
302.872243
 10
518.278991
 20
302.892859
 10
518.148184
 20
302.9
 10
517.928955
 20
302.891864
 10
517.833046
 20
302.87669
 10
517.742641
 20
302.849664
 10
517.655015
 20
302.807449
 10
517.567442
 20
302.746709
 10
517.477199
 20
302.664108
 10
517.381559
 20
302.556309
 10
517.277799
 20
302.419977
 10
517.163192
 20
302.251774
 10
516.890541
 20
301.806414
 10
516.541806
 20
301.193539
 10
516.095187
 20
300.386458
 10
515.727462
 20
299.728881
 10
515.372486
 20
299.111981
 10
515.070705
 20
298.604971
 10
514.862564
 20
298.277066
 10
514.763164
 20
298.12473
 10
514.681309
 20
297.980606
 10
514.617754
 20
297.842562
 10
514.573253
 20
297.708469
 10
514.548562
 20
297.576198
 10
514.544437
 20
297.443618
 10
514.561633
 20
297.308599
 10
514.600904
 20
297.169013
 10
514.663007
 20
297.022728
 10
514.748696
 20
296.867615
 10
514.858726
 20
296.701544
 10
514.993854
 20
296.522386
 10
515.154834
 20
296.32801
 10
515.342422
 20
296.116287
 10
515.800442
 20
295.632278
 10
516.07427
 20
295.345188
 10
516.342741
 20
295.051918
 10
516.60575
 20
294.752672
 10
516.863196
 20
294.447656
 10
517.114976
 20
294.137075
 10
517.360989
 20
293.821135
 10
517.60113
 20
293.500042
 10
517.835299
 20
293.174001
 10
518.063393
 20
292.843217
 10
518.285309
 20
292.507897
 10
518.500946
 20
292.168244
 10
518.710199
 20
291.824465
 10
518.912969
 20
291.476766
 10
519.109151
 20
291.125352
 10
519.298643
 20
290.770427
 10
519.481344
 20
290.412199
 10
519.657151
 20
290.050872
 10
519.825961
 20
289.686651
 10
519.987672
 20
289.319743
 10
520.142181
 20
288.950353
 10
520.289387
 20
288.578685
 10
520.429187
 20
288.204947
 10
520.561479
 20
287.829342
 10
520.686159
 20
287.452077
 10
520.803126
 20
287.073357
 10
520.912278
 20
286.693388
 10
521.013512
 20
286.312374
 10
521.106725
 20
285.930522
 10
521.191816
 20
285.548038
 10
521.268681
 20
285.165125
 10
521.337219
 20
284.781991
 10
521.397327
 20
284.39884
 10
521.482513
 20
283.727085
 10
521.546609
 20
283.028966
 10
521.589939
 20
282.308352
 10
521.612829
 20
281.569114
 10
521.615603
 20
280.81512
 10
521.598586
 20
280.050242
 10
521.562103
 20
279.278349
 10
521.50648
 20
278.503312
 10
521.43204
 20
277.729001
 10
521.339109
 20
276.959284
 10
521.228011
 20
276.198033
 10
521.099072
 20
275.449118
 10
520.952616
 20
274.716409
 10
520.788969
 20
274.003775
 10
520.608455
 20
273.315086
 10
520.411398
 20
272.654214
 10
520.263747
 20
272.150017
 10
520.144423
 20
271.64919
 42
0.436937
 10
520.389365
 20
271.283347
 10
527.802664
 20
270.110253
 10
527.49007
 20
268.134833
 10
519.673218
 20
269.371785
 42
0.292154
 10
519.377174
 20
269.242571
 10
518.96251
 20
268.62428
 10
518.563555
 20
268.053764
 10
518.125346
 20
267.446841
 10
517.674252
 20
266.840592
 10
517.236636
 20
266.272101
 10
516.838866
 20
265.778451
 10
516.577627
 20
265.4544
 10
516.346615
 20
265.14625
 10
516.145596
 20
264.852617
 10
515.974336
 20
264.572118
 10
515.832604
 20
264.303368
 10
515.720164
 20
264.044985
 10
515.636783
 20
263.795583
 10
515.582229
 20
263.55378
 10
515.556268
 20
263.318191
 10
515.558666
 20
263.087433
 10
515.589191
 20
262.860121
 10
515.647608
 20
262.634872
 10
515.733684
 20
262.410302
 10
515.847186
 20
262.185027
 10
515.98788
 20
261.957663
 10
516.155534
 20
261.726827
 10
516.481889
 20
261.323345
 10
516.640103
 20
261.142108
 10
516.797852
 20
260.972389
 10
516.957265
 20
260.812571
 10
517.120475
 20
260.661043
 10
517.289613
 20
260.516188
 10
517.46681
 20
260.376392
 10
517.654198
 20
260.240041
 10
517.853908
 20
260.105521
 10
518.29882
 20
259.835515
 10
518.818598
 20
259.553458
 10
519.430294
 20
259.246435
 10
519.810723
 20
259.064312
 10
520.171788
 20
258.899447
 10
520.517129
 20
258.751027
 10
520.85038
 20
258.618237
 10
521.17518
 20
258.500263
 10
521.495165
 20
258.39629
 10
521.813973
 20
258.305504
 10
522.135239
 20
258.227089
 10
522.462603
 20
258.160231
 10
522.799699
 20
258.104117
 10
523.150166
 20
258.05793
 10
523.51764
 20
258.020858
 10
523.905758
 20
257.992084
 10
524.318158
 20
257.970794
 10
525.230349
 20
257.947411
  0
LWPOLYLINE
  5
49
330
1F
100
AcDbEntity
  8
0
100
AcDbPolyline
 90
      117
 70
   128
 43
0.0
 10
358.138018
 20
297.375722
 42
0.380559
 10
358.427177
 20
297.650509
 10
358.760896
 20
301.632776
 10
360.75391
 20
301.465758
 10
360.406055
 20
297.314799
 42
0.383947
 10
360.648927
 20
296.995035
 10
361.216554
 20
296.887024
 10
361.696399
 20
296.821623
 10
362.263862
 20
296.766164
 10
362.924275
 20
296.720336
 10
363.68297
 20
296.68383
 10
364.545282
 20
296.656337
 10
365.516542
 20
296.637547
 10
366.521134
 20
296.627925
 10
367.525691
 20
296.640676
 10
368.496888
 20
296.662491
 10
369.35911
 20
296.69267
 10
370.117688
 20
296.731538
 10
370.777955
 20
296.779423
 10
371.345242
 20
296.836649
 10
371.824881
 20
296.903545
 10
372.392169
 20
297.013323
 42
0.383947
 10
372.634045
 20
297.333842
 10
372.273262
 20
301.483698
 10
374.265746
 20
301.656922
 10
374.611867
 20
297.675714
 42
0.380559
 10
374.901881
 20
297.401828
 10
375.148444
 20
297.394545
 10
375.430001
 20
297.412776
 10
375.757915
 20
297.454404
 10
376.135718
 20
297.517545
 10
377.055119
 20
297.700832
 10
377.55255
 20
297.812285
 10
378.041964
 20
297.935731
 10
378.52167
 20
298.070391
 10
378.989973
 20
298.215486
 10
379.445182
 20
298.370233
 10
379.885605
 20
298.533856
 10
380.309547
 20
298.705573
 10
380.715316
 20
298.884605
 10
381.101221
 20
299.070173
 10
381.465566
 20
299.261497
 10
381.806661
 20
299.457799
 10
382.122811
 20
299.658296
 10
382.412326
 20
299.862211
 10
382.67351
 20
300.068763
 10
382.904672
 20
300.277173
 10
383.104119
 20
300.486663
 10
383.399447
 20
300.839611
 10
383.51824
 20
300.996992
 10
383.618283
 20
301.14501
 10
383.699951
 20
301.286191
 10
383.763617
 20
301.423059
 10
383.809655
 20
301.558138
 10
383.838438
 20
301.693955
 10
383.850341
 20
301.833032
 10
383.845737
 20
301.977897
 10
383.825
 20
302.131072
 10
383.788503
 20
302.295084
 10
383.736619
 20
302.472456
 10
383.669724
 20
302.665714
 10
383.492391
 20
303.109986
 10
379.060976
 20
311.061386
 10
376.130987
 20
311.056823
 42
0.555071
 10
375.862329
 20
310.624265
 10
379.008818
 20
304.23615
 10
377.214651
 20
303.352427
 10
373.504519
 20
310.884872
 42
0.286115
 10
373.234926
 20
311.052313
 10
371.498681
 20
311.049609
 10
371.505262
 20
306.823461
 10
366.505268
 20
306.815675
 10
361.505275
 20
306.807888
 10
361.498693
 20
311.034036
 10
359.762448
 20
311.031332
 42
0.286115
 10
359.493378
 20
310.863052
 10
355.806724
 20
303.319088
 10
354.009814
 20
304.197218
 10
357.136391
 20
310.595103
 42
0.555071
 10
356.866387
 20
311.026822
 10
353.936398
 20
311.022259
 10
349.52977
 20
303.057095
 10
349.353822
 20
302.612273
 10
349.287529
 20
302.418808
 10
349.236198
 20
302.241275
 10
349.200212
 20
302.07715
 10
349.179952
 20
301.923911
 10
349.175799
 20
301.779033
 10
349.188135
 20
301.639993
 10
349.217341
 20
301.504267
 10
349.2638
 20
301.369332
 10
349.327892
 20
301.232663
 10
349.409999
 20
301.091737
 10
349.510503
 20
300.944031
 10
349.629785
 20
300.787021
 10
349.926211
 20
300.434994
 10
350.126309
 20
300.226127
 10
350.358119
 20
300.018438
 10
350.619946
 20
299.8127
 10
350.910094
 20
299.609688
 10
351.226867
 20
299.410176
 10
351.568572
 20
299.214938
 10
351.933511
 20
299.02475
 10
352.319992
 20
298.840384
 10
352.726317
 20
298.662617
 10
353.150792
 20
298.492221
 10
353.591722
 20
298.329971
 10
354.047411
 20
298.176642
 10
354.516164
 20
298.033007
 10
354.996287
 20
297.899842
 10
355.486083
 20
297.77792
 10
355.983858
 20
297.668017
 10
356.903826
 20
297.487595
 10
357.281824
 20
297.425631
 10
357.609866
 20
297.385024
 10
357.891478
 20
297.36767
 10
358.138018
 20
297.375722
  0
LWPOLYLINE
  5
4A
330
1F
100
AcDbEntity
  8
0
100
AcDbPolyline
 90
        5
 70
   128
 43
0.0
 10
424.368295
 20
263.756525
 10
426.345897
 20
264.054999
 10
428.509368
 20
249.720486
 10
426.531765
 20
249.422011
 10
424.368295
 20
263.756525
  0
LWPOLYLINE
  5
4B
330
1F
100
AcDbEntity
  8
0
100
AcDbPolyline
 90
      560
 70
   128
 43
0.0
 10
354.842374
 20
217.253397
 42
0.459438
 10
355.288285
 20
217.345052
 10
359.854885
 20
225.572194
 10
361.603565
 20
224.601563
 10
356.989793
 20
216.289439
 42
0.463724
 10
357.151854
 20
215.861087
 10
357.449327
 20
215.755629
 10
357.606212
 20
215.714444
 10
357.795905
 20
215.685822
 10
358.001901
 20
215.678411
 10
358.222477
 20
215.691495
 10
358.455913
 20
215.724354
 10
358.700489
 20
215.776265
 10
358.954483
 20
215.846513
 10
359.216176
 20
215.934374
 10
359.483845
 20
216.039134
 10
359.755772
 20
216.160066
 10
360.030237
 20
216.296457
 10
360.305517
 20
216.447583
 10
360.57989
 20
216.612726
 10
360.85164
 20
216.791166
 10
361.119043
 20
216.982184
 10
361.380379
 20
217.18506
 10
361.633927
 20
217.399072
 10
362.014641
 20
217.722657
 10
362.351692
 20
217.987681
 10
362.608511
 20
218.166796
 10
362.695404
 20
218.215588
 10
362.748524
 20
218.232645
 10
362.91681
 20
218.232892
 10
365.641572
 20
216.403798
 10
366.256895
 20
215.996146
 10
366.868346
 20
215.601924
 10
367.476034
 20
215.221095
 10
368.080067
 20
214.85362
 10
368.680556
 20
214.499456
 10
369.277608
 20
214.158569
 10
369.871337
 20
213.830916
 10
370.461849
 20
213.51646
 10
371.049255
 20
213.215159
 10
371.633663
 20
212.926976
 10
372.215183
 20
212.65187
 10
372.793926
 20
212.389803
 10
373.37
 20
212.140735
 10
373.943515
 20
211.904627
 10
374.514579
 20
211.681439
 10
375.083304
 20
211.471133
 10
375.649797
 20
211.273669
 10
376.214171
 20
211.089006
 10
376.776531
 20
210.917107
 10
377.336988
 20
210.757932
 10
377.895655
 20
210.611441
 10
378.452636
 20
210.477596
 10
379.008043
 20
210.356357
 10
379.561988
 20
210.247684
 10
380.114577
 20
210.151538
 10
380.665919
 20
210.067881
 10
381.216126
 20
209.996672
 10
381.765307
 20
209.937872
 10
382.31357
 20
209.891443
 10
382.861025
 20
209.857343
 10
383.407783
 20
209.835536
 10
383.953952
 20
209.825979
 10
384.804907
 20
209.830043
 10
385.641362
 20
209.854142
 10
386.467782
 20
209.899865
 10
387.288628
 20
209.968812
 10
388.108365
 20
210.062572
 10
388.931458
 20
210.182741
 10
389.762369
 20
210.330911
 10
390.60556
 20
210.508677
 10
391.465499
 20
210.717634
 10
392.346645
 20
210.959372
 10
393.253463
 20
211.235488
 10
394.190419
 20
211.547575
 10
395.161972
 20
211.897224
 10
396.172589
 20
212.286034
 10
397.226733
 20
212.715593
 10
398.328866
 20
213.187498
 10
398.81536
 20
213.40545
 10
399.325879
 20
213.643201
 10
400.388407
 20
214.160509
 10
401.455277
 20
214.704243
 10
402.465324
 20
215.239222
 10
403.357377
 20
215.730265
 10
404.070267
 20
216.142192
 10
404.420401
 20
216.356442
 42
0.432885
 10
404.509291
 20
216.784799
 10
398.767703
 20
224.957005
 10
400.404185
 20
226.106756
 10
405.993325
 20
218.151533
 42
0.550215
 10
406.499574
 20
218.175686
 10
406.548652
 20
218.261983
 10
406.648553
 20
218.46829
 10
406.749527
 20
218.705932
 10
406.851182
 20
218.973011
 10
406.953123
 20
219.267626
 10
407.054955
 20
219.587885
 10
407.25672
 20
220.297734
 10
407.453321
 20
221.087374
 10
407.641607
 20
221.941624
 10
407.818424
 20
222.845302
 10
407.98062
 20
223.783224
 10
408.125041
 20
224.740213
 10
408.248534
 20
225.701085
 10
408.347944
 20
226.650657
 10
408.420124
 20
227.573747
 10
408.445014
 20
228.020619
 10
408.461914
 20
228.455177
 10
408.470428
 20
228.875524
 10
408.470164
 20
229.279761
 10
408.455272
 20
229.860472
 10
408.424258
 20
230.422759
 10
408.376199
 20
230.9675
 10
408.310171
 20
231.495572
 10
408.22525
 20
232.007849
 10
408.12051
 20
232.505206
 10
407.995033
 20
232.988518
 10
407.847889
 20
233.458662
 10
407.678156
 20
233.916513
 10
407.48491
 20
234.362945
 10
407.267228
 20
234.798834
 10
407.024185
 20
235.225057
 10
406.754858
 20
235.642488
 10
406.458323
 20
236.052004
 10
406.133653
 20
236.454477
 10
405.77993
 20
236.850785
 10
405.396224
 20
237.241802
 10
404.981613
 20
237.628405
 10
404.535176
 20
238.011468
 10
404.055986
 20
238.391868
 10
403.543119
 20
238.770481
 10
402.995652
 20
239.148179
 10
402.41266
 20
239.525838
 10
401.793222
 20
239.904336
 10
401.136409
 20
240.284548
 10
400.441303
 20
240.667347
 10
399.706977
 20
241.053611
 10
398.932506
 20
241.444213
 10
398.116966
 20
241.840032
 10
397.259436
 20
242.241939
 10
396.358989
 20
242.650811
 10
395.414703
 20
243.067525
 10
393.995855
 20
243.681363
 10
392.462984
 20
244.335065
 10
390.925793
 20
244.978417
 10
389.493991
 20
245.561203
 10
388.974229
 20
245.772588
 10
388.500933
 20
245.97447
 10
388.071343
 20
246.169616
 10
387.6827
 20
246.360793
 10
387.332244
 20
246.550767
 10
387.017212
 20
246.742306
 10
386.734848
 20
246.938177
 10
386.482391
 20
247.141146
 10
386.257077
 20
247.353983
 10
386.056149
 20
247.579449
 10
385.876848
 20
247.820318
 10
385.716412
 20
248.079351
 10
385.572082
 20
248.359318
 10
385.441095
 20
248.662986
 10
385.320694
 20
248.993122
 10
385.208116
 20
249.352491
 10
385.14568
 20
249.585885
 10
385.088731
 20
249.839248
 10
385.037225
 20
250.111502
 10
384.991117
 20
250.401571
 10
384.914916
 20
251.030829
 10
384.859768
 20
251.718391
 10
384.825312
 20
252.45563
 10
384.811192
 20
253.23391
 10
384.817043
 20
254.044608
 10
384.84251
 20
254.879088
 10
384.887231
 20
255.728722
 10
384.950846
 20
256.58488
 10
385.032998
 20
257.43893
 10
385.133324
 20
258.282244
 10
385.251467
 20
259.106189
 10
385.387065
 20
259.902139
 10
385.53976
 20
260.66146
 10
385.709192
 20
261.375522
 10
385.866247
 20
262.044667
 10
386.027061
 20
262.768722
 10
386.113704
 20
263.132221
 10
386.207079
 20
263.486506
 10
386.309115
 20
263.82393
 10
386.421745
 20
264.136845
 10
386.601029
 20
264.617365
 10
386.676189
 20
264.817692
 10
386.752296
 20
264.995073
 10
386.837298
 20
265.152269
 10
386.939147
 20
265.292036
 10
386.998873
 20
265.356248
 10
387.065793
 20
265.417137
 10
387.140898
 20
265.475047
 10
387.225185
 20
265.530325
 10
387.425274
 20
265.634362
 10
387.674009
 20
265.732006
 10
387.979342
 20
265.826016
 10
388.349221
 20
265.91915
 10
388.791601
 20
266.014166
 10
389.314426
 20
266.113824
 10
390.633219
 20
266.338097
 10
391.250681
 20
266.450526
 10
391.901568
 20
266.588728
 10
393.258375
 20
266.911828
 10
394.613141
 20
267.246146
 10
395.261479
 20
267.398369
 10
395.875371
 20
267.530426
 10
396.253663
 20
267.612447
 10
396.603276
 20
267.700779
 10
396.924799
 20
267.796182
 10
397.218814
 20
267.899422
 10
397.48591
 20
268.011263
 10
397.726672
 20
268.13247
 10
397.941686
 20
268.263807
 10
398.131538
 20
268.406038
 10
398.296815
 20
268.559927
 10
398.4381
 20
268.726239
 10
398.555981
 20
268.905739
 10
398.651045
 20
269.09919
 10
398.723878
 20
269.307355
 10
398.775065
 20
269.531003
 10
398.805191
 20
269.770893
 10
398.814844
 20
270.027793
 10
398.810624
 20
270.302594
 10
398.796904
 20
270.516663
 10
398.770749
 20
270.674881
 10
398.75209
 20
270.734569
 10
398.729223
 20
270.782122
 10
398.701778
 20
270.818152
 10
398.669391
 20
270.843264
 10
398.631692
 20
270.858074
 10
398.588316
 20
270.863185
 10
398.483062
 20
270.84676
 10
398.350694
 20
270.798867
 10
397.923246
 20
270.62977
 10
397.738043
 20
270.56747
 10
397.569528
 20
270.52056
 10
397.41596
 20
270.489452
 10
397.275593
 20
270.474568
 10
397.146688
 20
270.47632
 10
397.027498
 20
270.495129
 10
396.916281
 20
270.531408
 10
396.811294
 20
270.585578
 10
396.710795
 20
270.658052
 10
396.613041
 20
270.749249
 10
396.516286
 20
270.859584
 10
396.41879
 20
270.989476
 10
396.214599
 20
271.309594
 10
396.041555
 20
271.589892
 10
395.872577
 20
271.836303
 10
395.704665
 20
272.049374
 10
395.53483
 20
272.229654
 10
395.360077
 20
272.377693
 10
395.26992
 20
272.439792
 10
395.17741
 20
272.494039
 10
395.082174
 20
272.540499
 10
394.983837
 20
272.579241
 10
394.882025
 20
272.610335
 10
394.776362
 20
272.633849
 10
394.666477
 20
272.64985
 10
394.551992
 20
272.65841
 10
394.307735
 20
272.653474
 10
394.040594
 20
272.61959
 10
393.747578
 20
272.557307
 10
393.425688
 20
272.467173
 10
393.071935
 20
272.349737
 10
392.683322
 20
272.20555
 10
392.256857
 20
272.035157
 10
391.70686
 20
271.813196
 10
391.191045
 20
271.613409
 10
390.707049
 20
271.435351
 10
390.25251
 20
271.278572
 10
389.825067
 20
271.142625
 10
389.422354
 20
271.027064
 10
389.042011
 20
270.93144
 10
388.681675
 20
270.855305
 10
388.338983
 20
270.798211
 10
388.011572
 20
270.759711
 10
387.697078
 20
270.739358
 10
387.393141
 20
270.736702
 10
387.097396
 20
270.751296
 10
386.807483
 20
270.782694
 10
386.521039
 20
270.830447
 10
386.235698
 20
270.894107
 10
385.978952
 20
270.95308
 10
385.732157
 20
270.999717
 10
385.405359
 20
271.047664
 42
0.371635
 10
385.074615
 20
270.837547
 10
383.518426
 20
265.682945
 10
381.603779
 20
266.260981
 10
383.43972
 20
272.342216
 42
0.501007
 10
383.154378
 20
272.728916
 10
378.33673
 20
272.758718
 42
0.200901
 10
378.122432
 20
272.670544
 10
377.795957
 20
272.343113
 10
377.70365
 20
272.237574
 10
377.623635
 20
272.118334
 10
377.555915
 20
271.985234
 10
377.500487
 20
271.838109
 10
377.457351
 20
271.676799
 10
377.42651
 20
271.501143
 10
377.407961
 20
271.310976
 10
377.401705
 20
271.106139
 10
377.407741
 20
270.88647
 10
377.426071
 20
270.651807
 10
377.456693
 20
270.401987
 10
377.499607
 20
270.13685
 10
377.554814
 20
269.856233
 10
377.622312
 20
269.559976
 10
377.702103
 20
269.247914
 10
377.794187
 20
268.919889
 10
377.926718
 20
268.454756
 10
377.977083
 20
268.257283
 10
378.016072
 20
268.076497
 10
378.043104
 20
267.907374
 10
378.0576
 20
267.744882
 10
378.05898
 20
267.583989
 10
378.046662
 20
267.41967
 10
378.020064
 20
267.246894
 10
377.97861
 20
267.060631
 10
377.921715
 20
266.855853
 10
377.848801
 20
266.627529
 10
377.652589
 20
266.080131
 10
377.385329
 20
265.378199
 10
377.19308
 20
264.864771
 10
377.029047
 20
264.396733
 10
376.893574
 20
263.971005
 10
376.787007
 20
263.584512
 10
376.709691
 20
263.234174
 10
376.66197
 20
262.916916
 10
376.644187
 20
262.629661
 10
376.646632
 20
262.496323
 10
376.656689
 20
262.369333
 10
376.674404
 20
262.248304
 10
376.69982
 20
262.132853
 10
376.732979
 20
262.022594
 10
376.773924
 20
261.917144
 10
376.822698
 20
261.816118
 10
376.879344
 20
261.719132
 10
376.943907
 20
261.625797
 10
377.016428
 20
261.535735
 10
377.185518
 20
261.36388
 10
377.38696
 20
261.200487
 10
377.621097
 20
261.042482
 10
377.888274
 20
260.886787
 10
378.142325
 20
260.739336
 10
378.377663
 20
260.585301
 10
378.594197
 20
260.424053
 10
378.791837
 20
260.254967
 10
378.970494
 20
260.07742
 10
379.130078
 20
259.890783
 10
379.270498
 20
259.694435
 10
379.391663
 20
259.487746
 10
379.493484
 20
259.270095
 10
379.575873
 20
259.040854
 10
379.638734
 20
258.799397
 10
379.681982
 20
258.545101
 10
379.705524
 20
258.277341
 10
379.709273
 20
257.995489
 10
379.693133
 20
257.69892
 10
379.657018
 20
257.387012
 10
379.60084
 20
257.059137
 10
379.524502
 20
256.714668
 10
379.427919
 20
256.352984
 10
379.311
 20
255.973457
 10
379.173653
 20
255.575461
 10
379.01579
 20
255.158372
 10
378.83732
 20
254.721565
 10
378.638152
 20
254.264414
 10
378.418198
 20
253.786295
 10
378.177363
 20
253.286579
 10
377.915562
 20
252.764645
 10
377.632702
 20
252.219864
 10
377.003448
 20
251.059267
 10
376.288878
 20
249.799784
 10
375.763724
 20
248.898546
 10
375.538387
 20
248.526222
 10
375.328275
 20
248.196881
 10
375.126192
 20
247.903612
 10
374.924935
 20
247.639502
 10
374.717307
 20
247.397642
 10
374.496107
 20
247.17112
 10
374.254135
 20
246.953023
 10
373.984192
 20
246.736445
 10
373.679078
 20
246.514468
 10
373.331597
 20
246.280186
 10
372.480722
 20
245.747056
 10
371.373972
 20
245.081766
 10
368.030278
 20
243.0823
 10
365.77249
 20
241.265639
 10
365.28722
 20
240.862508
 10
364.773172
 20
240.41257
 10
364.245981
 20
239.930955
 10
363.721284
 20
239.432791
 10
363.21472
 20
238.933206
 10
362.741922
 20
238.44733
 10
362.318528
 20
237.990289
 10
361.960175
 20
237.577213
 10
361.39614
 20
236.91105
 10
361.155124
 20
236.642975
 10
360.935456
 20
236.416274
 10
360.732644
 20
236.229478
 10
360.542196
 20
236.08111
 10
360.359622
 20
235.969702
 10
360.269884
 20
235.927397
 10
360.180432
 20
235.893781
 10
360.090701
 20
235.868667
 10
360.000132
 20
235.851872
 10
359.908164
 20
235.843216
 10
359.814234
 20
235.842509
 10
359.618245
 20
235.864216
 10
359.407676
 20
235.915521
 10
359.178033
 20
235.994953
 10
358.924828
 20
236.10104
 10
358.329763
 20
236.38729
 10
358.1599
 20
236.4679
 10
357.993654
 20
236.537724
 10
357.83175
 20
236.596761
 10
357.674902
 20
236.645012
 10
357.52383
 20
236.68248
 10
357.379254
 20
236.709167
 10
357.24189
 20
236.725071
 10
357.112458
 20
236.730199
 10
356.991677
 20
236.724546
 10
356.880266
 20
236.708118
 10
356.778944
 20
236.680917
 10
356.688426
 20
236.642944
 10
356.609436
 20
236.594196
 10
356.542689
 20
236.534679
 10
356.488903
 20
236.464395
 10
356.4488
 20
236.383342
 10
356.437702
 20
236.335472
 10
356.432719
 20
236.2672
 10
356.440207
 20
236.074573
 10
356.469493
 20
235.815701
 10
356.518805
 20
235.500829
 10
356.58637
 20
235.140198
 10
356.670417
 20
234.744052
 10
356.769173
 20
234.322631
 10
356.880867
 20
233.886178
 10
357.450911
 20
231.750155
 10
357.279602
 20
231.578344
 10
357.256916
 20
231.564388
 10
357.224596
 20
231.557781
 10
357.133468
 20
231.565565
 10
357.011058
 20
231.599598
 10
356.86221
 20
231.657781
 10
356.691765
 20
231.738015
 10
356.504562
 20
231.838201
 10
356.305446
 20
231.956242
 10
356.099254
 20
232.090035
 10
355.714611
 20
232.334033
 10
355.534495
 20
232.435468
 10
355.362733
 20
232.523154
 10
355.19949
 20
232.597056
 10
355.04493
 20
232.657144
 10
354.899215
 20
232.703388
 10
354.762513
 20
232.735754
 10
354.634984
 20
232.754212
 10
354.516793
 20
232.758731
 10
354.408105
 20
232.749278
 10
354.309082
 20
232.725822
 10
354.219891
 20
232.688332
 10
354.14069
 20
232.636776
 10
354.071648
 20
232.571121
 10
354.012928
 20
232.491339
 10
353.997105
 20
232.453723
 10
353.985267
 20
232.399493
 10
353.973176
 20
232.245325
 10
353.975941
 20
232.037111
 10
353.992847
 20
231.783119
 10
354.023175
 20
231.491621
 10
354.066211
 20
231.17089
 10
354.121237
 20
230.829192
 10
354.187539
 20
230.474802
 10
354.298155
 20
229.912148
 10
354.373474
 20
229.479147
 10
354.410609
 20
229.151472
 10
354.413955
 20
229.019528
 10
354.406671
 20
228.904794
 10
354.388397
 20
228.804226
 10
354.358773
 20
228.714785
 10
354.317436
 20
228.633429
 10
354.264027
 20
228.557118
 10
354.198184
 20
228.48281
 10
354.119545
 20
228.407464
 10
353.922439
 20
228.241493
 10
353.789988
 20
228.141513
 10
353.64832
 20
228.048214
 10
353.501829
 20
227.963639
 10
353.354909
 20
227.889833
 10
353.211957
 20
227.82884
 10
353.077368
 20
227.782703
 10
352.955536
 20
227.753466
 10
352.850858
 20
227.743174
 10
352.730529
 20
227.733344
 10
352.610001
 20
227.705103
 10
352.490383
 20
227.659803
 10
352.372789
 20
227.598794
 10
352.258331
 20
227.523426
 10
352.148122
 20
227.435049
 10
352.043274
 20
227.335014
 10
351.944898
 20
227.224672
 10
351.854109
 20
227.105371
 10
351.772016
 20
226.978465
 10
351.699733
 20
226.845301
 10
351.638375
 20
226.707231
 10
351.589051
 20
226.565606
 10
351.552873
 20
226.421774
 10
351.530956
 20
226.27709
 10
351.52441
 20
226.132899
 10
351.536243
 20
225.959012
 10
351.567093
 20
225.764667
 10
351.615119
 20
225.553726
 10
351.678483
 20
225.330043
 10
351.755343
 20
225.097481
 10
351.843859
 20
224.859899
 10
351.942191
 20
224.621153
 10
352.0485
 20
224.385105
 10
352.160943
 20
224.155614
 10
352.277681
 20
223.936538
 10
352.396874
 20
223.731736
 10
352.516681
 20
223.545068
 10
352.635264
 20
223.380395
 10
352.75078
 20
223.241572
 10
352.86139
 20
223.132459
 10
352.965254
 20
223.056919
 10
353.135479
 20
222.968935
 10
353.257407
 20
222.910801
 10
353.300866
 20
222.884201
 10
353.332978
 20
222.854594
 10
353.353988
 20
222.818487
 10
353.364133
 20
222.772391
 10
353.36366
 20
222.712818
 10
353.352812
 20
222.636273
 10
353.300954
 20
222.418316
 10
353.083391
 20
221.625202
 10
353.023418
 20
221.371863
 10
352.974552
 20
221.107619
 10
352.937346
 20
220.840252
 10
352.912355
 20
220.577543
 10
352.900136
 20
220.327271
 10
352.90124
 20
220.097217
 10
352.916224
 20
219.895163
 10
352.945638
 20
219.728887
 10
352.999584
 20
219.561178
 10
353.079454
 20
219.376637
 10
353.182022
 20
219.179084
 10
353.304067
 20
218.972333
 10
353.442361
 20
218.760203
 10
353.593679
 20
218.546509
 10
353.754797
 20
218.335067
 10
353.922492
 20
218.129693
 10
354.093536
 20
217.934205
 10
354.264704
 20
217.752418
 10
354.432774
 20
217.588149
 10
354.594519
 20
217.445214
 10
354.842374
 20
217.253397
  0
LWPOLYLINE
  5
4C
330
1F
100
AcDbEntity
  8
0
100
AcDbPolyline
 90
        5
 70
   128
 43
0.0
 10
448.356969
 20
286.716271
 10
450.352467
 20
286.582164
 10
451.324536
 20
301.046394
 10
449.329037
 20
301.180502
 10
448.356969
 20
286.716271
  0
LWPOLYLINE
  5
4D
330
1F
100
AcDbEntity
  8
0
100
AcDbPolyline
 90
      436
 70
   128
 43
0.0
 10
486.19375
 20
284.68547
 10
486.447882
 20
284.678818
 10
486.741013
 20
284.687836
 10
487.067314
 20
284.711343
 10
487.42096
 20
284.748157
 10
487.796123
 20
284.797095
 10
488.186976
 20
284.856976
 10
488.587692
 20
284.926618
 10
488.992444
 20
285.004838
 10
489.395405
 20
285.090455
 10
489.790747
 20
285.182287
 10
490.172645
 20
285.279152
 10
490.535271
 20
285.379868
 10
490.872798
 20
285.483253
 10
491.179399
 20
285.588124
 10
491.449247
 20
285.693301
 10
491.676515
 20
285.797601
 10
491.881889
 20
285.90682
 10
492.092401
 20
286.028141
 10
492.516427
 20
286.296915
 10
493.624788
 20
287.076891
 42
0.654112
 10
493.515067
 20
287.615556
 10
492.205426
 20
287.896522
 10
491.673972
 20
288.019673
 10
491.149264
 20
288.150546
 10
490.631178
 20
288.289203
 10
490.119589
 20
288.435705
 10
489.61437
 20
288.590113
 10
489.115398
 20
288.75249
 10
488.622546
 20
288.922896
 10
488.135689
 20
289.101394
 10
487.654702
 20
289.288045
 10
487.179459
 20
289.482911
 10
486.709835
 20
289.686053
 10
486.245705
 20
289.897532
 10
485.786942
 20
290.117411
 10
485.333423
 20
290.345751
 10
484.885022
 20
290.582614
 10
484.441612
 20
290.828061
 10
484.003069
 20
291.082153
 10
483.569268
 20
291.344953
 10
483.140083
 20
291.616522
 10
482.715389
 20
291.896921
 10
482.29506
 20
292.186213
 10
481.878971
 20
292.484458
 10
481.466996
 20
292.791718
 10
481.059011
 20
293.108056
 10
480.65489
 20
293.433532
 10
480.254508
 20
293.768208
 10
479.857738
 20
294.112145
 10
479.464457
 20
294.465406
 10
479.074538
 20
294.828052
 10
478.633642
 20
295.253425
 10
478.203138
 20
295.685426
 10
477.783037
 20
296.124037
 10
477.373347
 20
296.56924
 10
476.974077
 20
297.021019
 10
476.585237
 20
297.479357
 10
476.206835
 20
297.944235
 10
475.838881
 20
298.415637
 10
475.481384
 20
298.893545
 10
475.134353
 20
299.377943
 10
474.797798
 20
299.868813
 10
474.471726
 20
300.366138
 10
474.156148
 20
300.8699
 10
473.851072
 20
301.380083
 10
473.556509
 20
301.896669
 10
473.272466
 20
302.41964
 10
472.998953
 20
302.948981
 10
472.735979
 20
303.484672
 10
472.483553
 20
304.026698
 10
472.241684
 20
304.575041
 10
472.010383
 20
305.129683
 10
471.789656
 20
305.690608
 10
471.579515
 20
306.257798
 10
471.379967
 20
306.831236
 10
471.191023
 20
307.410904
 10
471.01269
 20
307.996786
 10
470.844979
 20
308.588864
 10
470.687899
 20
309.187122
 10
470.541458
 20
309.791541
 10
470.405665
 20
310.402104
 10
470.280531
 20
311.018795
 10
470.166063
 20
311.641596
 10
470.098748
 20
312.051656
 10
470.039654
 20
312.462355
 10
469.988733
 20
312.873586
 10
469.945938
 20
313.285244
 10
469.911221
 20
313.697221
 10
469.884535
 20
314.109411
 10
469.865833
 20
314.521708
 10
469.855067
 20
314.934004
 10
469.852189
 20
315.346195
 10
469.857153
 20
315.758172
 10
469.869911
 20
316.16983
 10
469.890414
 20
316.581063
 10
469.918617
 20
316.991763
 10
469.954472
 20
317.401824
 10
469.99793
 20
317.811139
 10
470.048945
 20
318.219603
 10
470.107469
 20
318.627109
 10
470.173455
 20
319.03355
 10
470.327622
 20
319.842812
 10
470.511067
 20
320.646536
 10
470.72341
 20
321.443872
 10
470.964272
 20
322.233967
 10
471.233273
 20
323.01597
 10
471.530034
 20
323.789028
 10
471.854175
 20
324.55229
 10
472.205317
 20
325.304903
 10
472.58308
 20
326.046016
 10
472.987085
 20
326.774778
 10
473.416952
 20
327.490335
 10
473.872302
 20
328.191837
 10
474.352755
 20
328.878431
 10
474.857933
 20
329.549266
 10
475.387454
 20
330.203489
 10
475.94094
 20
330.840249
 10
476.518012
 20
331.458693
 10
476.815273
 20
331.760781
 10
477.118289
 20
332.057971
 10
477.427011
 20
332.350156
 10
477.741393
 20
332.63723
 10
478.061386
 20
332.919086
 10
478.386943
 20
333.195617
 10
478.718018
 20
333.466718
 10
479.054561
 20
333.732282
 10
479.396527
 20
333.992203
 10
479.743867
 20
334.246373
 10
480.096534
 20
334.494686
 10
480.454481
 20
334.737037
 10
481.085443
 20
335.138219
 10
481.757822
 20
335.533021
 10
482.464448
 20
335.91875
 10
483.198149
 20
336.292717
 10
483.951755
 20
336.65223
 10
484.718093
 20
336.994598
 10
485.489994
 20
337.317131
 10
486.260286
 20
337.617137
 10
487.021798
 20
337.891927
 10
487.767359
 20
338.138808
 10
488.489798
 20
338.35509
 10
489.181944
 20
338.538082
 10
489.836625
 20
338.685093
 10
490.147676
 20
338.744265
 10
490.446671
 20
338.793433
 10
490.732715
 20
338.83226
 10
491.004911
 20
338.86041
 10
491.262362
 20
338.877546
 10
491.504173
 20
338.883333
 10
491.805136
 20
338.873697
 10
492.131988
 20
338.845628
 10
492.480508
 20
338.800387
 10
492.846476
 20
338.739234
 10
493.225671
 20
338.66343
 10
493.613874
 20
338.574236
 10
494.006862
 20
338.472912
 10
494.400417
 20
338.360719
 10
494.790316
 20
338.238917
 10
495.17234
 20
338.108767
 10
495.542269
 20
337.97153
 10
495.89588
 20
337.828465
 10
496.228955
 20
337.680834
 10
496.537272
 20
337.529897
 10
496.816611
 20
337.376914
 10
497.062752
 20
337.223147
 10
497.315942
 20
337.042166
 10
497.523484
 20
336.867128
 10
497.611987
 20
336.778667
 10
497.691297
 20
336.687887
 10
497.762154
 20
336.59352
 10
497.825297
 20
336.494298
 10
497.881467
 20
336.388952
 10
497.931403
 20
336.276215
 10
497.975844
 20
336.154817
 10
498.015531
 20
336.023492
 10
498.083599
 20
335.725983
 10
498.141524
 20
335.373542
 10
498.184314
 20
335.110454
 10
498.236668
 20
334.851733
 10
498.298372
 20
334.5976
 10
498.369208
 20
334.348277
 10
498.448962
 20
334.103984
 10
498.537417
 20
333.864941
 10
498.634358
 20
333.63137
 10
498.739567
 20
333.403492
 10
498.85283
 20
333.181528
 10
498.973931
 20
332.965697
 10
499.102653
 20
332.756222
 10
499.238781
 20
332.553323
 10
499.382098
 20
332.35722
 10
499.532389
 20
332.168136
 10
499.689438
 20
331.98629
 10
499.853028
 20
331.811903
 10
500.022945
 20
331.645197
 10
500.198971
 20
331.486392
 10
500.380892
 20
331.335708
 10
500.56849
 20
331.193368
 10
500.76155
 20
331.059591
 10
500.959857
 20
330.934599
 10
501.163194
 20
330.818612
 10
501.371345
 20
330.711852
 10
501.584094
 20
330.614539
 10
501.801226
 20
330.526893
 10
502.022524
 20
330.449137
 10
502.247773
 20
330.38149
 10
502.476757
 20
330.324174
 10
502.709259
 20
330.277409
 10
502.945063
 20
330.241416
 10
503.183954
 20
330.216416
 10
503.476893
 20
330.20232
 10
503.782739
 20
330.2059
 10
504.099751
 20
330.226626
 10
504.426188
 20
330.26397
 10
504.760308
 20
330.317401
 10
505.100369
 20
330.386391
 10
505.444631
 20
330.47041
 10
505.791351
 20
330.56893
 10
506.138789
 20
330.681419
 10
506.485203
 20
330.80735
 10
506.828852
 20
330.946193
 10
507.167994
 20
331.097418
 10
507.500887
 20
331.260496
 10
507.825791
 20
331.434898
 10
508.140964
 20
331.620094
 10
508.444664
 20
331.815555
 10
508.670016
 20
331.981676
 10
508.893679
 20
332.174096
 10
509.113124
 20
332.389523
 10
509.325819
 20
332.624665
 10
509.529236
 20
332.876228
 10
509.720844
 20
333.140922
 10
509.898114
 20
333.415454
 10
510.058516
 20
333.69653
 10
510.199519
 20
333.98086
 10
510.318595
 20
334.26515
 10
510.413213
 20
334.546109
 10
510.480842
 20
334.820443
 10
510.518955
 20
335.084861
 10
510.526151
 20
335.212323
 10
510.525019
 20
335.33607
 10
510.515243
 20
335.455693
 10
510.496507
 20
335.570779
 10
510.468493
 20
335.680916
 10
510.430887
 20
335.785694
 10
509.942133
 20
336.941751
 42
0.415866
 10
509.547436
 20
337.100586
 10
503.820941
 20
334.641403
 10
503.031755
 20
336.479115
 10
507.576563
 20
338.430835
 42
0.415342
 10
507.733384
 20
338.82593
 10
507.65309
 20
339.010935
 10
507.101024
 20
340.294632
 10
506.780437
 20
341.012155
 10
506.469502
 20
341.672727
 10
506.326877
 20
341.956486
 10
506.197732
 20
342.195801
 10
506.085758
 20
342.380604
 10
505.994644
 20
342.500827
 10
505.86268
 20
342.630485
 10
505.710632
 20
342.759901
 10
505.538689
 20
342.888875
 10
505.347039
 20
343.017209
 10
505.135872
 20
343.144702
 10
504.905377
 20
343.271157
 10
504.655741
 20
343.396374
 10
504.387153
 20
343.520154
 10
504.099803
 20
343.642299
 10
503.793879
 20
343.762607
 10
503.46957
 20
343.880882
 10
503.127065
 20
343.996924
 10
502.766552
 20
344.110533
 10
502.38822
 20
344.22151
 10
501.578853
 20
344.434775
 10
500.700477
 20
344.635124
 10
499.754599
 20
344.820967
 10
498.74273
 20
344.990709
 10
497.666381
 20
345.142759
 10
496.52706
 20
345.275523
 10
495.326279
 20
345.38741
 10
494.065546
 20
345.476826
 10
492.746372
 20
345.542179
 10
491.123006
 20
345.593538
 10
490.25547
 20
345.61066
 10
489.37204
 20
345.619835
 10
488.488722
 20
345.619382
 10
487.621522
 20
345.607621
 10
486.786445
 20
345.582871
 10
485.999497
 20
345.543451
 10
485.416728
 20
345.500713
 10
484.841772
 20
345.44588
 10
484.274403
 20
345.379079
 10
483.714392
 20
345.300435
 10
483.161513
 20
345.210076
 10
482.615538
 20
345.108128
 10
482.076239
 20
344.994718
 10
481.543389
 20
344.869973
 10
481.01676
 20
344.73402
 10
480.496126
 20
344.586984
 10
479.981258
 20
344.428993
 10
479.471929
 20
344.260174
 10
478.967911
 20
344.080652
 10
478.468978
 20
343.890556
 10
477.974902
 20
343.690011
 10
477.485454
 20
343.479144
 10
477.000408
 20
343.258082
 10
476.519537
 20
343.026952
 10
476.042612
 20
342.785879
 10
475.569407
 20
342.534992
 10
475.099693
 20
342.274416
 10
474.633244
 20
342.004279
 10
474.169831
 20
341.724707
 10
473.709228
 20
341.435826
 10
473.251207
 20
341.137763
 10
472.795541
 20
340.830646
 10
472.342001
 20
340.5146
 10
471.890361
 20
340.189753
 10
471.440393
 20
339.856231
 10
470.99187
 20
339.514161
 10
470.098247
 20
338.804882
 10
469.6654
 20
338.445242
 10
469.240645
 20
338.077486
 10
468.824059
 20
337.701735
 10
468.415716
 20
337.318109
 10
468.015692
 20
336.926727
 10
467.624065
 20
336.52771
 10
467.240909
 20
336.121178
 10
466.8663
 20
335.707249
 10
466.500316
 20
335.286045
 10
466.143031
 20
334.857686
 10
465.794521
 20
334.42229
 10
465.454863
 20
333.979979
 10
465.124133
 20
333.530872
 10
464.802405
 20
333.075089
 10
464.489758
 20
332.61275
 10
464.186265
 20
332.143975
 10
463.892004
 20
331.668884
 10
463.60705
 20
331.187597
 10
463.33148
 20
330.700234
 10
463.065369
 20
330.206915
 10
462.808793
 20
329.707759
 10
462.561828
 20
329.202887
 10
462.32455
 20
328.692419
 10
462.097035
 20
328.176475
 10
461.879359
 20
327.655174
 10
461.671599
 20
327.128636
 10
461.473829
 20
326.596982
 10
461.286126
 20
326.060331
 10
461.108567
 20
325.518804
 10
460.941226
 20
324.97252
 10
460.78418
 20
324.4216
 10
460.637504
 20
323.866162
 10
460.443335
 20
323.090355
 10
460.280062
 20
322.384439
 10
460.210211
 20
322.043884
 10
460.148322
 20
321.704234
 10
460.094477
 20
321.359966
 10
460.048753
 20
321.005557
 10
460.011231
 20
320.635485
 10
459.98199
 20
320.244227
 10
459.961111
 20
319.826261
 10
459.948672
 20
319.376063
 10
459.944753
 20
318.888111
 10
459.949434
 20
318.356883
 10
459.984913
 20
317.142505
 10
460.058851
 20
315.568166
 10
460.108164
 20
314.727571
 10
460.16662
 20
313.87224
 10
460.234905
 20
313.017831
 10
460.313704
 20
312.180005
 10
460.403703
 20
311.37442
 10
460.505588
 20
310.616738
 10
460.610638
 20
309.9592
 10
460.729394
 20
309.309485
 10
460.861604
 20
308.66753
 10
461.007015
 20
308.033269
 10
461.165375
 20
307.406641
 10
461.336431
 20
306.78758
 10
461.519932
 20
306.176024
 10
461.715623
 20
305.571908
 10
461.923254
 20
304.97517
 10
462.142571
 20
304.385744
 10
462.373321
 20
303.803569
 10
462.615254
 20
303.22858
 10
462.868115
 20
302.660713
 10
463.131653
 20
302.099905
 10
463.405614
 20
301.546092
 10
463.689747
 20
300.999211
 10
463.983799
 20
300.459197
 10
464.287518
 20
299.925987
 10
464.600651
 20
299.399518
 10
464.922945
 20
298.879726
 10
465.254148
 20
298.366547
 10
465.594008
 20
297.859917
 10
465.942272
 20
297.359773
 10
466.298687
 20
296.866052
 10
466.663002
 20
296.378689
 10
467.034963
 20
295.89762
 10
467.414319
 20
295.422783
 10
467.800816
 20
294.954114
 10
468.194202
 20
294.491548
 10
468.594225
 20
294.035022
 10
469.000632
 20
293.584473
 10
469.413171
 20
293.139837
 10
469.860064
 20
292.674669
 10
470.314446
 20
292.221213
 10
470.776066
 20
291.779595
 10
471.244678
 20
291.349939
 10
471.72003
 20
290.932372
 10
472.201876
 20
290.527019
 10
472.689966
 20
290.134004
 10
473.18405
 20
289.753454
 10
473.683882
 20
289.385493
 10
474.18921
 20
289.030248
 10
474.699788
 20
288.687843
 10
475.215366
 20
288.358404
 10
475.735694
 20
288.042055
 10
476.260525
 20
287.738924
 10
476.78961
 20
287.449134
 10
477.322699
 20
287.172811
 10
477.859545
 20
286.910081
 10
478.399897
 20
286.661068
 10
478.943508
 20
286.425899
 10
479.490128
 20
286.204699
 10
480.039509
 20
285.997592
 10
480.591402
 20
285.804705
 10
481.145558
 20
285.626162
 10
481.701729
 20
285.462089
 10
482.259665
 20
285.312612
 10
482.819117
 20
285.177855
 10
483.379838
 20
285.057945
 10
483.941577
 20
284.953005
 10
484.504087
 20
284.863163
 10
485.067118
 20
284.788543
 10
485.630422
 20
284.72927
 10
486.19375
 20
284.68547
  0
LWPOLYLINE
  5
4E
330
1F
100
AcDbEntity
  8
0
100
AcDbPolyline
 90
      221
 70
   128
 43
0.0
 10
422.444021
 20
278.375315
 10
422.193993
 20
278.38174
 10
421.954499
 20
278.399507
 10
421.725696
 20
278.428297
 10
421.507734
 20
278.46778
 10
421.30077
 20
278.51764
 10
421.104954
 20
278.577551
 10
420.920443
 20
278.647191
 10
420.747389
 20
278.726236
 10
420.585945
 20
278.814366
 10
420.436266
 20
278.911255
 10
420.298505
 20
279.016582
 10
420.172815
 20
279.130025
 10
420.059351
 20
279.251259
 10
419.958266
 20
279.379963
 10
419.869712
 20
279.515815
 10
419.793845
 20
279.65849
 10
419.730817
 20
279.807666
 10
419.680783
 20
279.963021
 10
419.643895
 20
280.124231
 10
419.620308
 20
280.290973
 10
419.610175
 20
280.462926
 10
419.61365
 20
280.639767
 10
419.630886
 20
280.821172
 10
419.662035
 20
281.00682
 10
419.707255
 20
281.196385
 10
419.766696
 20
281.389547
 10
419.840514
 20
281.585983
 10
419.92886
 20
281.785369
 10
420.03189
 20
281.987384
 10
420.149755
 20
282.191704
 10
420.28261
 20
282.398006
 10
420.430611
 20
282.605968
 10
420.845235
 20
283.115524
 42
-0.226859
 10
421.079306
 20
283.226175
 10
425.3529
 20
283.20663
 10
425.362047
 20
285.206609
 10
422.251863
 20
285.220833
 42
-0.598998
 10
422.004372
 20
285.688363
 10
423.238073
 20
287.520977
 10
423.718176
 20
288.226208
 10
423.923357
 20
288.512126
 10
424.552229
 20
289.324853
 42
-0.233305
 10
424.790866
 20
289.441259
 10
430.725375
 20
289.414119
 10
430.734522
 20
291.414098
 10
426.736962
 20
291.43238
 42
-0.655012
 10
426.519512
 20
291.937601
 10
428.109402
 20
293.632844
 10
428.707134
 20
294.264493
 10
428.959459
 20
294.520022
 10
429.189588
 20
294.739079
 10
429.584518
 20
295.080301
 42
-0.181232
 10
429.782024
 20
295.153293
 10
435.26915
 20
295.128199
 10
435.278297
 20
297.128178
 10
432.180502
 20
297.142344
 42
-0.701943
 10
431.991167
 20
297.673924
 10
433.930572
 20
299.27102
 10
434.611801
 20
299.827129
 10
434.899675
 20
300.052601
 10
435.162602
 20
300.24655
 10
435.408245
 20
300.411624
 10
435.644266
 20
300.550472
 10
435.878325
 20
300.665742
 10
436.399376
 20
300.870771
 42
-0.095149
 10
436.510596
 20
300.891603
 10
442.342952
 20
300.86493
 10
442.352099
 20
302.864909
 10
439.5783
 20
302.877594
 42
-0.510555
 10
439.29509
 20
303.272531
 10
439.408054
 20
303.611138
 10
439.487017
 20
303.801751
 10
439.58775
 20
304.016114
 10
439.709233
 20
304.255731
 10
439.810302
 20
304.424806
 10
439.937947
 20
304.596127
 10
440.090443
 20
304.768628
 10
440.266068
 20
304.941244
 10
440.463098
 20
305.112907
 10
440.67981
 20
305.282549
 10
440.914478
 20
305.449105
 10
441.165382
 20
305.611507
 10
441.430799
 20
305.768689
 10
441.709004
 20
305.919585
 10
441.998272
 20
306.063127
 10
442.296882
 20
306.198249
 10
442.60311
 20
306.323884
 10
442.915234
 20
306.438966
 10
443.231529
 20
306.542427
 10
443.550272
 20
306.633202
 10
443.877508
 20
306.704822
 10
444.266477
 20
306.765257
 10
444.708539
 20
306.81464
 10
445.195051
 20
306.853107
 10
445.717374
 20
306.880791
 10
446.266867
 20
306.897826
 10
446.834888
 20
306.904347
 10
447.412799
 20
306.900487
 10
447.991957
 20
306.886383
 10
448.563724
 20
306.862166
 10
449.119455
 20
306.82797
 10
449.650514
 20
306.783932
 10
450.148258
 20
306.730184
 10
450.604048
 20
306.666861
 10
451.009241
 20
306.594096
 10
451.355197
 20
306.512023
 10
452.005289
 20
306.317683
 10
452.317415
 20
306.213066
 10
452.621062
 20
306.103368
 10
452.916331
 20
305.988501
 10
453.203324
 20
305.868375
 10
453.482137
 20
305.742903
 10
453.752875
 20
305.611997
 10
454.015637
 20
305.475568
 10
454.270524
 20
305.333529
 10
454.517636
 20
305.18579
 10
454.757075
 20
305.032264
 10
454.988939
 20
304.872863
 10
455.213332
 20
304.707498
 10
455.430353
 20
304.536082
 10
455.640103
 20
304.358527
 10
455.842681
 20
304.174742
 10
456.03819
 20
303.984642
 10
456.226728
 20
303.788136
 10
456.408398
 20
303.585139
 10
456.5833
 20
303.37556
 10
456.751536
 20
303.159312
 10
456.913204
 20
302.936307
 10
457.068406
 20
302.706457
 10
457.217242
 20
302.469673
 10
457.359812
 20
302.225867
 10
457.49622
 20
301.974951
 10
457.626563
 20
301.716837
 10
457.750943
 20
301.451436
 10
457.869462
 20
301.178659
 10
457.982219
 20
300.898421
 10
458.089314
 20
300.610633
 10
458.275563
 20
300.065
 10
458.423521
 20
299.564428
 10
458.484371
 20
299.321902
 10
458.537124
 20
299.079679
 10
458.582273
 20
298.834105
 10
458.620309
 20
298.581523
 10
458.651723
 20
298.318281
 10
458.67701
 20
298.040726
 10
458.711165
 20
297.428054
 10
458.726707
 20
296.714272
 10
458.727575
 20
295.870151
 10
458.717758
 20
295.001592
 10
458.695469
 20
294.284996
 10
458.655367
 20
293.686719
 10
458.626965
 20
293.421438
 10
458.592108
 20
293.17312
 10
458.550127
 20
292.937562
 10
458.500352
 20
292.710557
 10
458.442117
 20
292.4879
 10
458.374755
 20
292.265387
 10
458.209976
 20
291.803968
 10
458.000672
 20
291.292659
 10
457.819109
 20
290.886117
 10
457.619255
 20
290.475045
 10
457.401858
 20
290.060473
 10
457.167662
 20
289.643431
 10
456.917413
 20
289.224954
 10
456.651857
 20
288.80607
 10
456.371742
 20
288.38781
 10
456.07781
 20
287.971207
 10
455.770812
 20
287.557291
 10
455.451491
 20
287.147092
 10
455.120594
 20
286.741642
 10
454.778866
 20
286.341973
 10
454.427055
 20
285.949114
 10
454.065906
 20
285.564099
 10
453.696163
 20
285.187956
 10
453.318575
 20
284.821717
 10
452.944888
 20
284.482773
 10
452.552377
 20
284.155357
 10
452.142068
 20
283.839969
 10
451.714985
 20
283.537111
 10
451.272152
 20
283.247288
 10
450.814594
 20
282.970999
 10
450.343336
 20
282.708749
 10
449.8594
 20
282.461039
 10
449.363813
 20
282.228371
 10
448.857597
 20
282.011249
 10
448.341779
 20
281.810175
 10
447.817381
 20
281.62565
 10
447.285429
 20
281.458179
 10
446.746946
 20
281.308261
 10
446.202959
 20
281.1764
 10
445.654488
 20
281.063099
 10
445.411319
 20
281.028643
 10
445.070641
 20
280.99702
 10
444.145832
 20
280.941774
 10
442.978208
 20
280.896371
 10
441.665918
 20
280.859814
 10
438.999926
 20
280.809263
 10
436.933035
 20
280.782166
 10
435.902412
 20
280.762214
 10
434.981768
 20
280.728433
 10
434.156071
 20
280.680777
 10
433.410291
 20
280.619204
 10
432.729396
 20
280.543668
 10
432.098357
 20
280.454125
 10
431.502142
 20
280.350531
 10
430.92572
 20
280.232843
 10
430.354058
 20
280.101012
 10
429.77213
 20
279.954999
 10
428.517341
 20
279.62024
 10
427.041106
 20
279.228212
 10
426.182371
 20
279.010611
 10
425.22318
 20
278.77856
 10
424.855901
 20
278.697073
 10
424.471506
 20
278.621158
 10
424.081392
 20
278.55247
 10
423.69696
 20
278.492663
 10
423.329608
 20
278.44339
 10
422.990735
 20
278.406304
 10
422.69174
 20
278.383062
 10
422.444021
 20
278.375315
  0
LWPOLYLINE
  5
4F
330
1F
100
AcDbEntity
  8
0
100
AcDbPolyline
 90
      365
 70
   128
 43
0.0
 10
439.221065
 20
217.259515
 10
439.13403
 20
217.093031
 10
439.070483
 20
216.920539
 10
439.029854
 20
216.74003
 10
439.015237
 20
216.557931
 10
439.028386
 20
216.382371
 10
439.066721
 20
216.21389
 10
439.127662
 20
216.053029
 10
439.208628
 20
215.90033
 10
439.307039
 20
215.756334
 10
439.420317
 20
215.621582
 10
439.545879
 20
215.496615
 10
439.681146
 20
215.381974
 10
439.82354
 20
215.278202
 10
439.970478
 20
215.185838
 10
440.119381
 20
215.105423
 10
440.267668
 20
215.037501
 10
440.412761
 20
214.98261
 10
440.552079
 20
214.941294
 10
440.683041
 20
214.914092
 10
441.091104
 20
214.842865
 10
441.195655
 20
214.810774
 10
441.223453
 20
214.793404
 10
441.235081
 20
214.774309
 10
441.230651
 20
214.752862
 10
441.210276
 20
214.728431
 10
441.122135
 20
214.668095
 10
440.971554
 20
214.588261
 10
440.759427
 20
214.483888
 10
440.618509
 20
214.40561
 10
440.465853
 20
214.303791
 10
440.306316
 20
214.182719
 10
440.144755
 20
214.046679
 10
439.986024
 20
213.899961
 10
439.834982
 20
213.746849
 10
439.696484
 20
213.591634
 10
439.575387
 20
213.4386
 10
439.426614
 20
213.226609
 10
439.312019
 20
213.037273
 10
439.22969
 20
212.861876
 10
439.177712
 20
212.691701
 10
439.154169
 20
212.518029
 10
439.157148
 20
212.332144
 10
439.184734
 20
212.125329
 10
439.235011
 20
211.888866
 10
439.295293
 20
211.677743
 10
439.37217
 20
211.479266
 10
439.466297
 20
211.293021
 10
439.578327
 20
211.1186
 10
439.708912
 20
210.955588
 10
439.858708
 20
210.803576
 10
440.028368
 20
210.662153
 10
440.218545
 20
210.530906
 10
440.429894
 20
210.409423
 10
440.663068
 20
210.297295
 10
440.91872
 20
210.194108
 10
441.197504
 20
210.099452
 10
441.500074
 20
210.012916
 10
441.827084
 20
209.934087
 10
442.179187
 20
209.862554
 10
442.557037
 20
209.797906
 10
442.972866
 20
209.739895
 10
443.385867
 20
209.696751
 10
443.795922
 20
209.668418
 10
444.202917
 20
209.654844
 10
444.606734
 20
209.655975
 10
445.007255
 20
209.671755
 10
445.404366
 20
209.702132
 10
445.797948
 20
209.747052
 10
446.187885
 20
209.806458
 10
446.574061
 20
209.8803
 10
446.956359
 20
209.96852
 10
447.334661
 20
210.071067
 10
447.708852
 20
210.187884
 10
448.078814
 20
210.31892
 10
448.444431
 20
210.46412
 10
448.805586
 20
210.623427
 10
449.162163
 20
210.79679
 10
449.514044
 20
210.984156
 10
449.861114
 20
211.185467
 10
450.203254
 20
211.400672
 10
450.54035
 20
211.629715
 10
450.872282
 20
211.872543
 10
451.198937
 20
212.129102
 10
451.520195
 20
212.399337
 10
451.835941
 20
212.683195
 10
452.146059
 20
212.980621
 10
452.450431
 20
213.291562
 10
452.74894
 20
213.615962
 10
453.04147
 20
213.953769
 10
453.327904
 20
214.304928
 10
453.608126
 20
214.669385
 10
453.882019
 20
215.047084
 10
454.096857
 20
215.359463
 10
454.30963
 20
215.683428
 10
454.520078
 20
216.018278
 10
454.727942
 20
216.363316
 10
455.134876
 20
217.081152
 10
455.528352
 20
217.831342
 10
455.90629
 20
218.608287
 10
456.266611
 20
219.406392
 10
456.607235
 20
220.220062
 10
456.926082
 20
221.043699
 10
457.221071
 20
221.871708
 10
457.490124
 20
222.698492
 10
457.731159
 20
223.518457
 10
457.942099
 20
224.326003
 10
458.120862
 20
225.115537
 10
458.265369
 20
225.881462
 10
458.324126
 20
226.253823
 10
458.373541
 20
226.618182
 10
458.413349
 20
226.973841
 10
458.443296
 20
227.3201
 10
458.488687
 20
227.800862
 10
458.543665
 20
228.319013
 10
458.584945
 20
228.837328
 10
458.593173
 20
229.084916
 10
458.589246
 20
229.318588
 10
458.572404
 20
229.575385
 10
458.547089
 20
229.840497
 10
458.474795
 20
230.39079
 10
458.379868
 20
230.959728
 10
458.269811
 20
231.537568
 10
458.034322
 20
232.680993
 10
457.828351
 20
233.743134
 10
457.673095
 20
234.676055
 10
457.523599
 20
235.631683
 10
457.383469
 20
236.583003
 10
457.256307
 20
237.503002
 10
457.145721
 20
238.364665
 10
457.055315
 20
239.140976
 10
456.988693
 20
239.804923
 10
456.94946
 20
240.329491
 10
456.911443
 20
240.849658
 10
456.864799
 20
241.410348
 10
456.830986
 20
241.971063
 10
456.825598
 20
242.238772
 10
456.831463
 20
242.4913
 10
456.8665
 20
243.067055
 10
456.913558
 20
243.662704
 10
456.971855
 20
244.275269
 10
457.04061
 20
244.901773
 10
457.119039
 20
245.539235
 10
457.20636
 20
246.184679
 10
457.404548
 20
247.4876
 10
457.628913
 20
248.786709
 10
457.873194
 20
250.058183
 10
458.131131
 20
251.278196
 10
458.396465
 20
252.422923
 10
458.446608
 20
252.604808
 10
458.509106
 20
252.798503
 10
458.643336
 20
253.16735
 10
458.76275
 20
253.498649
 10
458.798005
 20
253.624379
 10
458.814056
 20
253.723612
 10
458.808721
 20
253.796431
 10
458.797354
 20
253.822963
 10
458.779822
 20
253.842926
 10
458.755856
 20
253.856328
 10
458.725182
 20
253.863181
 10
458.642618
 20
253.857281
 10
458.527112
 20
253.828334
 10
458.401053
 20
253.784918
 10
458.265256
 20
253.727895
 10
458.120538
 20
253.658133
 10
457.807605
 20
253.483851
 10
457.468781
 20
253.268992
 10
457.110595
 20
253.020481
 10
456.739579
 20
252.745239
 10
456.36226
 20
252.450189
 10
455.985167
 20
252.142252
 10
455.614829
 20
251.828352
 10
455.257776
 20
251.515412
 10
454.60964
 20
250.920096
 10
454.092991
 20
250.411688
 10
453.900298
 20
250.207379
 10
453.760063
 20
250.045563
 10
453.405734
 20
249.593563
 10
453.050597
 20
249.11567
 10
452.694367
 20
248.615948
 10
452.336753
 20
248.098458
 10
451.616225
 20
247.026432
 10
450.886709
 20
245.932094
 10
450.145897
 20
244.847948
 10
449.770536
 20
244.319855
 10
449.391487
 20
243.806499
 10
449.008461
 20
243.311944
 10
448.621171
 20
242.840251
 10
448.229329
 20
242.395484
 10
447.832645
 20
241.981706
 10
447.619587
 20
241.758881
 10
447.356274
 20
241.480633
 10
447.05216
 20
241.181114
 10
446.887759
 20
241.034052
 10
446.716703
 20
240.89448
 10
446.540175
 20
240.766668
 10
446.359355
 20
240.654885
 10
446.175427
 20
240.563399
 10
445.989572
 20
240.496481
 10
445.802972
 20
240.458399
 10
445.709762
 20
240.451506
 10
445.616808
 20
240.453423
 10
445.52426
 20
240.464683
 10
445.432264
 20
240.485821
 10
445.340968
 20
240.517371
 10
445.250519
 20
240.559864
 10
444.840358
 20
240.762946
 10
444.432151
 20
240.933166
 10
444.027289
 20
241.071221
 10
443.627162
 20
241.177806
 10
443.233158
 20
241.253621
 10
442.846668
 20
241.299362
 10
442.469081
 20
241.315726
 10
442.101789
 20
241.303409
 10
441.74618
 20
241.263109
 10
441.403644
 20
241.195523
 10
441.07557
 20
241.101349
 10
440.763349
 20
240.981281
 10
440.613618
 20
240.911756
 10
440.468371
 20
240.836019
 10
440.327781
 20
240.754157
 10
440.192024
 20
240.666259
 10
440.061273
 20
240.572408
 10
439.935699
 20
240.472696
 10
439.815481
 20
240.367208
 10
439.700787
 20
240.256031
 10
439.580253
 20
240.127275
 10
439.469348
 20
239.996477
 10
439.368064
 20
239.863665
 10
439.276399
 20
239.728865
 10
439.194348
 20
239.592105
 10
439.121903
 20
239.453413
 10
439.059062
 20
239.312816
 10
439.00582
 20
239.17034
 10
438.962171
 20
239.026014
 10
438.92811
 20
238.879866
 10
438.903633
 20
238.731922
 10
438.888736
 20
238.582209
 10
438.883411
 20
238.430754
 10
438.887656
 20
238.277587
 10
438.901465
 20
238.122733
 10
438.924832
 20
237.96622
 10
438.957755
 20
237.808076
 10
439.000226
 20
237.648327
 10
439.052243
 20
237.487001
 10
439.113799
 20
237.324126
 10
439.184889
 20
237.15973
 10
439.265509
 20
236.993838
 10
439.355654
 20
236.826479
 10
439.455319
 20
236.65768
 10
439.68319
 20
236.31587
 10
439.949082
 20
235.968629
 10
440.252956
 20
235.616176
 10
440.594774
 20
235.258728
 10
440.772297
 20
235.074936
 10
440.922447
 20
234.905926
 10
441.04304
 20
234.755223
 10
441.131897
 20
234.626349
 10
441.186838
 20
234.522828
 10
441.205683
 20
234.448184
 10
441.200887
 20
234.422792
 10
441.186249
 20
234.40594
 10
441.161498
 20
234.39807
 10
441.126359
 20
234.399621
 10
441.015376
 20
234.410115
 10
440.896478
 20
234.408116
 10
440.770384
 20
234.394189
 10
440.637819
 20
234.368901
 10
440.499506
 20
234.332819
 10
440.356166
 20
234.286506
 10
440.057297
 20
234.165463
 10
439.746989
 20
234.010297
 10
439.431023
 20
233.82554
 10
439.115177
 20
233.615722
 10
438.80523
 20
233.385372
 10
438.506963
 20
233.139018
 10
438.226152
 20
232.881192
 10
437.968579
 20
232.616422
 10
437.740022
 20
232.349239
 10
437.546259
 20
232.084171
 10
437.464232
 20
231.953845
 10
437.393071
 20
231.825747
 10
437.333499
 20
231.700442
 10
437.286236
 20
231.578498
 10
437.252008
 20
231.460479
 10
437.231534
 20
231.346953
 10
437.222007
 20
231.225821
 10
437.222061
 20
231.10258
 10
437.231386
 20
230.97757
 10
437.249673
 20
230.851137
 10
437.276609
 20
230.723623
 10
437.311887
 20
230.595371
 10
437.406226
 20
230.338026
 10
437.530204
 20
230.081851
 10
437.681343
 20
229.829591
 10
437.857162
 20
229.583994
 10
438.055179
 20
229.347805
 10
438.272914
 20
229.123771
 10
438.507884
 20
228.914638
 10
438.75761
 20
228.723154
 10
439.019608
 20
228.552064
 10
439.291401
 20
228.404114
 10
439.570505
 20
228.282052
 10
439.85444
 20
228.188624
 10
439.997444
 20
228.153505
 10
440.140725
 20
228.126576
 10
440.439407
 20
228.071017
 10
440.537156
 20
228.043723
 10
440.602447
 20
228.015076
 10
440.636732
 20
227.98382
 10
440.641463
 20
227.948696
 10
440.61809
 20
227.908449
 10
440.568068
 20
227.861821
 10
440.393881
 20
227.744392
 10
440.130516
 20
227.586354
 10
439.78959
 20
227.377652
 10
439.382719
 20
227.108227
 10
439.055837
 20
226.87048
 10
438.765541
 20
226.636838
 10
438.510382
 20
226.405675
 10
438.288913
 20
226.175365
 10
438.099688
 20
225.944283
 10
437.941261
 20
225.710805
 10
437.812185
 20
225.473305
 10
437.711013
 20
225.230156
 10
437.641057
 20
225.020975
 10
437.580521
 20
224.813551
 10
437.529296
 20
224.608147
 10
437.48727
 20
224.405025
 10
437.454335
 20
224.204448
 10
437.43038
 20
224.00668
 10
437.415295
 20
223.811982
 10
437.40897
 20
223.620619
 10
437.411298
 20
223.432853
 10
437.422165
 20
223.248945
 10
437.441463
 20
223.069161
 10
437.469082
 20
222.893763
 10
437.504913
 20
222.723011
 10
437.548845
 20
222.557171
 10
437.600769
 20
222.396506
 10
437.660574
 20
222.241276
 10
437.728152
 20
222.091746
 10
437.803391
 20
221.948179
 10
437.886182
 20
221.810837
 10
437.976415
 20
221.679983
 10
438.07398
 20
221.555879
 10
438.178769
 20
221.438791
 10
438.290669
 20
221.328978
 10
438.409572
 20
221.226705
 10
438.535369
 20
221.132235
 10
438.667948
 20
221.04583
 10
438.8072
 20
220.967753
 10
438.953016
 20
220.898266
 10
439.105285
 20
220.837634
 10
439.263898
 20
220.786117
 10
439.428744
 20
220.743981
 10
439.599714
 20
220.711487
 10
439.828073
 20
220.678855
 10
440.446701
 20
220.614142
 42
0.157492
 10
440.627135
 20
220.652258
 10
445.024275
 20
223.173441
 10
446.019089
 20
221.438406
 10
439.596805
 20
217.756069
 42
0.113105
 10
439.498372
 20
217.665129
 10
439.221065
 20
217.259515
  0
LWPOLYLINE
  5
50
330
1F
100
AcDbEntity
  8
0
100
AcDbPolyline
 90
      279
 70
   128
 43
0.0
 10
490.294792
 20
226.039306
 10
491.476168
 20
226.103606
 10
492.749462
 20
226.18363
 10
493.390717
 20
226.234561
 10
494.019118
 20
226.295452
 10
494.622722
 20
226.368311
 10
495.189583
 20
226.455148
 10
495.438598
 20
226.507984
 10
495.681264
 20
226.576601
 10
495.911889
 20
226.656468
 10
496.456501
 20
226.877965
 42
0.217313
 10
496.62743
 20
227.059052
 10
499.207614
 20
234.626971
 10
501.100618
 20
233.981575
 10
499.290308
 20
228.671767
 42
0.622129
 10
499.670549
 20
228.290831
 10
500.186735
 20
228.465767
 10
500.311061
 20
228.519699
 10
500.452259
 20
228.591248
 10
500.793466
 20
228.790395
 10
501.226761
 20
229.069593
 10
501.768545
 20
229.435229
 10
502.273721
 20
229.788572
 10
502.773037
 20
230.153801
 10
503.264032
 20
230.528556
 10
503.74425
 20
230.910479
 10
504.21123
 20
231.297211
 10
504.662514
 20
231.686393
 10
505.095643
 20
232.075666
 10
505.508159
 20
232.462671
 10
505.897602
 20
232.84505
 10
506.261515
 20
233.220443
 10
506.597437
 20
233.586492
 10
506.902911
 20
233.940837
 10
507.175478
 20
234.281119
 10
507.412678
 20
234.604981
 10
507.612053
 20
234.910062
 10
507.771145
 20
235.194005
 10
507.905413
 20
235.477733
 10
508.023377
 20
235.766153
 10
508.125235
 20
236.058667
 10
508.211184
 20
236.35468
 10
508.281424
 20
236.653594
 10
508.336153
 20
236.954813
 10
508.375569
 20
237.25774
 10
508.39987
 20
237.561779
 10
508.409254
 20
237.866333
 10
508.40392
 20
238.170806
 10
508.384065
 20
238.4746
 10
508.349889
 20
238.777119
 10
508.30159
 20
239.077768
 10
508.239365
 20
239.375948
 10
508.163413
 20
239.671063
 10
508.073932
 20
239.962517
 10
507.971121
 20
240.249714
 10
507.855178
 20
240.532055
 10
507.726301
 20
240.808946
 10
507.584688
 20
241.079789
 10
507.430537
 20
241.343988
 10
507.264048
 20
241.600945
 10
507.085417
 20
241.850065
 10
506.894844
 20
242.090751
 10
506.692527
 20
242.322406
 10
506.478663
 20
242.544434
 10
506.253451
 20
242.756237
 10
506.01709
 20
242.95722
 10
505.769778
 20
243.146786
 10
505.511712
 20
243.324337
 10
505.243092
 20
243.489278
 10
504.964115
 20
243.641012
 10
504.704902
 20
243.764334
 10
504.445318
 20
243.870016
 10
504.185385
 20
243.958059
 10
503.925126
 20
244.028465
 10
503.664564
 20
244.081233
 10
503.403723
 20
244.116365
 10
503.142625
 20
244.133861
 10
502.881292
 20
244.133723
 10
502.619749
 20
244.11595
 10
502.358018
 20
244.080544
 10
502.096123
 20
244.027506
 10
501.834085
 20
243.956836
 10
501.571928
 20
243.868535
 10
501.309675
 20
243.762604
 10
501.047348
 20
243.639044
 10
500.784972
 20
243.497855
 10
500.480767
 20
243.334746
 10
500.181456
 20
243.196892
 10
499.882888
 20
243.083211
 10
499.58091
 20
242.992623
 10
499.27137
 20
242.924047
 10
498.950116
 20
242.876402
 10
498.612995
 20
242.848608
 10
498.255854
 20
242.839583
 10
497.969077
 20
242.832242
 10
497.68213
 20
242.8112
 10
497.402681
 20
242.777934
 10
497.138398
 20
242.73392
 10
496.89695
 20
242.680631
 10
496.686005
 20
242.619544
 10
496.513231
 20
242.552134
 10
496.386295
 20
242.479877
 10
496.230511
 20
242.361795
 10
496.120692
 20
242.260085
 10
496.083348
 20
242.211438
 10
496.057891
 20
242.162168
 10
496.044451
 20
242.110701
 10
496.043161
 20
242.055466
 10
496.054153
 20
241.99489
 10
496.077557
 20
241.927402
 10
496.162132
 20
241.765396
 10
496.29794
 20
241.556872
 10
496.486034
 20
241.289252
 10
496.677999
 20
241.014984
 10
496.749102
 20
240.904019
 10
496.801444
 20
240.808877
 10
496.833392
 20
240.728341
 10
496.843316
 20
240.661194
 10
496.829584
 20
240.606219
 10
496.790565
 20
240.562198
 10
496.724627
 20
240.527915
 10
496.630138
 20
240.502151
 10
496.505468
 20
240.483691
 10
496.348985
 20
240.471316
 10
495.934052
 20
240.459956
 10
495.372288
 20
240.458333
 10
495.028328
 20
240.453167
 10
494.711864
 20
240.437792
 10
494.423217
 20
240.4124
 10
494.162703
 20
240.377177
 10
493.930642
 20
240.332313
 10
493.727351
 20
240.277997
 10
493.553148
 20
240.214417
 10
493.408352
 20
240.141763
 10
493.293281
 20
240.060223
 10
493.208253
 20
239.969985
 10
493.177104
 20
239.921664
 10
493.153586
 20
239.87124
 10
493.137737
 20
239.818735
 10
493.129598
 20
239.764174
 10
493.129209
 20
239.707581
 10
493.136608
 20
239.648979
 10
493.174934
 20
239.525841
 10
493.244894
 20
239.39495
 10
493.346806
 20
239.256495
 10
493.440125
 20
239.136738
 10
493.514473
 20
239.022973
 10
493.56701
 20
238.915261
 10
493.594897
 20
238.813664
 10
493.595295
 20
238.718245
 10
493.584298
 20
238.672872
 10
493.565364
 20
238.629066
 10
493.538138
 20
238.586836
 10
493.502265
 20
238.546189
 10
493.403158
 20
238.469675
 10
493.265204
 20
238.399588
 10
493.085564
 20
238.335989
 10
492.861397
 20
238.278941
 10
492.589866
 20
238.228505
 10
492.268129
 20
238.184744
 10
491.893349
 20
238.14772
 10
491.462685
 20
238.117495
 10
490.973298
 20
238.094131
 10
490.345811
 20
238.064474
 10
489.969524
 20
238.035369
 10
489.586244
 20
237.99126
 10
489.221998
 20
237.928032
 10
489.055146
 20
237.887963
 10
488.902813
 20
237.84157
 10
488.768252
 20
237.78834
 10
488.654716
 20
237.727759
 10
488.565458
 20
237.659311
 10
488.503733
 20
237.582483
 10
488.455673
 20
237.486722
 10
488.426432
 20
237.392729
 10
488.418875
 20
237.296772
 10
488.435866
 20
237.195123
 10
488.48027
 20
237.084049
 10
488.55495
 20
236.959823
 10
488.662771
 20
236.818712
 10
488.806596
 20
236.656988
 10
489.001407
 20
236.447378
 10
489.137883
 20
236.286403
 10
489.183448
 20
236.220796
 10
489.213472
 20
236.163319
 10
489.227636
 20
236.11263
 10
489.225622
 20
236.067384
 10
489.207109
 20
236.026241
 10
489.171779
 20
235.987856
 10
489.119313
 20
235.950887
 10
489.049391
 20
235.91399
 10
488.855906
 20
235.835046
 10
488.58877
 20
235.74028
 10
488.392837
 20
235.679666
 10
488.146927
 20
235.615977
 10
487.544758
 20
235.486992
 10
486.86143
 20
235.368563
 10
486.176108
 20
235.275925
 10
485.843163
 20
235.230195
 10
485.510183
 20
235.169418
 10
485.186057
 20
235.09622
 10
484.879671
 20
235.013225
 10
484.599913
 20
234.92306
 10
484.35567
 20
234.828351
 10
484.155829
 20
234.731721
 10
484.075337
 20
234.683507
 10
484.009278
 20
234.635798
 10
483.829291
 20
234.486441
 10
483.699139
 20
234.362708
 10
483.652397
 20
234.306644
 10
483.617688
 20
234.252418
 10
483.59487
 20
234.198507
 10
483.583801
 20
234.14339
 10
483.58434
 20
234.085542
 10
483.596344
 20
234.023442
 10
483.654181
 20
233.880395
 10
483.756177
 20
233.702068
 10
483.901195
 20
233.476279
 10
484.017299
 20
233.291848
 10
484.103683
 20
233.13693
 10
484.160746
 20
233.008856
 10
484.188885
 20
232.904954
 10
484.188498
 20
232.822556
 10
484.177732
 20
232.788585
 10
484.159983
 20
232.758989
 10
484.103737
 20
232.711585
 10
484.020159
 20
232.677673
 10
482.884417
 20
232.340162
 10
481.848565
 20
232.012765
 10
480.913156
 20
231.695692
 10
480.078742
 20
231.389157
 10
479.345873
 20
231.093372
 10
479.017692
 20
230.949577
 10
478.715104
 20
230.808548
 10
478.438178
 20
230.670313
 10
478.186984
 20
230.534898
 10
477.96159
 20
230.402329
 10
477.762066
 20
230.272634
 10
477.538404
 20
230.112253
 10
477.322314
 20
229.944419
 10
477.11528
 20
229.771055
 10
476.918783
 20
229.594079
 10
476.734305
 20
229.415413
 10
476.563326
 20
229.236976
 10
476.407329
 20
229.060689
 10
476.267796
 20
228.888473
 10
476.146208
 20
228.722247
 10
476.044047
 20
228.563932
 10
475.962793
 20
228.415448
 10
475.90393
 20
228.278717
 10
475.868938
 20
228.155657
 10
475.8593
 20
228.048189
 10
475.864451
 20
228.000903
 10
475.876496
 20
227.958235
 10
475.89562
 20
227.920425
 10
475.922009
 20
227.887713
 10
475.998005
 20
227.79402
 10
476.04003
 20
227.749784
 10
476.087215
 20
227.722507
 10
476.562796
 20
227.591868
 10
477.064406
 20
227.473759
 10
477.588639
 20
227.366991
 10
478.132092
 20
227.270378
 10
478.691359
 20
227.182732
 10
479.263035
 20
227.102867
 10
480.429996
 20
226.961728
 10
481.605737
 20
226.837466
 10
482.763018
 20
226.720581
 10
483.874602
 20
226.601578
 10
484.913249
 20
226.470959
 10
485.868816
 20
226.331144
 10
486.497023
 20
226.245644
 10
487.197263
 20
226.162318
 10
487.948348
 20
226.090594
 10
488.729089
 20
226.039899
 10
489.12396
 20
226.025384
 10
489.5183
 20
226.019661
 10
489.90946
 20
226.023909
 10
490.294792
 20
226.039306
  0
LWPOLYLINE
  5
51
330
1F
100
AcDbEntity
  8
0
100
AcDbPolyline
 90
      567
 70
   128
 43
0.0
 10
413.969379
 20
211.621357
 10
414.115868
 20
210.838587
 42
0.404651
 10
414.456245
 20
210.597241
 10
418.736462
 20
211.253953
 42
0.504652
 10
418.960983
 20
211.681215
 10
416.209031
 20
217.36517
 10
418.009145
 20
218.236716
 10
420.54702
 20
212.994919
 42
0.373996
 10
420.909029
 20
212.840103
 10
421.640509
 20
213.075755
 10
421.903023
 20
213.159513
 10
422.186003
 20
213.232845
 10
422.489112
 20
213.295746
 10
422.812016
 20
213.348211
 10
423.154376
 20
213.390236
 10
423.515857
 20
213.421817
 10
423.896123
 20
213.442948
 10
424.294837
 20
213.453626
 10
424.711662
 20
213.453846
 10
425.146262
 20
213.443604
 10
425.598301
 20
213.422894
 10
426.067443
 20
213.391713
 10
426.55335
 20
213.350056
 10
427.055687
 20
213.297919
 10
427.574117
 20
213.235296
 10
428.108304
 20
213.162184
 10
428.577782
 20
213.099735
 10
429.009944
 20
213.054035
 10
429.406347
 20
213.025604
 10
429.768543
 20
213.014958
 10
430.098088
 20
213.022617
 10
430.396535
 20
213.049097
 10
430.66544
 20
213.094916
 10
430.906356
 20
213.160593
 10
431.120837
 20
213.246645
 10
431.218651
 20
213.297474
 10
431.310439
 20
213.353591
 10
431.396396
 20
213.41506
 10
431.476716
 20
213.481947
 10
431.551593
 20
213.554316
 10
431.621221
 20
213.632233
 10
431.745509
 20
213.804965
 10
431.851135
 20
214.000662
 10
431.939653
 20
214.219841
 10
432.012618
 20
214.463021
 10
432.086176
 20
214.727267
 10
432.161748
 20
214.931368
 10
432.203889
 20
215.013264
 10
432.250852
 20
215.083002
 10
432.304077
 20
215.141543
 10
432.365005
 20
215.189848
 10
432.435075
 20
215.228874
 10
432.515727
 20
215.259583
 10
432.6084
 20
215.282934
 10
432.714534
 20
215.299887
 10
432.972945
 20
215.318439
 10
433.302478
 20
215.322917
 10
433.629551
 20
215.326049
 10
433.879289
 20
215.338971
 10
434.059666
 20
215.366972
 10
434.126337
 20
215.388279
 10
434.178657
 20
215.415339
 10
434.217625
 20
215.448812
 10
434.244238
 20
215.48936
 10
434.259491
 20
215.537643
 10
434.264382
 20
215.594323
 10
434.247064
 20
215.735517
 10
434.20026
 20
215.918229
 10
434.150303
 20
216.052469
 10
434.073457
 20
216.206032
 10
433.973565
 20
216.37353
 10
433.854472
 20
216.549577
 10
433.720023
 20
216.728788
 10
433.574061
 20
216.905774
 10
433.420431
 20
217.07515
 10
433.262978
 20
217.231529
 10
433.02522
 20
217.436641
 10
432.913691
 20
217.51798
 10
432.804114
 20
217.586938
 10
432.694275
 20
217.644837
 10
432.581964
 20
217.692997
 10
432.464969
 20
217.732742
 10
432.341078
 20
217.765393
 10
432.063761
 20
217.8147
 10
431.732317
 20
217.851495
 10
430.836276
 20
217.92985
 10
430.285241
 20
217.956168
 10
429.383343
 20
217.977071
 10
428.248762
 20
218.00077
 10
426.999675
 20
218.035478
 10
425.754262
 20
218.089405
 10
425.169864
 20
218.126142
 10
424.630702
 20
218.170763
 10
424.151547
 20
218.224295
 10
423.747173
 20
218.287765
 10
423.577645
 20
218.323546
 10
423.432352
 20
218.362198
 10
423.31314
 20
218.403846
 10
423.221855
 20
218.448621
 10
423.163537
 20
218.501187
 10
423.117676
 20
218.579885
 10
423.08384
 20
218.68356
 10
423.0616
 20
218.811056
 10
423.050525
 20
218.961218
 10
423.050187
 20
219.132891
 10
423.060153
 20
219.324918
 10
423.079995
 20
219.536146
 10
423.147585
 20
220.011577
 10
423.249515
 20
220.549943
 10
423.382344
 20
221.141999
 10
423.542631
 20
221.778503
 10
423.726935
 20
222.450211
 10
423.931816
 20
223.147881
 10
424.153831
 20
223.862268
 10
424.389541
 20
224.584129
 10
424.635505
 20
225.304222
 10
424.88828
 20
226.013304
 10
425.144428
 20
226.70213
 10
425.400506
 20
227.361458
 10
425.758438
 20
228.24198
 10
426.155709
 20
229.180015
 10
426.587781
 20
230.162771
 10
427.050117
 20
231.177456
 10
427.538181
 20
232.211279
 10
428.047435
 20
233.251447
 10
428.573342
 20
234.28517
 10
429.111365
 20
235.299654
 10
429.656968
 20
236.28211
 10
430.205612
 20
237.219743
 10
430.479657
 20
237.667755
 10
430.752761
 20
238.099764
 10
431.024358
 20
238.514172
 10
431.293879
 20
238.90938
 10
431.560757
 20
239.283789
 10
431.824427
 20
239.6358
 10
432.084319
 20
239.963813
 10
432.339869
 20
240.266231
 10
432.590507
 20
240.541454
 10
432.835667
 20
240.787882
 10
433.074782
 20
241.003918
 10
433.307286
 20
241.187961
 10
433.599564
 20
241.394393
 10
433.898405
 20
241.591463
 10
434.204043
 20
241.780186
 10
434.516711
 20
241.961579
 10
434.836643
 20
242.136659
 10
435.164072
 20
242.306443
 10
435.842356
 20
242.634186
 10
436.553431
 20
242.952941
 10
437.299167
 20
243.27084
 10
438.902091
 20
243.936595
 10
439.763016
 20
244.300716
 10
440.666075
 20
244.696508
 10
441.613135
 20
245.132105
 10
442.606065
 20
245.615637
 10
443.120315
 20
245.87792
 10
443.646734
 20
246.155237
 10
444.185554
 20
246.448603
 10
444.737009
 20
246.759036
 10
445.301333
 20
247.087552
 10
445.878759
 20
247.435168
 10
446.469522
 20
247.802899
 10
447.073853
 20
248.191763
 10
447.5722
 20
248.525133
 10
448.049385
 20
248.859581
 10
448.50556
 20
249.195351
 10
448.940875
 20
249.532687
 10
449.355481
 20
249.871833
 10
449.749529
 20
250.213031
 10
450.123168
 20
250.556526
 10
450.47655
 20
250.902561
 10
450.809824
 20
251.251379
 10
451.123143
 20
251.603225
 10
451.416656
 20
251.958341
 10
451.690514
 20
252.316971
 10
451.944867
 20
252.679359
 10
452.179867
 20
253.045749
 10
452.395663
 20
253.416383
 10
452.592406
 20
253.791505
 10
452.770248
 20
254.17136
 10
452.929338
 20
254.55619
 10
453.069827
 20
254.946239
 10
453.191866
 20
255.34175
 10
453.295605
 20
255.742968
 10
453.381195
 20
256.150135
 10
453.448786
 20
256.563496
 10
453.49853
 20
256.983293
 10
453.530576
 20
257.409771
 10
453.545075
 20
257.843172
 10
453.542178
 20
258.283741
 10
453.522036
 20
258.73172
 10
453.484799
 20
259.187354
 10
453.430618
 20
259.650886
 10
453.359642
 20
260.12256
 10
453.272024
 20
260.602619
 10
453.103024
 20
261.389991
 10
452.900079
 20
262.22444
 10
452.668334
 20
263.092115
 10
452.412934
 20
263.979161
 10
452.139024
 20
264.871728
 10
451.85175
 20
265.75596
 10
451.556257
 20
266.618007
 10
451.25769
 20
267.444014
 10
450.961194
 20
268.220129
 10
450.671915
 20
268.932499
 10
450.394997
 20
269.567272
 10
450.135587
 20
270.110594
 10
450.014055
 20
270.343632
 10
449.898829
 20
270.548613
 10
449.790553
 20
270.723805
 10
449.603613
 20
270.990559
 42
0.567242
 10
449.089977
 20
270.95329
 10
444.734408
 20
262.301673
 10
442.948019
 20
263.201013
 10
447.414472
 20
272.072882
 42
0.415164
 10
447.280545
 20
272.476178
 10
446.988235
 20
272.622152
 10
446.631289
 20
272.781032
 10
446.216503
 20
272.949717
 10
445.746055
 20
273.127408
 10
445.222121
 20
273.313311
 10
444.64688
 20
273.50663
 10
444.022508
 20
273.706567
 10
443.351183
 20
273.912328
 10
442.635082
 20
274.123115
 10
441.876382
 20
274.338133
 10
440.239895
 20
274.777678
 10
438.673976
 20
275.190692
 10
437.435601
 20
275.51654
 10
436.903612
 20
275.648907
 10
436.410754
 20
275.762041
 10
435.942775
 20
275.856793
 10
435.485422
 20
275.934015
 10
435.024445
 20
275.994562
 10
434.545591
 20
276.039284
 10
434.034608
 20
276.069036
 10
433.477246
 20
276.084668
 10
432.859251
 20
276.087035
 10
432.166373
 20
276.076988
 10
430.498958
 20
276.023064
 10
428.773459
 20
275.948945
 10
427.851708
 20
275.900039
 10
426.914032
 20
275.839465
 10
425.977987
 20
275.764396
 10
425.06113
 20
275.672005
 10
424.181018
 20
275.559465
 10
423.760228
 20
275.494755
 10
423.355208
 20
275.423948
 10
422.901116
 20
275.330653
 10
422.44225
 20
275.219649
 10
421.978941
 20
275.09144
 10
421.511523
 20
274.94653
 10
421.040325
 20
274.785422
 10
420.56568
 20
274.608621
 10
420.087919
 20
274.416629
 10
419.607373
 20
274.20995
 10
419.124375
 20
273.989089
 10
418.639256
 20
273.754549
 10
418.152348
 20
273.506833
 10
417.663981
 20
273.246446
 10
417.174488
 20
272.97389
 10
416.6842
 20
272.689671
 10
416.193449
 20
272.39429
 10
415.702567
 20
272.088253
 10
415.211884
 20
271.772063
 10
414.721733
 20
271.446223
 10
414.232444
 20
271.111237
 10
413.744351
 20
270.767609
 10
412.773074
 20
270.056442
 10
411.810554
 20
269.316751
 10
410.859445
 20
268.552565
 10
409.922397
 20
267.767914
 10
409.002066
 20
266.966829
 10
408.101101
 20
266.153337
 10
407.880406
 20
265.93484
 10
407.624582
 20
265.660783
 10
407.068643
 20
265.050406
 10
406.799076
 20
264.766293
 10
406.555475
 20
264.531036
 10
406.448184
 20
264.439887
 10
406.353113
 20
264.37074
 10
406.27217
 20
264.326859
 10
406.207265
 20
264.311506
 10
406.149898
 20
264.318289
 10
406.090142
 20
264.33792
 10
405.962539
 20
264.411412
 10
405.822606
 20
264.52336
 10
405.668493
 20
264.665142
 10
405.310326
 20
265.003718
 10
405.102572
 20
265.183266
 10
404.873237
 20
265.358159
 10
404.594532
 20
265.542325
 10
404.303822
 20
265.711149
 10
404.004957
 20
265.863066
 10
403.701784
 20
265.99651
 10
403.398153
 20
266.109915
 10
403.097911
 20
266.201716
 10
402.804909
 20
266.270347
 10
402.522993
 20
266.314244
 10
402.303585
 20
266.333321
 10
402.086468
 20
266.341304
 10
401.87328
 20
266.338711
 10
401.665657
 20
266.326062
 10
401.465237
 20
266.303875
 10
401.273657
 20
266.27267
 10
401.092553
 20
266.232966
 10
400.923563
 20
266.185282
 10
400.768323
 20
266.130137
 10
400.558387
 20
266.036938
 42
0.484836
 10
400.441794
 20
265.580524
 10
406.127847
 20
258.143891
 10
404.53905
 20
256.929097
 10
398.860094
 20
264.356449
 42
0.416043
 10
398.438071
 20
264.411407
 10
398.27606
 20
264.285923
 10
398.162466
 20
264.187709
 10
397.924742
 20
263.95418
 10
397.683374
 20
263.682159
 10
397.450843
 20
263.384819
 10
397.239634
 20
263.075333
 10
397.145926
 20
262.920151
 10
397.06223
 20
262.766873
 10
396.99614
 20
262.625341
 10
396.93955
 20
262.47608
 10
396.892452
 20
262.319446
 10
396.854835
 20
262.15579
 10
396.826691
 20
261.985467
 10
396.808011
 20
261.808829
 10
396.798785
 20
261.626231
 10
396.799005
 20
261.438025
 10
396.808661
 20
261.244565
 10
396.827744
 20
261.046205
 10
396.856245
 20
260.843297
 10
396.894155
 20
260.636195
 10
396.941464
 20
260.425253
 10
396.998164
 20
260.210823
 10
397.064246
 20
259.99326
 10
397.139699
 20
259.772917
 10
397.235172
 20
259.494839
 10
397.300086
 20
259.263073
 10
397.333264
 20
259.065733
 10
397.337584
 20
258.976258
 10
397.33353
 20
258.89093
 10
397.320952
 20
258.808265
 10
397.299706
 20
258.726777
 10
397.230615
 20
258.561384
 10
397.125081
 20
258.382865
 10
396.981926
 20
258.179331
 10
396.879614
 20
258.016926
 10
396.777684
 20
257.810691
 10
396.678832
 20
257.569052
 10
396.58575
 20
257.300437
 10
396.501134
 20
257.013272
 10
396.427677
 20
256.715986
 10
396.368075
 20
256.417003
 10
396.325021
 20
256.124752
 10
396.294994
 20
255.821142
 10
396.280272
 20
255.541765
 10
396.281586
 20
255.285569
 10
396.29967
 20
255.051501
 10
396.335255
 20
254.838507
 10
396.389075
 20
254.645534
 10
396.461862
 20
254.47153
 10
396.554348
 20
254.31544
 10
396.667265
 20
254.176213
 10
396.801348
 20
254.052794
 10
396.957327
 20
253.944131
 10
397.135936
 20
253.84917
 10
397.337906
 20
253.766858
 10
397.563971
 20
253.696143
 10
397.814863
 20
253.63597
 10
398.091314
 20
253.585288
 10
398.309315
 20
253.544
 10
398.509455
 20
253.492366
 10
398.692147
 20
253.4298
 10
398.857808
 20
253.355712
 10
399.006852
 20
253.269518
 10
399.139694
 20
253.170629
 10
399.256749
 20
253.058459
 10
399.358432
 20
252.932421
 10
399.445158
 20
252.791927
 10
399.517342
 20
252.636391
 10
399.575398
 20
252.465226
 10
399.619743
 20
252.277844
 10
399.65079
 20
252.073658
 10
399.668955
 20
251.852083
 10
399.674653
 20
251.612529
 10
399.668298
 20
251.354412
 10
399.654021
 20
250.940258
 10
399.652087
 20
250.573761
 10
399.663688
 20
250.254055
 10
399.690015
 20
249.980278
 10
399.73226
 20
249.751566
 10
399.759725
 20
249.65384
 10
399.791615
 20
249.567056
 10
399.828081
 20
249.491106
 10
399.869272
 20
249.425883
 10
399.915336
 20
249.371279
 10
399.966422
 20
249.327185
 10
400.022679
 20
249.293493
 10
400.084257
 20
249.270097
 10
400.151303
 20
249.256887
 10
400.223968
 20
249.253756
 10
400.3024
 20
249.260596
 10
400.386748
 20
249.277299
 10
400.573789
 20
249.339862
 10
400.786281
 20
249.440581
 10
401.025417
 20
249.578593
 10
401.292389
 20
249.753034
 10
401.588388
 20
249.963041
 10
401.961127
 20
250.23437
 10
402.241074
 20
250.429313
 10
402.441314
 20
250.548956
 10
402.515632
 20
250.580878
 10
402.574929
 20
250.594383
 10
402.62084
 20
250.589605
 10
402.655002
 20
250.566679
 10
402.679048
 20
250.525743
 10
402.694615
 20
250.46693
 10
402.706852
 20
250.296221
 10
402.704795
 20
250.055636
 10
402.684091
 20
249.654297
 10
402.637264
 20
249.103962
 10
402.571263
 20
248.477126
 10
402.493037
 20
247.846283
 10
402.441177
 20
247.424696
 10
402.410945
 20
247.073821
 10
402.403999
 20
246.78154
 10
402.421999
 20
246.535734
 10
402.440872
 20
246.426473
 10
402.466604
 20
246.324285
 10
402.499403
 20
246.227657
 10
402.539474
 20
246.135073
 10
402.642267
 20
245.955981
 10
402.776644
 20
245.774888
 10
402.940616
 20
245.577175
 10
403.013587
 20
245.498798
 10
403.083832
 20
245.435136
 10
403.153815
 20
245.386986
 10
403.225997
 20
245.355144
 10
403.302844
 20
245.340406
 10
403.386818
 20
245.343568
 10
403.480382
 20
245.365428
 10
403.585999
 20
245.406782
 10
403.706133
 20
245.468425
 10
403.843247
 20
245.551156
 10
404.178268
 20
245.783061
 10
404.610767
 20
246.108871
 10
405.153368
 20
246.554991
 10
405.359217
 20
246.731993
 10
405.534547
 20
246.87272
 10
405.689191
 20
246.972995
 10
405.76183
 20
247.006657
 10
405.832986
 20
247.02864
 10
405.903889
 20
247.038422
 10
405.975767
 20
247.035479
 10
406.049851
 20
247.019291
 10
406.127369
 20
246.989335
 10
406.209552
 20
246.945088
 10
406.297628
 20
246.88603
 10
406.496378
 20
246.721386
 10
406.733456
 20
246.491229
 10
407.018696
 20
246.191379
 10
407.773006
 20
245.365894
 10
408.83799
 20
244.211516
 10
409.50334
 20
243.503512
 10
410.231407
 20
242.749911
 10
410.606291
 20
242.377766
 10
410.981653
 20
242.020327
 10
411.352426
 20
241.686296
 10
411.713542
 20
241.384375
 10
412.159433
 20
241.048871
 10
412.647375
 20
240.714468
 10
413.164545
 20
240.382445
 10
413.698124
 20
240.054082
 10
414.76322
 20
239.413452
 10
415.269096
 20
239.103743
 10
415.740095
 20
238.802811
 10
416.326123
 20
238.410314
 10
416.829541
 20
238.059667
 10
417.25792
 20
237.74575
 10
417.618829
 20
237.463444
 10
417.919839
 20
237.207633
 10
418.168521
 20
236.973196
 10
418.372446
 20
236.755015
 10
418.539182
 20
236.547973
 10
418.676302
 20
236.346949
 10
418.791375
 20
236.146826
 10
418.891972
 20
235.942485
 10
418.985663
 20
235.728808
 10
419.18261
 20
235.25297
 10
419.301006
 20
234.980572
 10
419.442779
 20
234.678364
 10
419.577543
 20
234.389103
 10
419.698504
 20
234.100392
 10
419.805655
 20
233.812199
 10
419.898985
 20
233.524494
 10
419.978487
 20
233.237244
 10
420.044152
 20
232.950419
 10
420.095969
 20
232.663986
 10
420.133932
 20
232.377915
 10
420.15803
 20
232.092175
 10
420.168255
 20
231.806732
 10
420.164598
 20
231.521558
 10
420.147051
 20
231.236619
 10
420.115604
 20
230.951884
 10
420.070248
 20
230.667323
 10
420.010975
 20
230.382903
 10
419.937776
 20
230.098594
 10
419.850642
 20
229.814363
 10
419.749563
 20
229.53018
 10
419.634533
 20
229.246013
 10
419.50554
 20
228.961831
 10
419.362577
 20
228.677602
 10
419.205635
 20
228.393294
 10
419.034704
 20
228.108877
 10
418.849777
 20
227.824319
 10
418.650843
 20
227.539589
 10
418.437895
 20
227.254654
 10
418.210923
 20
226.969485
 10
417.969918
 20
226.684049
 10
417.714873
 20
226.398315
 10
417.445777
 20
226.112251
 10
417.162622
 20
225.825827
 10
416.865399
 20
225.53901
 10
416.477552
 20
225.185139
 10
416.048778
 20
224.81506
 10
415.593251
 20
224.43973
 10
415.12514
 20
224.070106
 10
414.658618
 20
223.717143
 10
414.207855
 20
223.391797
 10
413.787023
 20
223.105025
 10
413.410293
 20
222.867783
 10
412.741129
 20
222.458258
 10
412.158268
 20
222.079908
 10
411.662536
 20
221.73341
 10
411.254757
 20
221.419438
 10
411.084108
 20
221.27486
 10
410.935757
 20
221.138667
 10
410.809807
 20
221.010943
 10
410.706361
 20
220.891773
 10
410.625523
 20
220.781241
 10
410.567395
 20
220.679431
 10
410.532081
 20
220.586428
 10
410.519683
 20
220.502317
 10
410.50686
 20
220.358123
 10
410.504621
 20
220.284067
 10
410.516449
 20
220.217708
 10
410.654653
 20
219.865888
 10
410.811189
 20
219.521359
 10
410.983379
 20
219.182218
 10
411.168542
 20
218.846558
 10
411.567068
 20
218.178066
 10
411.985328
 20
217.500644
 10
412.195159
 20
217.153822
 10
412.401883
 20
216.799053
 10
412.602821
 20
216.434432
 10
412.795293
 20
216.058054
 10
412.976618
 20
215.668014
 10
413.144118
 20
215.262408
 10
413.295112
 20
214.83933
 10
413.426919
 20
214.396875
 10
413.525613
 20
214.015291
 10
413.621643
 20
213.611777
 10
413.707542
 20
213.206137
 10
413.775846
 20
212.818176
 10
413.969379
 20
211.621357
  0
LWPOLYLINE
  5
52
330
1F
100
AcDbEntity
  8
0
100
AcDbPolyline
 90
      204
 70
   128
 43
0.0
 10
434.898613
 20
341.962809
 42
-0.427907
 10
434.796583
 20
341.540954
 10
428.308886
 20
337.784614
 10
429.311019
 20
336.053796
 10
436.136287
 20
340.005588
 42
-0.285975
 10
436.453349
 20
339.99536
 10
436.989362
 20
339.636989
 10
437.203523
 20
339.474655
 10
437.450176
 20
339.273237
 10
437.720877
 20
339.040171
 10
438.00718
 20
338.782888
 10
438.300639
 20
338.508826
 10
438.592809
 20
338.22542
 10
438.875245
 20
337.940103
 10
439.313614
 20
337.48227
 10
439.488331
 20
337.289831
 10
439.634663
 20
337.115366
 10
439.753558
 20
336.954117
 10
439.845961
 20
336.801328
 10
439.912816
 20
336.652239
 10
439.955073
 20
336.502089
 10
439.973676
 20
336.346124
 10
439.969569
 20
336.179583
 10
439.943702
 20
335.997708
 10
439.897017
 20
335.795743
 10
439.830463
 20
335.568928
 10
439.744984
 20
335.312505
 10
439.521038
 20
334.6918
 10
439.309805
 20
334.130856
 10
439.121491
 20
333.674535
 10
439.031579
 20
333.479145
 10
438.94218
 20
333.302155
 10
438.851554
 20
333.140981
 10
438.757962
 20
332.993035
 10
438.659663
 20
332.855733
 10
438.55492
 20
332.726492
 10
438.441992
 20
332.602723
 10
438.319142
 20
332.481841
 10
438.036716
 20
332.238404
 10
437.693726
 20
331.975493
 10
437.441605
 20
331.798134
 10
437.178092
 20
331.630655
 10
436.903102
 20
331.47305
 10
436.616555
 20
331.325313
 10
436.318363
 20
331.187443
 10
436.008447
 20
331.059433
 10
435.686723
 20
330.941279
 10
435.353106
 20
330.832976
 10
435.007516
 20
330.734518
 10
434.649868
 20
330.645902
 10
434.280078
 20
330.567125
 10
433.898064
 20
330.498178
 10
433.503743
 20
330.43906
 10
433.09703
 20
330.389764
 10
432.677845
 20
330.350287
 10
432.246104
 20
330.320622
 10
431.801722
 20
330.300768
 10
431.344616
 20
330.290715
 10
430.874706
 20
330.290464
 10
430.391905
 20
330.300006
 10
429.896134
 20
330.319338
 10
429.387304
 20
330.348457
 10
428.865338
 20
330.387355
 10
428.330148
 20
330.43603
 10
427.781654
 20
330.494474
 10
427.219772
 20
330.562687
 10
426.644419
 20
330.640661
 10
426.05551
 20
330.728391
 10
424.836699
 20
330.933104
 10
423.562672
 20
331.17679
 10
420.688871
 20
331.785367
 10
417.81671
 20
332.401532
 10
413.724834
 20
333.318403
 10
409.635366
 20
334.246094
 10
408.915547
 20
334.420046
 10
408.154821
 20
334.622527
 10
407.366147
 20
334.838997
 10
406.562488
 20
335.054924
 10
405.756801
 20
335.255772
 10
405.357247
 20
335.345999
 10
404.962047
 20
335.427006
 10
404.57282
 20
335.496975
 10
404.191185
 20
335.55409
 10
403.818763
 20
335.596535
 10
403.457175
 20
335.622491
 10
403.282702
 20
335.623051
 10
403.098216
 20
335.610623
 10
402.71273
 20
335.559324
 10
402.327785
 20
335.493632
 10
401.970445
 20
335.438584
 10
401.624433
 20
335.381809
 10
401.210082
 20
335.290506
 10
400.743005
 20
335.169416
 10
400.238818
 20
335.023275
 10
399.713139
 20
334.856825
 10
399.181582
 20
334.674807
 10
398.659761
 20
334.481958
 10
398.163293
 20
334.283017
 10
397.600187
 20
334.059455
 10
397.06698
 20
333.873536
 10
396.562002
 20
333.725549
 10
396.319575
 20
333.665871
 10
396.08358
 20
333.615785
 10
395.853807
 20
333.575326
 10
395.630047
 20
333.544532
 10
395.412091
 20
333.523438
 10
395.199732
 20
333.512081
 10
394.992761
 20
333.510496
 10
394.790967
 20
333.518721
 10
394.594144
 20
333.536789
 10
394.402083
 20
333.56474
 10
394.214572
 20
333.602607
 10
394.031408
 20
333.650429
 10
393.852378
 20
333.70824
 10
393.677275
 20
333.776077
 10
393.505889
 20
333.853977
 10
393.338013
 20
333.941974
 10
393.173438
 20
334.040107
 10
393.011954
 20
334.14841
 10
392.853353
 20
334.26692
 10
392.697427
 20
334.395673
 10
392.543967
 20
334.534705
 10
392.392763
 20
334.684053
 10
392.243609
 20
334.843753
 10
392.096294
 20
335.01384
 10
391.950609
 20
335.194352
 10
391.806349
 20
335.385322
 10
391.691167
 20
335.550797
 10
391.584834
 20
335.720216
 10
391.487325
 20
335.89332
 10
391.398612
 20
336.069848
 10
391.318671
 20
336.249546
 10
391.247479
 20
336.432152
 10
391.185009
 20
336.617407
 10
391.131237
 20
336.805051
 10
391.086136
 20
336.994827
 10
391.049683
 20
337.186475
 10
391.021852
 20
337.379736
 10
391.002616
 20
337.574353
 10
390.991954
 20
337.770064
 10
390.989839
 20
337.966611
 10
390.996243
 20
338.163736
 10
391.011147
 20
338.361179
 10
391.034519
 20
338.558682
 10
391.066339
 20
338.755983
 10
391.10658
 20
338.952828
 10
391.155217
 20
339.148955
 10
391.212225
 20
339.344104
 10
391.27758
 20
339.538018
 10
391.351254
 20
339.730438
 10
391.433225
 20
339.921105
 10
391.523467
 20
340.109758
 10
391.621953
 20
340.296139
 10
391.72866
 20
340.47999
 10
391.843563
 20
340.661052
 10
391.966635
 20
340.839065
 10
392.097853
 20
341.01377
 10
392.237191
 20
341.184908
 10
392.384623
 20
341.352222
 10
392.521826
 20
341.495488
 10
392.669094
 20
341.63685
 10
392.826322
 20
341.77629
 10
392.993405
 20
341.913786
 10
393.356715
 20
342.182877
 10
393.75818
 20
342.443967
 10
394.196962
 20
342.696903
 10
394.672216
 20
342.94153
 10
395.183103
 20
343.177694
 10
395.72878
 20
343.40524
 10
396.308406
 20
343.624015
 10
396.921139
 20
343.833864
 10
397.566138
 20
344.034633
 10
398.242563
 20
344.226166
 10
398.949569
 20
344.408311
 10
399.686318
 20
344.580912
 10
400.451966
 20
344.743815
 10
401.245672
 20
344.896867
 10
402.066597
 20
345.039912
 10
402.913894
 20
345.172796
 10
403.786726
 20
345.295366
 10
404.684252
 20
345.407466
 10
405.605628
 20
345.508944
 10
406.550012
 20
345.599642
 10
407.516565
 20
345.679408
 10
408.504444
 20
345.748087
 10
409.512808
 20
345.805527
 10
410.540814
 20
345.851571
 10
411.587623
 20
345.886066
 10
412.652391
 20
345.908856
 10
413.734277
 20
345.919788
 10
414.832441
 20
345.918708
 10
415.946041
 20
345.905462
 10
417.074236
 20
345.879893
 10
418.513254
 20
345.829097
 10
419.33994
 20
345.782779
 10
419.721547
 20
345.748794
 10
419.825338
 20
345.734997
 10
423.046637
 20
340.089439
 10
432.990461
 20
344.631753
 10
433.339343
 20
344.162402
 10
434.081621
 20
343.146521
 10
434.472521
 20
342.595803
 10
434.808452
 20
342.103054
 10
434.898613
 20
341.962809
  0
LWPOLYLINE
  5
53
330
1F
100
AcDbEntity
  8
0
100
AcDbPolyline
 90
        5
 70
   128
 43
0.0
 10
380.466651
 20
221.703359
 10
382.466636
 20
221.695879
 10
382.520861
 20
236.192635
 10
380.520875
 20
236.200116
 10
380.466651
 20
221.703359
  0
LWPOLYLINE
  5
54
330
1F
100
AcDbEntity
  8
0
100
AcDbPolyline
 90
      221
 70
   128
 43
0.0
 10
351.495779
 20
240.52201
 10
351.552128
 20
240.27833
 10
351.61748
 20
240.047241
 10
351.691492
 20
239.828833
 10
351.77381
 20
239.623188
 10
351.864094
 20
239.430395
 10
351.961993
 20
239.250537
 10
352.067161
 20
239.083703
 10
352.17925
 20
238.929976
 10
352.297916
 20
238.789443
 10
352.422809
 20
238.662191
 10
352.553582
 20
238.548305
 10
352.689891
 20
238.447869
 10
352.831386
 20
238.360972
 10
352.97772
 20
238.287699
 10
353.12855
 20
238.228134
 10
353.283525
 20
238.182366
 10
353.442299
 20
238.150478
 10
353.604525
 20
238.132558
 10
353.769856
 20
238.12869
 10
353.937946
 20
238.138961
 10
354.108446
 20
238.163457
 10
354.281012
 20
238.202264
 10
354.455294
 20
238.255467
 10
354.630947
 20
238.323151
 10
354.807622
 20
238.405405
 10
354.984974
 20
238.502313
 10
355.162656
 20
238.613961
 10
355.340319
 20
238.740435
 10
355.517619
 20
238.881821
 10
355.694207
 20
239.038203
 10
355.869736
 20
239.20967
 10
356.043859
 20
239.396307
 10
356.460095
 20
239.904548
 42
0.226859
 10
356.521646
 20
240.156031
 10
355.646952
 20
244.3392
 10
357.604614
 20
244.748544
 10
358.241187
 20
241.704169
 42
0.598998
 10
358.748799
 20
241.555285
 10
360.297335
 20
243.130889
 10
360.892176
 20
243.742455
 10
361.131231
 20
244.000722
 10
361.801609
 20
244.779565
 42
0.233305
 10
361.867885
 20
245.036675
 10
360.653245
 20
250.845615
 10
362.610907
 20
251.254959
 10
363.429103
 20
247.341984
 42
0.655012
 10
363.967629
 20
247.230078
 10
365.310269
 20
249.12716
 10
365.809469
 20
249.839242
 10
366.009312
 20
250.137616
 10
366.177863
 20
250.40694
 10
366.433116
 20
250.862184
 42
0.181232
 10
366.46509
 20
251.070305
 10
365.342018
 20
256.441329
 10
367.299679
 20
256.850673
 10
367.933717
 20
253.818424
 42
0.701943
 10
368.492439
 20
253.73934
 10
369.668948
 20
255.959213
 10
370.077422
 20
256.737981
 10
370.240699
 20
257.065165
 10
370.378085
 20
257.361598
 10
370.490642
 20
257.635315
 10
370.579429
 20
257.894354
 10
370.645509
 20
258.146751
 10
370.742076
 20
258.698299
 42
0.095149
 10
370.740221
 20
258.811438
 10
369.546489
 20
264.520387
 10
371.50415
 20
264.929731
 10
372.071874
 20
262.214623
 42
0.510555
 10
372.515513
 20
262.01621
 10
372.824651
 20
262.194674
 10
372.995597
 20
262.310198
 10
373.185455
 20
262.451806
 10
373.395901
 20
262.618799
 10
373.54132
 20
262.75167
 10
373.683619
 20
262.911028
 10
373.8221
 20
263.094971
 10
373.956062
 20
263.301598
 10
374.084806
 20
263.529004
 10
374.20763
 20
263.77529
 10
374.323835
 20
264.038552
 10
374.43272
 20
264.316889
 10
374.533586
 20
264.608399
 10
374.625732
 20
264.91118
 10
374.708458
 20
265.223329
 10
374.781065
 20
265.542945
 10
374.842852
 20
265.868124
 10
374.89312
 20
266.196969
 10
374.931166
 20
266.527573
 10
374.956293
 20
266.858036
 10
374.960953
 20
267.192986
 10
374.942295
 20
267.586179
 10
374.902181
 20
268.029178
 10
374.842472
 20
268.513542
 10
374.76503
 20
269.030834
 10
374.671716
 20
269.572613
 10
374.564391
 20
270.130441
 10
374.444915
 20
270.69588
 10
374.315153
 20
271.260491
 10
374.176962
 20
271.815834
 10
374.032205
 20
272.353471
 10
373.882744
 20
272.864962
 10
373.730439
 20
273.34187
 10
373.577151
 20
273.775757
 10
373.424742
 20
274.15818
 10
373.275073
 20
274.480702
 10
372.954523
 20
275.078728
 10
372.789538
 20
275.363592
 10
372.621273
 20
275.639132
 10
372.44962
 20
275.905428
 10
372.274472
 20
276.162562
 10
372.095723
 20
276.410612
 10
371.913267
 20
276.649663
 10
371.726997
 20
276.879794
 10
371.536807
 20
277.101085
 10
371.342589
 20
277.313619
 10
371.144236
 20
277.517475
 10
370.941645
 20
277.712735
 10
370.734705
 20
277.899481
 10
370.523313
 20
278.077792
 10
370.307362
 20
278.24775
 10
370.086742
 20
278.409435
 10
369.861351
 20
278.562929
 10
369.631079
 20
278.708311
 10
369.395822
 20
278.845666
 10
369.155472
 20
278.975071
 10
368.909922
 20
279.096609
 10
368.659067
 20
279.21036
 10
368.402799
 20
279.316406
 10
368.141012
 20
279.414826
 10
367.8736
 20
279.505703
 10
367.600455
 20
279.589117
 10
367.321473
 20
279.665148
 10
367.036544
 20
279.73388
 10
366.745563
 20
279.795391
 10
366.448425
 20
279.849763
 10
366.145022
 20
279.897077
 10
365.57315
 20
279.970324
 10
365.05309
 20
280.015075
 10
364.803292
 20
280.026142
 10
364.555412
 20
280.029335
 10
364.305771
 20
280.024408
 10
364.050688
 20
280.011108
 10
363.786486
 20
279.989187
 10
363.509487
 20
279.958398
 10
362.90238
 20
279.869208
 10
362.199937
 20
279.741542
 10
361.372729
 20
279.573405
 10
360.523719
 20
279.389907
 10
359.826091
 20
279.224611
 10
359.247954
 20
279.065549
 10
358.993728
 20
278.984615
 10
358.757416
 20
278.900752
 10
358.53503
 20
278.812463
 10
358.322586
 20
278.718252
 10
358.116095
 20
278.616621
 10
357.911571
 20
278.506077
 10
357.492481
 20
278.252261
 10
357.033424
 20
277.944833
 10
356.671459
 20
277.685559
 10
356.308719
 20
277.407456
 10
355.94606
 20
277.111466
 10
355.584345
 20
276.798521
 10
355.224438
 20
276.469562
 10
354.867195
 20
276.125525
 10
354.51348
 20
275.767347
 10
354.164154
 20
275.395964
 10
353.820076
 20
275.012317
 10
353.482106
 20
274.617342
 10
353.151108
 20
274.211974
 10
352.827941
 20
273.797154
 10
352.513466
 20
273.373817
 10
352.208544
 20
272.942901
 10
351.914036
 20
272.505342
 10
351.630802
 20
272.062079
 10
351.373529
 20
271.628102
 10
351.131319
 20
271.177991
 10
350.904456
 20
270.712849
 10
350.693228
 20
270.233782
 10
350.497925
 20
269.741892
 10
350.318829
 20
269.238286
 10
350.156231
 20
268.724067
 10
350.010416
 20
268.200338
 10
349.881672
 20
267.668205
 10
349.770285
 20
267.12877
 10
349.676545
 20
266.58314
 10
349.600737
 20
266.032417
 10
349.543149
 20
265.477707
 10
349.504067
 20
264.920112
 10
349.483778
 20
264.36074
 10
349.482571
 20
263.80069
 10
349.497493
 20
263.555546
 10
349.534711
 20
263.215433
 10
349.665725
 20
262.298287
 10
349.854992
 20
261.14521
 10
350.081887
 20
259.852167
 10
350.566072
 20
257.230024
 10
350.953302
 20
255.199549
 10
351.140078
 20
254.185796
 10
351.291288
 20
253.277026
 10
351.409895
 20
252.458504
 10
351.498869
 20
251.715495
 10
351.561173
 20
251.033262
 10
351.599772
 20
250.397072
 10
351.617633
 20
249.792187
 10
351.617723
 20
249.203873
 10
351.603005
 20
248.617392
 10
351.576445
 20
248.018014
 10
351.499664
 20
246.72161
 10
351.411104
 20
245.196778
 10
351.369821
 20
244.311864
 10
351.334491
 20
243.325635
 10
351.328181
 20
242.949479
 10
351.330756
 20
242.557668
 10
351.341557
 20
242.1617
 10
351.359921
 20
241.773077
 10
351.385187
 20
241.403298
 10
351.416692
 20
241.063861
 10
351.453777
 20
240.766265
 10
351.495779
 20
240.52201
  0
LWPOLYLINE
  5
55
330
1F
100
AcDbEntity
  8
0
100
AcDbPolyline
 90
        5
 70
   128
 43
0.0
 10
354.480284
 20
267.58019
 10
353.949406
 20
269.508445
 10
367.926226
 20
273.356479
 10
368.457105
 20
271.428224
 10
354.480284
 20
267.58019
  0
LWPOLYLINE
  5
56
330
1F
100
AcDbEntity
  8
0
100
AcDbPolyline
 90
      385
 70
   128
 43
0.0
 10
505.974925
 20
272.698764
 10
505.855371
 20
272.636041
 10
505.736351
 20
272.57954
 10
505.615697
 20
272.526196
 10
505.494368
 20
272.474577
 10
505.373319
 20
272.423257
 10
505.253507
 20
272.370804
 10
505.135892
 20
272.315789
 10
505.021217
 20
272.257037
 10
504.90938
 20
272.194382
 10
504.800066
 20
272.127915
 10
504.692961
 20
272.057724
 10
504.587749
 20
271.983897
 10
504.484119
 20
271.906523
 10
504.381751
 20
271.825693
 10
504.280335
 20
271.741494
 10
504.179614
 20
271.654025
 10
504.079581
 20
271.563426
 10
503.980284
 20
271.469843
 10
503.881775
 20
271.373428
 10
503.784104
 20
271.274328
 10
503.687322
 20
271.172692
 10
503.59148
 20
271.06867
 10
503.496629
 20
270.962409
 10
503.402778
 20
270.854127
 10
503.309771
 20
270.744316
 10
503.217408
 20
270.633533
 10
503.125493
 20
270.52234
 10
503.033827
 20
270.411292
 10
502.942212
 20
270.300952
 10
502.850451
 20
270.191879
 10
502.758346
 20
270.08463
 10
502.665774
 20
269.979777
 10
502.572922
 20
269.877938
 10
502.480051
 20
269.779743
 10
502.387425
 20
269.685821
 10
502.295305
 20
269.596801
 10
502.203953
 20
269.513313
 10
502.113633
 20
269.435985
 10
502.024605
 20
269.36545
 10
501.936868
 20
269.302034
 10
501.849358
 20
269.244865
 10
501.760751
 20
269.192769
 10
501.669718
 20
269.144575
 10
501.574932
 20
269.099108
 10
501.475067
 20
269.055195
 10
501.368795
 20
269.011663
 10
501.254789
 20
268.967338
 10
501.132208
 20
268.921227
 10
501.002148
 20
268.873048
 10
500.866189
 20
268.822698
 10
500.725913
 20
268.770075
 10
500.582901
 20
268.715076
 10
500.438733
 20
268.657599
 10
500.294991
 20
268.597542
 10
500.153257
 20
268.534802
 10
500.014966
 20
268.469359
 10
499.880977
 20
268.401529
 10
499.752004
 20
268.331711
 10
499.628761
 20
268.260302
 10
499.511963
 20
268.187704
 10
499.402323
 20
268.114312
 10
499.300556
 20
268.040526
 10
499.207375
 20
267.966743
 10
499.123271
 20
267.893203
 10
499.047845
 20
267.819489
 10
498.980468
 20
267.74503
 10
498.92052
 20
267.669246
 10
498.867374
 20
267.591566
 10
498.820406
 20
267.511411
 10
498.778991
 20
267.428209
 10
498.742505
 20
267.341383
 10
498.710365
 20
267.250523
 10
498.68215
 20
267.155879
 10
498.657481
 20
267.057864
 10
498.635979
 20
266.956891
 10
498.617265
 20
266.853377
 10
498.600959
 20
266.747734
 10
498.586684
 20
266.640376
 10
498.574058
 20
266.531717
 10
498.56256
 20
266.422203
 10
498.551091
 20
266.312407
 10
498.538407
 20
266.202929
 10
498.523269
 20
266.094375
 10
498.504431
 20
265.987346
 10
498.480654
 20
265.882447
 10
498.450692
 20
265.78028
 10
498.413306
 20
265.681448
 10
498.367745
 20
265.58637
 10
498.315245
 20
265.494716
 10
498.257533
 20
265.405975
 10
498.196335
 20
265.319632
 10
498.133379
 20
265.235176
 10
498.070394
 20
265.152092
 10
498.009107
 20
265.069869
 10
497.951244
 20
264.987991
 10
497.898378
 20
264.906124
 10
497.851445
 20
264.824637
 10
497.811225
 20
264.744073
 10
497.778499
 20
264.66498
 10
497.754048
 20
264.587905
 10
497.738651
 20
264.513392
 10
497.733087
 20
264.441987
 10
497.73814
 20
264.374237
 10
497.754592
 20
264.310504
 10
497.783245
 20
264.250429
 10
497.824905
 20
264.193471
 10
497.880377
 20
264.139084
 10
497.950468
 20
264.086728
 10
498.035982
 20
264.035861
 10
498.137727
 20
263.985939
 10
498.256507
 20
263.936422
 10
498.392845
 20
263.887019
 10
498.546129
 20
263.838455
 10
498.715463
 20
263.791706
 10
498.899951
 20
263.747752
 10
499.098699
 20
263.707568
 10
499.310809
 20
263.672134
 10
499.535387
 20
263.642425
 10
499.771538
 20
263.619418
 10
500.01806
 20
263.604071
 10
500.272542
 20
263.597244
 10
500.532265
 20
263.599777
 10
500.794512
 20
263.612511
 10
501.056568
 20
263.636285
 10
501.315712
 20
263.671939
 10
501.569229
 20
263.720313
 10
501.8144
 20
263.782246
 10
502.049159
 20
263.858183
 10
502.274035
 20
263.946985
 10
502.490206
 20
264.047114
 10
502.698854
 20
264.157036
 10
502.901154
 20
264.275215
 10
503.098288
 20
264.400115
 10
503.291434
 20
264.530201
 10
503.481771
 20
264.663938
 10
503.670316
 20
264.799832
 10
503.857428
 20
264.936564
 10
504.043307
 20
265.072856
 10
504.228151
 20
265.207432
 10
504.412156
 20
265.339015
 10
504.595522
 20
265.466328
 10
504.778446
 20
265.588094
 10
504.961126
 20
265.703035
 10
505.143615
 20
265.809999
 10
505.325389
 20
265.908331
 10
505.505777
 20
265.997497
 10
505.68411
 20
266.076963
 10
505.859716
 20
266.146199
 10
506.031927
 20
266.204671
 10
506.200073
 20
266.251847
 10
506.363482
 20
266.287194
 10
506.521778
 20
266.310343
 10
506.67575
 20
266.321581
 10
506.826479
 20
266.321355
 10
506.975047
 20
266.310115
 10
507.122534
 20
266.288312
 10
507.270022
 20
266.256392
 10
507.418592
 20
266.214807
 10
507.569326
 20
266.164005
 10
507.723035
 20
266.104552
 10
507.879455
 20
266.037493
 10
508.03805
 20
265.963985
 10
508.198287
 20
265.885189
 10
508.35963
 20
265.802263
 10
508.521545
 20
265.71637
 10
508.683498
 20
265.628667
 10
508.844953
 20
265.540315
 10
509.005427
 20
265.452497
 10
509.164639
 20
265.366492
 10
509.32236
 20
265.283601
 10
509.478358
 20
265.205126
 10
509.632405
 20
265.132369
 10
509.784271
 20
265.06663
 10
509.933724
 20
265.009213
 10
510.080535
 20
264.96142
 10
510.224699
 20
264.92451
 10
510.367103
 20
264.899594
 10
510.508861
 20
264.887739
 10
510.651084
 20
264.890008
 10
510.794887
 20
264.907474
 10
510.94138
 20
264.941201
 10
511.091676
 20
264.992257
 10
511.246888
 20
265.061711
 10
511.408855
 20
265.151922
 10
511.58232
 20
265.270425
 10
511.772756
 20
265.426046
 10
511.985632
 20
265.627614
 10
512.226421
 20
265.883954
 10
512.360934
 20
266.040925
 42
0.423497
 10
512.321052
 20
266.469988
 10
508.636453
 20
269.430831
 10
509.889236
 20
270.989847
 10
513.573835
 20
268.029005
 42
0.423497
 10
514.001424
 20
268.08242
 10
514.125758
 20
268.247571
 10
514.324255
 20
268.537895
 10
514.475272
 20
268.789171
 10
514.58625
 20
269.008643
 10
514.664633
 20
269.203551
 10
514.717863
 20
269.38114
 10
514.752276
 20
269.547664
 10
514.769782
 20
269.705428
 10
514.771183
 20
269.855747
 10
514.757284
 20
269.999937
 10
514.728884
 20
270.139315
 10
514.68679
 20
270.275197
 10
514.631804
 20
270.408899
 10
514.564727
 20
270.541738
 10
514.48645
 20
270.674819
 10
514.398206
 20
270.808409
 10
514.301318
 20
270.942562
 10
514.197105
 20
271.077335
 10
514.086888
 20
271.212784
 10
513.971989
 20
271.348963
 10
513.853726
 20
271.485928
 10
513.733422
 20
271.623735
 10
513.612387
 20
271.762386
 10
513.491877
 20
271.901662
 10
513.373142
 20
272.041291
 10
513.25743
 20
272.181
 10
513.145986
 20
272.320518
 10
513.040061
 20
272.459571
 10
512.940902
 20
272.597888
 10
512.849755
 20
272.735196
 10
512.767696
 20
272.87146
 10
512.695103
 20
273.007595
 10
512.632182
 20
273.144753
 10
512.579141
 20
273.28409
 10
512.536184
 20
273.426754
 10
512.503517
 20
273.573901
 10
512.481345
 20
273.726682
 10
512.469876
 20
273.88625
 10
512.469217
 20
274.053438
 10
512.479091
 20
274.227796
 10
512.499121
 20
274.408557
 10
512.528931
 20
274.594951
 10
512.568146
 20
274.786208
 10
512.616389
 20
274.981562
 10
512.673285
 20
275.180241
 10
512.738458
 20
275.381479
 10
512.811381
 20
275.584619
 10
512.890914
 20
275.789467
 10
512.975769
 20
275.995939
 10
513.064656
 20
276.203956
 10
513.156286
 20
276.413436
 10
513.24937
 20
276.624297
 10
513.342616
 20
276.836456
 10
513.434737
 20
277.049834
 10
513.524365
 20
277.264497
 10
513.609823
 20
277.481118
 10
513.689359
 20
277.700518
 10
513.761219
 20
277.923515
 10
513.82365
 20
278.150933
 10
513.874897
 20
278.383591
 10
513.913207
 20
278.62231
 10
513.936829
 20
278.867912
 10
513.944533
 20
279.120668
 10
513.937199
 20
279.378655
 10
513.916232
 20
279.639399
 10
513.883036
 20
279.900427
 10
513.839019
 20
280.159268
 10
513.785582
 20
280.413447
 10
513.724134
 20
280.660493
 10
513.656078
 20
280.897932
 10
513.582776
 20
281.123593
 10
513.505419
 20
281.336511
 10
513.425155
 20
281.53602
 10
513.34313
 20
281.721458
 10
513.260491
 20
281.892159
 10
513.178388
 20
282.04746
 10
513.097964
 20
282.186695
 10
513.02037
 20
282.309203
 10
512.946445
 20
282.414539
 10
512.875791
 20
282.503152
 10
512.807708
 20
282.575711
 10
512.741491
 20
282.632888
 10
512.676439
 20
282.675352
 10
512.611847
 20
282.703774
 10
512.547013
 20
282.718822
 10
512.481233
 20
282.72117
 10
512.413983
 20
282.711519
 10
512.34545
 20
282.690716
 10
512.275998
 20
282.659639
 10
512.205993
 20
282.61917
 10
512.1358
 20
282.570185
 10
512.065784
 20
282.513566
 10
511.996309
 20
282.450191
 10
511.927741
 20
282.38094
 10
511.86024
 20
282.306809
 10
511.793137
 20
282.229258
 10
511.72556
 20
282.149865
 10
511.656636
 20
282.070205
 10
511.585492
 20
281.991855
 10
511.511255
 20
281.916392
 10
511.433051
 20
281.845393
 10
511.350009
 20
281.780434
 10
511.261543
 20
281.722648
 10
511.168221
 20
281.671397
 10
511.0709
 20
281.625595
 10
510.970436
 20
281.584159
 10
510.867685
 20
281.546007
 10
510.763504
 20
281.510055
 10
510.658751
 20
281.475219
 10
510.55428
 20
281.440416
 10
510.450886
 20
281.404695
 10
510.349118
 20
281.367644
 10
510.249462
 20
281.328979
 10
510.152402
 20
281.28842
 10
510.058427
 20
281.245686
 10
509.96802
 20
281.200496
 10
509.881668
 20
281.152569
 10
509.799857
 20
281.101623
 10
509.722921
 20
281.047302
 10
509.650584
 20
280.988947
 10
509.582421
 20
280.925826
 10
509.518001
 20
280.857203
 10
509.4569
 20
280.782346
 10
509.398689
 20
280.700522
 10
509.342941
 20
280.610996
 10
509.289229
 20
280.513032
 10
509.237236
 20
280.406154
 10
509.187087
 20
280.290888
 10
509.139017
 20
280.16802
 10
509.093263
 20
280.038332
 10
509.050058
 20
279.902607
 10
509.009641
 20
279.761628
 10
508.972245
 20
279.616179
 10
508.938107
 20
279.467042
 10
508.907348
 20
279.315125
 10
508.87964
 20
279.161825
 10
508.854546
 20
279.008665
 10
508.831622
 20
278.857166
 10
508.81043
 20
278.708851
 10
508.790528
 20
278.56524
 10
508.771476
 20
278.427858
 10
508.752833
 20
278.298225
 10
508.734089
 20
278.177351
 10
508.714455
 20
278.064199
 10
508.693069
 20
277.957222
 10
508.669073
 20
277.854871
 10
508.641604
 20
277.755597
 10
508.609805
 20
277.657852
 10
508.572815
 20
277.560088
 10
508.529772
 20
277.460756
 10
508.480054
 20
277.358632
 10
508.423984
 20
277.253783
 10
508.362118
 20
277.1466
 10
508.295015
 20
277.037477
 10
508.223234
 20
276.926805
 10
508.147333
 20
276.814973
 10
508.067869
 20
276.702375
 10
507.985403
 20
276.589403
 10
507.900496
 20
276.476369
 10
507.813732
 20
276.363279
 10
507.725701
 20
276.250061
 10
507.63699
 20
276.136639
 10
507.548189
 20
276.022942
 10
507.459887
 20
275.908897
 10
507.372671
 20
275.794432
 10
507.287131
 20
275.679471
 10
507.203779
 20
275.563969
 10
507.122828
 20
275.447982
 10
507.044409
 20
275.331591
 10
506.968657
 20
275.214877
 10
506.895708
 20
275.097922
 10
506.825696
 20
274.980808
 10
506.758754
 20
274.863617
 10
506.695017
 20
274.746428
 10
506.634624
 20
274.629264
 10
506.577725
 20
274.511897
 10
506.524474
 20
274.394039
 10
506.475026
 20
274.275402
 10
506.429537
 20
274.155698
 10
506.38816
 20
274.034638
 10
506.351049
 20
273.911937
 10
506.31836
 20
273.787303
 10
506.289953
 20
273.660602
 10
506.264522
 20
273.532308
 10
506.240462
 20
273.403049
 10
506.216172
 20
273.273452
 10
506.190051
 20
273.144144
 10
506.160498
 20
273.015752
 10
506.124979
 20
272.885498
 42
-0.208289
 10
505.974925
 20
272.698764
  0
ENDSEC
  0
SECTION
  2
OBJECTS
  0
DICTIONARY
  5
C
330
0
100
AcDbDictionary
281
     1
  3
ACAD_GROUP
350
D
  3
ACAD_LAYOUT
350
1A
  3
ACAD_MLINESTYLE
350
17
  3
ACAD_PLOTSETTINGS
350
19
  3
ACAD_PLOTSTYLENAME
350
E
  0
DICTIONARY
  5
D
102
{ACAD_REACTORS
330
C
102
}
330
C
100
AcDbDictionary
281
     1
  0
DICTIONARY
  5
1A
102
{ACAD_REACTORS
330
C
102
}
330
C
100
AcDbDictionary
281
     1
  3
Layout1
350
1E
  3
Layout2
350
26
  3
Model
350
22
  0
DICTIONARY
  5
17
102
{ACAD_REACTORS
330
C
102
}
330
C
100
AcDbDictionary
281
     1
  3
Standard
350
18
  0
DICTIONARY
  5
19
102
{ACAD_REACTORS
330
C
102
}
330
C
100
AcDbDictionary
281
     1
  0
ACDBDICTIONARYWDFLT
  5
E
102
{ACAD_REACTORS
330
C
102
}
330
C
100
AcDbDictionary
281
     1
  3
Normal
350
F
100
AcDbDictionaryWithDefault
340
F
  0
LAYOUT
  5
1E
102
{ACAD_REACTORS
330
1A
102
}
330
1A
100
AcDbPlotSettings
  1

  2

  4

  6

 40
0.0
 41
0.0
 42
0.0
 43
0.0
 44
0.0
 45
0.0
 46
0.0
 47
0.0
 48
0.0
 49
0.0
140
0.0
141
0.0
142
1.0
143
1.0
 70
   688
 72
     0
 73
     0
 74
     5
  7

 75
    16
147
1.0
148
0.0
149
0.0
100
AcDbLayout
  1
Layout1
 70
     1
 71
     1
 10
0.0
 20
0.0
 11
420.0
 21
297.0
 12
0.0
 22
0.0
 32
0.0
 14
1.000000E+20
 24
1.000000E+20
 34
1.000000E+20
 15
-1.000000E+20
 25
-1.000000E+20
 35
-1.000000E+20
146
0.0
 13
0.0
 23
0.0
 33
0.0
 16
1.0
 26
0.0
 36
0.0
 17
0.0
 27
1.0
 37
0.0
 76
     0
330
1B
  0
LAYOUT
  5
26
102
{ACAD_REACTORS
330
1A
102
}
330
1A
100
AcDbPlotSettings
  1

  2

  4

  6

 40
0.0
 41
0.0
 42
0.0
 43
0.0
 44
0.0
 45
0.0
 46
0.0
 47
0.0
 48
0.0
 49
0.0
140
0.0
141
0.0
142
1.0
143
1.0
 70
   688
 72
     0
 73
     0
 74
     5
  7

 75
    16
147
1.0
148
0.0
149
0.0
100
AcDbLayout
  1
Layout2
 70
     1
 71
     2
 10
0.0
 20
0.0
 11
0.0
 21
0.0
 12
0.0
 22
0.0
 32
0.0
 14
0.0
 24
0.0
 34
0.0
 15
0.0
 25
0.0
 35
0.0
146
0.0
 13
0.0
 23
0.0
 33
0.0
 16
1.0
 26
0.0
 36
0.0
 17
0.0
 27
1.0
 37
0.0
 76
     0
330
23
  0
LAYOUT
  5
22
102
{ACAD_REACTORS
330
1A
102
}
330
1A
100
AcDbPlotSettings
  1

  2

  4

  6

 40
0.0
 41
0.0
 42
0.0
 43
0.0
 44
0.0
 45
0.0
 46
0.0
 47
0.0
 48
0.0
 49
0.0
140
0.0
141
0.0
142
1.0
143
1.0
 70
  1712
 72
     0
 73
     0
 74
     0
  7

 75
     0
147
1.0
148
0.0
149
0.0
100
AcDbLayout
  1
Model
 70
     1
 71
     0
 10
0.0
 20
0.0
 11
0.0
 21
0.0
 12
0.0
 22
0.0
 32
0.0
 14
0.0
 24
0.0
 34
0.0
 15
0.0
 25
0.0
 35
0.0
146
0.0
 13
0.0
 23
0.0
 33
0.0
 16
1.0
 26
0.0
 36
0.0
 17
0.0
 27
1.0
 37
0.0
 76
     0
330
1F
  0
MLINESTYLE
  5
18
102
{ACAD_REACTORS
330
17
102
}
330
17
100
AcDbMlineStyle
  2
Standard
 70
     0
  3

 62
   256
 51
90.0
 52
90.0
 71
     2
 49
1.0
 62
   256
  6
BYLAYER
 49
-1.0
 62
   256
  6
BYLAYER
  0
ACDBPLACEHOLDER
  5
F
102
{ACAD_REACTORS
330
E
102
}
330
E
  0
ENDSEC
  0
EOF
