0
SECTION
2
HEADER
9
$INSUNITS
70
4
9
$ACADVER
1
AC1014
9
$HANDSEED
5
FFFF
0
ENDSEC
0
SECTION
2
TABLES
0
TABLE
2
VPORT
5
8
100
AcDbSymbolTable
0
ENDTAB
0
TABLE
2
LTYPE
5
5
100
AcDbSymbolTable
0
LTYPE
5
14
100
AcDbSymbolTableRecord
100
AcDbLinetypeTableRecord
2
BYBLOCK
70
0
0
LTYPE
5
15
100
AcDbSymbolTableRecord
100
AcDbLinetypeTableRecord
2
BYLAYER
70
0
0
ENDTAB
0
TABLE
2
LAYER
5
2
100
AcDbSymbolTable
70
2
0
LAYER
5
50
100
AcDbSymbolTableRecord
100
AcDbLayerTableRecord
2
0
70
0
6
CONTINUOUS
0
ENDTAB
0
TABLE
2
STYLE
5
3
100
AcDbSymbolTable
70
1
0
STYLE
5
11
100
AcDbSymbolTableRecord
100
AcDbTextStyleTableRecord
2
STANDARD
70
0
0
ENDTAB
0
TABLE
2
VIEW
5
6
100
AcDbSymbolTable
70
0
0
ENDTAB
0
TABLE
2
UCS
5
7
100
AcDbSymbolTable
70
0
0
ENDTAB
0
TABLE
2
APPID
5
9
100
AcDbSymbolTable
70
2
0
APPID
5
12
100
AcDbSymbolTableRecord
100
AcDbRegAppTableRecord
2
ACAD
70
0
0
ENDTAB
0
TABLE
2
DIMSTYLE
5
A
100
AcDbSymbolTable
70
1
0
ENDTAB
0
TABLE
2
BLOCK_RECORD
5
1
100
AcDbSymbolTable
70
1
0
BLOCK_RECORD
5
1F
100
AcDbSymbolTableRecord
100
AcDbBlockTableRecord
2
*MODEL_SPACE
0
BLOCK_RECORD
5
1B
100
AcDbSymbolTableRecord
100
AcDbBlockTableRecord
2
*PAPER_SPACE
0
ENDTAB
0
ENDSEC
0
SECTION
2
BLOCKS
0
BLOCK
5
20
100
AcDbEntity
100
AcDbBlockBegin
2
*MODEL_SPACE
0
ENDBLK
5
21
100
AcDbEntity
100
AcDbBlockEnd
0
BLOCK
5
1C
100
AcDbEntity
100
AcDbBlockBegin
2
*PAPER_SPACE
0
ENDBLK
5
1D
100
AcDbEntity
100
AcDbBlockEnd
0
ENDSEC
0
SECTION
2
ENTITIES
0
LWPOLYLINE
5
100
100
AcDbEntity
8
0
100
AcDbPolyline
90
4
70
1
43
0.0
10
-250.9334937433749
20
-204.03449819882215
10
-250.9334937433749
20
-217.66749819882222
10
-237.30049374337494
20
-217.66749819882222
10
-237.30049374337494
20
-204.03449819882215
0
LWPOLYLINE
5
101
100
AcDbEntity
8
0
100
AcDbPolyline
90
4
70
1
43
0.0
10
-220.66749374337491
20
-237.30049819882214
10
-234.30049374337494
20
-237.30049819882214
10
-234.30049374337494
20
-250.93349819882209
10
-220.66749374337491
20
-250.93349819882209
0
LWPOLYLINE
5
102
100
AcDbEntity
8
0
100
AcDbPolyline
90
4
70
1
43
0.0
10
-267.56649374337496
20
-204.03449819882215
10
-267.56649374337496
20
-217.66749819882222
10
-253.9334937433749
20
-217.66749819882222
10
-253.9334937433749
20
-204.03449819882215
0
LWPOLYLINE
5
103
100
AcDbEntity
8
0
100
AcDbPolyline
90
4
70
1
43
0.0
10
-220.66749374337491
20
-267.56649819882216
10
-220.66749374337491
20
-253.93349819882218
10
-234.30049374337494
20
-253.93349819882218
10
-234.30049374337494
20
-267.56649819882216
0
LWPOLYLINE
5
104
100
AcDbEntity
8
0
100
AcDbPolyline
90
4
70
1
43
0.0
10
-220.66749374337491
20
-220.66749819882219
10
-234.30049374337494
20
-220.66749819882219
10
-234.30049374337494
20
-234.30049819882214
10
-220.66749374337491
20
-234.30049819882214
0
LWPOLYLINE
5
105
100
AcDbEntity
8
0
100
AcDbPolyline
90
4
70
1
43
0.0
10
-204.03449374337492
20
-51.337498198822153
10
-204.03449374337492
20
-37.704498198822129
10
-217.66749374337493
20
-37.704498198822129
10
-217.66749374337493
20
-51.337498198822153
0
LWPOLYLINE
5
106
100
AcDbEntity
8
0
100
AcDbPolyline
90
4
70
1
43
0.0
10
-234.30049374337494
20
-217.66749819882222
10
-220.66749374337491
20
-217.66749819882222
10
-220.66749374337491
20
-204.03449819882215
10
-234.30049374337494
20
-204.03449819882215
0
LWPOLYLINE
5
107
100
AcDbEntity
8
0
100
AcDbPolyline
90
4
70
1
43
0.0
10
-204.03449374337492
20
-54.337498198822146
10
-217.66749374337493
20
-54.337498198822146
10
-217.66749374337493
20
-67.970498198822156
10
-204.03449374337492
20
-67.970498198822156
0
LWPOLYLINE
5
108
100
AcDbEntity
8
0
100
AcDbPolyline
90
4
70
1
43
0.0
10
-237.30049374337494
20
-187.40149819882217
10
-250.9334937433749
20
-187.40149819882217
10
-250.9334937433749
20
-201.03449819882215
10
-237.30049374337494
20
-201.03449819882215
0
LWPOLYLINE
5
109
100
AcDbEntity
8
0
100
AcDbPolyline
90
4
70
1
43
0.0
10
-253.9334937433749
20
-104.23649819882216
10
-267.56649374337496
20
-104.23649819882216
10
-267.56649374337496
20
-117.86949819882217
10
-253.9334937433749
20
-117.86949819882217
0
LWPOLYLINE
5
110
100
AcDbEntity
8
0
100
AcDbPolyline
90
4
70
1
43
0.0
10
-237.30049374337494
20
-170.76849819882216
10
-250.9334937433749
20
-170.76849819882216
10
-250.9334937433749
20
-184.40149819882214
10
-237.30049374337494
20
-184.40149819882214
0
LWPOLYLINE
5
111
100
AcDbEntity
8
0
100
AcDbPolyline
90
4
70
1
43
0.0
10
-220.66749374337491
20
-87.603498198822138
10
-234.30049374337494
20
-87.603498198822138
10
-234.30049374337494
20
-101.23649819882219
10
-220.66749374337491
20
-101.23649819882219
0
LWPOLYLINE
5
112
100
AcDbEntity
8
0
100
AcDbPolyline
90
4
70
1
43
0.0
10
-253.9334937433749
20
-184.40149819882214
10
-253.9334937433749
20
-170.76849819882216
10
-267.56649374337496
20
-170.76849819882216
10
-267.56649374337496
20
-184.40149819882214
0
LWPOLYLINE
5
113
100
AcDbEntity
8
0
100
AcDbPolyline
90
4
70
1
43
0.0
10
-204.03449374337492
20
-184.40149819882214
10
-204.03449374337492
20
-170.76849819882216
10
-217.66749374337493
20
-170.76849819882216
10
-217.66749374337493
20
-184.40149819882214
0
LWPOLYLINE
5
114
100
AcDbEntity
8
0
100
AcDbPolyline
90
4
70
1
43
0.0
10
-253.9334937433749
20
-187.40149819882217
10
-267.56649374337496
20
-187.40149819882217
10
-267.56649374337496
20
-201.03449819882215
10
-253.9334937433749
20
-201.03449819882215
0
LWPOLYLINE
5
115
100
AcDbEntity
8
0
100
AcDbPolyline
90
4
70
1
43
0.0
10
-253.9334937433749
20
-154.13549819882215
10
-267.56649374337496
20
-154.13549819882215
10
-267.56649374337496
20
-167.76849819882216
10
-253.9334937433749
20
-167.76849819882216
0
LWPOLYLINE
5
116
100
AcDbEntity
8
0
100
AcDbPolyline
90
4
70
1
43
0.0
10
-250.9334937433749
20
-237.30049819882214
10
-250.9334937433749
20
-250.93349819882209
10
-237.30049374337494
20
-250.93349819882209
10
-237.30049374337494
20
-237.30049819882214
0
LWPOLYLINE
5
117
100
AcDbEntity
8
0
100
AcDbPolyline
90
4
70
1
43
0.0
10
-250.9334937433749
20
-253.93349819882218
10
-250.9334937433749
20
-267.56649819882216
10
-237.30049374337494
20
-267.56649819882216
10
-237.30049374337494
20
-253.93349819882218
0
LWPOLYLINE
5
118
100
AcDbEntity
8
0
100
AcDbPolyline
90
4
70
1
43
0.0
10
-170.76849374337499
20
-54.337498198822146
10
-184.40149374337491
20
-54.337498198822146
10
-184.40149374337491
20
-67.970498198822156
10
-170.76849374337499
20
-67.970498198822156
0
LWPOLYLINE
5
119
100
AcDbEntity
8
0
100
AcDbPolyline
90
4
70
1
43
0.0
10
-237.30049374337494
20
-220.66749819882219
10
-250.9334937433749
20
-220.66749819882219
10
-250.9334937433749
20
-234.30049819882214
10
-237.30049374337494
20
-234.30049819882214
0
LWPOLYLINE
5
120
100
AcDbEntity
8
0
100
AcDbPolyline
90
4
70
1
43
0.0
10
-220.66749374337491
20
-154.13549819882215
10
-234.30049374337494
20
-154.13549819882215
10
-234.30049374337494
20
-167.76849819882216
10
-220.66749374337491
20
-167.76849819882216
0
LWPOLYLINE
5
121
100
AcDbEntity
8
0
100
AcDbPolyline
90
4
70
1
43
0.0
10
-234.30049374337494
20
-37.704498198822129
10
-234.30049374337494
20
-51.337498198822153
10
-220.66749374337491
20
-51.337498198822153
10
-220.66749374337491
20
-37.704498198822129
0
LWPOLYLINE
5
122
100
AcDbEntity
8
0
100
AcDbPolyline
90
4
70
1
43
0.0
10
-167.76849374337499
20
-51.337498198822153
10
-154.13549374337498
20
-51.337498198822153
10
-154.13549374337498
20
-37.704498198822129
10
-167.76849374337499
20
-37.704498198822129
0
LWPOLYLINE
5
123
100
AcDbEntity
8
0
100
AcDbPolyline
90
4
70
1
43
0.0
10
-217.66749374337493
20
-18.071498198822159
10
-204.03449374337492
20
-18.071498198822159
10
-204.03449374337492
20
-4.4384981988221375
10
-217.66749374337493
20
-4.4384981988221384
0
LWPOLYLINE
5
124
100
AcDbEntity
8
0
100
AcDbPolyline
90
4
70
1
43
0.0
10
-250.9334937433749
20
-154.13549819882215
10
-250.9334937433749
20
-167.76849819882216
10
-237.30049374337494
20
-167.76849819882216
10
-237.30049374337494
20
-154.13549819882215
0
LWPOLYLINE
5
125
100
AcDbEntity
8
0
100
AcDbPolyline
90
4
70
1
43
0.0
10
-253.9334937433749
20
-220.66749819882219
10
-267.56649374337496
20
-220.66749819882219
10
-267.56649374337496
20
-234.30049819882214
10
-253.9334937433749
20
-234.30049819882214
0
LWPOLYLINE
5
126
100
AcDbEntity
8
0
100
AcDbPolyline
90
4
70
1
43
0.0
10
-217.66749374337493
20
-21.071498198822134
10
-217.66749374337493
20
-34.704498198822158
10
-204.03449374337492
20
-34.704498198822158
10
-204.03449374337492
20
-21.071498198822134
0
LWPOLYLINE
5
127
100
AcDbEntity
8
0
100
AcDbPolyline
90
4
70
1
43
0.0
10
-237.30049374337494
20
-37.704498198822129
10
-250.9334937433749
20
-37.704498198822129
10
-250.9334937433749
20
-51.337498198822153
10
-237.30049374337494
20
-51.337498198822153
0
LWPOLYLINE
5
128
100
AcDbEntity
8
0
100
AcDbPolyline
90
4
70
1
43
0.0
10
-154.13549374337498
20
-54.337498198822146
10
-167.76849374337499
20
-54.337498198822146
10
-167.76849374337499
20
-67.970498198822156
10
-154.13549374337498
20
-67.970498198822156
0
LWPOLYLINE
5
129
100
AcDbEntity
8
0
100
AcDbPolyline
90
4
70
1
43
0.0
10
-204.03449374337492
20
-117.86949819882217
10
-204.03449374337492
20
-104.23649819882216
10
-217.66749374337493
20
-104.23649819882216
10
-217.66749374337493
20
-117.86949819882217
0
LWPOLYLINE
5
130
100
AcDbEntity
8
0
100
AcDbPolyline
90
4
70
1
43
0.0
10
-250.9334937433749
20
-54.337498198822146
10
-250.9334937433749
20
-67.970498198822156
10
-237.30049374337494
20
-67.970498198822156
10
-237.30049374337494
20
-54.337498198822146
0
LWPOLYLINE
5
131
100
AcDbEntity
8
0
100
AcDbPolyline
90
4
70
1
43
0.0
10
-267.56649374337496
20
-51.337498198822153
10
-253.9334937433749
20
-51.337498198822153
10
-253.9334937433749
20
-37.704498198822129
10
-267.56649374337496
20
-37.704498198822129
0
LINE
5
132
100
AcDbEntity
8
0
100
AcDbLine
10
-253.9334937433749
20
-253.93349819882218
30
0
11
-267.56649374337496
21
-253.93349819882218
31
0
0
LWPOLYLINE
5
133
100
AcDbEntity
8
0
100
AcDbPolyline
90
4
70
1
43
0.0
10
-51.337493743374942
20
-18.071498198822159
10
-37.704493743374918
20
-18.071498198822159
10
-37.704493743374918
20
-4.4384981988221375
10
-51.337493743374942
20
-4.4384981988221384
0
LWPOLYLINE
5
134
100
AcDbEntity
8
0
100
AcDbPolyline
90
4
70
1
43
0.0
10
-154.13549374337498
20
-21.071498198822134
10
-167.76849374337499
20
-21.071498198822134
10
-167.76849374337499
20
-34.704498198822158
10
-154.13549374337498
20
-34.704498198822158
0
LWPOLYLINE
5
135
100
AcDbEntity
8
0
100
AcDbPolyline
90
4
70
1
43
0.0
10
-170.76849374337499
20
-101.23649819882219
10
-170.76849374337499
20
-87.603498198822138
10
-184.40149374337491
20
-87.603498198822138
10
-184.40149374337491
20
-101.23649819882219
0
LWPOLYLINE
5
136
100
AcDbEntity
8
0
100
AcDbPolyline
90
4
70
1
43
0.0
10
-51.337493743374942
20
-37.704498198822129
10
-51.337493743374942
20
-51.337498198822153
10
-37.704493743374918
20
-51.337498198822153
10
-37.704493743374918
20
-37.704498198822129
0
LWPOLYLINE
5
137
100
AcDbEntity
8
0
100
AcDbPolyline
90
4
70
1
43
0.0
10
-184.40149374337491
20
-37.704498198822129
10
-184.40149374337491
20
-51.337498198822153
10
-170.76849374337499
20
-51.337498198822153
10
-170.76849374337499
20
-37.704498198822129
0
LWPOLYLINE
5
138
100
AcDbEntity
8
0
100
AcDbPolyline
90
4
70
1
43
0.0
10
-154.13549374337498
20
-220.66749819882219
10
-167.76849374337499
20
-220.66749819882219
10
-167.76849374337499
20
-234.30049819882214
10
-154.13549374337498
20
-234.30049819882214
0
LWPOLYLINE
5
139
100
AcDbEntity
8
0
100
AcDbPolyline
90
4
70
1
43
0.0
10
-184.40149374337491
20
-4.4384981988221384
10
-184.40149374337491
20
-18.071498198822159
10
-170.76849374337499
20
-18.071498198822159
10
-170.76849374337499
20
-4.4384981988221375
0
LWPOLYLINE
5
140
100
AcDbEntity
8
0
100
AcDbPolyline
90
4
70
1
43
0.0
10
-201.03449374337487
20
-253.93349819882218
10
-201.03449374337487
20
-267.56649819882216
10
-187.40149374337491
20
-267.56649819882216
10
-187.40149374337491
20
-253.93349819882218
0
LWPOLYLINE
5
141
100
AcDbEntity
8
0
100
AcDbPolyline
90
4
70
1
43
0.0
10
-220.66749374337491
20
-54.337498198822146
10
-234.30049374337494
20
-54.337498198822146
10
-234.30049374337494
20
-67.970498198822156
10
-220.66749374337491
20
-67.970498198822156
0
LWPOLYLINE
5
142
100
AcDbEntity
8
0
100
AcDbPolyline
90
4
70
1
43
0.0
10
-267.56649374337496
20
-67.970498198822156
10
-253.9334937433749
20
-67.970498198822156
10
-253.9334937433749
20
-54.337498198822146
10
-267.56649374337496
20
-54.337498198822146
0
LWPOLYLINE
5
143
100
AcDbEntity
8
0
100
AcDbPolyline
90
4
70
1
43
0.0
10
-154.13549374337498
20
-4.4384981988221375
10
-167.76849374337499
20
-4.4384981988221384
10
-167.76849374337499
20
-18.071498198822159
10
-154.13549374337498
20
-18.071498198822159
0
LWPOLYLINE
5
144
100
AcDbEntity
8
0
100
AcDbPolyline
90
4
70
1
43
0.0
10
-187.40149374337491
20
-104.23649819882216
10
-201.03449374337487
20
-104.23649819882216
10
-201.03449374337487
20
-117.86949819882217
10
-187.40149374337491
20
-117.86949819882217
0
LWPOLYLINE
5
145
100
AcDbEntity
8
0
100
AcDbPolyline
90
4
70
1
43
0.0
10
-154.13549374337498
20
-250.93349819882209
10
-154.13549374337498
20
-237.30049819882214
10
-167.76849374337499
20
-237.30049819882214
10
-167.76849374337499
20
-250.93349819882209
0
LWPOLYLINE
5
146
100
AcDbEntity
8
0
100
AcDbPolyline
90
4
70
1
43
0.0
10
-187.40149374337491
20
-237.30049819882214
10
-201.03449374337487
20
-237.30049819882214
10
-201.03449374337487
20
-250.93349819882209
10
-187.40149374337491
20
-250.93349819882209
0
LWPOLYLINE
5
147
100
AcDbEntity
8
0
100
AcDbPolyline
90
4
70
1
43
0.0
10
-187.40149374337491
20
-87.603498198822138
10
-201.03449374337487
20
-87.603498198822138
10
-201.03449374337487
20
-101.23649819882219
10
-187.40149374337491
20
-101.23649819882219
0
LWPOLYLINE
5
148
100
AcDbEntity
8
0
100
AcDbPolyline
90
4
70
1
43
0.0
10
-187.40149374337491
20
-120.86949819882216
10
-201.03449374337487
20
-120.86949819882216
10
-201.03449374337487
20
-134.50249819882214
10
-187.40149374337491
20
-134.50249819882214
0
LWPOLYLINE
5
149
100
AcDbEntity
8
0
100
AcDbPolyline
90
4
70
1
43
0.0
10
-170.76849374337499
20
-137.50249819882217
10
-184.40149374337491
20
-137.50249819882217
10
-184.40149374337491
20
-151.13549819882218
10
-170.76849374337499
20
-151.13549819882218
0
LWPOLYLINE
5
150
100
AcDbEntity
8
0
100
AcDbPolyline
90
4
70
1
43
0.0
10
-170.76849374337499
20
-167.76849819882216
10
-170.76849374337499
20
-154.13549819882215
10
-184.40149374337491
20
-154.13549819882215
10
-184.40149374337491
20
-167.76849819882216
0
LWPOLYLINE
5
151
100
AcDbEntity
8
0
100
AcDbPolyline
90
4
70
1
43
0.0
10
-67.970493743374931
20
-21.071498198822134
10
-67.970493743374931
20
-34.704498198822158
10
-54.337493743374914
20
-34.704498198822158
10
-54.337493743374914
20
-21.071498198822134
0
LWPOLYLINE
5
152
100
AcDbEntity
8
0
100
AcDbPolyline
90
4
70
1
43
0.0
10
-154.13549374337498
20
-187.40149819882217
10
-167.76849374337499
20
-187.40149819882217
10
-167.76849374337499
20
-201.03449819882215
10
-154.13549374337498
20
-201.03449819882215
0
LWPOLYLINE
5
153
100
AcDbEntity
8
0
100
AcDbPolyline
90
4
70
1
43
0.0
10
-170.76849374337499
20
-117.86949819882217
10
-170.76849374337499
20
-104.23649819882216
10
-184.40149374337491
20
-104.23649819882216
10
-184.40149374337491
20
-117.86949819882217
0
LWPOLYLINE
5
154
100
AcDbEntity
8
0
100
AcDbPolyline
90
4
70
1
43
0.0
10
-67.970493743374931
20
-4.4384981988221384
10
-67.970493743374931
20
-18.071498198822159
10
-54.337493743374914
20
-18.071498198822159
10
-54.337493743374914
20
-4.4384981988221375
0
LWPOLYLINE
5
155
100
AcDbEntity
8
0
100
AcDbPolyline
90
4
70
1
43
0.0
10
-37.704493743374918
20
-34.704498198822158
10
-37.704493743374918
20
-21.071498198822134
10
-51.337493743374942
20
-21.071498198822134
10
-51.337493743374942
20
-34.704498198822158
0
LWPOLYLINE
5
156
100
AcDbEntity
8
0
100
AcDbPolyline
90
4
70
1
43
0.0
10
-154.13549374337498
20
-253.93349819882218
10
-167.76849374337499
20
-253.93349819882218
10
-167.76849374337499
20
-267.56649819882216
10
-154.13549374337498
20
-267.56649819882216
0
LWPOLYLINE
5
157
100
AcDbEntity
8
0
100
AcDbPolyline
90
4
70
1
43
0.0
10
-167.76849374337499
20
-170.76849819882216
10
-167.76849374337499
20
-184.40149819882214
10
-154.13549374337498
20
-184.40149819882214
10
-154.13549374337498
20
-170.76849819882216
0
LWPOLYLINE
5
158
100
AcDbEntity
8
0
100
AcDbPolyline
90
4
70
1
43
0.0
10
-54.337493743374914
20
-37.704498198822129
10
-67.970493743374931
20
-37.704498198822129
10
-67.970493743374931
20
-51.337498198822153
10
-54.337493743374914
20
-51.337498198822153
0
LWPOLYLINE
5
159
100
AcDbEntity
8
0
100
AcDbPolyline
90
4
70
1
43
0.0
10
-187.40149374337491
20
-184.40149819882214
10
-187.40149374337491
20
-170.76849819882216
10
-201.03449374337487
20
-170.76849819882216
10
-201.03449374337487
20
-184.40149819882214
0
LWPOLYLINE
5
160
100
AcDbEntity
8
0
100
AcDbPolyline
90
4
70
1
43
0.0
10
-201.03449374337487
20
-220.66749819882219
10
-201.03449374337487
20
-234.30049819882214
10
-187.40149374337491
20
-234.30049819882214
10
-187.40149374337491
20
-220.66749819882219
0
LWPOLYLINE
5
161
100
AcDbEntity
8
0
100
AcDbPolyline
90
4
70
1
43
0.0
10
-21.071493743374926
20
-54.337498198822146
10
-34.704493743374947
20
-54.337498198822146
10
-34.704493743374947
20
-67.970498198822156
10
-21.071493743374926
20
-67.970498198822156
0
LWPOLYLINE
5
162
100
AcDbEntity
8
0
100
AcDbPolyline
90
4
70
1
43
0.0
10
-170.76849374337499
20
-134.50249819882214
10
-170.76849374337499
20
-120.86949819882216
10
-184.40149374337491
20
-120.86949819882216
10
-184.40149374337491
20
-134.50249819882214
0
LWPOLYLINE
5
163
100
AcDbEntity
8
0
100
AcDbPolyline
90
4
70
1
43
0.0
10
-201.03449374337487
20
-167.76849819882216
10
-187.40149374337491
20
-167.76849819882216
10
-187.40149374337491
20
-154.13549819882215
10
-201.03449374337487
20
-154.13549819882215
0
LWPOLYLINE
5
164
100
AcDbEntity
8
0
100
AcDbPolyline
90
4
70
1
43
0.0
10
-154.13549374337498
20
-167.76849819882216
10
-154.13549374337498
20
-154.13549819882215
10
-167.76849374337499
20
-154.13549819882215
10
-167.76849374337499
20
-167.76849819882216
0
LWPOLYLINE
5
165
100
AcDbEntity
8
0
100
AcDbPolyline
90
4
70
1
43
0.0
10
-154.13549374337498
20
-151.13549819882218
10
-154.13549374337498
20
-137.50249819882217
10
-167.76849374337499
20
-137.50249819882217
10
-167.76849374337499
20
-151.13549819882218
0
LWPOLYLINE
5
166
100
AcDbEntity
8
0
100
AcDbPolyline
90
4
70
1
43
0.0
10
-37.704493743374918
20
-67.970498198822156
10
-37.704493743374918
20
-54.337498198822146
10
-51.337493743374942
20
-54.337498198822146
10
-51.337493743374942
20
-67.970498198822156
0
LWPOLYLINE
5
167
100
AcDbEntity
8
0
100
AcDbPolyline
90
4
70
1
43
0.0
10
-67.970493743374931
20
-54.337498198822146
10
-67.970493743374931
20
-67.970498198822156
10
-54.337493743374914
20
-67.970498198822156
10
-54.337493743374914
20
-54.337498198822146
0
LWPOLYLINE
5
168
100
AcDbEntity
8
0
100
AcDbPolyline
90
4
70
1
43
0.0
10
-217.66749374337493
20
-237.30049819882214
10
-217.66749374337493
20
-250.93349819882209
10
-204.03449374337492
20
-250.93349819882209
10
-204.03449374337492
20
-237.30049819882214
0
LWPOLYLINE
5
169
100
AcDbEntity
8
0
100
AcDbPolyline
90
4
70
1
43
0.0
10
-217.66749374337493
20
-267.56649819882216
10
-204.03449374337492
20
-267.56649819882216
10
-204.03449374337492
20
-253.93349819882218
10
-217.66749374337493
20
-253.93349819882218
0
LWPOLYLINE
5
170
100
AcDbEntity
8
0
100
AcDbPolyline
90
4
70
1
43
0.0
10
-217.66749374337493
20
-217.66749819882222
10
-204.03449374337492
20
-217.66749819882222
10
-204.03449374337492
20
-204.03449819882215
10
-217.66749374337493
20
-204.03449819882215
0
LWPOLYLINE
5
171
100
AcDbEntity
8
0
100
AcDbPolyline
90
4
70
1
43
0.0
10
-220.66749374337491
20
-201.03449819882215
10
-220.66749374337491
20
-187.40149819882217
10
-234.30049374337494
20
-187.40149819882217
10
-234.30049374337494
20
-201.03449819882215
0
LWPOLYLINE
5
172
100
AcDbEntity
8
0
100
AcDbPolyline
90
4
70
1
43
0.0
10
-217.66749374337493
20
-87.603498198822138
10
-217.66749374337493
20
-101.23649819882219
10
-204.03449374337492
20
-101.23649819882219
10
-204.03449374337492
20
-87.603498198822138
0
LWPOLYLINE
5
173
100
AcDbEntity
8
0
100
AcDbPolyline
90
4
70
1
43
0.0
10
-170.76849374337499
20
-234.30049819882214
10
-170.76849374337499
20
-220.66749819882219
10
-184.40149374337491
20
-220.66749819882219
10
-184.40149374337491
20
-234.30049819882214
0
LWPOLYLINE
5
174
100
AcDbEntity
8
0
100
AcDbPolyline
90
4
70
1
43
0.0
10
-184.40149374337491
20
-237.30049819882214
10
-184.40149374337491
20
-250.93349819882209
10
-170.76849374337499
20
-250.93349819882209
10
-170.76849374337499
20
-237.30049819882214
0
LWPOLYLINE
5
175
100
AcDbEntity
8
0
100
AcDbPolyline
90
4
70
1
43
0.0
10
-220.66749374337491
20
-104.23649819882216
10
-234.30049374337494
20
-104.23649819882216
10
-234.30049374337494
20
-117.86949819882217
10
-220.66749374337491
20
-117.86949819882217
0
LWPOLYLINE
5
176
100
AcDbEntity
8
0
100
AcDbPolyline
90
4
70
1
43
0.0
10
-250.9334937433749
20
-101.23649819882219
10
-237.30049374337494
20
-101.23649819882219
10
-237.30049374337494
20
-87.603498198822138
10
-250.9334937433749
20
-87.603498198822138
0
LWPOLYLINE
5
177
100
AcDbEntity
8
0
100
AcDbPolyline
90
4
70
1
43
0.0
10
-234.30049374337494
20
-70.970498198822156
10
-234.30049374337494
20
-84.60349819882218
10
-220.66749374337491
20
-84.60349819882218
10
-220.66749374337491
20
-70.970498198822156
0
LWPOLYLINE
5
178
100
AcDbEntity
8
0
100
AcDbPolyline
90
4
70
1
43
0.0
10
-184.40149374337491
20
-84.60349819882218
10
-170.76849374337499
20
-84.60349819882218
10
-170.76849374337499
20
-70.970498198822156
10
-184.40149374337491
20
-70.970498198822156
0
LWPOLYLINE
5
179
100
AcDbEntity
8
0
100
AcDbPolyline
90
4
70
1
43
0.0
10
-217.66749374337493
20
-84.60349819882218
10
-204.03449374337492
20
-84.60349819882218
10
-204.03449374337492
20
-70.970498198822156
10
-217.66749374337493
20
-70.970498198822156
0
LWPOLYLINE
5
180
100
AcDbEntity
8
0
100
AcDbPolyline
90
4
70
1
43
0.0
10
-220.66749374337491
20
-170.76849819882216
10
-234.30049374337494
20
-170.76849819882216
10
-234.30049374337494
20
-184.40149819882214
10
-220.66749374337491
20
-184.40149819882214
0
LWPOLYLINE
5
181
100
AcDbEntity
8
0
100
AcDbPolyline
90
4
70
1
43
0.0
10
-217.66749374337493
20
-187.40149819882217
10
-217.66749374337493
20
-201.03449819882215
10
-204.03449374337492
20
-201.03449819882215
10
-204.03449374337492
20
-187.40149819882217
0
LWPOLYLINE
5
182
100
AcDbEntity
8
0
100
AcDbPolyline
90
4
70
1
43
0.0
10
-201.03449374337487
20
-67.970498198822156
10
-187.40149374337491
20
-67.970498198822156
10
-187.40149374337491
20
-54.337498198822146
10
-201.03449374337487
20
-54.337498198822146
0
LWPOLYLINE
5
183
100
AcDbEntity
8
0
100
AcDbPolyline
90
4
70
1
43
0.0
10
-184.40149374337491
20
-34.704498198822158
10
-170.76849374337499
20
-34.704498198822158
10
-170.76849374337499
20
-21.071498198822134
10
-184.40149374337491
20
-21.071498198822134
0
LWPOLYLINE
5
184
100
AcDbEntity
8
0
100
AcDbPolyline
90
4
70
1
43
0.0
10
-4.4384937433749272
20
-18.071498198822159
10
-4.4384937433749272
20
-4.4384981988221375
10
-18.071493743374955
20
-4.4384981988221384
10
-18.071493743374955
20
-18.071498198822159
0
LWPOLYLINE
5
185
100
AcDbEntity
8
0
100
AcDbPolyline
90
4
70
1
43
0.0
10
-4.4384937433749272
20
-51.337498198822153
10
-4.4384937433749272
20
-37.704498198822129
10
-18.071493743374955
20
-37.704498198822129
10
-18.071493743374955
20
-51.337498198822153
0
LWPOLYLINE
5
186
100
AcDbEntity
8
0
100
AcDbPolyline
90
4
70
1
43
0.0
10
-21.071493743374926
20
-4.4384981988221375
10
-34.704493743374947
20
-4.4384981988221384
10
-34.704493743374947
20
-18.071498198822159
10
-21.071493743374926
20
-18.071498198822159
0
LWPOLYLINE
5
187
100
AcDbEntity
8
0
100
AcDbPolyline
90
4
70
1
43
0.0
10
-4.4384937433749272
20
-21.071498198822134
10
-18.071493743374955
20
-21.071498198822134
10
-18.071493743374955
20
-34.704498198822158
10
-4.4384937433749272
20
-34.704498198822158
0
LWPOLYLINE
5
188
100
AcDbEntity
8
0
100
AcDbPolyline
90
4
70
1
43
0.0
10
-34.704493743374947
20
-34.704498198822158
10
-21.071493743374926
20
-34.704498198822158
10
-21.071493743374926
20
-21.071498198822134
10
-34.704493743374947
20
-21.071498198822134
0
LWPOLYLINE
5
189
100
AcDbEntity
8
0
100
AcDbPolyline
90
4
70
1
43
0.0
10
-167.76849374337499
20
-104.23649819882216
10
-167.76849374337499
20
-117.86949819882217
10
-154.13549374337498
20
-117.86949819882217
10
-154.13549374337498
20
-104.23649819882216
0
LWPOLYLINE
5
190
100
AcDbEntity
8
0
100
AcDbPolyline
90
4
70
1
43
0.0
10
-4.4384937433749272
20
-67.970498198822156
10
-4.4384937433749272
20
-54.337498198822146
10
-18.071493743374955
20
-54.337498198822146
10
-18.071493743374955
20
-67.970498198822156
0
LWPOLYLINE
5
191
100
AcDbEntity
8
0
100
AcDbPolyline
90
4
70
1
43
0.0
10
-154.13549374337498
20
-87.603498198822138
10
-167.76849374337499
20
-87.603498198822138
10
-167.76849374337499
20
-101.23649819882219
10
-154.13549374337498
20
-101.23649819882219
0
LWPOLYLINE
5
192
100
AcDbEntity
8
0
100
AcDbPolyline
90
4
70
1
43
0.0
10
-187.40149374337491
20
-201.03449819882215
10
-187.40149374337491
20
-187.40149819882217
10
-201.03449374337487
20
-187.40149819882217
10
-201.03449374337487
20
-201.03449819882215
0
LWPOLYLINE
5
193
100
AcDbEntity
8
0
100
AcDbPolyline
90
4
70
1
43
0.0
10
-154.13549374337498
20
-134.50249819882214
10
-154.13549374337498
20
-120.86949819882216
10
-167.76849374337499
20
-120.86949819882216
10
-167.76849374337499
20
-134.50249819882214
0
LWPOLYLINE
5
194
100
AcDbEntity
8
0
100
AcDbPolyline
90
4
70
1
43
0.0
10
-21.071493743374926
20
-37.704498198822129
10
-34.704493743374947
20
-37.704498198822129
10
-34.704493743374947
20
-51.337498198822153
10
-21.071493743374926
20
-51.337498198822153
0
LWPOLYLINE
5
195
100
AcDbEntity
8
0
100
AcDbPolyline
90
4
70
1
43
0.0
10
-201.03449374337487
20
-18.071498198822159
10
-187.40149374337491
20
-18.071498198822159
10
-187.40149374337491
20
-4.4384981988221375
10
-201.03449374337487
20
-4.4384981988221384
0
LINE
5
196
100
AcDbEntity
8
0
100
AcDbLine
10
-267.56649374337496
20
-253.93349819882218
30
0
11
-253.9334937433749
21
-267.56649819882216
31
0
0
LWPOLYLINE
5
197
100
AcDbEntity
8
0
100
AcDbPolyline
90
4
70
1
43
0.0
10
-267.56649374337496
20
-34.704498198822158
10
-253.9334937433749
20
-34.704498198822158
10
-253.9334937433749
20
-21.071498198822134
10
-267.56649374337496
20
-21.071498198822134
0
LWPOLYLINE
5
198
100
AcDbEntity
8
0
100
AcDbPolyline
90
4
70
1
43
0.0
10
-67.970493743374931
20
-234.30049819882214
10
-54.337493743374914
20
-234.30049819882214
10
-54.337493743374914
20
-220.66749819882219
10
-67.970493743374931
20
-220.66749819882219
0
LINE
5
199
100
AcDbEntity
8
0
100
AcDbLine
10
-253.9334937433749
20
-253.93349819882218
30
0
11
-267.56649374337496
21
-267.56649819882216
31
0
0
LWPOLYLINE
5
200
100
AcDbEntity
8
0
100
AcDbPolyline
90
4
70
1
43
0.0
10
-54.337493743374914
20
-237.30049819882214
10
-67.970493743374931
20
-237.30049819882214
10
-67.970493743374931
20
-250.93349819882209
10
-54.337493743374914
20
-250.93349819882209
0
LWPOLYLINE
5
201
100
AcDbEntity
8
0
100
AcDbPolyline
90
4
70
1
43
0.0
10
-67.970493743374931
20
-253.93349819882218
10
-67.970493743374931
20
-267.56649819882216
10
-54.337493743374914
20
-267.56649819882216
10
-54.337493743374914
20
-253.93349819882218
0
LWPOLYLINE
5
202
100
AcDbEntity
8
0
100
AcDbPolyline
90
4
70
1
43
0.0
10
-267.56649374337496
20
-237.30049819882214
10
-267.56649374337496
20
-250.93349819882209
10
-253.9334937433749
20
-250.93349819882209
10
-253.9334937433749
20
-237.30049819882214
0
LWPOLYLINE
5
203
100
AcDbEntity
8
0
100
AcDbPolyline
90
4
70
1
43
0.0
10
-237.30049374337494
20
-4.4384981988221375
10
-250.9334937433749
20
-4.4384981988221384
10
-250.9334937433749
20
-18.071498198822159
10
-237.30049374337494
20
-18.071498198822159
0
LWPOLYLINE
5
204
100
AcDbEntity
8
0
100
AcDbPolyline
90
4
70
1
43
0.0
10
-18.071493743374955
20
-184.40149819882214
10
-4.4384937433749272
20
-184.40149819882214
10
-4.4384937433749272
20
-170.76849819882216
10
-18.071493743374955
20
-170.76849819882216
0
LWPOLYLINE
5
205
100
AcDbEntity
8
0
100
AcDbPolyline
90
4
70
1
43
0.0
10
-201.03449374337487
20
-51.337498198822153
10
-187.40149374337491
20
-51.337498198822153
10
-187.40149374337491
20
-37.704498198822129
10
-201.03449374337487
20
-37.704498198822129
0
LWPOLYLINE
5
206
100
AcDbEntity
8
0
100
AcDbPolyline
90
4
70
1
43
0.0
10
-267.56649374337496
20
-18.071498198822159
10
-253.9334937433749
20
-18.071498198822159
10
-253.9334937433749
20
-4.4384981988221375
10
-267.56649374337496
20
-4.4384981988221384
0
LWPOLYLINE
5
207
100
AcDbEntity
8
0
100
AcDbPolyline
90
4
70
1
43
0.0
10
-201.03449374337487
20
-21.071498198822134
10
-201.03449374337487
20
-34.704498198822158
10
-187.40149374337491
20
-34.704498198822158
10
-187.40149374337491
20
-21.071498198822134
0
LWPOLYLINE
5
208
100
AcDbEntity
8
0
100
AcDbPolyline
90
4
70
1
43
0.0
10
-237.30049374337494
20
-34.704498198822158
10
-237.30049374337494
20
-21.071498198822134
10
-250.9334937433749
20
-21.071498198822134
10
-250.9334937433749
20
-34.704498198822158
0
LINE
5
209
100
AcDbEntity
8
0
100
AcDbLine
10
-267.56649374337496
20
-267.56649819882216
30
0
11
-253.9334937433749
21
-267.56649819882216
31
0
0
LWPOLYLINE
5
210
100
AcDbEntity
8
0
100
AcDbPolyline
90
4
70
1
43
0.0
10
-220.66749374337491
20
-34.704498198822158
10
-220.66749374337491
20
-21.071498198822134
10
-234.30049374337494
20
-21.071498198822134
10
-234.30049374337494
20
-34.704498198822158
0
LINE
5
211
100
AcDbEntity
8
0
100
AcDbLine
10
-267.56649374337496
20
-253.93349819882218
30
0
11
-267.56649374337496
21
-267.56649819882216
31
0
0
LWPOLYLINE
5
212
100
AcDbEntity
8
0
100
AcDbPolyline
90
4
70
1
43
0.0
10
-51.337493743374942
20
-167.76849819882216
10
-37.704493743374918
20
-167.76849819882216
10
-37.704493743374918
20
-154.13549819882215
10
-51.337493743374942
20
-154.13549819882215
0
LWPOLYLINE
5
213
100
AcDbEntity
8
0
100
AcDbPolyline
90
4
70
1
43
0.0
10
-4.4384937433749272
20
-187.40149819882217
10
-18.071493743374955
20
-187.40149819882217
10
-18.071493743374955
20
-201.03449819882215
10
-4.4384937433749272
20
-201.03449819882215
0
LWPOLYLINE
5
214
100
AcDbEntity
8
0
100
AcDbPolyline
90
4
70
1
43
0.0
10
-220.66749374337491
20
-18.071498198822159
10
-220.66749374337491
20
-4.4384981988221375
10
-234.30049374337494
20
-4.4384981988221384
10
-234.30049374337494
20
-18.071498198822159
0
LWPOLYLINE
5
215
100
AcDbEntity
8
0
100
AcDbPolyline
90
4
70
1
43
0.0
10
-21.071493743374926
20
-187.40149819882217
10
-34.704493743374947
20
-187.40149819882217
10
-34.704493743374947
20
-201.03449819882215
10
-21.071493743374926
20
-201.03449819882215
0
LINE
5
216
100
AcDbEntity
8
0
100
AcDbLine
10
-253.9334937433749
20
-267.56649819882216
30
0
11
-253.9334937433749
21
-253.93349819882218
31
0
0
LWPOLYLINE
5
217
100
AcDbEntity
8
0
100
AcDbPolyline
90
4
70
1
43
0.0
10
-67.970493743374931
20
-201.03449819882215
10
-54.337493743374914
20
-201.03449819882215
10
-54.337493743374914
20
-187.40149819882217
10
-67.970493743374931
20
-187.40149819882217
0
LWPOLYLINE
5
218
100
AcDbEntity
8
0
100
AcDbPolyline
90
4
70
1
43
0.0
10
-4.4384937433749272
20
-167.76849819882216
10
-4.4384937433749272
20
-154.13549819882215
10
-18.071493743374955
20
-154.13549819882215
10
-18.071493743374955
20
-167.76849819882216
0
LWPOLYLINE
5
219
100
AcDbEntity
8
0
100
AcDbPolyline
90
4
70
1
43
0.0
10
-21.071493743374926
20
-167.76849819882216
10
-21.071493743374926
20
-154.13549819882215
10
-34.704493743374947
20
-154.13549819882215
10
-34.704493743374947
20
-167.76849819882216
0
LWPOLYLINE
5
220
100
AcDbEntity
8
0
100
AcDbPolyline
90
4
70
1
43
0.0
10
-54.337493743374914
20
-154.13549819882215
10
-67.970493743374931
20
-154.13549819882215
10
-67.970493743374931
20
-167.76849819882216
10
-54.337493743374914
20
-167.76849819882216
0
LWPOLYLINE
5
221
100
AcDbEntity
8
0
100
AcDbPolyline
90
4
70
1
43
0.0
10
-51.337493743374942
20
-187.40149819882217
10
-51.337493743374942
20
-201.03449819882215
10
-37.704493743374918
20
-201.03449819882215
10
-37.704493743374918
20
-187.40149819882217
0
LWPOLYLINE
5
222
100
AcDbEntity
8
0
100
AcDbPolyline
90
4
70
1
43
0.0
10
-21.071493743374926
20
-184.40149819882214
10
-21.071493743374926
20
-170.76849819882216
10
-34.704493743374947
20
-170.76849819882216
10
-34.704493743374947
20
-184.40149819882214
0
LWPOLYLINE
5
223
100
AcDbEntity
8
0
100
AcDbPolyline
90
4
70
1
43
0.0
10
-67.970493743374931
20
-170.76849819882216
10
-67.970493743374931
20
-184.40149819882214
10
-54.337493743374914
20
-184.40149819882214
10
-54.337493743374914
20
-170.76849819882216
0
LWPOLYLINE
5
224
100
AcDbEntity
8
0
100
AcDbPolyline
90
4
70
1
43
0.0
10
-51.337493743374942
20
-184.40149819882214
10
-37.704493743374918
20
-184.40149819882214
10
-37.704493743374918
20
-170.76849819882216
10
-51.337493743374942
20
-170.76849819882216
0
LWPOLYLINE
5
225
100
AcDbEntity
8
0
100
AcDbPolyline
90
4
70
1
43
0.0
10
-170.76849374337499
20
-170.76849819882216
10
-184.40149374337491
20
-170.76849819882216
10
-184.40149374337491
20
-184.40149819882214
10
-170.76849374337499
20
-184.40149819882214
0
LINE
5
226
100
AcDbEntity
8
0
100
AcDbLine
10
-237.94738195782628
20
-280.99999783933163
30
0
11
-253.63159248414212
21
-280.99999783933163
31
0
0
LINE
5
227
100
AcDbEntity
8
0
100
AcDbLine
10
-112.47369774730005
20
-280.99999783933163
30
0
11
-128.15790827361582
21
-280.99999783933163
31
0
0
LINE
5
228
100
AcDbEntity
8
0
100
AcDbLine
10
-175.21053985256316
20
-280.99999783933163
30
0
11
-190.89475037887891
21
-280.99999783933163
31
0
0
LINE
5
229
100
AcDbEntity
8
0
100
AcDbLine
10
-81.105276694668461
20
-280.99999783933163
30
0
11
-96.789487220984242
21
-280.99999783933163
31
0
0
LINE
5
230
100
AcDbEntity
8
0
100
AcDbLine
10
-18.368434589405346
20
-280.99999783933163
30
0
11
-34.052645115721127
21
-280.99999783933163
31
0
0
LWPOLYLINE
5
231
100
AcDbEntity
8
0
100
AcDbPolyline
90
4
70
1
43
0.0
10
-184.40149374337491
20
-187.40149819882217
10
-184.40149374337491
20
-201.03449819882215
10
-170.76849374337499
20
-201.03449819882215
10
-170.76849374337499
20
-187.40149819882217
0
LINE
5
232
100
AcDbEntity
8
0
100
AcDbLine
10
-143.8421187999316
20
-280.99999783933163
30
0
11
-159.52632932624738
21
-280.99999783933163
31
0
0
LINE
5
233
100
AcDbEntity
8
0
100
AcDbLine
10
-206.57896090519472
20
-280.99999783933163
30
0
11
-222.2631714315105
21
-280.99999783933163
31
0
0
LINE
5
234
100
AcDbEntity
8
0
100
AcDbLine
10
-49.7368556420369
20
-280.99999783933163
30
0
11
-65.421066168352681
21
-280.99999783933163
31
0
0
LINE
5
235
100
AcDbEntity
8
0
100
AcDbLine
10
-281.00000216066849
20
-190.89580301045785
30
0
11
-281.00000216066849
21
-175.2118030104578
31
0
0
LINE
5
236
100
AcDbEntity
8
0
100
AcDbLine
10
-222.2631714315105
20
9.0000021606683553
30
0
11
-206.57896090519472
21
9.0000021606683553
31
0
0
LINE
5
237
100
AcDbEntity
8
0
100
AcDbLine
10
-128.15790827361582
20
9.0000021606683571
30
0
11
-112.47369774730005
21
9.0000021606683607
31
0
0
LINE
5
238
100
AcDbEntity
8
0
100
AcDbLine
10
-96.789487220984242
20
9.0000021606683607
30
0
11
-81.105276694668461
21
9.0000021606683607
31
0
0
LINE
5
239
100
AcDbEntity
8
0
100
AcDbLine
10
-253.63159248414212
20
9.0000021606683553
30
0
11
-237.94738195782628
21
9.0000021606683553
31
0
0
LINE
5
240
100
AcDbEntity
8
0
100
AcDbLine
10
-65.421066168352681
20
9.0000021606683607
30
0
11
-49.7368556420369
21
9.0000021606683607
31
0
0
LINE
5
241
100
AcDbEntity
8
0
100
AcDbLine
10
-190.89475037887891
20
9.0000021606683553
30
0
11
-175.21053985256316
21
9.0000021606683553
31
0
0
LINE
5
242
100
AcDbEntity
8
0
100
AcDbLine
10
-159.52632932624738
20
9.0000021606683571
30
0
11
-143.8421187999316
21
9.0000021606683571
31
0
0
LINE
5
243
100
AcDbEntity
8
0
100
AcDbLine
10
-281.00000216066849
20
-65.423803010457846
30
0
11
-281.00000216066849
21
-49.739803010457848
31
0
0
LWPOLYLINE
5
244
100
AcDbEntity
8
0
100
AcDbPolyline
90
4
70
1
43
0.0
10
-104.23649374337498
20
-154.13549819882215
10
-117.86949374337496
20
-154.13549819882215
10
-117.86949374337496
20
-167.76849819882216
10
-104.23649374337498
20
-167.76849819882216
0
LWPOLYLINE
5
245
100
AcDbEntity
8
0
100
AcDbPolyline
90
4
70
1
43
0.0
10
-151.13549374337489
20
-201.03449819882215
10
-137.50249374337494
20
-201.03449819882215
10
-137.50249374337494
20
-187.40149819882217
10
-151.13549374337489
20
-187.40149819882217
0
LWPOLYLINE
5
246
100
AcDbEntity
8
0
100
AcDbPolyline
90
4
70
1
43
0.0
10
-120.86949374337496
20
-201.03449819882215
10
-120.86949374337496
20
-187.40149819882217
10
-134.50249374337494
20
-187.40149819882217
10
-134.50249374337494
20
-201.03449819882215
0
LINE
5
247
100
AcDbEntity
8
0
100
AcDbLine
10
8.9999978393316571
20
-112.47580301045785
30
0
11
8.9999978393316535
21
-128.15980301045784
31
0
0
LINE
5
248
100
AcDbEntity
8
0
100
AcDbLine
10
8.9999978393316571
20
-206.57980301045779
30
0
11
8.9999978393316535
21
-222.26380301045788
31
0
0
LWPOLYLINE
5
249
100
AcDbEntity
8
0
100
AcDbPolyline
90
4
70
1
43
0.0
10
-137.50249374337494
20
-184.40149819882214
10
-137.50249374337494
20
-170.76849819882216
10
-151.13549374337489
20
-170.76849819882216
10
-151.13549374337489
20
-184.40149819882214
0
LINE
5
250
100
AcDbEntity
8
0
100
AcDbLine
10
8.9999978393316571
20
-81.107803010457857
30
0
11
8.9999978393316535
21
-96.791803010457826
31
0
0
LWPOLYLINE
5
251
100
AcDbEntity
8
0
100
AcDbPolyline
90
4
70
1
43
0.0
10
-120.86949374337496
20
-137.50249819882217
10
-134.50249374337494
20
-137.50249819882217
10
-134.50249374337494
20
-151.13549819882218
10
-120.86949374337496
20
-151.13549819882218
0
LINE
5
252
100
AcDbEntity
8
0
100
AcDbLine
10
-34.052645115721127
20
9.0000021606683607
30
0
11
-18.368434589405346
21
9.0000021606683624
31
0
0
LWPOLYLINE
5
253
100
AcDbEntity
8
0
100
AcDbPolyline
90
4
70
1
43
0.0
10
-120.86949374337496
20
-170.76849819882216
10
-134.50249374337494
20
-170.76849819882216
10
-134.50249374337494
20
-184.40149819882214
10
-120.86949374337496
20
-184.40149819882214
0
LINE
5
254
100
AcDbEntity
8
0
100
AcDbLine
10
8.9999978393316571
20
-49.739803010457848
30
0
11
8.9999978393316535
21
-65.423803010457846
31
0
0
LINE
5
255
100
AcDbEntity
8
0
100
AcDbLine
10
8.9999978393316571
20
-143.84380301045783
30
0
11
8.9999978393316535
21
-159.52780301045783
31
0
0
LINE
5
256
100
AcDbEntity
8
0
100
AcDbLine
10
8.9999978393316571
20
-237.94780301045776
30
0
11
8.9999978393316535
21
-253.63180301045787
31
0
0
LINE
5
257
100
AcDbEntity
8
0
100
AcDbLine
10
8.9999978393316571
20
-18.371803010457835
30
0
11
8.9999978393316535
21
-34.055803010457836
31
0
0
LINE
5
258
100
AcDbEntity
8
0
100
AcDbLine
10
8.9999978393316571
20
-175.2118030104578
30
0
11
8.9999978393316535
21
-190.89580301045785
31
0
0
LWPOLYLINE
5
259
100
AcDbEntity
8
0
100
AcDbPolyline
90
4
70
1
43
0.0
10
-101.23649374337496
20
-253.93349819882218
10
-101.23649374337496
20
-267.56649819882216
10
-87.603493743374941
20
-267.56649819882216
10
-87.603493743374941
20
-253.93349819882218
0
LWPOLYLINE
5
260
100
AcDbEntity
8
0
100
AcDbPolyline
90
4
70
1
43
0.0
10
-104.23649374337498
20
-151.13549819882218
10
-104.23649374337498
20
-137.50249819882217
10
-117.86949374337496
20
-137.50249819882217
10
-117.86949374337496
20
-151.13549819882218
0
LWPOLYLINE
5
261
100
AcDbEntity
8
0
100
AcDbPolyline
90
4
70
1
43
0.0
10
-84.603493743374983
20
-250.93349819882209
10
-70.970493743374945
20
-250.93349819882209
10
-70.970493743374945
20
-237.30049819882214
10
-84.603493743374983
20
-237.30049819882214
0
LWPOLYLINE
5
262
100
AcDbEntity
8
0
100
AcDbPolyline
90
4
70
1
43
0.0
10
-87.603493743374941
20
-137.50249819882217
10
-101.23649374337496
20
-137.50249819882217
10
-101.23649374337496
20
-151.13549819882218
10
-87.603493743374941
20
-151.13549819882218
0
LWPOLYLINE
5
263
100
AcDbEntity
8
0
100
AcDbPolyline
90
4
70
1
43
0.0
10
-120.86949374337496
20
-154.13549819882215
10
-134.50249374337494
20
-154.13549819882215
10
-134.50249374337494
20
-167.76849819882216
10
-120.86949374337496
20
-167.76849819882216
0
LWPOLYLINE
5
264
100
AcDbEntity
8
0
100
AcDbPolyline
90
4
70
1
43
0.0
10
-101.23649374337496
20
-154.13549819882215
10
-101.23649374337496
20
-167.76849819882216
10
-87.603493743374941
20
-167.76849819882216
10
-87.603493743374941
20
-154.13549819882215
0
LWPOLYLINE
5
265
100
AcDbEntity
8
0
100
AcDbPolyline
90
4
70
1
43
0.0
10
-87.603493743374941
20
-220.66749819882219
10
-101.23649374337496
20
-220.66749819882219
10
-101.23649374337496
20
-234.30049819882214
10
-87.603493743374941
20
-234.30049819882214
0
LWPOLYLINE
5
266
100
AcDbEntity
8
0
100
AcDbPolyline
90
4
70
1
43
0.0
10
-84.603493743374983
20
-184.40149819882214
10
-70.970493743374945
20
-184.40149819882214
10
-70.970493743374945
20
-170.76849819882216
10
-84.603493743374983
20
-170.76849819882216
0
LWPOLYLINE
5
267
100
AcDbEntity
8
0
100
AcDbPolyline
90
4
70
1
43
0.0
10
-117.86949374337496
20
-253.93349819882218
10
-117.86949374337496
20
-267.56649819882216
10
-104.23649374337498
20
-267.56649819882216
10
-104.23649374337498
20
-253.93349819882218
0
LWPOLYLINE
5
268
100
AcDbEntity
8
0
100
AcDbPolyline
90
4
70
1
43
0.0
10
-70.970493743374945
20
-267.56649819882216
10
-70.970493743374945
20
-253.93349819882218
10
-84.603493743374983
20
-253.93349819882218
10
-84.603493743374983
20
-267.56649819882216
0
LWPOLYLINE
5
269
100
AcDbEntity
8
0
100
AcDbPolyline
90
4
70
1
43
0.0
10
-101.23649374337496
20
-184.40149819882214
10
-87.603493743374941
20
-184.40149819882214
10
-87.603493743374941
20
-170.76849819882216
10
-101.23649374337496
20
-170.76849819882216
0
LWPOLYLINE
5
270
100
AcDbEntity
8
0
100
AcDbPolyline
90
4
70
1
43
0.0
10
-84.603493743374983
20
-234.30049819882214
10
-70.970493743374945
20
-234.30049819882214
10
-70.970493743374945
20
-220.66749819882219
10
-84.603493743374983
20
-220.66749819882219
0
LWPOLYLINE
5
271
100
AcDbEntity
8
0
100
AcDbPolyline
90
4
70
1
43
0.0
10
-104.23649374337498
20
-170.76849819882216
10
-117.86949374337496
20
-170.76849819882216
10
-117.86949374337496
20
-184.40149819882214
10
-104.23649374337498
20
-184.40149819882214
0
LWPOLYLINE
5
272
100
AcDbEntity
8
0
100
AcDbPolyline
90
4
70
1
43
0.0
10
-84.603493743374983
20
-154.13549819882215
10
-84.603493743374983
20
-167.76849819882216
10
-70.970493743374945
20
-167.76849819882216
10
-70.970493743374945
20
-154.13549819882215
0
LWPOLYLINE
5
273
100
AcDbEntity
8
0
100
AcDbPolyline
90
4
70
1
43
0.0
10
-104.23649374337498
20
-220.66749819882219
10
-117.86949374337496
20
-220.66749819882219
10
-117.86949374337496
20
-234.30049819882214
10
-104.23649374337498
20
-234.30049819882214
0
LWPOLYLINE
5
274
100
AcDbEntity
8
0
100
AcDbPolyline
90
4
70
1
43
0.0
10
-101.23649374337496
20
-250.93349819882209
10
-87.603493743374941
20
-250.93349819882209
10
-87.603493743374941
20
-237.30049819882214
10
-101.23649374337496
20
-237.30049819882214
0
LWPOLYLINE
5
275
100
AcDbEntity
8
0
100
AcDbPolyline
90
4
70
1
43
0.0
10
-137.50249374337494
20
-154.13549819882215
10
-151.13549374337489
20
-154.13549819882215
10
-151.13549374337489
20
-167.76849819882216
10
-137.50249374337494
20
-167.76849819882216
0
LWPOLYLINE
5
276
100
AcDbEntity
8
0
100
AcDbPolyline
90
4
70
1
43
0.0
10
-120.86949374337496
20
-37.704498198822129
10
-134.50249374337494
20
-37.704498198822129
10
-134.50249374337494
20
-51.337498198822153
10
-120.86949374337496
20
-51.337498198822153
0
LWPOLYLINE
5
277
100
AcDbEntity
8
0
100
AcDbPolyline
90
4
70
1
43
0.0
10
-104.23649374337498
20
-250.93349819882209
10
-104.23649374337498
20
-237.30049819882214
10
-117.86949374337496
20
-237.30049819882214
10
-117.86949374337496
20
-250.93349819882209
0
LWPOLYLINE
5
278
100
AcDbEntity
8
0
100
AcDbPolyline
90
4
70
1
43
0.0
10
-134.50249374337494
20
-18.071498198822159
10
-120.86949374337496
20
-18.071498198822159
10
-120.86949374337496
20
-4.4384981988221375
10
-134.50249374337494
20
-4.4384981988221384
0
LWPOLYLINE
5
279
100
AcDbEntity
8
0
100
AcDbPolyline
90
4
70
1
43
0.0
10
-151.13549374337489
20
-217.66749819882222
10
-137.50249374337494
20
-217.66749819882222
10
-137.50249374337494
20
-204.03449819882215
10
-151.13549374337489
20
-204.03449819882215
0
LWPOLYLINE
5
280
100
AcDbEntity
8
0
100
AcDbPolyline
90
4
70
1
43
0.0
10
-137.50249374337494
20
-21.071498198822134
10
-151.13549374337489
20
-21.071498198822134
10
-151.13549374337489
20
-34.704498198822158
10
-137.50249374337494
20
-34.704498198822158
0
LWPOLYLINE
5
281
100
AcDbEntity
8
0
100
AcDbPolyline
90
4
70
1
43
0.0
10
-101.23649374337496
20
-204.03449819882215
10
-101.23649374337496
20
-217.66749819882222
10
-87.603493743374941
20
-217.66749819882222
10
-87.603493743374941
20
-204.03449819882215
0
LWPOLYLINE
5
282
100
AcDbEntity
8
0
100
AcDbPolyline
90
4
70
1
43
0.0
10
-151.13549374337489
20
-220.66749819882219
10
-151.13549374337489
20
-234.30049819882214
10
-137.50249374337494
20
-234.30049819882214
10
-137.50249374337494
20
-220.66749819882219
0
LWPOLYLINE
5
283
100
AcDbEntity
8
0
100
AcDbPolyline
90
4
70
1
43
0.0
10
-117.86949374337496
20
-51.337498198822153
10
-104.23649374337498
20
-51.337498198822153
10
-104.23649374337498
20
-37.704498198822129
10
-117.86949374337496
20
-37.704498198822129
0
LWPOLYLINE
5
284
100
AcDbEntity
8
0
100
AcDbPolyline
90
4
70
1
43
0.0
10
-120.86949374337496
20
-54.337498198822146
10
-134.50249374337494
20
-54.337498198822146
10
-134.50249374337494
20
-67.970498198822156
10
-120.86949374337496
20
-67.970498198822156
0
LWPOLYLINE
5
285
100
AcDbEntity
8
0
100
AcDbPolyline
90
4
70
1
43
0.0
10
-134.50249374337494
20
-217.66749819882222
10
-120.86949374337496
20
-217.66749819882222
10
-120.86949374337496
20
-204.03449819882215
10
-134.50249374337494
20
-204.03449819882215
0
LWPOLYLINE
5
286
100
AcDbEntity
8
0
100
AcDbPolyline
90
4
70
1
43
0.0
10
-104.23649374337498
20
-204.03449819882215
10
-117.86949374337496
20
-204.03449819882215
10
-117.86949374337496
20
-217.66749819882222
10
-104.23649374337498
20
-217.66749819882222
0
LWPOLYLINE
5
287
100
AcDbEntity
8
0
100
AcDbPolyline
90
4
70
1
43
0.0
10
-151.13549374337489
20
-267.56649819882216
10
-137.50249374337494
20
-267.56649819882216
10
-137.50249374337494
20
-253.93349819882218
10
-151.13549374337489
20
-253.93349819882218
0
LWPOLYLINE
5
288
100
AcDbEntity
8
0
100
AcDbPolyline
90
4
70
1
43
0.0
10
-70.970493743374945
20
-204.03449819882215
10
-84.603493743374983
20
-204.03449819882215
10
-84.603493743374983
20
-217.66749819882222
10
-70.970493743374945
20
-217.66749819882222
0
LWPOLYLINE
5
289
100
AcDbEntity
8
0
100
AcDbPolyline
90
4
70
1
43
0.0
10
-117.86949374337496
20
-21.071498198822134
10
-117.86949374337496
20
-34.704498198822158
10
-104.23649374337498
20
-34.704498198822158
10
-104.23649374337498
20
-21.071498198822134
0
LWPOLYLINE
5
290
100
AcDbEntity
8
0
100
AcDbPolyline
90
4
70
1
43
0.0
10
-120.86949374337496
20
-21.071498198822134
10
-134.50249374337494
20
-21.071498198822134
10
-134.50249374337494
20
-34.704498198822158
10
-120.86949374337496
20
-34.704498198822158
0
LWPOLYLINE
5
291
100
AcDbEntity
8
0
100
AcDbPolyline
90
4
70
1
43
0.0
10
-151.13549374337489
20
-37.704498198822129
10
-151.13549374337489
20
-51.337498198822153
10
-137.50249374337494
20
-51.337498198822153
10
-137.50249374337494
20
-37.704498198822129
0
LWPOLYLINE
5
292
100
AcDbEntity
8
0
100
AcDbPolyline
90
4
70
1
43
0.0
10
-151.13549374337489
20
-70.970498198822156
10
-151.13549374337489
20
-84.60349819882218
10
-137.50249374337494
20
-84.60349819882218
10
-137.50249374337494
20
-70.970498198822156
0
LWPOLYLINE
5
293
100
AcDbEntity
8
0
100
AcDbPolyline
90
4
70
1
43
0.0
10
-117.86949374337496
20
-18.071498198822159
10
-104.23649374337498
20
-18.071498198822159
10
-104.23649374337498
20
-4.4384981988221375
10
-117.86949374337496
20
-4.4384981988221384
0
LWPOLYLINE
5
294
100
AcDbEntity
8
0
100
AcDbPolyline
90
4
70
1
43
0.0
10
-21.071493743374926
20
-137.50249819882217
10
-34.704493743374947
20
-137.50249819882217
10
-34.704493743374947
20
-151.13549819882218
10
-21.071493743374926
20
-151.13549819882218
0
LWPOLYLINE
5
295
100
AcDbEntity
8
0
100
AcDbPolyline
90
4
70
1
43
0.0
10
-37.704493743374918
20
-134.50249819882214
10
-37.704493743374918
20
-120.86949819882216
10
-51.337493743374942
20
-120.86949819882216
10
-51.337493743374942
20
-134.50249819882214
0
LWPOLYLINE
5
296
100
AcDbEntity
8
0
100
AcDbPolyline
90
4
70
1
43
0.0
10
-137.50249374337494
20
-67.970498198822156
10
-137.50249374337494
20
-54.337498198822146
10
-151.13549374337489
20
-54.337498198822146
10
-151.13549374337489
20
-67.970498198822156
0
LWPOLYLINE
5
297
100
AcDbEntity
8
0
100
AcDbPolyline
90
4
70
1
43
0.0
10
-84.603493743374983
20
-70.970498198822156
10
-84.603493743374983
20
-84.60349819882218
10
-70.970493743374945
20
-84.60349819882218
10
-70.970493743374945
20
-70.970498198822156
0
LWPOLYLINE
5
298
100
AcDbEntity
8
0
100
AcDbPolyline
90
4
70
1
43
0.0
10
-137.50249374337494
20
-18.071498198822159
10
-137.50249374337494
20
-4.4384981988221375
10
-151.13549374337489
20
-4.4384981988221384
10
-151.13549374337489
20
-18.071498198822159
0
LWPOLYLINE
5
299
100
AcDbEntity
8
0
100
AcDbPolyline
90
4
70
1
43
0.0
10
-120.86949374337496
20
-84.60349819882218
10
-120.86949374337496
20
-70.970498198822156
10
-134.50249374337494
20
-70.970498198822156
10
-134.50249374337494
20
-84.60349819882218
0
LWPOLYLINE
5
300
100
AcDbEntity
8
0
100
AcDbPolyline
90
4
70
1
43
0.0
10
-104.23649374337498
20
-54.337498198822146
10
-117.86949374337496
20
-54.337498198822146
10
-117.86949374337496
20
-67.970498198822156
10
-104.23649374337498
20
-67.970498198822156
0
LWPOLYLINE
5
301
100
AcDbEntity
8
0
100
AcDbPolyline
90
4
70
1
43
0.0
10
-117.86949374337496
20
-70.970498198822156
10
-117.86949374337496
20
-84.60349819882218
10
-104.23649374337498
20
-84.60349819882218
10
-104.23649374337498
20
-70.970498198822156
0
LWPOLYLINE
5
302
100
AcDbEntity
8
0
100
AcDbPolyline
90
4
70
1
43
0.0
10
-18.071493743374955
20
-134.50249819882214
10
-4.4384937433749272
20
-134.50249819882214
10
-4.4384937433749272
20
-120.86949819882216
10
-18.071493743374955
20
-120.86949819882216
0
LWPOLYLINE
5
303
100
AcDbEntity
8
0
100
AcDbPolyline
90
4
70
1
43
0.0
10
-18.071493743374955
20
-104.23649819882216
10
-18.071493743374955
20
-117.86949819882217
10
-4.4384937433749272
20
-117.86949819882217
10
-4.4384937433749272
20
-104.23649819882216
0
LWPOLYLINE
5
304
100
AcDbEntity
8
0
100
AcDbPolyline
90
4
70
1
43
0.0
10
-51.337493743374942
20
-117.86949819882217
10
-37.704493743374918
20
-117.86949819882217
10
-37.704493743374918
20
-104.23649819882216
10
-51.337493743374942
20
-104.23649819882216
0
LWPOLYLINE
5
305
100
AcDbEntity
8
0
100
AcDbPolyline
90
4
70
1
43
0.0
10
-87.603493743374941
20
-70.970498198822156
10
-101.23649374337496
20
-70.970498198822156
10
-101.23649374337496
20
-84.60349819882218
10
-87.603493743374941
20
-84.60349819882218
0
LWPOLYLINE
5
306
100
AcDbEntity
8
0
100
AcDbPolyline
90
4
70
1
43
0.0
10
-18.071493743374955
20
-84.60349819882218
10
-4.4384937433749272
20
-84.60349819882218
10
-4.4384937433749272
20
-70.970498198822156
10
-18.071493743374955
20
-70.970498198822156
0
LWPOLYLINE
5
307
100
AcDbEntity
8
0
100
AcDbPolyline
90
4
70
1
43
0.0
10
-151.13549374337489
20
-137.50249819882217
10
-151.13549374337489
20
-151.13549819882218
10
-137.50249374337494
20
-151.13549819882218
10
-137.50249374337494
20
-137.50249819882217
0
LWPOLYLINE
5
308
100
AcDbEntity
8
0
100
AcDbPolyline
90
4
70
1
43
0.0
10
-187.40149374337491
20
-151.13549819882218
10
-187.40149374337491
20
-137.50249819882217
10
-201.03449374337487
20
-137.50249819882217
10
-201.03449374337487
20
-151.13549819882218
0
LWPOLYLINE
5
309
100
AcDbEntity
8
0
100
AcDbPolyline
90
4
70
1
43
0.0
10
-21.071493743374926
20
-117.86949819882217
10
-21.071493743374926
20
-104.23649819882216
10
-34.704493743374947
20
-104.23649819882216
10
-34.704493743374947
20
-117.86949819882217
0
LWPOLYLINE
5
310
100
AcDbEntity
8
0
100
AcDbPolyline
90
4
70
1
43
0.0
10
-70.970493743374945
20
-137.50249819882217
10
-84.603493743374983
20
-137.50249819882217
10
-84.603493743374983
20
-151.13549819882218
10
-70.970493743374945
20
-151.13549819882218
0
LWPOLYLINE
5
311
100
AcDbEntity
8
0
100
AcDbPolyline
90
4
70
1
43
0.0
10
-151.13549374337489
20
-117.86949819882217
10
-137.50249374337494
20
-117.86949819882217
10
-137.50249374337494
20
-104.23649819882216
10
-151.13549374337489
20
-104.23649819882216
0
LWPOLYLINE
5
312
100
AcDbEntity
8
0
100
AcDbPolyline
90
4
70
1
43
0.0
10
-137.50249374337494
20
-134.50249819882214
10
-137.50249374337494
20
-120.86949819882216
10
-151.13549374337489
20
-120.86949819882216
10
-151.13549374337489
20
-134.50249819882214
0
LWPOLYLINE
5
313
100
AcDbEntity
8
0
100
AcDbPolyline
90
4
70
1
43
0.0
10
-54.337493743374914
20
-117.86949819882217
10
-54.337493743374914
20
-104.23649819882216
10
-67.970493743374931
20
-104.23649819882216
10
-67.970493743374931
20
-117.86949819882217
0
LWPOLYLINE
5
314
100
AcDbEntity
8
0
100
AcDbPolyline
90
4
70
1
43
0.0
10
-137.50249374337494
20
-101.23649819882219
10
-137.50249374337494
20
-87.603498198822138
10
-151.13549374337489
20
-87.603498198822138
10
-151.13549374337489
20
-101.23649819882219
0
LWPOLYLINE
5
315
100
AcDbEntity
8
0
100
AcDbPolyline
90
4
70
1
43
0.0
10
-34.704493743374947
20
-101.23649819882219
10
-21.071493743374926
20
-101.23649819882219
10
-21.071493743374926
20
-87.603498198822138
10
-34.704493743374947
20
-87.603498198822138
0
LWPOLYLINE
5
316
100
AcDbEntity
8
0
100
AcDbPolyline
90
4
70
1
43
0.0
10
-84.603493743374983
20
-117.86949819882217
10
-70.970493743374945
20
-117.86949819882217
10
-70.970493743374945
20
-104.23649819882216
10
-84.603493743374983
20
-104.23649819882216
0
LWPOLYLINE
5
317
100
AcDbEntity
8
0
100
AcDbPolyline
90
4
70
1
43
0.0
10
-220.66749374337491
20
-137.50249819882217
10
-234.30049374337494
20
-137.50249819882217
10
-234.30049374337494
20
-151.13549819882218
10
-220.66749374337491
20
-151.13549819882218
0
LWPOLYLINE
5
318
100
AcDbEntity
8
0
100
AcDbPolyline
90
4
70
1
43
0.0
10
-204.03449374337492
20
-151.13549819882218
10
-204.03449374337492
20
-137.50249819882217
10
-217.66749374337493
20
-137.50249819882217
10
-217.66749374337493
20
-151.13549819882218
0
LWPOLYLINE
5
319
100
AcDbEntity
8
0
100
AcDbPolyline
90
4
70
1
43
0.0
10
9.0000001341104507
20
8.9999956786632378
10
-280.99999338388443
20
8.9999956786632396
10
-280.99999338388443
20
-280.99999783933163
10
9.000000134110449
20
-280.99999783933163
0
LWPOLYLINE
5
320
100
AcDbEntity
8
0
100
AcDbPolyline
90
4
70
1
43
0.0
10
-67.970493743374931
20
-87.603498198822138
10
-67.970493743374931
20
-101.23649819882219
10
-54.337493743374914
20
-101.23649819882219
10
-54.337493743374914
20
-87.603498198822138
0
LWPOLYLINE
5
321
100
AcDbEntity
8
0
100
AcDbPolyline
90
4
70
1
43
0.0
10
-267.56649374337496
20
-137.50249819882217
10
-267.56649374337496
20
-151.13549819882218
10
-253.9334937433749
20
-151.13549819882218
10
-253.9334937433749
20
-137.50249819882217
0
LWPOLYLINE
5
322
100
AcDbEntity
8
0
100
AcDbPolyline
90
4
70
1
43
0.0
10
-54.337493743374914
20
-84.60349819882218
10
-54.337493743374914
20
-70.970498198822156
10
-67.970493743374931
20
-70.970498198822156
10
-67.970493743374931
20
-84.60349819882218
0
LWPOLYLINE
5
323
100
AcDbEntity
8
0
100
AcDbPolyline
90
4
70
1
43
0.0
10
-18.071493743374955
20
-137.50249819882217
10
-18.071493743374955
20
-151.13549819882218
10
-4.4384937433749272
20
-151.13549819882218
10
-4.4384937433749272
20
-137.50249819882217
0
LWPOLYLINE
5
324
100
AcDbEntity
8
0
100
AcDbPolyline
90
4
70
1
43
0.0
10
-21.071493743374926
20
-70.970498198822156
10
-34.704493743374947
20
-70.970498198822156
10
-34.704493743374947
20
-84.60349819882218
10
-21.071493743374926
20
-84.60349819882218
0
LWPOLYLINE
5
325
100
AcDbEntity
8
0
100
AcDbPolyline
90
4
70
1
43
0.0
10
-54.337493743374914
20
-151.13549819882218
10
-54.337493743374914
20
-137.50249819882217
10
-67.970493743374931
20
-137.50249819882217
10
-67.970493743374931
20
-151.13549819882218
0
LWPOLYLINE
5
326
100
AcDbEntity
8
0
100
AcDbPolyline
90
4
70
1
43
0.0
10
-37.704493743374918
20
-87.603498198822138
10
-51.337493743374942
20
-87.603498198822138
10
-51.337493743374942
20
-101.23649819882219
10
-37.704493743374918
20
-101.23649819882219
0
LWPOLYLINE
5
327
100
AcDbEntity
8
0
100
AcDbPolyline
90
4
70
1
43
0.0
10
-70.970493743374945
20
-134.50249819882214
10
-70.970493743374945
20
-120.86949819882216
10
-84.603493743374983
20
-120.86949819882216
10
-84.603493743374983
20
-134.50249819882214
0
LWPOLYLINE
5
328
100
AcDbEntity
8
0
100
AcDbPolyline
90
4
70
1
43
0.0
10
-21.071493743374926
20
-134.50249819882214
10
-21.071493743374926
20
-120.86949819882216
10
-34.704493743374947
20
-120.86949819882216
10
-34.704493743374947
20
-134.50249819882214
0
LWPOLYLINE
5
329
100
AcDbEntity
8
0
100
AcDbPolyline
90
4
70
1
43
0.0
10
-37.704493743374918
20
-137.50249819882217
10
-51.337493743374942
20
-137.50249819882217
10
-51.337493743374942
20
-151.13549819882218
10
-37.704493743374918
20
-151.13549819882218
0
LWPOLYLINE
5
330
100
AcDbEntity
8
0
100
AcDbPolyline
90
4
70
1
43
0.0
10
-134.50249374337494
20
-267.56649819882216
10
-120.86949374337496
20
-267.56649819882216
10
-120.86949374337496
20
-253.93349819882218
10
-134.50249374337494
20
-253.93349819882218
0
LWPOLYLINE
5
331
100
AcDbEntity
8
0
100
AcDbPolyline
90
4
70
1
43
0.0
10
-37.704493743374918
20
-84.60349819882218
10
-37.704493743374918
20
-70.970498198822156
10
-51.337493743374942
20
-70.970498198822156
10
-51.337493743374942
20
-84.60349819882218
0
LWPOLYLINE
5
332
100
AcDbEntity
8
0
100
AcDbPolyline
90
4
70
1
43
0.0
10
-120.86949374337496
20
-237.30049819882214
10
-134.50249374337494
20
-237.30049819882214
10
-134.50249374337494
20
-250.93349819882209
10
-120.86949374337496
20
-250.93349819882209
0
LWPOLYLINE
5
333
100
AcDbEntity
8
0
100
AcDbPolyline
90
4
70
1
43
0.0
10
-18.071493743374955
20
-87.603498198822138
10
-18.071493743374955
20
-101.23649819882219
10
-4.4384937433749272
20
-101.23649819882219
10
-4.4384937433749272
20
-87.603498198822138
0
LWPOLYLINE
5
334
100
AcDbEntity
8
0
100
AcDbPolyline
90
4
70
1
43
0.0
10
-137.50249374337494
20
-250.93349819882209
10
-137.50249374337494
20
-237.30049819882214
10
-151.13549374337489
20
-237.30049819882214
10
-151.13549374337489
20
-250.93349819882209
0
LWPOLYLINE
5
335
100
AcDbEntity
8
0
100
AcDbPolyline
90
4
70
1
43
0.0
10
-67.970493743374931
20
-134.50249819882214
10
-54.337493743374914
20
-134.50249819882214
10
-54.337493743374914
20
-120.86949819882216
10
-67.970493743374931
20
-120.86949819882216
0
LWPOLYLINE
5
336
100
AcDbEntity
8
0
100
AcDbPolyline
90
4
70
1
43
0.0
10
-134.50249374337494
20
-220.66749819882219
10
-134.50249374337494
20
-234.30049819882214
10
-120.86949374337496
20
-234.30049819882214
10
-120.86949374337496
20
-220.66749819882219
0
LWPOLYLINE
5
337
100
AcDbEntity
8
0
100
AcDbPolyline
90
4
70
1
43
0.0
10
-84.603493743374983
20
-101.23649819882219
10
-70.970493743374945
20
-101.23649819882219
10
-70.970493743374945
20
-87.603498198822138
10
-84.603493743374983
20
-87.603498198822138
0
LWPOLYLINE
5
338
100
AcDbEntity
8
0
100
AcDbPolyline
90
4
70
1
43
0.0
10
-101.23649374337496
20
-18.071498198822159
10
-87.603493743374941
20
-18.071498198822159
10
-87.603493743374941
20
-4.4384981988221375
10
-101.23649374337496
20
-4.4384981988221384
0
LWPOLYLINE
5
339
100
AcDbEntity
8
0
100
AcDbPolyline
90
4
70
1
43
0.0
10
-70.970493743374945
20
-37.704498198822129
10
-84.603493743374983
20
-37.704498198822129
10
-84.603493743374983
20
-51.337498198822153
10
-70.970493743374945
20
-51.337498198822153
0
LWPOLYLINE
5
340
100
AcDbEntity
8
0
100
AcDbPolyline
90
4
70
1
43
0.0
10
-117.86949374337496
20
-117.86949819882217
10
-104.23649374337498
20
-117.86949819882217
10
-104.23649374337498
20
-104.23649819882216
10
-117.86949374337496
20
-104.23649819882216
0
LWPOLYLINE
5
341
100
AcDbEntity
8
0
100
AcDbPolyline
90
4
70
1
43
0.0
10
-87.603493743374941
20
-117.86949819882217
10
-87.603493743374941
20
-104.23649819882216
10
-101.23649374337496
20
-104.23649819882216
10
-101.23649374337496
20
-117.86949819882217
0
LWPOLYLINE
5
342
100
AcDbEntity
8
0
100
AcDbPolyline
90
4
70
1
43
0.0
10
-84.603493743374983
20
-67.970498198822156
10
-70.970493743374945
20
-67.970498198822156
10
-70.970493743374945
20
-54.337498198822146
10
-84.603493743374983
20
-54.337498198822146
0
LWPOLYLINE
5
343
100
AcDbEntity
8
0
100
AcDbPolyline
90
4
70
1
43
0.0
10
-87.603493743374941
20
-37.704498198822129
10
-101.23649374337496
20
-37.704498198822129
10
-101.23649374337496
20
-51.337498198822153
10
-87.603493743374941
20
-51.337498198822153
0
LWPOLYLINE
5
344
100
AcDbEntity
8
0
100
AcDbPolyline
90
4
70
1
43
0.0
10
-104.23649374337498
20
-120.86949819882216
10
-117.86949374337496
20
-120.86949819882216
10
-117.86949374337496
20
-134.50249819882214
10
-104.23649374337498
20
-134.50249819882214
0
LWPOLYLINE
5
345
100
AcDbEntity
8
0
100
AcDbPolyline
90
4
70
1
43
0.0
10
-134.50249374337494
20
-134.50249819882214
10
-120.86949374337496
20
-134.50249819882214
10
-120.86949374337496
20
-120.86949819882216
10
-134.50249374337494
20
-120.86949819882216
0
LWPOLYLINE
5
346
100
AcDbEntity
8
0
100
AcDbPolyline
90
4
70
1
43
0.0
10
-70.970493743374945
20
-4.4384981988221375
10
-84.603493743374983
20
-4.4384981988221384
10
-84.603493743374983
20
-18.071498198822159
10
-70.970493743374945
20
-18.071498198822159
0
LWPOLYLINE
5
347
100
AcDbEntity
8
0
100
AcDbPolyline
90
4
70
1
43
0.0
10
-70.970493743374945
20
-21.071498198822134
10
-84.603493743374983
20
-21.071498198822134
10
-84.603493743374983
20
-34.704498198822158
10
-70.970493743374945
20
-34.704498198822158
0
LWPOLYLINE
5
348
100
AcDbEntity
8
0
100
AcDbPolyline
90
4
70
1
43
0.0
10
-101.23649374337496
20
-21.071498198822134
10
-101.23649374337496
20
-34.704498198822158
10
-87.603493743374941
20
-34.704498198822158
10
-87.603493743374941
20
-21.071498198822134
0
LWPOLYLINE
5
349
100
AcDbEntity
8
0
100
AcDbPolyline
90
4
70
1
43
0.0
10
-101.23649374337496
20
-67.970498198822156
10
-87.603493743374941
20
-67.970498198822156
10
-87.603493743374941
20
-54.337498198822146
10
-101.23649374337496
20
-54.337498198822146
0
LWPOLYLINE
5
350
100
AcDbEntity
8
0
100
AcDbPolyline
90
4
70
1
43
0.0
10
-84.603493743374983
20
-187.40149819882217
10
-84.603493743374983
20
-201.03449819882215
10
-70.970493743374945
20
-201.03449819882215
10
-70.970493743374945
20
-187.40149819882217
0
LWPOLYLINE
5
351
100
AcDbEntity
8
0
100
AcDbPolyline
90
4
70
1
43
0.0
10
-134.50249374337494
20
-104.23649819882216
10
-134.50249374337494
20
-117.86949819882217
10
-120.86949374337496
20
-117.86949819882217
10
-120.86949374337496
20
-104.23649819882216
0
LWPOLYLINE
5
352
100
AcDbEntity
8
0
100
AcDbPolyline
90
4
70
1
43
0.0
10
-104.23649374337498
20
-101.23649819882219
10
-104.23649374337498
20
-87.603498198822138
10
-117.86949374337496
20
-87.603498198822138
10
-117.86949374337496
20
-101.23649819882219
0
LWPOLYLINE
5
353
100
AcDbEntity
8
0
100
AcDbPolyline
90
4
70
1
43
0.0
10
-101.23649374337496
20
-120.86949819882216
10
-101.23649374337496
20
-134.50249819882214
10
-87.603493743374941
20
-134.50249819882214
10
-87.603493743374941
20
-120.86949819882216
0
LWPOLYLINE
5
354
100
AcDbEntity
8
0
100
AcDbPolyline
90
4
70
1
43
0.0
10
-134.50249374337494
20
-87.603498198822138
10
-134.50249374337494
20
-101.23649819882219
10
-120.86949374337496
20
-101.23649819882219
10
-120.86949374337496
20
-87.603498198822138
0
LWPOLYLINE
5
355
100
AcDbEntity
8
0
100
AcDbPolyline
90
4
70
1
43
0.0
10
-104.23649374337498
20
-187.40149819882217
10
-117.86949374337496
20
-187.40149819882217
10
-117.86949374337496
20
-201.03449819882215
10
-104.23649374337498
20
-201.03449819882215
0
LWPOLYLINE
5
356
100
AcDbEntity
8
0
100
AcDbPolyline
90
4
70
1
43
0.0
10
-87.603493743374941
20
-187.40149819882217
10
-101.23649374337496
20
-187.40149819882217
10
-101.23649374337496
20
-201.03449819882215
10
-87.603493743374941
20
-201.03449819882215
0
LWPOLYLINE
5
357
100
AcDbEntity
8
0
100
AcDbPolyline
90
4
70
1
43
0.0
10
-37.704493743374918
20
-237.30049819882214
10
-51.337493743374942
20
-237.30049819882214
10
-51.337493743374942
20
-250.93349819882209
10
-37.704493743374918
20
-250.93349819882209
0
LWPOLYLINE
5
358
100
AcDbEntity
8
0
100
AcDbPolyline
90
4
70
1
43
0.0
10
-18.071493743374955
20
-204.03449819882215
10
-18.071493743374955
20
-217.66749819882222
10
-4.4384937433749272
20
-217.66749819882222
10
-4.4384937433749272
20
-204.03449819882215
0
LWPOLYLINE
5
359
100
AcDbEntity
8
0
100
AcDbPolyline
90
4
70
1
43
0.0
10
-34.704493743374947
20
-267.56649819882216
10
-21.071493743374926
20
-267.56649819882216
10
-21.071493743374926
20
-253.93349819882218
10
-34.704493743374947
20
-253.93349819882218
0
LWPOLYLINE
5
360
100
AcDbEntity
8
0
100
AcDbPolyline
90
4
70
1
43
0.0
10
-51.337493743374942
20
-220.66749819882219
10
-51.337493743374942
20
-234.30049819882214
10
-37.704493743374918
20
-234.30049819882214
10
-37.704493743374918
20
-220.66749819882219
0
LWPOLYLINE
5
361
100
AcDbEntity
8
0
100
AcDbPolyline
90
4
70
1
43
0.0
10
-101.23649374337496
20
-87.603498198822138
10
-101.23649374337496
20
-101.23649819882219
10
-87.603493743374941
20
-101.23649819882219
10
-87.603493743374941
20
-87.603498198822138
0
LWPOLYLINE
5
362
100
AcDbEntity
8
0
100
AcDbPolyline
90
4
70
1
43
0.0
10
-34.704493743374947
20
-204.03449819882215
10
-34.704493743374947
20
-217.66749819882222
10
-21.071493743374926
20
-217.66749819882222
10
-21.071493743374926
20
-204.03449819882215
0
LWPOLYLINE
5
363
100
AcDbEntity
8
0
100
AcDbPolyline
90
4
70
1
43
0.0
10
-4.4384937433749272
20
-220.66749819882219
10
-18.071493743374955
20
-220.66749819882219
10
-18.071493743374955
20
-234.30049819882214
10
-4.4384937433749272
20
-234.30049819882214
0
LWPOLYLINE
5
364
100
AcDbEntity
8
0
100
AcDbPolyline
90
4
70
1
43
0.0
10
-18.071493743374955
20
-250.93349819882209
10
-4.4384937433749272
20
-250.93349819882209
10
-4.4384937433749272
20
-237.30049819882214
10
-18.071493743374955
20
-237.30049819882214
0
LWPOLYLINE
5
365
100
AcDbEntity
8
0
100
AcDbPolyline
90
4
70
1
43
0.0
10
-18.071493743374955
20
-253.93349819882218
10
-18.071493743374955
20
-267.56649819882216
10
-4.4384937433749272
20
-267.56649819882216
10
-4.4384937433749272
20
-253.93349819882218
0
LWPOLYLINE
5
366
100
AcDbEntity
8
0
100
AcDbPolyline
90
4
70
1
43
0.0
10
-51.337493743374942
20
-267.56649819882216
10
-37.704493743374918
20
-267.56649819882216
10
-37.704493743374918
20
-253.93349819882218
10
-51.337493743374942
20
-253.93349819882218
0
LWPOLYLINE
5
367
100
AcDbEntity
8
0
100
AcDbPolyline
90
4
70
1
43
0.0
10
-67.970493743374931
20
-204.03449819882215
10
-67.970493743374931
20
-217.66749819882222
10
-54.337493743374914
20
-217.66749819882222
10
-54.337493743374914
20
-204.03449819882215
0
LWPOLYLINE
5
368
100
AcDbEntity
8
0
100
AcDbPolyline
90
4
70
1
43
0.0
10
-34.704493743374947
20
-237.30049819882214
10
-34.704493743374947
20
-250.93349819882209
10
-21.071493743374926
20
-250.93349819882209
10
-21.071493743374926
20
-237.30049819882214
0
LWPOLYLINE
5
369
100
AcDbEntity
8
0
100
AcDbPolyline
90
4
70
1
43
0.0
10
-167.76849374337499
20
-84.60349819882218
10
-154.13549374337498
20
-84.60349819882218
10
-154.13549374337498
20
-70.970498198822156
10
-167.76849374337499
20
-70.970498198822156
0
LWPOLYLINE
5
370
100
AcDbEntity
8
0
100
AcDbPolyline
90
4
70
1
43
0.0
10
-184.40149374337491
20
-204.03449819882215
10
-184.40149374337491
20
-217.66749819882222
10
-170.76849374337499
20
-217.66749819882222
10
-170.76849374337499
20
-204.03449819882215
0
LWPOLYLINE
5
371
100
AcDbEntity
8
0
100
AcDbPolyline
90
4
70
1
43
0.0
10
-237.30049374337494
20
-117.86949819882217
10
-237.30049374337494
20
-104.23649819882216
10
-250.9334937433749
20
-104.23649819882216
10
-250.9334937433749
20
-117.86949819882217
0
LWPOLYLINE
5
372
100
AcDbEntity
8
0
100
AcDbPolyline
90
4
70
1
43
0.0
10
-234.30049374337494
20
-120.86949819882216
10
-234.30049374337494
20
-134.50249819882214
10
-220.66749374337491
20
-134.50249819882214
10
-220.66749374337491
20
-120.86949819882216
0
LWPOLYLINE
5
373
100
AcDbEntity
8
0
100
AcDbPolyline
90
4
70
1
43
0.0
10
-201.03449374337487
20
-204.03449819882215
10
-201.03449374337487
20
-217.66749819882222
10
-187.40149374337491
20
-217.66749819882222
10
-187.40149374337491
20
-204.03449819882215
0
LWPOLYLINE
5
374
100
AcDbEntity
8
0
100
AcDbPolyline
90
4
70
1
43
0.0
10
-250.9334937433749
20
-151.13549819882218
10
-237.30049374337494
20
-151.13549819882218
10
-237.30049374337494
20
-137.50249819882217
10
-250.9334937433749
20
-137.50249819882217
0
LWPOLYLINE
5
375
100
AcDbEntity
8
0
100
AcDbPolyline
90
4
70
1
43
0.0
10
-237.30049374337494
20
-84.60349819882218
10
-237.30049374337494
20
-70.970498198822156
10
-250.9334937433749
20
-70.970498198822156
10
-250.9334937433749
20
-84.60349819882218
0
LWPOLYLINE
5
376
100
AcDbEntity
8
0
100
AcDbPolyline
90
4
70
1
43
0.0
10
-154.13549374337498
20
-217.66749819882222
10
-154.13549374337498
20
-204.03449819882215
10
-167.76849374337499
20
-204.03449819882215
10
-167.76849374337499
20
-217.66749819882222
0
LWPOLYLINE
5
377
100
AcDbEntity
8
0
100
AcDbPolyline
90
4
70
1
43
0.0
10
-204.03449374337492
20
-120.86949819882216
10
-217.66749374337493
20
-120.86949819882216
10
-217.66749374337493
20
-134.50249819882214
10
-204.03449374337492
20
-134.50249819882214
0
LWPOLYLINE
5
378
100
AcDbEntity
8
0
100
AcDbPolyline
90
4
70
1
43
0.0
10
-253.9334937433749
20
-134.50249819882214
10
-253.9334937433749
20
-120.86949819882216
10
-267.56649374337496
20
-120.86949819882216
10
-267.56649374337496
20
-134.50249819882214
0
LWPOLYLINE
5
379
100
AcDbEntity
8
0
100
AcDbPolyline
90
4
70
1
43
0.0
10
-204.03449374337492
20
-234.30049819882214
10
-204.03449374337492
20
-220.66749819882219
10
-217.66749374337493
20
-220.66749819882219
10
-217.66749374337493
20
-234.30049819882214
0
LWPOLYLINE
5
380
100
AcDbEntity
8
0
100
AcDbPolyline
90
4
70
1
43
0.0
10
-267.56649374337496
20
-70.970498198822156
10
-267.56649374337496
20
-84.60349819882218
10
-253.9334937433749
20
-84.60349819882218
10
-253.9334937433749
20
-70.970498198822156
0
LWPOLYLINE
5
381
100
AcDbEntity
8
0
100
AcDbPolyline
90
4
70
1
43
0.0
10
-170.76849374337499
20
-267.56649819882216
10
-170.76849374337499
20
-253.93349819882218
10
-184.40149374337491
20
-253.93349819882218
10
-184.40149374337491
20
-267.56649819882216
0
LWPOLYLINE
5
382
100
AcDbEntity
8
0
100
AcDbPolyline
90
4
70
1
43
0.0
10
-34.704493743374947
20
-220.66749819882219
10
-34.704493743374947
20
-234.30049819882214
10
-21.071493743374926
20
-234.30049819882214
10
-21.071493743374926
20
-220.66749819882219
0
LWPOLYLINE
5
383
100
AcDbEntity
8
0
100
AcDbPolyline
90
4
70
1
43
0.0
10
-204.03449374337492
20
-154.13549819882215
10
-217.66749374337493
20
-154.13549819882215
10
-217.66749374337493
20
-167.76849819882216
10
-204.03449374337492
20
-167.76849819882216
0
LWPOLYLINE
5
384
100
AcDbEntity
8
0
100
AcDbPolyline
90
4
70
1
43
0.0
10
-187.40149374337491
20
-70.970498198822156
10
-201.03449374337487
20
-70.970498198822156
10
-201.03449374337487
20
-84.60349819882218
10
-187.40149374337491
20
-84.60349819882218
0
LWPOLYLINE
5
385
100
AcDbEntity
8
0
100
AcDbPolyline
90
4
70
1
43
0.0
10
-250.9334937433749
20
-134.50249819882214
10
-237.30049374337494
20
-134.50249819882214
10
-237.30049374337494
20
-120.86949819882216
10
-250.9334937433749
20
-120.86949819882216
0
LWPOLYLINE
5
386
100
AcDbEntity
8
0
100
AcDbPolyline
90
4
70
1
43
0.0
10
-51.337493743374942
20
-204.03449819882215
10
-51.337493743374942
20
-217.66749819882222
10
-37.704493743374918
20
-217.66749819882222
10
-37.704493743374918
20
-204.03449819882215
0
LWPOLYLINE
5
387
100
AcDbEntity
8
0
100
AcDbPolyline
90
4
70
1
43
0.0
10
-267.56649374337496
20
-87.603498198822138
10
-267.56649374337496
20
-101.23649819882219
10
-253.9334937433749
20
-101.23649819882219
10
-253.9334937433749
20
-87.603498198822138
0
ENDSEC
0
SECTION
2
OBJECTS
0
DICTIONARY
5
C
100
AcDbDictionary
3
ACAD_GROUP
350
D
3
ACAD_MLINESTYLE
350
17
0
DICTIONARY
5
D
100
AcDbDictionary
0
DICTIONARY
5
1A
330
C
100
AcDbDictionary
0
DICTIONARY
5
17
100
AcDbDictionary
0
ENDSEC
0
EOF
