  0
SECTION
  2
HEADER
  9
$ACADVER
  1
AC1018
  9
$ACADMAINTVER
 70
     0
  9
$DWGCODEPAGE
  3
ANSI_1252
  9
$INSBASE
 10
0.0
 20
0.0
 30
0.0
  9
$EXTMIN
 10
198.7915174004885
 20
-75.19767257716722
 30
-0.0000004793760269
  9
$EXTMAX
 10
267.6665174004885
 20
-37.6976725771674
 30
0.0000004793760837
  9
$LIMMIN
 10
0.0
 20
0.0
  9
$LIMMAX
 10
12.0
 20
9.0
  9
$ORTHOMODE
 70
     0
  9
$REGENMODE
 70
     1
  9
$FILLMODE
 70
     1
  9
$QTEXTMODE
 70
     0
  9
$MIRRTEXT
 70
     1
  9
$LTSCALE
 40
1.0
  9
$ATTMODE
 70
     1
  9
$TEXTSIZE
 40
0.2
  9
$TRACEWID
 40
0.05
  9
$TEXTSTYLE
  7
Standard
  9
$CLAYER
  8
Guides
  9
$CELTYPE
  6
ByLayer
  9
$CECOLOR
 62
   256
  9
$CELTSCALE
 40
1.0
  9
$DISPSILH
 70
     0
  9
$DIMSCALE
 40
1.0
  9
$DIMASZ
 40
0.18
  9
$DIMEXO
 40
0.0625
  9
$DIMDLI
 40
0.38
  9
$DIMRND
 40
0.0
  9
$DIMDLE
 40
0.0
  9
$DIMEXE
 40
0.18
  9
$DIMTP
 40
0.0
  9
$DIMTM
 40
0.0
  9
$DIMTXT
 40
0.18
  9
$DIMCEN
 40
0.09
  9
$DIMTSZ
 40
0.0
  9
$DIMTOL
 70
     0
  9
$DIMLIM
 70
     0
  9
$DIMTIH
 70
     1
  9
$DIMTOH
 70
     1
  9
$DIMSE1
 70
     0
  9
$DIMSE2
 70
     0
  9
$DIMTAD
 70
     0
  9
$DIMZIN
 70
     0
  9
$DIMBLK
  1

  9
$DIMASO
 70
     1
  9
$DIMSHO
 70
     1
  9
$DIMPOST
  1

  9
$DIMAPOST
  1

  9
$DIMALT
 70
     0
  9
$DIMALTD
 70
     2
  9
$DIMALTF
 40
25.4
  9
$DIMLFAC
 40
1.0
  9
$DIMTOFL
 70
     0
  9
$DIMTVP
 40
0.0
  9
$DIMTIX
 70
     0
  9
$DIMSOXD
 70
     0
  9
$DIMSAH
 70
     0
  9
$DIMBLK1
  1

  9
$DIMBLK2
  1

  9
$DIMSTYLE
  2
Standard
  9
$DIMCLRD
 70
     0
  9
$DIMCLRE
 70
     0
  9
$DIMCLRT
 70
     0
  9
$DIMTFAC
 40
1.0
  9
$DIMGAP
 40
0.09
  9
$DIMJUST
 70
     0
  9
$DIMSD1
 70
     0
  9
$DIMSD2
 70
     0
  9
$DIMTOLJ
 70
     1
  9
$DIMTZIN
 70
     0
  9
$DIMALTZ
 70
     0
  9
$DIMALTTZ
 70
     0
  9
$DIMUPT
 70
     0
  9
$DIMDEC
 70
     4
  9
$DIMTDEC
 70
     4
  9
$DIMALTU
 70
     2
  9
$DIMALTTD
 70
     2
  9
$DIMTXSTY
  7
Standard
  9
$DIMAUNIT
 70
     0
  9
$DIMADEC
 70
     0
  9
$DIMALTRND
 40
0.0
  9
$DIMAZIN
 70
     0
  9
$DIMDSEP
 70
    46
  9
$DIMATFIT
 70
     3
  9
$DIMFRAC
 70
     0
  9
$DIMLDRBLK
  1

  9
$DIMLUNIT
 70
     2
  9
$DIMLWD
 70
    -2
  9
$DIMLWE
 70
    -2
  9
$DIMTMOVE
 70
     2
  9
$LUNITS
 70
     2
  9
$LUPREC
 70
     4
  9
$SKETCHINC
 40
0.1
  9
$FILLETRAD
 40
0.5
  9
$AUNITS
 70
     0
  9
$AUPREC
 70
     0
  9
$MENU
  1
.
  9
$ELEVATION
 40
0.0
  9
$PELEVATION
 40
0.0
  9
$THICKNESS
 40
0.0
  9
$LIMCHECK
 70
     0
  9
$CHAMFERA
 40
0.0
  9
$CHAMFERB
 40
0.0
  9
$CHAMFERC
 40
0.0
  9
$CHAMFERD
 40
0.0
  9
$SKPOLY
 70
     0
  9
$TDCREATE
 40
2457315.724953403
  9
$TDUCREATE
 40
2457316.016620069
  9
$TDUPDATE
 40
2457315.724968137
  9
$TDUUPDATE
 40
2457316.016634803
  9
$TDINDWG
 40
0.0000000116
  9
$TDUSRTIMER
 40
0.0000000116
  9
$USRTIMER
 70
     1
  9
$ANGBASE
 50
0.0
  9
$ANGDIR
 70
     0
  9
$PDMODE
 70
     0
  9
$PDSIZE
 40
0.0
  9
$PLINEWID
 40
0.0
  9
$SPLFRAME
 70
     0
  9
$SPLINETYPE
 70
     6
  9
$SPLINESEGS
 70
     8
  9
$HANDSEED
  5
3A4
  9
$SURFTAB1
 70
     6
  9
$SURFTAB2
 70
     6
  9
$SURFTYPE
 70
     6
  9
$SURFU
 70
     6
  9
$SURFV
 70
     6
  9
$UCSBASE
  2

  9
$UCSNAME
  2

  9
$UCSORG
 10
0.0
 20
0.0
 30
0.0
  9
$UCSXDIR
 10
1.0
 20
0.0
 30
0.0
  9
$UCSYDIR
 10
0.0
 20
1.0
 30
0.0
  9
$UCSORTHOREF
  2

  9
$UCSORTHOVIEW
 70
     0
  9
$UCSORGTOP
 10
0.0
 20
0.0
 30
0.0
  9
$UCSORGBOTTOM
 10
0.0
 20
0.0
 30
0.0
  9
$UCSORGLEFT
 10
0.0
 20
0.0
 30
0.0
  9
$UCSORGRIGHT
 10
0.0
 20
0.0
 30
0.0
  9
$UCSORGFRONT
 10
0.0
 20
0.0
 30
0.0
  9
$UCSORGBACK
 10
0.0
 20
0.0
 30
0.0
  9
$PUCSBASE
  2

  9
$PUCSNAME
  2

  9
$PUCSORG
 10
0.0
 20
0.0
 30
0.0
  9
$PUCSXDIR
 10
1.0
 20
0.0
 30
0.0
  9
$PUCSYDIR
 10
0.0
 20
1.0
 30
0.0
  9
$PUCSORTHOREF
  2

  9
$PUCSORTHOVIEW
 70
     0
  9
$PUCSORGTOP
 10
0.0
 20
0.0
 30
0.0
  9
$PUCSORGBOTTOM
 10
0.0
 20
0.0
 30
0.0
  9
$PUCSORGLEFT
 10
0.0
 20
0.0
 30
0.0
  9
$PUCSORGRIGHT
 10
0.0
 20
0.0
 30
0.0
  9
$PUCSORGFRONT
 10
0.0
 20
0.0
 30
0.0
  9
$PUCSORGBACK
 10
0.0
 20
0.0
 30
0.0
  9
$USERI1
 70
     0
  9
$USERI2
 70
     0
  9
$USERI3
 70
     0
  9
$USERI4
 70
     0
  9
$USERI5
 70
     0
  9
$USERR1
 40
0.0
  9
$USERR2
 40
0.0
  9
$USERR3
 40
0.0
  9
$USERR4
 40
0.0
  9
$USERR5
 40
0.0
  9
$WORLDVIEW
 70
     1
  9
$SHADEDGE
 70
     3
  9
$SHADEDIF
 70
    70
  9
$TILEMODE
 70
     1
  9
$MAXACTVP
 70
    64
  9
$PINSBASE
 10
0.0
 20
0.0
 30
0.0
  9
$PLIMCHECK
 70
     0
  9
$PEXTMIN
 10
1.000000000000000E+20
 20
1.000000000000000E+20
 30
1.000000000000000E+20
  9
$PEXTMAX
 10
-1.000000000000000E+20
 20
-1.000000000000000E+20
 30
-1.000000000000000E+20
  9
$PLIMMIN
 10
0.0
 20
0.0
  9
$PLIMMAX
 10
12.0
 20
9.0
  9
$UNITMODE
 70
     0
  9
$VISRETAIN
 70
     1
  9
$PLINEGEN
 70
     0
  9
$PSLTSCALE
 70
     1
  9
$TREEDEPTH
 70
  3020
  9
$CMLSTYLE
  2
Standard
  9
$CMLJUST
 70
     0
  9
$CMLSCALE
 40
1.0
  9
$PROXYGRAPHICS
 70
     1
  9
$MEASUREMENT
 70
     0
  9
$CELWEIGHT
370
    -1
  9
$ENDCAPS
280
     0
  9
$JOINSTYLE
280
     0
  9
$LWDISPLAY
290
     0
  9
$INSUNITS
 70
     1
  9
$HYPERLINKBASE
  1

  9
$STYLESHEET
  1

  9
$XEDIT
290
     1
  9
$CEPSNTYPE
380
     0
  9
$PSTYLEMODE
290
     1
  9
$FINGERPRINTGUID
  2
{21CBA5FE-E9E0-4563-907F-6E0DEDE81A98}
  9
$VERSIONGUID
  2
{FAEB1C32-E019-11D5-929B-00C0DF256EC4}
  9
$EXTNAMES
290
     1
  9
$PSVPSCALE
 40
0.0
  9
$OLESTARTUP
290
     0
  9
$SORTENTS
280
   127
  9
$INDEXCTL
280
     0
  9
$HIDETEXT
280
     1
  9
$XCLIPFRAME
290
     0
  9
$HALOGAP
280
     0
  9
$OBSCOLOR
 70
   257
  9
$OBSLTYPE
280
     0
  9
$INTERSECTIONDISPLAY
280
     0
  9
$INTERSECTIONCOLOR
 70
   257
  9
$DIMASSOC
280
     2
  9
$PROJECTNAME
  1

  0
ENDSEC
  0
SECTION
  2
CLASSES
  0
CLASS
  1
ACDBDICTIONARYWDFLT
  2
AcDbDictionaryWithDefault
  3
ObjectDBX Classes
 90
        0
 91
        4
280
     0
281
     0
  0
CLASS
  1
VISUALSTYLE
  2
AcDbVisualStyle
  3
ObjectDBX Classes
 90
     4095
 91
        4
280
     0
281
     0
  0
CLASS
  1
MATERIAL
  2
AcDbMaterial
  3
ObjectDBX Classes
 90
     1153
 91
        4
280
     0
281
     0
  0
CLASS
  1
SCALE
  2
AcDbScale
  3
ObjectDBX Classes
 90
     1153
 91
        4
280
     0
281
     0
  0
CLASS
  1
TABLESTYLE
  2
AcDbTableStyle
  3
ObjectDBX Classes
 90
     4095
 91
        4
280
     0
281
     0
  0
CLASS
  1
MLEADERSTYLE
  2
AcDbMLeaderStyle
  3
ACDB_MLEADERSTYLE_CLASS
 90
     4095
 91
        4
280
     0
281
     0
  0
CLASS
  1
SUN
  2
AcDbSun
  3
SCENEOE
 90
     1153
 91
        4
280
     0
281
     0
  0
CLASS
  1
DICTIONARYVAR
  2
AcDbDictionaryVar
  3
ObjectDBX Classes
 90
        0
 91
        4
280
     0
281
     0
  0
CLASS
  1
CELLSTYLEMAP
  2
AcDbCellStyleMap
  3
ObjectDBX Classes
 90
     1152
 91
        4
280
     0
281
     0
  0
ENDSEC
  0
SECTION
  2
TABLES
  0
TABLE
  2
VPORT
  5
8
102
{ACAD_XDICTIONARY
360
35D
102
}
330
0
100
AcDbSymbolTable
 70
     1
  0
VPORT
  5
29
330
8
100
AcDbSymbolTableRecord
100
AcDbViewportTableRecord
  2
*Active
 70
     0
 10
0.0
 20
0.0
 11
1.0
 21
1.0
 12
233.2290174004885
 22
-56.44767257716731
 13
0.0
 23
0.0
 14
0.5
 24
0.5
 15
0.5
 25
0.5
 16
0.0
 26
0.0
 36
1.0
 17
0.0
 27
0.0
 37
0.0
 40
38.24999999999983
 41
1.836666666666675
 42
50.0
 43
0.0
 44
0.0
 50
0.0
 51
0.0
 71
     0
 72
   100
 73
     1
 74
     3
 75
     0
 76
     0
 77
     0
 78
     0
281
     0
 65
     1
110
0.0
120
0.0
130
0.0
111
1.0
121
0.0
131
0.0
112
0.0
122
1.0
132
0.0
 79
     0
146
0.0
  0
ENDTAB
  0
TABLE
  2
LTYPE
  5
5
330
0
100
AcDbSymbolTable
 70
     1
  0
LTYPE
  5
14
330
5
100
AcDbSymbolTableRecord
100
AcDbLinetypeTableRecord
  2
ByBlock
 70
     0
  3

 72
    65
 73
     0
 40
0.0
  0
LTYPE
  5
15
330
5
100
AcDbSymbolTableRecord
100
AcDbLinetypeTableRecord
  2
ByLayer
 70
     0
  3

 72
    65
 73
     0
 40
0.0
  0
LTYPE
  5
16
330
5
100
AcDbSymbolTableRecord
100
AcDbLinetypeTableRecord
  2
Continuous
 70
     0
  3
Solid line
 72
    65
 73
     0
 40
0.0
  0
ENDTAB
  0
TABLE
  2
LAYER
  5
2
330
0
100
AcDbSymbolTable
 70
     2
  0
LAYER
  5
10
330
2
100
AcDbSymbolTableRecord
100
AcDbLayerTableRecord
  2
0
 70
     0
 62
     7
  6
Continuous
370
    -3
390
F
  0
LAYER
  5
6E
330
2
100
AcDbSymbolTableRecord
100
AcDbLayerTableRecord
  2
Guides
 70
     0
 62
     6
420
 16711935
  6
Continuous
370
    -3
390
F
  0
ENDTAB
  0
TABLE
  2
STYLE
  5
3
330
0
100
AcDbSymbolTable
 70
     1
  0
STYLE
  5
11
330
3
100
AcDbSymbolTableRecord
100
AcDbTextStyleTableRecord
  2
Standard
 70
     0
 40
0.0
 41
1.0
 50
0.0
 71
     0
 42
0.2
  3
txt
  4

  0
ENDTAB
  0
TABLE
  2
VIEW
  5
6
330
0
100
AcDbSymbolTable
 70
     0
  0
ENDTAB
  0
TABLE
  2
UCS
  5
7
330
0
100
AcDbSymbolTable
 70
     0
  0
ENDTAB
  0
TABLE
  2
APPID
  5
9
330
0
100
AcDbSymbolTable
 70
     2
  0
APPID
  5
12
330
9
100
AcDbSymbolTableRecord
100
AcDbRegAppTableRecord
  2
ACAD
 70
     0
  0
APPID
  5
39C
330
9
100
AcDbSymbolTableRecord
100
AcDbRegAppTableRecord
  2
ACAD_MLEADERVER
 70
     0
  0
ENDTAB
  0
TABLE
  2
DIMSTYLE
  5
A
330
0
100
AcDbSymbolTable
 70
     1
100
AcDbDimStyleTable
  0
DIMSTYLE
105
27
330
A
100
AcDbSymbolTableRecord
100
AcDbDimStyleTableRecord
  2
Standard
 70
     0
178
     0
340
11
  0
ENDTAB
  0
TABLE
  2
BLOCK_RECORD
  5
1
330
0
100
AcDbSymbolTable
 70
     1
  0
BLOCK_RECORD
  5
1F
330
1
100
AcDbSymbolTableRecord
100
AcDbBlockTableRecord
  2
*Model_Space
340
22
  0
BLOCK_RECORD
  5
1B
330
1
100
AcDbSymbolTableRecord
100
AcDbBlockTableRecord
  2
*Paper_Space
340
1E
  0
BLOCK_RECORD
  5
23
330
1
100
AcDbSymbolTableRecord
100
AcDbBlockTableRecord
  2
*Paper_Space0
340
26
  0
ENDTAB
  0
ENDSEC
  0
SECTION
  2
BLOCKS
  0
BLOCK
  5
20
330
1F
100
AcDbEntity
  8
0
100
AcDbBlockBegin
  2
*Model_Space
 70
     0
 10
0.0
 20
0.0
 30
0.0
  3
*Model_Space
  1

  0
ENDBLK
  5
21
330
1F
100
AcDbEntity
  8
0
100
AcDbBlockEnd
  0
BLOCK
  5
1C
330
1B
100
AcDbEntity
 67
     1
  8
0
100
AcDbBlockBegin
  2
*Paper_Space
 70
     0
 10
0.0
 20
0.0
 30
0.0
  3
*Paper_Space
  1

  0
ENDBLK
  5
1D
330
1B
100
AcDbEntity
 67
     1
  8
0
100
AcDbBlockEnd
  0
BLOCK
  5
24
330
23
100
AcDbEntity
  8
0
100
AcDbBlockBegin
  2
*Paper_Space0
 70
     0
 10
0.0
 20
0.0
 30
0.0
  3
*Paper_Space0
  1

  0
ENDBLK
  5
25
330
23
100
AcDbEntity
  8
0
100
AcDbBlockEnd
  0
ENDSEC
  0
SECTION
  2
ENTITIES
  0
POLYLINE
  5
6F
330
1F
100
AcDbEntity
  8
Guides
100
AcDb2dPolyline
 66
     1
 10
0.0
 20
0.0
 30
-0.0000004793760269
 70
     1
  0
VERTEX
  5
70
330
6F
100
AcDbEntity
  8
Guides
100
AcDbVertex
100
AcDb2dVertex
 10
220.8223924746858
 20
-37.6976725771674
 30
-0.0000004793760269
  0
VERTEX
  5
71
330
6F
100
AcDbEntity
  8
Guides
100
AcDbVertex
100
AcDb2dVertex
 10
220.8223924746858
 20
-43.6976725771674
 30
-0.0000004793760269
  0
VERTEX
  5
72
330
6F
100
AcDbEntity
  8
Guides
100
AcDbVertex
100
AcDb2dVertex
 10
215.7365465274202
 20
-43.6976725771674
 30
-0.0000004793760269
  0
VERTEX
  5
73
330
6F
100
AcDbEntity
  8
Guides
100
AcDbVertex
100
AcDb2dVertex
 10
215.7365465274202
 20
-37.6976725771674
 30
-0.0000004793760269
  0
SEQEND
  5
74
330
6F
100
AcDbEntity
  8
Guides
  0
POLYLINE
  5
75
330
1F
100
AcDbEntity
  8
Guides
100
AcDb2dPolyline
 66
     1
 10
0.0
 20
0.0
 30
-0.0000004793760269
 70
     1
  0
VERTEX
  5
76
330
75
100
AcDbEntity
  8
Guides
100
AcDbVertex
100
AcDb2dVertex
 10
219.279469501053
 20
-42.6976725771674
 30
-0.0000004793760269
  0
VERTEX
  5
77
330
75
100
AcDbEntity
  8
Guides
100
AcDbVertex
100
AcDb2dVertex
 10
219.279469501053
 20
-41.9476725771674
 30
-0.0000004793760269
  0
VERTEX
  5
78
330
75
100
AcDbEntity
  8
Guides
100
AcDbVertex
100
AcDb2dVertex
 10
219.2763414492952
 20
-41.91355392482365
 30
-0.0000004793760269
  0
VERTEX
  5
79
330
75
100
AcDbEntity
  8
Guides
100
AcDbVertex
100
AcDb2dVertex
 10
219.2663011660921
 20
-41.87865707423771
 30
-0.0000004793760269
  0
VERTEX
  5
7A
330
75
100
AcDbEntity
  8
Guides
100
AcDbVertex
100
AcDb2dVertex
 10
219.2489061465608
 20
-41.84507247951115
 30
-0.0000004793760269
  0
VERTEX
  5
7B
330
75
100
AcDbEntity
  8
Guides
100
AcDbVertex
100
AcDb2dVertex
 10
219.2245531192171
 20
-41.81508895900333
 30
-0.0000004793760269
  0
VERTEX
  5
7C
330
75
100
AcDbEntity
  8
Guides
100
AcDbVertex
100
AcDb2dVertex
 10
219.1945695987093
 20
-41.79073593165958
 30
-0.0000004793760269
  0
VERTEX
  5
7D
330
75
100
AcDbEntity
  8
Guides
100
AcDbVertex
100
AcDb2dVertex
 10
219.1609850039827
 20
-41.77334091212833
 30
-0.0000004793760269
  0
VERTEX
  5
7E
330
75
100
AcDbEntity
  8
Guides
100
AcDbVertex
100
AcDb2dVertex
 10
219.1260881533968
 20
-41.76330062892521
 30
-0.0000004793760269
  0
VERTEX
  5
7F
330
75
100
AcDbEntity
  8
Guides
100
AcDbVertex
100
AcDb2dVertex
 10
219.091969501053
 20
-41.7601725771674
 30
-0.0000004793760269
  0
VERTEX
  5
80
330
75
100
AcDbEntity
  8
Guides
100
AcDbVertex
100
AcDb2dVertex
 10
219.0578508487093
 20
-41.76330062892521
 30
-0.0000004793760269
  0
VERTEX
  5
81
330
75
100
AcDbEntity
  8
Guides
100
AcDbVertex
100
AcDb2dVertex
 10
219.0229539981233
 20
-41.77334091212833
 30
-0.0000004793760269
  0
VERTEX
  5
82
330
75
100
AcDbEntity
  8
Guides
100
AcDbVertex
100
AcDb2dVertex
 10
218.9893694033968
 20
-41.79073593165958
 30
-0.0000004793760269
  0
VERTEX
  5
83
330
75
100
AcDbEntity
  8
Guides
100
AcDbVertex
100
AcDb2dVertex
 10
218.959385882889
 20
-41.81508895900333
 30
-0.0000004793760269
  0
VERTEX
  5
84
330
75
100
AcDbEntity
  8
Guides
100
AcDbVertex
100
AcDb2dVertex
 10
218.9350328555452
 20
-41.84507247951115
 30
-0.0000004793760269
  0
VERTEX
  5
85
330
75
100
AcDbEntity
  8
Guides
100
AcDbVertex
100
AcDb2dVertex
 10
218.917637836014
 20
-41.87865707423771
 30
-0.0000004793760269
  0
VERTEX
  5
86
330
75
100
AcDbEntity
  8
Guides
100
AcDbVertex
100
AcDb2dVertex
 10
218.9075975528108
 20
-41.91355392482365
 30
-0.0000004793760269
  0
VERTEX
  5
87
330
75
100
AcDbEntity
  8
Guides
100
AcDbVertex
100
AcDb2dVertex
 10
218.904469501053
 20
-41.9476725771674
 30
-0.0000004793760269
  0
VERTEX
  5
88
330
75
100
AcDbEntity
  8
Guides
100
AcDbVertex
100
AcDb2dVertex
 10
217.654469501053
 20
-41.9476725771674
 30
-0.0000004793760269
  0
VERTEX
  5
89
330
75
100
AcDbEntity
  8
Guides
100
AcDbVertex
100
AcDb2dVertex
 10
217.6513414492952
 20
-41.91355392482365
 30
-0.0000004793760269
  0
VERTEX
  5
8A
330
75
100
AcDbEntity
  8
Guides
100
AcDbVertex
100
AcDb2dVertex
 10
217.6413011660921
 20
-41.87865707423771
 30
-0.0000004793760269
  0
VERTEX
  5
8B
330
75
100
AcDbEntity
  8
Guides
100
AcDbVertex
100
AcDb2dVertex
 10
217.6239061465608
 20
-41.84507247951115
 30
-0.0000004793760269
  0
VERTEX
  5
8C
330
75
100
AcDbEntity
  8
Guides
100
AcDbVertex
100
AcDb2dVertex
 10
217.5995531192171
 20
-41.81508895900333
 30
-0.0000004793760269
  0
VERTEX
  5
8D
330
75
100
AcDbEntity
  8
Guides
100
AcDbVertex
100
AcDb2dVertex
 10
217.5695695987093
 20
-41.79073593165958
 30
-0.0000004793760269
  0
VERTEX
  5
8E
330
75
100
AcDbEntity
  8
Guides
100
AcDbVertex
100
AcDb2dVertex
 10
217.5359850039827
 20
-41.77334091212833
 30
-0.0000004793760269
  0
VERTEX
  5
8F
330
75
100
AcDbEntity
  8
Guides
100
AcDbVertex
100
AcDb2dVertex
 10
217.5010881533968
 20
-41.76330062892521
 30
-0.0000004793760269
  0
VERTEX
  5
90
330
75
100
AcDbEntity
  8
Guides
100
AcDbVertex
100
AcDb2dVertex
 10
217.466969501053
 20
-41.7601725771674
 30
-0.0000004793760269
  0
VERTEX
  5
91
330
75
100
AcDbEntity
  8
Guides
100
AcDbVertex
100
AcDb2dVertex
 10
217.4328508487093
 20
-41.76330062892521
 30
-0.0000004793760269
  0
VERTEX
  5
92
330
75
100
AcDbEntity
  8
Guides
100
AcDbVertex
100
AcDb2dVertex
 10
217.3979539981233
 20
-41.77334091212833
 30
-0.0000004793760269
  0
VERTEX
  5
93
330
75
100
AcDbEntity
  8
Guides
100
AcDbVertex
100
AcDb2dVertex
 10
217.3643694033968
 20
-41.79073593165958
 30
-0.0000004793760269
  0
VERTEX
  5
94
330
75
100
AcDbEntity
  8
Guides
100
AcDbVertex
100
AcDb2dVertex
 10
217.334385882889
 20
-41.81508895900333
 30
-0.0000004793760269
  0
VERTEX
  5
95
330
75
100
AcDbEntity
  8
Guides
100
AcDbVertex
100
AcDb2dVertex
 10
217.3100328555452
 20
-41.84507247951115
 30
-0.0000004793760269
  0
VERTEX
  5
96
330
75
100
AcDbEntity
  8
Guides
100
AcDbVertex
100
AcDb2dVertex
 10
217.292637836014
 20
-41.87865707423771
 30
-0.0000004793760269
  0
VERTEX
  5
97
330
75
100
AcDbEntity
  8
Guides
100
AcDbVertex
100
AcDb2dVertex
 10
217.2825975528108
 20
-41.91355392482365
 30
-0.0000004793760269
  0
VERTEX
  5
98
330
75
100
AcDbEntity
  8
Guides
100
AcDbVertex
100
AcDb2dVertex
 10
217.279469501053
 20
-41.9476725771674
 30
-0.0000004793760269
  0
VERTEX
  5
99
330
75
100
AcDbEntity
  8
Guides
100
AcDbVertex
100
AcDb2dVertex
 10
217.279469501053
 20
-42.6976725771674
 30
-0.0000004793760269
  0
VERTEX
  5
9A
330
75
100
AcDbEntity
  8
Guides
100
AcDbVertex
100
AcDb2dVertex
 10
217.2825975528108
 20
-42.73179122951115
 30
-0.0000004793760269
  0
VERTEX
  5
9B
330
75
100
AcDbEntity
  8
Guides
100
AcDbVertex
100
AcDb2dVertex
 10
217.292637836014
 20
-42.76668808009708
 30
-0.0000004793760269
  0
VERTEX
  5
9C
330
75
100
AcDbEntity
  8
Guides
100
AcDbVertex
100
AcDb2dVertex
 10
217.3100328555452
 20
-42.80027267482365
 30
-0.0000004793760269
  0
VERTEX
  5
9D
330
75
100
AcDbEntity
  8
Guides
100
AcDbVertex
100
AcDb2dVertex
 10
217.334385882889
 20
-42.83025619533146
 30
-0.0000004793760269
  0
VERTEX
  5
9E
330
75
100
AcDbEntity
  8
Guides
100
AcDbVertex
100
AcDb2dVertex
 10
217.3643694033968
 20
-42.85460922267521
 30
-0.0000004793760269
  0
VERTEX
  5
9F
330
75
100
AcDbEntity
  8
Guides
100
AcDbVertex
100
AcDb2dVertex
 10
217.3979539981233
 20
-42.87200424220646
 30
-0.0000004793760269
  0
VERTEX
  5
A0
330
75
100
AcDbEntity
  8
Guides
100
AcDbVertex
100
AcDb2dVertex
 10
217.4328508487093
 20
-42.88204452540958
 30
-0.0000004793760269
  0
VERTEX
  5
A1
330
75
100
AcDbEntity
  8
Guides
100
AcDbVertex
100
AcDb2dVertex
 10
217.466969501053
 20
-42.8851725771674
 30
-0.0000004793760269
  0
VERTEX
  5
A2
330
75
100
AcDbEntity
  8
Guides
100
AcDbVertex
100
AcDb2dVertex
 10
217.5010881533968
 20
-42.88204452540958
 30
-0.0000004793760269
  0
VERTEX
  5
A3
330
75
100
AcDbEntity
  8
Guides
100
AcDbVertex
100
AcDb2dVertex
 10
217.5359850039827
 20
-42.87200424220646
 30
-0.0000004793760269
  0
VERTEX
  5
A4
330
75
100
AcDbEntity
  8
Guides
100
AcDbVertex
100
AcDb2dVertex
 10
217.5695695987093
 20
-42.85460922267521
 30
-0.0000004793760269
  0
VERTEX
  5
A5
330
75
100
AcDbEntity
  8
Guides
100
AcDbVertex
100
AcDb2dVertex
 10
217.5995531192171
 20
-42.83025619533146
 30
-0.0000004793760269
  0
VERTEX
  5
A6
330
75
100
AcDbEntity
  8
Guides
100
AcDbVertex
100
AcDb2dVertex
 10
217.6239061465608
 20
-42.80027267482365
 30
-0.0000004793760269
  0
VERTEX
  5
A7
330
75
100
AcDbEntity
  8
Guides
100
AcDbVertex
100
AcDb2dVertex
 10
217.6413011660921
 20
-42.76668808009708
 30
-0.0000004793760269
  0
VERTEX
  5
A8
330
75
100
AcDbEntity
  8
Guides
100
AcDbVertex
100
AcDb2dVertex
 10
217.6513414492952
 20
-42.73179122951115
 30
-0.0000004793760269
  0
VERTEX
  5
A9
330
75
100
AcDbEntity
  8
Guides
100
AcDbVertex
100
AcDb2dVertex
 10
217.654469501053
 20
-42.6976725771674
 30
-0.0000004793760269
  0
VERTEX
  5
AA
330
75
100
AcDbEntity
  8
Guides
100
AcDbVertex
100
AcDb2dVertex
 10
218.904469501053
 20
-42.6976725771674
 30
-0.0000004793760269
  0
VERTEX
  5
AB
330
75
100
AcDbEntity
  8
Guides
100
AcDbVertex
100
AcDb2dVertex
 10
218.9075975528108
 20
-42.73179122951115
 30
-0.0000004793760269
  0
VERTEX
  5
AC
330
75
100
AcDbEntity
  8
Guides
100
AcDbVertex
100
AcDb2dVertex
 10
218.917637836014
 20
-42.76668808009708
 30
-0.0000004793760269
  0
VERTEX
  5
AD
330
75
100
AcDbEntity
  8
Guides
100
AcDbVertex
100
AcDb2dVertex
 10
218.9350328555452
 20
-42.80027267482365
 30
-0.0000004793760269
  0
VERTEX
  5
AE
330
75
100
AcDbEntity
  8
Guides
100
AcDbVertex
100
AcDb2dVertex
 10
218.959385882889
 20
-42.83025619533146
 30
-0.0000004793760269
  0
VERTEX
  5
AF
330
75
100
AcDbEntity
  8
Guides
100
AcDbVertex
100
AcDb2dVertex
 10
218.9893694033968
 20
-42.85460922267521
 30
-0.0000004793760269
  0
VERTEX
  5
B0
330
75
100
AcDbEntity
  8
Guides
100
AcDbVertex
100
AcDb2dVertex
 10
219.0229539981233
 20
-42.87200424220646
 30
-0.0000004793760269
  0
VERTEX
  5
B1
330
75
100
AcDbEntity
  8
Guides
100
AcDbVertex
100
AcDb2dVertex
 10
219.0578508487093
 20
-42.88204452540958
 30
-0.0000004793760269
  0
VERTEX
  5
B2
330
75
100
AcDbEntity
  8
Guides
100
AcDbVertex
100
AcDb2dVertex
 10
219.091969501053
 20
-42.8851725771674
 30
-0.0000004793760269
  0
VERTEX
  5
B3
330
75
100
AcDbEntity
  8
Guides
100
AcDbVertex
100
AcDb2dVertex
 10
219.1260881533968
 20
-42.88204452540958
 30
-0.0000004793760269
  0
VERTEX
  5
B4
330
75
100
AcDbEntity
  8
Guides
100
AcDbVertex
100
AcDb2dVertex
 10
219.1609850039827
 20
-42.87200424220646
 30
-0.0000004793760269
  0
VERTEX
  5
B5
330
75
100
AcDbEntity
  8
Guides
100
AcDbVertex
100
AcDb2dVertex
 10
219.1945695987093
 20
-42.85460922267521
 30
-0.0000004793760269
  0
VERTEX
  5
B6
330
75
100
AcDbEntity
  8
Guides
100
AcDbVertex
100
AcDb2dVertex
 10
219.2245531192171
 20
-42.83025619533146
 30
-0.0000004793760269
  0
VERTEX
  5
B7
330
75
100
AcDbEntity
  8
Guides
100
AcDbVertex
100
AcDb2dVertex
 10
219.2489061465608
 20
-42.80027267482365
 30
-0.0000004793760269
  0
VERTEX
  5
B8
330
75
100
AcDbEntity
  8
Guides
100
AcDbVertex
100
AcDb2dVertex
 10
219.2663011660921
 20
-42.76668808009708
 30
-0.0000004793760269
  0
VERTEX
  5
B9
330
75
100
AcDbEntity
  8
Guides
100
AcDbVertex
100
AcDb2dVertex
 10
219.2763414492952
 20
-42.73179122951115
 30
-0.0000004793760269
  0
SEQEND
  5
BA
330
75
100
AcDbEntity
  8
Guides
  0
POLYLINE
  5
BB
330
1F
100
AcDbEntity
  8
Guides
100
AcDb2dPolyline
 66
     1
 10
0.0
 20
0.0
 30
-0.0000004793760269
 70
     1
  0
VERTEX
  5
BC
330
BB
100
AcDbEntity
  8
Guides
100
AcDbVertex
100
AcDb2dVertex
 10
219.0723911713559
 20
-38.69767304735885
 30
-0.0000004793760269
  0
VERTEX
  5
BD
330
BB
100
AcDbEntity
  8
Guides
100
AcDbVertex
100
AcDb2dVertex
 10
218.3223911713559
 20
-38.69767304735885
 30
-0.0000004793760269
  0
VERTEX
  5
BE
330
BB
100
AcDbEntity
  8
Guides
100
AcDbVertex
100
AcDb2dVertex
 10
218.2882725190122
 20
-38.70080109911666
 30
-0.0000004793760269
  0
VERTEX
  5
BF
330
BB
100
AcDbEntity
  8
Guides
100
AcDbVertex
100
AcDb2dVertex
 10
218.2533756684263
 20
-38.71084138231978
 30
-0.0000004793760269
  0
VERTEX
  5
C0
330
BB
100
AcDbEntity
  8
Guides
100
AcDbVertex
100
AcDb2dVertex
 10
218.2197910736997
 20
-38.72823640185103
 30
-0.0000004793760269
  0
VERTEX
  5
C1
330
BB
100
AcDbEntity
  8
Guides
100
AcDbVertex
100
AcDb2dVertex
 10
218.1898075531919
 20
-38.75258942919478
 30
-0.0000004793760269
  0
VERTEX
  5
C2
330
BB
100
AcDbEntity
  8
Guides
100
AcDbVertex
100
AcDb2dVertex
 10
218.1654545258481
 20
-38.7825729497026
 30
-0.0000004793760269
  0
VERTEX
  5
C3
330
BB
100
AcDbEntity
  8
Guides
100
AcDbVertex
100
AcDb2dVertex
 10
218.1480595063169
 20
-38.81615754442916
 30
-0.0000004793760269
  0
VERTEX
  5
C4
330
BB
100
AcDbEntity
  8
Guides
100
AcDbVertex
100
AcDb2dVertex
 10
218.1380192231138
 20
-38.8510543950151
 30
-0.0000004793760269
  0
VERTEX
  5
C5
330
BB
100
AcDbEntity
  8
Guides
100
AcDbVertex
100
AcDb2dVertex
 10
218.1348911713559
 20
-38.88517304735885
 30
-0.0000004793760269
  0
VERTEX
  5
C6
330
BB
100
AcDbEntity
  8
Guides
100
AcDbVertex
100
AcDb2dVertex
 10
218.1380192231138
 20
-38.9192916997026
 30
-0.0000004793760269
  0
VERTEX
  5
C7
330
BB
100
AcDbEntity
  8
Guides
100
AcDbVertex
100
AcDb2dVertex
 10
218.1480595063169
 20
-38.95418855028853
 30
-0.0000004793760269
  0
VERTEX
  5
C8
330
BB
100
AcDbEntity
  8
Guides
100
AcDbVertex
100
AcDb2dVertex
 10
218.1654545258481
 20
-38.9877731450151
 30
-0.0000004793760269
  0
VERTEX
  5
C9
330
BB
100
AcDbEntity
  8
Guides
100
AcDbVertex
100
AcDb2dVertex
 10
218.1898075531919
 20
-39.01775666552291
 30
-0.0000004793760269
  0
VERTEX
  5
CA
330
BB
100
AcDbEntity
  8
Guides
100
AcDbVertex
100
AcDb2dVertex
 10
218.2197910736997
 20
-39.04210969286666
 30
-0.0000004793760269
  0
VERTEX
  5
CB
330
BB
100
AcDbEntity
  8
Guides
100
AcDbVertex
100
AcDb2dVertex
 10
218.2533756684263
 20
-39.05950471239791
 30
-0.0000004793760269
  0
VERTEX
  5
CC
330
BB
100
AcDbEntity
  8
Guides
100
AcDbVertex
100
AcDb2dVertex
 10
218.2882725190122
 20
-39.06954499560103
 30
-0.0000004793760269
  0
VERTEX
  5
CD
330
BB
100
AcDbEntity
  8
Guides
100
AcDbVertex
100
AcDb2dVertex
 10
218.3223911713559
 20
-39.07267304735885
 30
-0.0000004793760269
  0
VERTEX
  5
CE
330
BB
100
AcDbEntity
  8
Guides
100
AcDbVertex
100
AcDb2dVertex
 10
218.3223911713559
 20
-40.32267304735885
 30
-0.0000004793760269
  0
VERTEX
  5
CF
330
BB
100
AcDbEntity
  8
Guides
100
AcDbVertex
100
AcDb2dVertex
 10
218.2882725190122
 20
-40.32580109911666
 30
-0.0000004793760269
  0
VERTEX
  5
D0
330
BB
100
AcDbEntity
  8
Guides
100
AcDbVertex
100
AcDb2dVertex
 10
218.2533756684263
 20
-40.33584138231978
 30
-0.0000004793760269
  0
VERTEX
  5
D1
330
BB
100
AcDbEntity
  8
Guides
100
AcDbVertex
100
AcDb2dVertex
 10
218.2197910736997
 20
-40.35323640185103
 30
-0.0000004793760269
  0
VERTEX
  5
D2
330
BB
100
AcDbEntity
  8
Guides
100
AcDbVertex
100
AcDb2dVertex
 10
218.1898075531919
 20
-40.37758942919478
 30
-0.0000004793760269
  0
VERTEX
  5
D3
330
BB
100
AcDbEntity
  8
Guides
100
AcDbVertex
100
AcDb2dVertex
 10
218.1654545258481
 20
-40.4075729497026
 30
-0.0000004793760269
  0
VERTEX
  5
D4
330
BB
100
AcDbEntity
  8
Guides
100
AcDbVertex
100
AcDb2dVertex
 10
218.1480595063169
 20
-40.44115754442916
 30
-0.0000004793760269
  0
VERTEX
  5
D5
330
BB
100
AcDbEntity
  8
Guides
100
AcDbVertex
100
AcDb2dVertex
 10
218.1380192231138
 20
-40.4760543950151
 30
-0.0000004793760269
  0
VERTEX
  5
D6
330
BB
100
AcDbEntity
  8
Guides
100
AcDbVertex
100
AcDb2dVertex
 10
218.1348911713559
 20
-40.51017304735885
 30
-0.0000004793760269
  0
VERTEX
  5
D7
330
BB
100
AcDbEntity
  8
Guides
100
AcDbVertex
100
AcDb2dVertex
 10
218.1380192231138
 20
-40.5442916997026
 30
-0.0000004793760269
  0
VERTEX
  5
D8
330
BB
100
AcDbEntity
  8
Guides
100
AcDbVertex
100
AcDb2dVertex
 10
218.1480595063169
 20
-40.57918855028853
 30
-0.0000004793760269
  0
VERTEX
  5
D9
330
BB
100
AcDbEntity
  8
Guides
100
AcDbVertex
100
AcDb2dVertex
 10
218.1654545258481
 20
-40.6127731450151
 30
-0.0000004793760269
  0
VERTEX
  5
DA
330
BB
100
AcDbEntity
  8
Guides
100
AcDbVertex
100
AcDb2dVertex
 10
218.1898075531919
 20
-40.64275666552291
 30
-0.0000004793760269
  0
VERTEX
  5
DB
330
BB
100
AcDbEntity
  8
Guides
100
AcDbVertex
100
AcDb2dVertex
 10
218.2197910736997
 20
-40.66710969286666
 30
-0.0000004793760269
  0
VERTEX
  5
DC
330
BB
100
AcDbEntity
  8
Guides
100
AcDbVertex
100
AcDb2dVertex
 10
218.2533756684263
 20
-40.68450471239791
 30
-0.0000004793760269
  0
VERTEX
  5
DD
330
BB
100
AcDbEntity
  8
Guides
100
AcDbVertex
100
AcDb2dVertex
 10
218.2882725190122
 20
-40.69454499560103
 30
-0.0000004793760269
  0
VERTEX
  5
DE
330
BB
100
AcDbEntity
  8
Guides
100
AcDbVertex
100
AcDb2dVertex
 10
218.3223911713559
 20
-40.69767304735885
 30
-0.0000004793760269
  0
VERTEX
  5
DF
330
BB
100
AcDbEntity
  8
Guides
100
AcDbVertex
100
AcDb2dVertex
 10
219.0723911713559
 20
-40.69767304735885
 30
-0.0000004793760269
  0
VERTEX
  5
E0
330
BB
100
AcDbEntity
  8
Guides
100
AcDbVertex
100
AcDb2dVertex
 10
219.1065098236997
 20
-40.69454499560103
 30
-0.0000004793760269
  0
VERTEX
  5
E1
330
BB
100
AcDbEntity
  8
Guides
100
AcDbVertex
100
AcDb2dVertex
 10
219.1414066742856
 20
-40.68450471239791
 30
-0.0000004793760269
  0
VERTEX
  5
E2
330
BB
100
AcDbEntity
  8
Guides
100
AcDbVertex
100
AcDb2dVertex
 10
219.1749912690122
 20
-40.66710969286666
 30
-0.0000004793760269
  0
VERTEX
  5
E3
330
BB
100
AcDbEntity
  8
Guides
100
AcDbVertex
100
AcDb2dVertex
 10
219.20497478952
 20
-40.64275666552291
 30
-0.0000004793760269
  0
VERTEX
  5
E4
330
BB
100
AcDbEntity
  8
Guides
100
AcDbVertex
100
AcDb2dVertex
 10
219.2293278168638
 20
-40.6127731450151
 30
-0.0000004793760269
  0
VERTEX
  5
E5
330
BB
100
AcDbEntity
  8
Guides
100
AcDbVertex
100
AcDb2dVertex
 10
219.246722836395
 20
-40.57918855028853
 30
-0.0000004793760269
  0
VERTEX
  5
E6
330
BB
100
AcDbEntity
  8
Guides
100
AcDbVertex
100
AcDb2dVertex
 10
219.2567631195981
 20
-40.5442916997026
 30
-0.0000004793760269
  0
VERTEX
  5
E7
330
BB
100
AcDbEntity
  8
Guides
100
AcDbVertex
100
AcDb2dVertex
 10
219.2598911713559
 20
-40.51017304735885
 30
-0.0000004793760269
  0
VERTEX
  5
E8
330
BB
100
AcDbEntity
  8
Guides
100
AcDbVertex
100
AcDb2dVertex
 10
219.2567631195981
 20
-40.4760543950151
 30
-0.0000004793760269
  0
VERTEX
  5
E9
330
BB
100
AcDbEntity
  8
Guides
100
AcDbVertex
100
AcDb2dVertex
 10
219.246722836395
 20
-40.44115754442916
 30
-0.0000004793760269
  0
VERTEX
  5
EA
330
BB
100
AcDbEntity
  8
Guides
100
AcDbVertex
100
AcDb2dVertex
 10
219.2293278168638
 20
-40.4075729497026
 30
-0.0000004793760269
  0
VERTEX
  5
EB
330
BB
100
AcDbEntity
  8
Guides
100
AcDbVertex
100
AcDb2dVertex
 10
219.20497478952
 20
-40.37758942919478
 30
-0.0000004793760269
  0
VERTEX
  5
EC
330
BB
100
AcDbEntity
  8
Guides
100
AcDbVertex
100
AcDb2dVertex
 10
219.1749912690122
 20
-40.35323640185103
 30
-0.0000004793760269
  0
VERTEX
  5
ED
330
BB
100
AcDbEntity
  8
Guides
100
AcDbVertex
100
AcDb2dVertex
 10
219.1414066742856
 20
-40.33584138231978
 30
-0.0000004793760269
  0
VERTEX
  5
EE
330
BB
100
AcDbEntity
  8
Guides
100
AcDbVertex
100
AcDb2dVertex
 10
219.1065098236997
 20
-40.32580109911666
 30
-0.0000004793760269
  0
VERTEX
  5
EF
330
BB
100
AcDbEntity
  8
Guides
100
AcDbVertex
100
AcDb2dVertex
 10
219.0723911713559
 20
-40.32267304735885
 30
-0.0000004793760269
  0
VERTEX
  5
F0
330
BB
100
AcDbEntity
  8
Guides
100
AcDbVertex
100
AcDb2dVertex
 10
219.0723911713559
 20
-39.07267304735885
 30
-0.0000004793760269
  0
VERTEX
  5
F1
330
BB
100
AcDbEntity
  8
Guides
100
AcDbVertex
100
AcDb2dVertex
 10
219.1065098236997
 20
-39.06954499560103
 30
-0.0000004793760269
  0
VERTEX
  5
F2
330
BB
100
AcDbEntity
  8
Guides
100
AcDbVertex
100
AcDb2dVertex
 10
219.1414066742856
 20
-39.05950471239791
 30
-0.0000004793760269
  0
VERTEX
  5
F3
330
BB
100
AcDbEntity
  8
Guides
100
AcDbVertex
100
AcDb2dVertex
 10
219.1749912690122
 20
-39.04210969286666
 30
-0.0000004793760269
  0
VERTEX
  5
F4
330
BB
100
AcDbEntity
  8
Guides
100
AcDbVertex
100
AcDb2dVertex
 10
219.20497478952
 20
-39.01775666552291
 30
-0.0000004793760269
  0
VERTEX
  5
F5
330
BB
100
AcDbEntity
  8
Guides
100
AcDbVertex
100
AcDb2dVertex
 10
219.2293278168638
 20
-38.9877731450151
 30
-0.0000004793760269
  0
VERTEX
  5
F6
330
BB
100
AcDbEntity
  8
Guides
100
AcDbVertex
100
AcDb2dVertex
 10
219.246722836395
 20
-38.95418855028853
 30
-0.0000004793760269
  0
VERTEX
  5
F7
330
BB
100
AcDbEntity
  8
Guides
100
AcDbVertex
100
AcDb2dVertex
 10
219.2567631195981
 20
-38.9192916997026
 30
-0.0000004793760269
  0
VERTEX
  5
F8
330
BB
100
AcDbEntity
  8
Guides
100
AcDbVertex
100
AcDb2dVertex
 10
219.2598911713559
 20
-38.88517304735885
 30
-0.0000004793760269
  0
VERTEX
  5
F9
330
BB
100
AcDbEntity
  8
Guides
100
AcDbVertex
100
AcDb2dVertex
 10
219.2567631195981
 20
-38.8510543950151
 30
-0.0000004793760269
  0
VERTEX
  5
FA
330
BB
100
AcDbEntity
  8
Guides
100
AcDbVertex
100
AcDb2dVertex
 10
219.246722836395
 20
-38.81615754442916
 30
-0.0000004793760269
  0
VERTEX
  5
FB
330
BB
100
AcDbEntity
  8
Guides
100
AcDbVertex
100
AcDb2dVertex
 10
219.2293278168638
 20
-38.7825729497026
 30
-0.0000004793760269
  0
VERTEX
  5
FC
330
BB
100
AcDbEntity
  8
Guides
100
AcDbVertex
100
AcDb2dVertex
 10
219.20497478952
 20
-38.75258942919478
 30
-0.0000004793760269
  0
VERTEX
  5
FD
330
BB
100
AcDbEntity
  8
Guides
100
AcDbVertex
100
AcDb2dVertex
 10
219.1749912690122
 20
-38.72823640185103
 30
-0.0000004793760269
  0
VERTEX
  5
FE
330
BB
100
AcDbEntity
  8
Guides
100
AcDbVertex
100
AcDb2dVertex
 10
219.1414066742856
 20
-38.71084138231978
 30
-0.0000004793760269
  0
VERTEX
  5
FF
330
BB
100
AcDbEntity
  8
Guides
100
AcDbVertex
100
AcDb2dVertex
 10
219.1065098236997
 20
-38.70080109911666
 30
-0.0000004793760269
  0
SEQEND
  5
100
330
BB
100
AcDbEntity
  8
Guides
  0
POLYLINE
  5
101
330
1F
100
AcDbEntity
  8
Guides
100
AcDb2dPolyline
 66
     1
 10
0.0
 20
0.0
 30
-0.0000004793760269
 70
     1
  0
VERTEX
  5
102
330
101
100
AcDbEntity
  8
Guides
100
AcDbVertex
100
AcDb2dVertex
 10
213.4240481290454
 20
-42.69767210697594
 30
-0.0000004793760269
  0
VERTEX
  5
103
330
101
100
AcDbEntity
  8
Guides
100
AcDbVertex
100
AcDb2dVertex
 10
212.6740481290454
 20
-42.69767210697594
 30
-0.0000004793760269
  0
VERTEX
  5
104
330
101
100
AcDbEntity
  8
Guides
100
AcDbVertex
100
AcDb2dVertex
 10
212.6399294767016
 20
-42.69454405521813
 30
-0.0000004793760269
  0
VERTEX
  5
105
330
101
100
AcDbEntity
  8
Guides
100
AcDbVertex
100
AcDb2dVertex
 10
212.6050326261157
 20
-42.68450377201501
 30
-0.0000004793760269
  0
VERTEX
  5
106
330
101
100
AcDbEntity
  8
Guides
100
AcDbVertex
100
AcDb2dVertex
 10
212.5714480313891
 20
-42.66710875248376
 30
-0.0000004793760269
  0
VERTEX
  5
107
330
101
100
AcDbEntity
  8
Guides
100
AcDbVertex
100
AcDb2dVertex
 10
212.5414645108813
 20
-42.64275572514001
 30
-0.0000004793760269
  0
VERTEX
  5
108
330
101
100
AcDbEntity
  8
Guides
100
AcDbVertex
100
AcDb2dVertex
 10
212.5171114835376
 20
-42.61277220463219
 30
-0.0000004793760269
  0
VERTEX
  5
109
330
101
100
AcDbEntity
  8
Guides
100
AcDbVertex
100
AcDb2dVertex
 10
212.4997164640063
 20
-42.57918760990563
 30
-0.0000004793760269
  0
VERTEX
  5
10A
330
101
100
AcDbEntity
  8
Guides
100
AcDbVertex
100
AcDb2dVertex
 10
212.4896761808032
 20
-42.54429075931969
 30
-0.0000004793760269
  0
VERTEX
  5
10B
330
101
100
AcDbEntity
  8
Guides
100
AcDbVertex
100
AcDb2dVertex
 10
212.4865481290454
 20
-42.51017210697594
 30
-0.0000004793760269
  0
VERTEX
  5
10C
330
101
100
AcDbEntity
  8
Guides
100
AcDbVertex
100
AcDb2dVertex
 10
212.4896761808032
 20
-42.47605345463219
 30
-0.0000004793760269
  0
VERTEX
  5
10D
330
101
100
AcDbEntity
  8
Guides
100
AcDbVertex
100
AcDb2dVertex
 10
212.4997164640063
 20
-42.44115660404626
 30
-0.0000004793760269
  0
VERTEX
  5
10E
330
101
100
AcDbEntity
  8
Guides
100
AcDbVertex
100
AcDb2dVertex
 10
212.5171114835376
 20
-42.40757200931969
 30
-0.0000004793760269
  0
VERTEX
  5
10F
330
101
100
AcDbEntity
  8
Guides
100
AcDbVertex
100
AcDb2dVertex
 10
212.5414645108813
 20
-42.37758848881188
 30
-0.0000004793760269
  0
VERTEX
  5
110
330
101
100
AcDbEntity
  8
Guides
100
AcDbVertex
100
AcDb2dVertex
 10
212.5714480313891
 20
-42.35323546146813
 30
-0.0000004793760269
  0
VERTEX
  5
111
330
101
100
AcDbEntity
  8
Guides
100
AcDbVertex
100
AcDb2dVertex
 10
212.6050326261157
 20
-42.33584044193688
 30
-0.0000004793760269
  0
VERTEX
  5
112
330
101
100
AcDbEntity
  8
Guides
100
AcDbVertex
100
AcDb2dVertex
 10
212.6399294767016
 20
-42.32580015873376
 30
-0.0000004793760269
  0
VERTEX
  5
113
330
101
100
AcDbEntity
  8
Guides
100
AcDbVertex
100
AcDb2dVertex
 10
212.6740481290454
 20
-42.32267210697594
 30
-0.0000004793760269
  0
VERTEX
  5
114
330
101
100
AcDbEntity
  8
Guides
100
AcDbVertex
100
AcDb2dVertex
 10
212.6740481290454
 20
-41.07267210697594
 30
-0.0000004793760269
  0
VERTEX
  5
115
330
101
100
AcDbEntity
  8
Guides
100
AcDbVertex
100
AcDb2dVertex
 10
212.6399294767016
 20
-41.06954405521813
 30
-0.0000004793760269
  0
VERTEX
  5
116
330
101
100
AcDbEntity
  8
Guides
100
AcDbVertex
100
AcDb2dVertex
 10
212.6050326261157
 20
-41.05950377201501
 30
-0.0000004793760269
  0
VERTEX
  5
117
330
101
100
AcDbEntity
  8
Guides
100
AcDbVertex
100
AcDb2dVertex
 10
212.5714480313891
 20
-41.04210875248376
 30
-0.0000004793760269
  0
VERTEX
  5
118
330
101
100
AcDbEntity
  8
Guides
100
AcDbVertex
100
AcDb2dVertex
 10
212.5414645108813
 20
-41.01775572514001
 30
-0.0000004793760269
  0
VERTEX
  5
119
330
101
100
AcDbEntity
  8
Guides
100
AcDbVertex
100
AcDb2dVertex
 10
212.5171114835376
 20
-40.98777220463219
 30
-0.0000004793760269
  0
VERTEX
  5
11A
330
101
100
AcDbEntity
  8
Guides
100
AcDbVertex
100
AcDb2dVertex
 10
212.4997164640063
 20
-40.95418760990563
 30
-0.0000004793760269
  0
VERTEX
  5
11B
330
101
100
AcDbEntity
  8
Guides
100
AcDbVertex
100
AcDb2dVertex
 10
212.4896761808032
 20
-40.91929075931969
 30
-0.0000004793760269
  0
VERTEX
  5
11C
330
101
100
AcDbEntity
  8
Guides
100
AcDbVertex
100
AcDb2dVertex
 10
212.4865481290454
 20
-40.88517210697594
 30
-0.0000004793760269
  0
VERTEX
  5
11D
330
101
100
AcDbEntity
  8
Guides
100
AcDbVertex
100
AcDb2dVertex
 10
212.4896761808032
 20
-40.85105345463219
 30
-0.0000004793760269
  0
VERTEX
  5
11E
330
101
100
AcDbEntity
  8
Guides
100
AcDbVertex
100
AcDb2dVertex
 10
212.4997164640063
 20
-40.81615660404626
 30
-0.0000004793760269
  0
VERTEX
  5
11F
330
101
100
AcDbEntity
  8
Guides
100
AcDbVertex
100
AcDb2dVertex
 10
212.5171114835376
 20
-40.78257200931969
 30
-0.0000004793760269
  0
VERTEX
  5
120
330
101
100
AcDbEntity
  8
Guides
100
AcDbVertex
100
AcDb2dVertex
 10
212.5414645108813
 20
-40.75258848881188
 30
-0.0000004793760269
  0
VERTEX
  5
121
330
101
100
AcDbEntity
  8
Guides
100
AcDbVertex
100
AcDb2dVertex
 10
212.5714480313891
 20
-40.72823546146813
 30
-0.0000004793760269
  0
VERTEX
  5
122
330
101
100
AcDbEntity
  8
Guides
100
AcDbVertex
100
AcDb2dVertex
 10
212.6050326261157
 20
-40.71084044193688
 30
-0.0000004793760269
  0
VERTEX
  5
123
330
101
100
AcDbEntity
  8
Guides
100
AcDbVertex
100
AcDb2dVertex
 10
212.6399294767016
 20
-40.70080015873376
 30
-0.0000004793760269
  0
VERTEX
  5
124
330
101
100
AcDbEntity
  8
Guides
100
AcDbVertex
100
AcDb2dVertex
 10
212.6740481290454
 20
-40.69767210697594
 30
-0.0000004793760269
  0
VERTEX
  5
125
330
101
100
AcDbEntity
  8
Guides
100
AcDbVertex
100
AcDb2dVertex
 10
213.4240481290454
 20
-40.69767210697594
 30
-0.0000004793760269
  0
VERTEX
  5
126
330
101
100
AcDbEntity
  8
Guides
100
AcDbVertex
100
AcDb2dVertex
 10
213.4581667813891
 20
-40.70080015873376
 30
-0.0000004793760269
  0
VERTEX
  5
127
330
101
100
AcDbEntity
  8
Guides
100
AcDbVertex
100
AcDb2dVertex
 10
213.4930636319751
 20
-40.71084044193688
 30
-0.0000004793760269
  0
VERTEX
  5
128
330
101
100
AcDbEntity
  8
Guides
100
AcDbVertex
100
AcDb2dVertex
 10
213.5266482267016
 20
-40.72823546146813
 30
-0.0000004793760269
  0
VERTEX
  5
129
330
101
100
AcDbEntity
  8
Guides
100
AcDbVertex
100
AcDb2dVertex
 10
213.5566317472095
 20
-40.75258848881188
 30
-0.0000004793760269
  0
VERTEX
  5
12A
330
101
100
AcDbEntity
  8
Guides
100
AcDbVertex
100
AcDb2dVertex
 10
213.5809847745532
 20
-40.78257200931969
 30
-0.0000004793760269
  0
VERTEX
  5
12B
330
101
100
AcDbEntity
  8
Guides
100
AcDbVertex
100
AcDb2dVertex
 10
213.5983797940845
 20
-40.81615660404626
 30
-0.0000004793760269
  0
VERTEX
  5
12C
330
101
100
AcDbEntity
  8
Guides
100
AcDbVertex
100
AcDb2dVertex
 10
213.6084200772876
 20
-40.85105345463219
 30
-0.0000004793760269
  0
VERTEX
  5
12D
330
101
100
AcDbEntity
  8
Guides
100
AcDbVertex
100
AcDb2dVertex
 10
213.6115481290454
 20
-40.88517210697594
 30
-0.0000004793760269
  0
VERTEX
  5
12E
330
101
100
AcDbEntity
  8
Guides
100
AcDbVertex
100
AcDb2dVertex
 10
213.6084200772876
 20
-40.91929075931969
 30
-0.0000004793760269
  0
VERTEX
  5
12F
330
101
100
AcDbEntity
  8
Guides
100
AcDbVertex
100
AcDb2dVertex
 10
213.5983797940845
 20
-40.95418760990563
 30
-0.0000004793760269
  0
VERTEX
  5
130
330
101
100
AcDbEntity
  8
Guides
100
AcDbVertex
100
AcDb2dVertex
 10
213.5809847745532
 20
-40.98777220463219
 30
-0.0000004793760269
  0
VERTEX
  5
131
330
101
100
AcDbEntity
  8
Guides
100
AcDbVertex
100
AcDb2dVertex
 10
213.5566317472095
 20
-41.01775572514001
 30
-0.0000004793760269
  0
VERTEX
  5
132
330
101
100
AcDbEntity
  8
Guides
100
AcDbVertex
100
AcDb2dVertex
 10
213.5266482267016
 20
-41.04210875248376
 30
-0.0000004793760269
  0
VERTEX
  5
133
330
101
100
AcDbEntity
  8
Guides
100
AcDbVertex
100
AcDb2dVertex
 10
213.4930636319751
 20
-41.05950377201501
 30
-0.0000004793760269
  0
VERTEX
  5
134
330
101
100
AcDbEntity
  8
Guides
100
AcDbVertex
100
AcDb2dVertex
 10
213.4581667813891
 20
-41.06954405521813
 30
-0.0000004793760269
  0
VERTEX
  5
135
330
101
100
AcDbEntity
  8
Guides
100
AcDbVertex
100
AcDb2dVertex
 10
213.4240481290454
 20
-41.07267210697594
 30
-0.0000004793760269
  0
VERTEX
  5
136
330
101
100
AcDbEntity
  8
Guides
100
AcDbVertex
100
AcDb2dVertex
 10
213.4240481290454
 20
-42.32267210697594
 30
-0.0000004793760269
  0
VERTEX
  5
137
330
101
100
AcDbEntity
  8
Guides
100
AcDbVertex
100
AcDb2dVertex
 10
213.4581667813891
 20
-42.32580015873376
 30
-0.0000004793760269
  0
VERTEX
  5
138
330
101
100
AcDbEntity
  8
Guides
100
AcDbVertex
100
AcDb2dVertex
 10
213.4930636319751
 20
-42.33584044193688
 30
-0.0000004793760269
  0
VERTEX
  5
139
330
101
100
AcDbEntity
  8
Guides
100
AcDbVertex
100
AcDb2dVertex
 10
213.5266482267016
 20
-42.35323546146813
 30
-0.0000004793760269
  0
VERTEX
  5
13A
330
101
100
AcDbEntity
  8
Guides
100
AcDbVertex
100
AcDb2dVertex
 10
213.5566317472095
 20
-42.37758848881188
 30
-0.0000004793760269
  0
VERTEX
  5
13B
330
101
100
AcDbEntity
  8
Guides
100
AcDbVertex
100
AcDb2dVertex
 10
213.5809847745532
 20
-42.40757200931969
 30
-0.0000004793760269
  0
VERTEX
  5
13C
330
101
100
AcDbEntity
  8
Guides
100
AcDbVertex
100
AcDb2dVertex
 10
213.5983797940845
 20
-42.44115660404626
 30
-0.0000004793760269
  0
VERTEX
  5
13D
330
101
100
AcDbEntity
  8
Guides
100
AcDbVertex
100
AcDb2dVertex
 10
213.6084200772876
 20
-42.47605345463219
 30
-0.0000004793760269
  0
VERTEX
  5
13E
330
101
100
AcDbEntity
  8
Guides
100
AcDbVertex
100
AcDb2dVertex
 10
213.6115481290454
 20
-42.51017210697594
 30
-0.0000004793760269
  0
VERTEX
  5
13F
330
101
100
AcDbEntity
  8
Guides
100
AcDbVertex
100
AcDb2dVertex
 10
213.6084200772876
 20
-42.54429075931969
 30
-0.0000004793760269
  0
VERTEX
  5
140
330
101
100
AcDbEntity
  8
Guides
100
AcDbVertex
100
AcDb2dVertex
 10
213.5983797940845
 20
-42.57918760990563
 30
-0.0000004793760269
  0
VERTEX
  5
141
330
101
100
AcDbEntity
  8
Guides
100
AcDbVertex
100
AcDb2dVertex
 10
213.5809847745532
 20
-42.61277220463219
 30
-0.0000004793760269
  0
VERTEX
  5
142
330
101
100
AcDbEntity
  8
Guides
100
AcDbVertex
100
AcDb2dVertex
 10
213.5566317472095
 20
-42.64275572514001
 30
-0.0000004793760269
  0
VERTEX
  5
143
330
101
100
AcDbEntity
  8
Guides
100
AcDbVertex
100
AcDb2dVertex
 10
213.5266482267016
 20
-42.66710875248376
 30
-0.0000004793760269
  0
VERTEX
  5
144
330
101
100
AcDbEntity
  8
Guides
100
AcDbVertex
100
AcDb2dVertex
 10
213.4930636319751
 20
-42.68450377201501
 30
-0.0000004793760269
  0
VERTEX
  5
145
330
101
100
AcDbEntity
  8
Guides
100
AcDbVertex
100
AcDb2dVertex
 10
213.4581667813891
 20
-42.69454405521813
 30
-0.0000004793760269
  0
SEQEND
  5
146
330
101
100
AcDbEntity
  8
Guides
  0
POLYLINE
  5
147
330
1F
100
AcDbEntity
  8
Guides
100
AcDb2dPolyline
 66
     1
 10
0.0
 20
0.0
 30
-0.0000004793760269
 70
     1
  0
VERTEX
  5
148
330
147
100
AcDbEntity
  8
Guides
100
AcDbVertex
100
AcDb2dVertex
 10
213.6311264587425
 20
-38.6976725771674
 30
-0.0000004793760269
  0
VERTEX
  5
149
330
147
100
AcDbEntity
  8
Guides
100
AcDbVertex
100
AcDb2dVertex
 10
213.6311264587425
 20
-39.4476725771674
 30
-0.0000004793760269
  0
VERTEX
  5
14A
330
147
100
AcDbEntity
  8
Guides
100
AcDbVertex
100
AcDb2dVertex
 10
213.6279984069847
 20
-39.48179122951115
 30
-0.0000004793760269
  0
VERTEX
  5
14B
330
147
100
AcDbEntity
  8
Guides
100
AcDbVertex
100
AcDb2dVertex
 10
213.6179581237815
 20
-39.51668808009708
 30
-0.0000004793760269
  0
VERTEX
  5
14C
330
147
100
AcDbEntity
  8
Guides
100
AcDbVertex
100
AcDb2dVertex
 10
213.6005631042503
 20
-39.55027267482365
 30
-0.0000004793760269
  0
VERTEX
  5
14D
330
147
100
AcDbEntity
  8
Guides
100
AcDbVertex
100
AcDb2dVertex
 10
213.5762100769065
 20
-39.58025619533146
 30
-0.0000004793760269
  0
VERTEX
  5
14E
330
147
100
AcDbEntity
  8
Guides
100
AcDbVertex
100
AcDb2dVertex
 10
213.5462265563987
 20
-39.60460922267521
 30
-0.0000004793760269
  0
VERTEX
  5
14F
330
147
100
AcDbEntity
  8
Guides
100
AcDbVertex
100
AcDb2dVertex
 10
213.5126419616722
 20
-39.62200424220646
 30
-0.0000004793760269
  0
VERTEX
  5
150
330
147
100
AcDbEntity
  8
Guides
100
AcDbVertex
100
AcDb2dVertex
 10
213.4777451110862
 20
-39.63204452540958
 30
-0.0000004793760269
  0
VERTEX
  5
151
330
147
100
AcDbEntity
  8
Guides
100
AcDbVertex
100
AcDb2dVertex
 10
213.4436264587425
 20
-39.6351725771674
 30
-0.0000004793760269
  0
VERTEX
  5
152
330
147
100
AcDbEntity
  8
Guides
100
AcDbVertex
100
AcDb2dVertex
 10
213.4095078063987
 20
-39.63204452540958
 30
-0.0000004793760269
  0
VERTEX
  5
153
330
147
100
AcDbEntity
  8
Guides
100
AcDbVertex
100
AcDb2dVertex
 10
213.3746109558128
 20
-39.62200424220646
 30
-0.0000004793760269
  0
VERTEX
  5
154
330
147
100
AcDbEntity
  8
Guides
100
AcDbVertex
100
AcDb2dVertex
 10
213.3410263610862
 20
-39.60460922267521
 30
-0.0000004793760269
  0
VERTEX
  5
155
330
147
100
AcDbEntity
  8
Guides
100
AcDbVertex
100
AcDb2dVertex
 10
213.3110428405784
 20
-39.58025619533146
 30
-0.0000004793760269
  0
VERTEX
  5
156
330
147
100
AcDbEntity
  8
Guides
100
AcDbVertex
100
AcDb2dVertex
 10
213.2866898132347
 20
-39.55027267482365
 30
-0.0000004793760269
  0
VERTEX
  5
157
330
147
100
AcDbEntity
  8
Guides
100
AcDbVertex
100
AcDb2dVertex
 10
213.2692947937034
 20
-39.51668808009708
 30
-0.0000004793760269
  0
VERTEX
  5
158
330
147
100
AcDbEntity
  8
Guides
100
AcDbVertex
100
AcDb2dVertex
 10
213.2592545105003
 20
-39.48179122951115
 30
-0.0000004793760269
  0
VERTEX
  5
159
330
147
100
AcDbEntity
  8
Guides
100
AcDbVertex
100
AcDb2dVertex
 10
213.2561264587425
 20
-39.4476725771674
 30
-0.0000004793760269
  0
VERTEX
  5
15A
330
147
100
AcDbEntity
  8
Guides
100
AcDbVertex
100
AcDb2dVertex
 10
212.0061264587425
 20
-39.4476725771674
 30
-0.0000004793760269
  0
VERTEX
  5
15B
330
147
100
AcDbEntity
  8
Guides
100
AcDbVertex
100
AcDb2dVertex
 10
212.0029984069847
 20
-39.48179122951115
 30
-0.0000004793760269
  0
VERTEX
  5
15C
330
147
100
AcDbEntity
  8
Guides
100
AcDbVertex
100
AcDb2dVertex
 10
211.9929581237815
 20
-39.51668808009708
 30
-0.0000004793760269
  0
VERTEX
  5
15D
330
147
100
AcDbEntity
  8
Guides
100
AcDbVertex
100
AcDb2dVertex
 10
211.9755631042503
 20
-39.55027267482365
 30
-0.0000004793760269
  0
VERTEX
  5
15E
330
147
100
AcDbEntity
  8
Guides
100
AcDbVertex
100
AcDb2dVertex
 10
211.9512100769065
 20
-39.58025619533146
 30
-0.0000004793760269
  0
VERTEX
  5
15F
330
147
100
AcDbEntity
  8
Guides
100
AcDbVertex
100
AcDb2dVertex
 10
211.9212265563987
 20
-39.60460922267521
 30
-0.0000004793760269
  0
VERTEX
  5
160
330
147
100
AcDbEntity
  8
Guides
100
AcDbVertex
100
AcDb2dVertex
 10
211.8876419616722
 20
-39.62200424220646
 30
-0.0000004793760269
  0
VERTEX
  5
161
330
147
100
AcDbEntity
  8
Guides
100
AcDbVertex
100
AcDb2dVertex
 10
211.8527451110862
 20
-39.63204452540958
 30
-0.0000004793760269
  0
VERTEX
  5
162
330
147
100
AcDbEntity
  8
Guides
100
AcDbVertex
100
AcDb2dVertex
 10
211.8186264587425
 20
-39.6351725771674
 30
-0.0000004793760269
  0
VERTEX
  5
163
330
147
100
AcDbEntity
  8
Guides
100
AcDbVertex
100
AcDb2dVertex
 10
211.7845078063987
 20
-39.63204452540958
 30
-0.0000004793760269
  0
VERTEX
  5
164
330
147
100
AcDbEntity
  8
Guides
100
AcDbVertex
100
AcDb2dVertex
 10
211.7496109558128
 20
-39.62200424220646
 30
-0.0000004793760269
  0
VERTEX
  5
165
330
147
100
AcDbEntity
  8
Guides
100
AcDbVertex
100
AcDb2dVertex
 10
211.7160263610862
 20
-39.60460922267521
 30
-0.0000004793760269
  0
VERTEX
  5
166
330
147
100
AcDbEntity
  8
Guides
100
AcDbVertex
100
AcDb2dVertex
 10
211.6860428405784
 20
-39.58025619533146
 30
-0.0000004793760269
  0
VERTEX
  5
167
330
147
100
AcDbEntity
  8
Guides
100
AcDbVertex
100
AcDb2dVertex
 10
211.6616898132347
 20
-39.55027267482365
 30
-0.0000004793760269
  0
VERTEX
  5
168
330
147
100
AcDbEntity
  8
Guides
100
AcDbVertex
100
AcDb2dVertex
 10
211.6442947937034
 20
-39.51668808009708
 30
-0.0000004793760269
  0
VERTEX
  5
169
330
147
100
AcDbEntity
  8
Guides
100
AcDbVertex
100
AcDb2dVertex
 10
211.6342545105003
 20
-39.48179122951115
 30
-0.0000004793760269
  0
VERTEX
  5
16A
330
147
100
AcDbEntity
  8
Guides
100
AcDbVertex
100
AcDb2dVertex
 10
211.6311264587425
 20
-39.4476725771674
 30
-0.0000004793760269
  0
VERTEX
  5
16B
330
147
100
AcDbEntity
  8
Guides
100
AcDbVertex
100
AcDb2dVertex
 10
211.6311264587425
 20
-38.6976725771674
 30
-0.0000004793760269
  0
VERTEX
  5
16C
330
147
100
AcDbEntity
  8
Guides
100
AcDbVertex
100
AcDb2dVertex
 10
211.6342545105003
 20
-38.66355392482365
 30
-0.0000004793760269
  0
VERTEX
  5
16D
330
147
100
AcDbEntity
  8
Guides
100
AcDbVertex
100
AcDb2dVertex
 10
211.6442947937034
 20
-38.62865707423771
 30
-0.0000004793760269
  0
VERTEX
  5
16E
330
147
100
AcDbEntity
  8
Guides
100
AcDbVertex
100
AcDb2dVertex
 10
211.6616898132347
 20
-38.59507247951115
 30
-0.0000004793760269
  0
VERTEX
  5
16F
330
147
100
AcDbEntity
  8
Guides
100
AcDbVertex
100
AcDb2dVertex
 10
211.6860428405784
 20
-38.56508895900333
 30
-0.0000004793760269
  0
VERTEX
  5
170
330
147
100
AcDbEntity
  8
Guides
100
AcDbVertex
100
AcDb2dVertex
 10
211.7160263610862
 20
-38.54073593165958
 30
-0.0000004793760269
  0
VERTEX
  5
171
330
147
100
AcDbEntity
  8
Guides
100
AcDbVertex
100
AcDb2dVertex
 10
211.7496109558128
 20
-38.52334091212833
 30
-0.0000004793760269
  0
VERTEX
  5
172
330
147
100
AcDbEntity
  8
Guides
100
AcDbVertex
100
AcDb2dVertex
 10
211.7845078063987
 20
-38.51330062892521
 30
-0.0000004793760269
  0
VERTEX
  5
173
330
147
100
AcDbEntity
  8
Guides
100
AcDbVertex
100
AcDb2dVertex
 10
211.8186264587425
 20
-38.5101725771674
 30
-0.0000004793760269
  0
VERTEX
  5
174
330
147
100
AcDbEntity
  8
Guides
100
AcDbVertex
100
AcDb2dVertex
 10
211.8527451110862
 20
-38.51330062892521
 30
-0.0000004793760269
  0
VERTEX
  5
175
330
147
100
AcDbEntity
  8
Guides
100
AcDbVertex
100
AcDb2dVertex
 10
211.8876419616722
 20
-38.52334091212833
 30
-0.0000004793760269
  0
VERTEX
  5
176
330
147
100
AcDbEntity
  8
Guides
100
AcDbVertex
100
AcDb2dVertex
 10
211.9212265563987
 20
-38.54073593165958
 30
-0.0000004793760269
  0
VERTEX
  5
177
330
147
100
AcDbEntity
  8
Guides
100
AcDbVertex
100
AcDb2dVertex
 10
211.9512100769065
 20
-38.56508895900333
 30
-0.0000004793760269
  0
VERTEX
  5
178
330
147
100
AcDbEntity
  8
Guides
100
AcDbVertex
100
AcDb2dVertex
 10
211.9755631042503
 20
-38.59507247951115
 30
-0.0000004793760269
  0
VERTEX
  5
179
330
147
100
AcDbEntity
  8
Guides
100
AcDbVertex
100
AcDb2dVertex
 10
211.9929581237815
 20
-38.62865707423771
 30
-0.0000004793760269
  0
VERTEX
  5
17A
330
147
100
AcDbEntity
  8
Guides
100
AcDbVertex
100
AcDb2dVertex
 10
212.0029984069847
 20
-38.66355392482365
 30
-0.0000004793760269
  0
VERTEX
  5
17B
330
147
100
AcDbEntity
  8
Guides
100
AcDbVertex
100
AcDb2dVertex
 10
212.0061264587425
 20
-38.6976725771674
 30
-0.0000004793760269
  0
VERTEX
  5
17C
330
147
100
AcDbEntity
  8
Guides
100
AcDbVertex
100
AcDb2dVertex
 10
213.2561264587425
 20
-38.6976725771674
 30
-0.0000004793760269
  0
VERTEX
  5
17D
330
147
100
AcDbEntity
  8
Guides
100
AcDbVertex
100
AcDb2dVertex
 10
213.2592545105003
 20
-38.66355392482365
 30
-0.0000004793760269
  0
VERTEX
  5
17E
330
147
100
AcDbEntity
  8
Guides
100
AcDbVertex
100
AcDb2dVertex
 10
213.2692947937034
 20
-38.62865707423771
 30
-0.0000004793760269
  0
VERTEX
  5
17F
330
147
100
AcDbEntity
  8
Guides
100
AcDbVertex
100
AcDb2dVertex
 10
213.2866898132347
 20
-38.59507247951115
 30
-0.0000004793760269
  0
VERTEX
  5
180
330
147
100
AcDbEntity
  8
Guides
100
AcDbVertex
100
AcDb2dVertex
 10
213.3110428405784
 20
-38.56508895900333
 30
-0.0000004793760269
  0
VERTEX
  5
181
330
147
100
AcDbEntity
  8
Guides
100
AcDbVertex
100
AcDb2dVertex
 10
213.3410263610862
 20
-38.54073593165958
 30
-0.0000004793760269
  0
VERTEX
  5
182
330
147
100
AcDbEntity
  8
Guides
100
AcDbVertex
100
AcDb2dVertex
 10
213.3746109558128
 20
-38.52334091212833
 30
-0.0000004793760269
  0
VERTEX
  5
183
330
147
100
AcDbEntity
  8
Guides
100
AcDbVertex
100
AcDb2dVertex
 10
213.4095078063987
 20
-38.51330062892521
 30
-0.0000004793760269
  0
VERTEX
  5
184
330
147
100
AcDbEntity
  8
Guides
100
AcDbVertex
100
AcDb2dVertex
 10
213.4436264587425
 20
-38.5101725771674
 30
-0.0000004793760269
  0
VERTEX
  5
185
330
147
100
AcDbEntity
  8
Guides
100
AcDbVertex
100
AcDb2dVertex
 10
213.4777451110862
 20
-38.51330062892521
 30
-0.0000004793760269
  0
VERTEX
  5
186
330
147
100
AcDbEntity
  8
Guides
100
AcDbVertex
100
AcDb2dVertex
 10
213.5126419616722
 20
-38.52334091212833
 30
-0.0000004793760269
  0
VERTEX
  5
187
330
147
100
AcDbEntity
  8
Guides
100
AcDbVertex
100
AcDb2dVertex
 10
213.5462265563987
 20
-38.54073593165958
 30
-0.0000004793760269
  0
VERTEX
  5
188
330
147
100
AcDbEntity
  8
Guides
100
AcDbVertex
100
AcDb2dVertex
 10
213.5762100769065
 20
-38.56508895900333
 30
-0.0000004793760269
  0
VERTEX
  5
189
330
147
100
AcDbEntity
  8
Guides
100
AcDbVertex
100
AcDb2dVertex
 10
213.6005631042503
 20
-38.59507247951115
 30
-0.0000004793760269
  0
VERTEX
  5
18A
330
147
100
AcDbEntity
  8
Guides
100
AcDbVertex
100
AcDb2dVertex
 10
213.6179581237815
 20
-38.62865707423771
 30
-0.0000004793760269
  0
VERTEX
  5
18B
330
147
100
AcDbEntity
  8
Guides
100
AcDbVertex
100
AcDb2dVertex
 10
213.6279984069847
 20
-38.66355392482365
 30
-0.0000004793760269
  0
SEQEND
  5
18C
330
147
100
AcDbEntity
  8
Guides
  0
POLYLINE
  5
18D
330
1F
100
AcDbEntity
  8
Guides
100
AcDb2dPolyline
 66
     1
 10
0.0
 20
0.0
 30
-0.0000004793760269
 70
     1
  0
VERTEX
  5
18E
330
18D
100
AcDbEntity
  8
Guides
100
AcDbVertex
100
AcDb2dVertex
 10
215.1740494323753
 20
-43.6976725771674
 30
-0.0000004793760269
  0
VERTEX
  5
18F
330
18D
100
AcDbEntity
  8
Guides
100
AcDbVertex
100
AcDb2dVertex
 10
215.1740494323753
 20
-37.6976725771674
 30
-0.0000004793760269
  0
VERTEX
  5
190
330
18D
100
AcDbEntity
  8
Guides
100
AcDbVertex
100
AcDb2dVertex
 10
210.0882034851097
 20
-37.6976725771674
 30
-0.0000004793760269
  0
VERTEX
  5
191
330
18D
100
AcDbEntity
  8
Guides
100
AcDbVertex
100
AcDb2dVertex
 10
210.0882034851097
 20
-43.6976725771674
 30
-0.0000004793760269
  0
SEQEND
  5
192
330
18D
100
AcDbEntity
  8
Guides
  0
POLYLINE
  5
193
330
1F
100
AcDbEntity
  8
Guides
100
AcDb2dPolyline
 66
     1
 10
0.0
 20
0.0
 30
-0.0000004793760269
 70
     1
  0
VERTEX
  5
194
330
193
100
AcDbEntity
  8
Guides
100
AcDbVertex
100
AcDb2dVertex
 10
206.189861746129
 20
-38.69767304735885
 30
-0.0000004793760269
  0
VERTEX
  5
195
330
193
100
AcDbEntity
  8
Guides
100
AcDbVertex
100
AcDb2dVertex
 10
206.939861746129
 20
-38.69767304735885
 30
-0.0000004793760269
  0
VERTEX
  5
196
330
193
100
AcDbEntity
  8
Guides
100
AcDbVertex
100
AcDb2dVertex
 10
206.9739803984727
 20
-38.70080109911666
 30
-0.0000004793760269
  0
VERTEX
  5
197
330
193
100
AcDbEntity
  8
Guides
100
AcDbVertex
100
AcDb2dVertex
 10
207.0088772490587
 20
-38.71084138231978
 30
-0.0000004793760269
  0
VERTEX
  5
198
330
193
100
AcDbEntity
  8
Guides
100
AcDbVertex
100
AcDb2dVertex
 10
207.0424618437852
 20
-38.72823640185103
 30
-0.0000004793760269
  0
VERTEX
  5
199
330
193
100
AcDbEntity
  8
Guides
100
AcDbVertex
100
AcDb2dVertex
 10
207.0724453642931
 20
-38.75258942919478
 30
-0.0000004793760269
  0
VERTEX
  5
19A
330
193
100
AcDbEntity
  8
Guides
100
AcDbVertex
100
AcDb2dVertex
 10
207.0967983916368
 20
-38.7825729497026
 30
-0.0000004793760269
  0
VERTEX
  5
19B
330
193
100
AcDbEntity
  8
Guides
100
AcDbVertex
100
AcDb2dVertex
 10
207.1141934111681
 20
-38.81615754442916
 30
-0.0000004793760269
  0
VERTEX
  5
19C
330
193
100
AcDbEntity
  8
Guides
100
AcDbVertex
100
AcDb2dVertex
 10
207.1242336943712
 20
-38.8510543950151
 30
-0.0000004793760269
  0
VERTEX
  5
19D
330
193
100
AcDbEntity
  8
Guides
100
AcDbVertex
100
AcDb2dVertex
 10
207.127361746129
 20
-38.88517304735885
 30
-0.0000004793760269
  0
VERTEX
  5
19E
330
193
100
AcDbEntity
  8
Guides
100
AcDbVertex
100
AcDb2dVertex
 10
207.1242336943712
 20
-38.9192916997026
 30
-0.0000004793760269
  0
VERTEX
  5
19F
330
193
100
AcDbEntity
  8
Guides
100
AcDbVertex
100
AcDb2dVertex
 10
207.1141934111681
 20
-38.95418855028853
 30
-0.0000004793760269
  0
VERTEX
  5
1A0
330
193
100
AcDbEntity
  8
Guides
100
AcDbVertex
100
AcDb2dVertex
 10
207.0967983916368
 20
-38.9877731450151
 30
-0.0000004793760269
  0
VERTEX
  5
1A1
330
193
100
AcDbEntity
  8
Guides
100
AcDbVertex
100
AcDb2dVertex
 10
207.0724453642931
 20
-39.01775666552291
 30
-0.0000004793760269
  0
VERTEX
  5
1A2
330
193
100
AcDbEntity
  8
Guides
100
AcDbVertex
100
AcDb2dVertex
 10
207.0424618437852
 20
-39.04210969286666
 30
-0.0000004793760269
  0
VERTEX
  5
1A3
330
193
100
AcDbEntity
  8
Guides
100
AcDbVertex
100
AcDb2dVertex
 10
207.0088772490587
 20
-39.05950471239791
 30
-0.0000004793760269
  0
VERTEX
  5
1A4
330
193
100
AcDbEntity
  8
Guides
100
AcDbVertex
100
AcDb2dVertex
 10
206.9739803984727
 20
-39.06954499560103
 30
-0.0000004793760269
  0
VERTEX
  5
1A5
330
193
100
AcDbEntity
  8
Guides
100
AcDbVertex
100
AcDb2dVertex
 10
206.939861746129
 20
-39.07267304735885
 30
-0.0000004793760269
  0
VERTEX
  5
1A6
330
193
100
AcDbEntity
  8
Guides
100
AcDbVertex
100
AcDb2dVertex
 10
206.939861746129
 20
-40.32267304735885
 30
-0.0000004793760269
  0
VERTEX
  5
1A7
330
193
100
AcDbEntity
  8
Guides
100
AcDbVertex
100
AcDb2dVertex
 10
206.9739803984727
 20
-40.32580109911666
 30
-0.0000004793760269
  0
VERTEX
  5
1A8
330
193
100
AcDbEntity
  8
Guides
100
AcDbVertex
100
AcDb2dVertex
 10
207.0088772490587
 20
-40.33584138231978
 30
-0.0000004793760269
  0
VERTEX
  5
1A9
330
193
100
AcDbEntity
  8
Guides
100
AcDbVertex
100
AcDb2dVertex
 10
207.0424618437852
 20
-40.35323640185103
 30
-0.0000004793760269
  0
VERTEX
  5
1AA
330
193
100
AcDbEntity
  8
Guides
100
AcDbVertex
100
AcDb2dVertex
 10
207.0724453642931
 20
-40.37758942919478
 30
-0.0000004793760269
  0
VERTEX
  5
1AB
330
193
100
AcDbEntity
  8
Guides
100
AcDbVertex
100
AcDb2dVertex
 10
207.0967983916368
 20
-40.4075729497026
 30
-0.0000004793760269
  0
VERTEX
  5
1AC
330
193
100
AcDbEntity
  8
Guides
100
AcDbVertex
100
AcDb2dVertex
 10
207.1141934111681
 20
-40.44115754442916
 30
-0.0000004793760269
  0
VERTEX
  5
1AD
330
193
100
AcDbEntity
  8
Guides
100
AcDbVertex
100
AcDb2dVertex
 10
207.1242336943712
 20
-40.4760543950151
 30
-0.0000004793760269
  0
VERTEX
  5
1AE
330
193
100
AcDbEntity
  8
Guides
100
AcDbVertex
100
AcDb2dVertex
 10
207.127361746129
 20
-40.51017304735885
 30
-0.0000004793760269
  0
VERTEX
  5
1AF
330
193
100
AcDbEntity
  8
Guides
100
AcDbVertex
100
AcDb2dVertex
 10
207.1242336943712
 20
-40.5442916997026
 30
-0.0000004793760269
  0
VERTEX
  5
1B0
330
193
100
AcDbEntity
  8
Guides
100
AcDbVertex
100
AcDb2dVertex
 10
207.1141934111681
 20
-40.57918855028853
 30
-0.0000004793760269
  0
VERTEX
  5
1B1
330
193
100
AcDbEntity
  8
Guides
100
AcDbVertex
100
AcDb2dVertex
 10
207.0967983916368
 20
-40.6127731450151
 30
-0.0000004793760269
  0
VERTEX
  5
1B2
330
193
100
AcDbEntity
  8
Guides
100
AcDbVertex
100
AcDb2dVertex
 10
207.0724453642931
 20
-40.64275666552291
 30
-0.0000004793760269
  0
VERTEX
  5
1B3
330
193
100
AcDbEntity
  8
Guides
100
AcDbVertex
100
AcDb2dVertex
 10
207.0424618437852
 20
-40.66710969286666
 30
-0.0000004793760269
  0
VERTEX
  5
1B4
330
193
100
AcDbEntity
  8
Guides
100
AcDbVertex
100
AcDb2dVertex
 10
207.0088772490587
 20
-40.68450471239791
 30
-0.0000004793760269
  0
VERTEX
  5
1B5
330
193
100
AcDbEntity
  8
Guides
100
AcDbVertex
100
AcDb2dVertex
 10
206.9739803984727
 20
-40.69454499560103
 30
-0.0000004793760269
  0
VERTEX
  5
1B6
330
193
100
AcDbEntity
  8
Guides
100
AcDbVertex
100
AcDb2dVertex
 10
206.939861746129
 20
-40.69767304735885
 30
-0.0000004793760269
  0
VERTEX
  5
1B7
330
193
100
AcDbEntity
  8
Guides
100
AcDbVertex
100
AcDb2dVertex
 10
206.189861746129
 20
-40.69767304735885
 30
-0.0000004793760269
  0
VERTEX
  5
1B8
330
193
100
AcDbEntity
  8
Guides
100
AcDbVertex
100
AcDb2dVertex
 10
206.1557430937852
 20
-40.69454499560103
 30
-0.0000004793760269
  0
VERTEX
  5
1B9
330
193
100
AcDbEntity
  8
Guides
100
AcDbVertex
100
AcDb2dVertex
 10
206.1208462431993
 20
-40.68450471239791
 30
-0.0000004793760269
  0
VERTEX
  5
1BA
330
193
100
AcDbEntity
  8
Guides
100
AcDbVertex
100
AcDb2dVertex
 10
206.0872616484727
 20
-40.66710969286666
 30
-0.0000004793760269
  0
VERTEX
  5
1BB
330
193
100
AcDbEntity
  8
Guides
100
AcDbVertex
100
AcDb2dVertex
 10
206.0572781279649
 20
-40.64275666552291
 30
-0.0000004793760269
  0
VERTEX
  5
1BC
330
193
100
AcDbEntity
  8
Guides
100
AcDbVertex
100
AcDb2dVertex
 10
206.0329251006212
 20
-40.6127731450151
 30
-0.0000004793760269
  0
VERTEX
  5
1BD
330
193
100
AcDbEntity
  8
Guides
100
AcDbVertex
100
AcDb2dVertex
 10
206.0155300810899
 20
-40.57918855028853
 30
-0.0000004793760269
  0
VERTEX
  5
1BE
330
193
100
AcDbEntity
  8
Guides
100
AcDbVertex
100
AcDb2dVertex
 10
206.0054897978868
 20
-40.5442916997026
 30
-0.0000004793760269
  0
VERTEX
  5
1BF
330
193
100
AcDbEntity
  8
Guides
100
AcDbVertex
100
AcDb2dVertex
 10
206.002361746129
 20
-40.51017304735885
 30
-0.0000004793760269
  0
VERTEX
  5
1C0
330
193
100
AcDbEntity
  8
Guides
100
AcDbVertex
100
AcDb2dVertex
 10
206.0054897978868
 20
-40.4760543950151
 30
-0.0000004793760269
  0
VERTEX
  5
1C1
330
193
100
AcDbEntity
  8
Guides
100
AcDbVertex
100
AcDb2dVertex
 10
206.0155300810899
 20
-40.44115754442916
 30
-0.0000004793760269
  0
VERTEX
  5
1C2
330
193
100
AcDbEntity
  8
Guides
100
AcDbVertex
100
AcDb2dVertex
 10
206.0329251006212
 20
-40.4075729497026
 30
-0.0000004793760269
  0
VERTEX
  5
1C3
330
193
100
AcDbEntity
  8
Guides
100
AcDbVertex
100
AcDb2dVertex
 10
206.0572781279649
 20
-40.37758942919478
 30
-0.0000004793760269
  0
VERTEX
  5
1C4
330
193
100
AcDbEntity
  8
Guides
100
AcDbVertex
100
AcDb2dVertex
 10
206.0872616484727
 20
-40.35323640185103
 30
-0.0000004793760269
  0
VERTEX
  5
1C5
330
193
100
AcDbEntity
  8
Guides
100
AcDbVertex
100
AcDb2dVertex
 10
206.1208462431993
 20
-40.33584138231978
 30
-0.0000004793760269
  0
VERTEX
  5
1C6
330
193
100
AcDbEntity
  8
Guides
100
AcDbVertex
100
AcDb2dVertex
 10
206.1557430937852
 20
-40.32580109911666
 30
-0.0000004793760269
  0
VERTEX
  5
1C7
330
193
100
AcDbEntity
  8
Guides
100
AcDbVertex
100
AcDb2dVertex
 10
206.189861746129
 20
-40.32267304735885
 30
-0.0000004793760269
  0
VERTEX
  5
1C8
330
193
100
AcDbEntity
  8
Guides
100
AcDbVertex
100
AcDb2dVertex
 10
206.189861746129
 20
-39.07267304735885
 30
-0.0000004793760269
  0
VERTEX
  5
1C9
330
193
100
AcDbEntity
  8
Guides
100
AcDbVertex
100
AcDb2dVertex
 10
206.1557430937852
 20
-39.06954499560103
 30
-0.0000004793760269
  0
VERTEX
  5
1CA
330
193
100
AcDbEntity
  8
Guides
100
AcDbVertex
100
AcDb2dVertex
 10
206.1208462431993
 20
-39.05950471239791
 30
-0.0000004793760269
  0
VERTEX
  5
1CB
330
193
100
AcDbEntity
  8
Guides
100
AcDbVertex
100
AcDb2dVertex
 10
206.0872616484727
 20
-39.04210969286666
 30
-0.0000004793760269
  0
VERTEX
  5
1CC
330
193
100
AcDbEntity
  8
Guides
100
AcDbVertex
100
AcDb2dVertex
 10
206.0572781279649
 20
-39.01775666552291
 30
-0.0000004793760269
  0
VERTEX
  5
1CD
330
193
100
AcDbEntity
  8
Guides
100
AcDbVertex
100
AcDb2dVertex
 10
206.0329251006212
 20
-38.9877731450151
 30
-0.0000004793760269
  0
VERTEX
  5
1CE
330
193
100
AcDbEntity
  8
Guides
100
AcDbVertex
100
AcDb2dVertex
 10
206.0155300810899
 20
-38.95418855028853
 30
-0.0000004793760269
  0
VERTEX
  5
1CF
330
193
100
AcDbEntity
  8
Guides
100
AcDbVertex
100
AcDb2dVertex
 10
206.0054897978868
 20
-38.9192916997026
 30
-0.0000004793760269
  0
VERTEX
  5
1D0
330
193
100
AcDbEntity
  8
Guides
100
AcDbVertex
100
AcDb2dVertex
 10
206.002361746129
 20
-38.88517304735885
 30
-0.0000004793760269
  0
VERTEX
  5
1D1
330
193
100
AcDbEntity
  8
Guides
100
AcDbVertex
100
AcDb2dVertex
 10
206.0054897978868
 20
-38.8510543950151
 30
-0.0000004793760269
  0
VERTEX
  5
1D2
330
193
100
AcDbEntity
  8
Guides
100
AcDbVertex
100
AcDb2dVertex
 10
206.0155300810899
 20
-38.81615754442916
 30
-0.0000004793760269
  0
VERTEX
  5
1D3
330
193
100
AcDbEntity
  8
Guides
100
AcDbVertex
100
AcDb2dVertex
 10
206.0329251006212
 20
-38.7825729497026
 30
-0.0000004793760269
  0
VERTEX
  5
1D4
330
193
100
AcDbEntity
  8
Guides
100
AcDbVertex
100
AcDb2dVertex
 10
206.0572781279649
 20
-38.75258942919478
 30
-0.0000004793760269
  0
VERTEX
  5
1D5
330
193
100
AcDbEntity
  8
Guides
100
AcDbVertex
100
AcDb2dVertex
 10
206.0872616484727
 20
-38.72823640185103
 30
-0.0000004793760269
  0
VERTEX
  5
1D6
330
193
100
AcDbEntity
  8
Guides
100
AcDbVertex
100
AcDb2dVertex
 10
206.1208462431993
 20
-38.71084138231978
 30
-0.0000004793760269
  0
VERTEX
  5
1D7
330
193
100
AcDbEntity
  8
Guides
100
AcDbVertex
100
AcDb2dVertex
 10
206.1557430937852
 20
-38.70080109911666
 30
-0.0000004793760269
  0
SEQEND
  5
1D8
330
193
100
AcDbEntity
  8
Guides
  0
POLYLINE
  5
1D9
330
1F
100
AcDbEntity
  8
Guides
100
AcDb2dPolyline
 66
     1
 10
0.0
 20
0.0
 30
-0.0000004793760269
 70
     1
  0
VERTEX
  5
1DA
330
1D9
100
AcDbEntity
  8
Guides
100
AcDbVertex
100
AcDb2dVertex
 10
205.9827834164319
 20
-42.6976725771674
 30
-0.0000004793760269
  0
VERTEX
  5
1DB
330
1D9
100
AcDbEntity
  8
Guides
100
AcDbVertex
100
AcDb2dVertex
 10
205.9827834164319
 20
-41.9476725771674
 30
-0.0000004793760269
  0
VERTEX
  5
1DC
330
1D9
100
AcDbEntity
  8
Guides
100
AcDbVertex
100
AcDb2dVertex
 10
205.9859114681897
 20
-41.91355392482365
 30
-0.0000004793760269
  0
VERTEX
  5
1DD
330
1D9
100
AcDbEntity
  8
Guides
100
AcDbVertex
100
AcDb2dVertex
 10
205.9959517513929
 20
-41.87865707423771
 30
-0.0000004793760269
  0
VERTEX
  5
1DE
330
1D9
100
AcDbEntity
  8
Guides
100
AcDbVertex
100
AcDb2dVertex
 10
206.0133467709241
 20
-41.84507247951115
 30
-0.0000004793760269
  0
VERTEX
  5
1DF
330
1D9
100
AcDbEntity
  8
Guides
100
AcDbVertex
100
AcDb2dVertex
 10
206.0376997982679
 20
-41.81508895900333
 30
-0.0000004793760269
  0
VERTEX
  5
1E0
330
1D9
100
AcDbEntity
  8
Guides
100
AcDbVertex
100
AcDb2dVertex
 10
206.0676833187757
 20
-41.79073593165958
 30
-0.0000004793760269
  0
VERTEX
  5
1E1
330
1D9
100
AcDbEntity
  8
Guides
100
AcDbVertex
100
AcDb2dVertex
 10
206.1012679135022
 20
-41.77334091212833
 30
-0.0000004793760269
  0
VERTEX
  5
1E2
330
1D9
100
AcDbEntity
  8
Guides
100
AcDbVertex
100
AcDb2dVertex
 10
206.1361647640882
 20
-41.76330062892521
 30
-0.0000004793760269
  0
VERTEX
  5
1E3
330
1D9
100
AcDbEntity
  8
Guides
100
AcDbVertex
100
AcDb2dVertex
 10
206.1702834164319
 20
-41.7601725771674
 30
-0.0000004793760269
  0
VERTEX
  5
1E4
330
1D9
100
AcDbEntity
  8
Guides
100
AcDbVertex
100
AcDb2dVertex
 10
206.2044020687757
 20
-41.76330062892521
 30
-0.0000004793760269
  0
VERTEX
  5
1E5
330
1D9
100
AcDbEntity
  8
Guides
100
AcDbVertex
100
AcDb2dVertex
 10
206.2392989193616
 20
-41.77334091212833
 30
-0.0000004793760269
  0
VERTEX
  5
1E6
330
1D9
100
AcDbEntity
  8
Guides
100
AcDbVertex
100
AcDb2dVertex
 10
206.2728835140882
 20
-41.79073593165958
 30
-0.0000004793760269
  0
VERTEX
  5
1E7
330
1D9
100
AcDbEntity
  8
Guides
100
AcDbVertex
100
AcDb2dVertex
 10
206.302867034596
 20
-41.81508895900333
 30
-0.0000004793760269
  0
VERTEX
  5
1E8
330
1D9
100
AcDbEntity
  8
Guides
100
AcDbVertex
100
AcDb2dVertex
 10
206.3272200619397
 20
-41.84507247951115
 30
-0.0000004793760269
  0
VERTEX
  5
1E9
330
1D9
100
AcDbEntity
  8
Guides
100
AcDbVertex
100
AcDb2dVertex
 10
206.344615081471
 20
-41.87865707423771
 30
-0.0000004793760269
  0
VERTEX
  5
1EA
330
1D9
100
AcDbEntity
  8
Guides
100
AcDbVertex
100
AcDb2dVertex
 10
206.3546553646741
 20
-41.91355392482365
 30
-0.0000004793760269
  0
VERTEX
  5
1EB
330
1D9
100
AcDbEntity
  8
Guides
100
AcDbVertex
100
AcDb2dVertex
 10
206.3577834164319
 20
-41.9476725771674
 30
-0.0000004793760269
  0
VERTEX
  5
1EC
330
1D9
100
AcDbEntity
  8
Guides
100
AcDbVertex
100
AcDb2dVertex
 10
207.6077834164319
 20
-41.9476725771674
 30
-0.0000004793760269
  0
VERTEX
  5
1ED
330
1D9
100
AcDbEntity
  8
Guides
100
AcDbVertex
100
AcDb2dVertex
 10
207.6109114681897
 20
-41.91355392482365
 30
-0.0000004793760269
  0
VERTEX
  5
1EE
330
1D9
100
AcDbEntity
  8
Guides
100
AcDbVertex
100
AcDb2dVertex
 10
207.6209517513929
 20
-41.87865707423771
 30
-0.0000004793760269
  0
VERTEX
  5
1EF
330
1D9
100
AcDbEntity
  8
Guides
100
AcDbVertex
100
AcDb2dVertex
 10
207.6383467709241
 20
-41.84507247951115
 30
-0.0000004793760269
  0
VERTEX
  5
1F0
330
1D9
100
AcDbEntity
  8
Guides
100
AcDbVertex
100
AcDb2dVertex
 10
207.6626997982679
 20
-41.81508895900333
 30
-0.0000004793760269
  0
VERTEX
  5
1F1
330
1D9
100
AcDbEntity
  8
Guides
100
AcDbVertex
100
AcDb2dVertex
 10
207.6926833187757
 20
-41.79073593165958
 30
-0.0000004793760269
  0
VERTEX
  5
1F2
330
1D9
100
AcDbEntity
  8
Guides
100
AcDbVertex
100
AcDb2dVertex
 10
207.7262679135022
 20
-41.77334091212833
 30
-0.0000004793760269
  0
VERTEX
  5
1F3
330
1D9
100
AcDbEntity
  8
Guides
100
AcDbVertex
100
AcDb2dVertex
 10
207.7611647640882
 20
-41.76330062892521
 30
-0.0000004793760269
  0
VERTEX
  5
1F4
330
1D9
100
AcDbEntity
  8
Guides
100
AcDbVertex
100
AcDb2dVertex
 10
207.7952834164319
 20
-41.7601725771674
 30
-0.0000004793760269
  0
VERTEX
  5
1F5
330
1D9
100
AcDbEntity
  8
Guides
100
AcDbVertex
100
AcDb2dVertex
 10
207.8294020687757
 20
-41.76330062892521
 30
-0.0000004793760269
  0
VERTEX
  5
1F6
330
1D9
100
AcDbEntity
  8
Guides
100
AcDbVertex
100
AcDb2dVertex
 10
207.8642989193616
 20
-41.77334091212833
 30
-0.0000004793760269
  0
VERTEX
  5
1F7
330
1D9
100
AcDbEntity
  8
Guides
100
AcDbVertex
100
AcDb2dVertex
 10
207.8978835140882
 20
-41.79073593165958
 30
-0.0000004793760269
  0
VERTEX
  5
1F8
330
1D9
100
AcDbEntity
  8
Guides
100
AcDbVertex
100
AcDb2dVertex
 10
207.927867034596
 20
-41.81508895900333
 30
-0.0000004793760269
  0
VERTEX
  5
1F9
330
1D9
100
AcDbEntity
  8
Guides
100
AcDbVertex
100
AcDb2dVertex
 10
207.9522200619397
 20
-41.84507247951115
 30
-0.0000004793760269
  0
VERTEX
  5
1FA
330
1D9
100
AcDbEntity
  8
Guides
100
AcDbVertex
100
AcDb2dVertex
 10
207.969615081471
 20
-41.87865707423771
 30
-0.0000004793760269
  0
VERTEX
  5
1FB
330
1D9
100
AcDbEntity
  8
Guides
100
AcDbVertex
100
AcDb2dVertex
 10
207.9796553646741
 20
-41.91355392482365
 30
-0.0000004793760269
  0
VERTEX
  5
1FC
330
1D9
100
AcDbEntity
  8
Guides
100
AcDbVertex
100
AcDb2dVertex
 10
207.9827834164319
 20
-41.9476725771674
 30
-0.0000004793760269
  0
VERTEX
  5
1FD
330
1D9
100
AcDbEntity
  8
Guides
100
AcDbVertex
100
AcDb2dVertex
 10
207.9827834164319
 20
-42.6976725771674
 30
-0.0000004793760269
  0
VERTEX
  5
1FE
330
1D9
100
AcDbEntity
  8
Guides
100
AcDbVertex
100
AcDb2dVertex
 10
207.9796553646741
 20
-42.73179122951115
 30
-0.0000004793760269
  0
VERTEX
  5
1FF
330
1D9
100
AcDbEntity
  8
Guides
100
AcDbVertex
100
AcDb2dVertex
 10
207.969615081471
 20
-42.76668808009708
 30
-0.0000004793760269
  0
VERTEX
  5
200
330
1D9
100
AcDbEntity
  8
Guides
100
AcDbVertex
100
AcDb2dVertex
 10
207.9522200619397
 20
-42.80027267482365
 30
-0.0000004793760269
  0
VERTEX
  5
201
330
1D9
100
AcDbEntity
  8
Guides
100
AcDbVertex
100
AcDb2dVertex
 10
207.927867034596
 20
-42.83025619533146
 30
-0.0000004793760269
  0
VERTEX
  5
202
330
1D9
100
AcDbEntity
  8
Guides
100
AcDbVertex
100
AcDb2dVertex
 10
207.8978835140882
 20
-42.85460922267521
 30
-0.0000004793760269
  0
VERTEX
  5
203
330
1D9
100
AcDbEntity
  8
Guides
100
AcDbVertex
100
AcDb2dVertex
 10
207.8642989193616
 20
-42.87200424220646
 30
-0.0000004793760269
  0
VERTEX
  5
204
330
1D9
100
AcDbEntity
  8
Guides
100
AcDbVertex
100
AcDb2dVertex
 10
207.8294020687757
 20
-42.88204452540958
 30
-0.0000004793760269
  0
VERTEX
  5
205
330
1D9
100
AcDbEntity
  8
Guides
100
AcDbVertex
100
AcDb2dVertex
 10
207.7952834164319
 20
-42.8851725771674
 30
-0.0000004793760269
  0
VERTEX
  5
206
330
1D9
100
AcDbEntity
  8
Guides
100
AcDbVertex
100
AcDb2dVertex
 10
207.7611647640882
 20
-42.88204452540958
 30
-0.0000004793760269
  0
VERTEX
  5
207
330
1D9
100
AcDbEntity
  8
Guides
100
AcDbVertex
100
AcDb2dVertex
 10
207.7262679135022
 20
-42.87200424220646
 30
-0.0000004793760269
  0
VERTEX
  5
208
330
1D9
100
AcDbEntity
  8
Guides
100
AcDbVertex
100
AcDb2dVertex
 10
207.6926833187757
 20
-42.85460922267521
 30
-0.0000004793760269
  0
VERTEX
  5
209
330
1D9
100
AcDbEntity
  8
Guides
100
AcDbVertex
100
AcDb2dVertex
 10
207.6626997982679
 20
-42.83025619533146
 30
-0.0000004793760269
  0
VERTEX
  5
20A
330
1D9
100
AcDbEntity
  8
Guides
100
AcDbVertex
100
AcDb2dVertex
 10
207.6383467709241
 20
-42.80027267482365
 30
-0.0000004793760269
  0
VERTEX
  5
20B
330
1D9
100
AcDbEntity
  8
Guides
100
AcDbVertex
100
AcDb2dVertex
 10
207.6209517513929
 20
-42.76668808009708
 30
-0.0000004793760269
  0
VERTEX
  5
20C
330
1D9
100
AcDbEntity
  8
Guides
100
AcDbVertex
100
AcDb2dVertex
 10
207.6109114681897
 20
-42.73179122951115
 30
-0.0000004793760269
  0
VERTEX
  5
20D
330
1D9
100
AcDbEntity
  8
Guides
100
AcDbVertex
100
AcDb2dVertex
 10
207.6077834164319
 20
-42.6976725771674
 30
-0.0000004793760269
  0
VERTEX
  5
20E
330
1D9
100
AcDbEntity
  8
Guides
100
AcDbVertex
100
AcDb2dVertex
 10
206.3577834164319
 20
-42.6976725771674
 30
-0.0000004793760269
  0
VERTEX
  5
20F
330
1D9
100
AcDbEntity
  8
Guides
100
AcDbVertex
100
AcDb2dVertex
 10
206.3546553646741
 20
-42.73179122951115
 30
-0.0000004793760269
  0
VERTEX
  5
210
330
1D9
100
AcDbEntity
  8
Guides
100
AcDbVertex
100
AcDb2dVertex
 10
206.344615081471
 20
-42.76668808009708
 30
-0.0000004793760269
  0
VERTEX
  5
211
330
1D9
100
AcDbEntity
  8
Guides
100
AcDbVertex
100
AcDb2dVertex
 10
206.3272200619397
 20
-42.80027267482365
 30
-0.0000004793760269
  0
VERTEX
  5
212
330
1D9
100
AcDbEntity
  8
Guides
100
AcDbVertex
100
AcDb2dVertex
 10
206.302867034596
 20
-42.83025619533146
 30
-0.0000004793760269
  0
VERTEX
  5
213
330
1D9
100
AcDbEntity
  8
Guides
100
AcDbVertex
100
AcDb2dVertex
 10
206.2728835140882
 20
-42.85460922267521
 30
-0.0000004793760269
  0
VERTEX
  5
214
330
1D9
100
AcDbEntity
  8
Guides
100
AcDbVertex
100
AcDb2dVertex
 10
206.2392989193616
 20
-42.87200424220646
 30
-0.0000004793760269
  0
VERTEX
  5
215
330
1D9
100
AcDbEntity
  8
Guides
100
AcDbVertex
100
AcDb2dVertex
 10
206.2044020687757
 20
-42.88204452540958
 30
-0.0000004793760269
  0
VERTEX
  5
216
330
1D9
100
AcDbEntity
  8
Guides
100
AcDbVertex
100
AcDb2dVertex
 10
206.1702834164319
 20
-42.8851725771674
 30
-0.0000004793760269
  0
VERTEX
  5
217
330
1D9
100
AcDbEntity
  8
Guides
100
AcDbVertex
100
AcDb2dVertex
 10
206.1361647640882
 20
-42.88204452540958
 30
-0.0000004793760269
  0
VERTEX
  5
218
330
1D9
100
AcDbEntity
  8
Guides
100
AcDbVertex
100
AcDb2dVertex
 10
206.1012679135022
 20
-42.87200424220646
 30
-0.0000004793760269
  0
VERTEX
  5
219
330
1D9
100
AcDbEntity
  8
Guides
100
AcDbVertex
100
AcDb2dVertex
 10
206.0676833187757
 20
-42.85460922267521
 30
-0.0000004793760269
  0
VERTEX
  5
21A
330
1D9
100
AcDbEntity
  8
Guides
100
AcDbVertex
100
AcDb2dVertex
 10
206.0376997982679
 20
-42.83025619533146
 30
-0.0000004793760269
  0
VERTEX
  5
21B
330
1D9
100
AcDbEntity
  8
Guides
100
AcDbVertex
100
AcDb2dVertex
 10
206.0133467709241
 20
-42.80027267482365
 30
-0.0000004793760269
  0
VERTEX
  5
21C
330
1D9
100
AcDbEntity
  8
Guides
100
AcDbVertex
100
AcDb2dVertex
 10
205.9959517513929
 20
-42.76668808009708
 30
-0.0000004793760269
  0
VERTEX
  5
21D
330
1D9
100
AcDbEntity
  8
Guides
100
AcDbVertex
100
AcDb2dVertex
 10
205.9859114681897
 20
-42.73179122951115
 30
-0.0000004793760269
  0
SEQEND
  5
21E
330
1D9
100
AcDbEntity
  8
Guides
  0
POLYLINE
  5
21F
330
1F
100
AcDbEntity
  8
Guides
100
AcDb2dPolyline
 66
     1
 10
0.0
 20
0.0
 30
-0.0000004793760269
 70
     1
  0
VERTEX
  5
220
330
21F
100
AcDbEntity
  8
Guides
100
AcDbVertex
100
AcDb2dVertex
 10
204.4398604427991
 20
-37.6976725771674
 30
-0.0000004793760269
  0
VERTEX
  5
221
330
21F
100
AcDbEntity
  8
Guides
100
AcDbVertex
100
AcDb2dVertex
 10
204.4398604427991
 20
-43.6976725771674
 30
-0.0000004793760269
  0
VERTEX
  5
222
330
21F
100
AcDbEntity
  8
Guides
100
AcDbVertex
100
AcDb2dVertex
 10
209.5257063900647
 20
-43.6976725771674
 30
-0.0000004793760269
  0
VERTEX
  5
223
330
21F
100
AcDbEntity
  8
Guides
100
AcDbVertex
100
AcDb2dVertex
 10
209.5257063900647
 20
-37.6976725771674
 30
-0.0000004793760269
  0
SEQEND
  5
224
330
21F
100
AcDbEntity
  8
Guides
  0
POLYLINE
  5
225
330
1F
100
AcDbEntity
  8
Guides
100
AcDb2dPolyline
 66
     1
 10
0.0
 20
0.0
 30
-0.0000004793760269
 70
     1
  0
VERTEX
  5
226
330
225
100
AcDbEntity
  8
Guides
100
AcDbVertex
100
AcDb2dVertex
 10
198.7915174004885
 20
-43.6976725771674
 30
-0.0000004793760269
  0
VERTEX
  5
227
330
225
100
AcDbEntity
  8
Guides
100
AcDbVertex
100
AcDb2dVertex
 10
198.7915174004885
 20
-37.6976725771674
 30
-0.0000004793760269
  0
VERTEX
  5
228
330
225
100
AcDbEntity
  8
Guides
100
AcDbVertex
100
AcDb2dVertex
 10
203.8773633477542
 20
-37.6976725771674
 30
-0.0000004793760269
  0
VERTEX
  5
229
330
225
100
AcDbEntity
  8
Guides
100
AcDbVertex
100
AcDb2dVertex
 10
203.8773633477542
 20
-43.6976725771674
 30
-0.0000004793760269
  0
SEQEND
  5
22A
330
225
100
AcDbEntity
  8
Guides
  0
POLYLINE
  5
22B
330
1F
100
AcDbEntity
  8
Guides
100
AcDb2dPolyline
 66
     1
 10
0.0
 20
0.0
 30
-0.0000004793760269
 70
     1
  0
VERTEX
  5
22C
330
22B
100
AcDbEntity
  8
Guides
100
AcDbVertex
100
AcDb2dVertex
 10
200.3344403741214
 20
-38.6976725771674
 30
-0.0000004793760269
  0
VERTEX
  5
22D
330
22B
100
AcDbEntity
  8
Guides
100
AcDbVertex
100
AcDb2dVertex
 10
200.3344403741214
 20
-39.4476725771674
 30
-0.0000004793760269
  0
VERTEX
  5
22E
330
22B
100
AcDbEntity
  8
Guides
100
AcDbVertex
100
AcDb2dVertex
 10
200.3375684258792
 20
-39.48179122951115
 30
-0.0000004793760269
  0
VERTEX
  5
22F
330
22B
100
AcDbEntity
  8
Guides
100
AcDbVertex
100
AcDb2dVertex
 10
200.3476087090823
 20
-39.51668808009708
 30
-0.0000004793760269
  0
VERTEX
  5
230
330
22B
100
AcDbEntity
  8
Guides
100
AcDbVertex
100
AcDb2dVertex
 10
200.3650037286135
 20
-39.55027267482365
 30
-0.0000004793760269
  0
VERTEX
  5
231
330
22B
100
AcDbEntity
  8
Guides
100
AcDbVertex
100
AcDb2dVertex
 10
200.3893567559573
 20
-39.58025619533146
 30
-0.0000004793760269
  0
VERTEX
  5
232
330
22B
100
AcDbEntity
  8
Guides
100
AcDbVertex
100
AcDb2dVertex
 10
200.4193402764651
 20
-39.60460922267521
 30
-0.0000004793760269
  0
VERTEX
  5
233
330
22B
100
AcDbEntity
  8
Guides
100
AcDbVertex
100
AcDb2dVertex
 10
200.4529248711917
 20
-39.62200424220646
 30
-0.0000004793760269
  0
VERTEX
  5
234
330
22B
100
AcDbEntity
  8
Guides
100
AcDbVertex
100
AcDb2dVertex
 10
200.4878217217776
 20
-39.63204452540958
 30
-0.0000004793760269
  0
VERTEX
  5
235
330
22B
100
AcDbEntity
  8
Guides
100
AcDbVertex
100
AcDb2dVertex
 10
200.5219403741214
 20
-39.6351725771674
 30
-0.0000004793760269
  0
VERTEX
  5
236
330
22B
100
AcDbEntity
  8
Guides
100
AcDbVertex
100
AcDb2dVertex
 10
200.5560590264651
 20
-39.63204452540958
 30
-0.0000004793760269
  0
VERTEX
  5
237
330
22B
100
AcDbEntity
  8
Guides
100
AcDbVertex
100
AcDb2dVertex
 10
200.590955877051
 20
-39.62200424220646
 30
-0.0000004793760269
  0
VERTEX
  5
238
330
22B
100
AcDbEntity
  8
Guides
100
AcDbVertex
100
AcDb2dVertex
 10
200.6245404717776
 20
-39.60460922267521
 30
-0.0000004793760269
  0
VERTEX
  5
239
330
22B
100
AcDbEntity
  8
Guides
100
AcDbVertex
100
AcDb2dVertex
 10
200.6545239922854
 20
-39.58025619533146
 30
-0.0000004793760269
  0
VERTEX
  5
23A
330
22B
100
AcDbEntity
  8
Guides
100
AcDbVertex
100
AcDb2dVertex
 10
200.6788770196292
 20
-39.55027267482365
 30
-0.0000004793760269
  0
VERTEX
  5
23B
330
22B
100
AcDbEntity
  8
Guides
100
AcDbVertex
100
AcDb2dVertex
 10
200.6962720391604
 20
-39.51668808009708
 30
-0.0000004793760269
  0
VERTEX
  5
23C
330
22B
100
AcDbEntity
  8
Guides
100
AcDbVertex
100
AcDb2dVertex
 10
200.7063123223635
 20
-39.48179122951115
 30
-0.0000004793760269
  0
VERTEX
  5
23D
330
22B
100
AcDbEntity
  8
Guides
100
AcDbVertex
100
AcDb2dVertex
 10
200.7094403741214
 20
-39.4476725771674
 30
-0.0000004793760269
  0
VERTEX
  5
23E
330
22B
100
AcDbEntity
  8
Guides
100
AcDbVertex
100
AcDb2dVertex
 10
201.9594403741214
 20
-39.4476725771674
 30
-0.0000004793760269
  0
VERTEX
  5
23F
330
22B
100
AcDbEntity
  8
Guides
100
AcDbVertex
100
AcDb2dVertex
 10
201.9625684258792
 20
-39.48179122951115
 30
-0.0000004793760269
  0
VERTEX
  5
240
330
22B
100
AcDbEntity
  8
Guides
100
AcDbVertex
100
AcDb2dVertex
 10
201.9726087090823
 20
-39.51668808009708
 30
-0.0000004793760269
  0
VERTEX
  5
241
330
22B
100
AcDbEntity
  8
Guides
100
AcDbVertex
100
AcDb2dVertex
 10
201.9900037286135
 20
-39.55027267482365
 30
-0.0000004793760269
  0
VERTEX
  5
242
330
22B
100
AcDbEntity
  8
Guides
100
AcDbVertex
100
AcDb2dVertex
 10
202.0143567559573
 20
-39.58025619533146
 30
-0.0000004793760269
  0
VERTEX
  5
243
330
22B
100
AcDbEntity
  8
Guides
100
AcDbVertex
100
AcDb2dVertex
 10
202.0443402764651
 20
-39.60460922267521
 30
-0.0000004793760269
  0
VERTEX
  5
244
330
22B
100
AcDbEntity
  8
Guides
100
AcDbVertex
100
AcDb2dVertex
 10
202.0779248711917
 20
-39.62200424220646
 30
-0.0000004793760269
  0
VERTEX
  5
245
330
22B
100
AcDbEntity
  8
Guides
100
AcDbVertex
100
AcDb2dVertex
 10
202.1128217217776
 20
-39.63204452540958
 30
-0.0000004793760269
  0
VERTEX
  5
246
330
22B
100
AcDbEntity
  8
Guides
100
AcDbVertex
100
AcDb2dVertex
 10
202.1469403741214
 20
-39.6351725771674
 30
-0.0000004793760269
  0
VERTEX
  5
247
330
22B
100
AcDbEntity
  8
Guides
100
AcDbVertex
100
AcDb2dVertex
 10
202.1810590264651
 20
-39.63204452540958
 30
-0.0000004793760269
  0
VERTEX
  5
248
330
22B
100
AcDbEntity
  8
Guides
100
AcDbVertex
100
AcDb2dVertex
 10
202.215955877051
 20
-39.62200424220646
 30
-0.0000004793760269
  0
VERTEX
  5
249
330
22B
100
AcDbEntity
  8
Guides
100
AcDbVertex
100
AcDb2dVertex
 10
202.2495404717776
 20
-39.60460922267521
 30
-0.0000004793760269
  0
VERTEX
  5
24A
330
22B
100
AcDbEntity
  8
Guides
100
AcDbVertex
100
AcDb2dVertex
 10
202.2795239922854
 20
-39.58025619533146
 30
-0.0000004793760269
  0
VERTEX
  5
24B
330
22B
100
AcDbEntity
  8
Guides
100
AcDbVertex
100
AcDb2dVertex
 10
202.3038770196292
 20
-39.55027267482365
 30
-0.0000004793760269
  0
VERTEX
  5
24C
330
22B
100
AcDbEntity
  8
Guides
100
AcDbVertex
100
AcDb2dVertex
 10
202.3212720391604
 20
-39.51668808009708
 30
-0.0000004793760269
  0
VERTEX
  5
24D
330
22B
100
AcDbEntity
  8
Guides
100
AcDbVertex
100
AcDb2dVertex
 10
202.3313123223635
 20
-39.48179122951115
 30
-0.0000004793760269
  0
VERTEX
  5
24E
330
22B
100
AcDbEntity
  8
Guides
100
AcDbVertex
100
AcDb2dVertex
 10
202.3344403741214
 20
-39.4476725771674
 30
-0.0000004793760269
  0
VERTEX
  5
24F
330
22B
100
AcDbEntity
  8
Guides
100
AcDbVertex
100
AcDb2dVertex
 10
202.3344403741214
 20
-38.6976725771674
 30
-0.0000004793760269
  0
VERTEX
  5
250
330
22B
100
AcDbEntity
  8
Guides
100
AcDbVertex
100
AcDb2dVertex
 10
202.3313123223635
 20
-38.66355392482365
 30
-0.0000004793760269
  0
VERTEX
  5
251
330
22B
100
AcDbEntity
  8
Guides
100
AcDbVertex
100
AcDb2dVertex
 10
202.3212720391604
 20
-38.62865707423771
 30
-0.0000004793760269
  0
VERTEX
  5
252
330
22B
100
AcDbEntity
  8
Guides
100
AcDbVertex
100
AcDb2dVertex
 10
202.3038770196292
 20
-38.59507247951115
 30
-0.0000004793760269
  0
VERTEX
  5
253
330
22B
100
AcDbEntity
  8
Guides
100
AcDbVertex
100
AcDb2dVertex
 10
202.2795239922854
 20
-38.56508895900333
 30
-0.0000004793760269
  0
VERTEX
  5
254
330
22B
100
AcDbEntity
  8
Guides
100
AcDbVertex
100
AcDb2dVertex
 10
202.2495404717776
 20
-38.54073593165958
 30
-0.0000004793760269
  0
VERTEX
  5
255
330
22B
100
AcDbEntity
  8
Guides
100
AcDbVertex
100
AcDb2dVertex
 10
202.215955877051
 20
-38.52334091212833
 30
-0.0000004793760269
  0
VERTEX
  5
256
330
22B
100
AcDbEntity
  8
Guides
100
AcDbVertex
100
AcDb2dVertex
 10
202.1810590264651
 20
-38.51330062892521
 30
-0.0000004793760269
  0
VERTEX
  5
257
330
22B
100
AcDbEntity
  8
Guides
100
AcDbVertex
100
AcDb2dVertex
 10
202.1469403741214
 20
-38.5101725771674
 30
-0.0000004793760269
  0
VERTEX
  5
258
330
22B
100
AcDbEntity
  8
Guides
100
AcDbVertex
100
AcDb2dVertex
 10
202.1128217217776
 20
-38.51330062892521
 30
-0.0000004793760269
  0
VERTEX
  5
259
330
22B
100
AcDbEntity
  8
Guides
100
AcDbVertex
100
AcDb2dVertex
 10
202.0779248711917
 20
-38.52334091212833
 30
-0.0000004793760269
  0
VERTEX
  5
25A
330
22B
100
AcDbEntity
  8
Guides
100
AcDbVertex
100
AcDb2dVertex
 10
202.0443402764651
 20
-38.54073593165958
 30
-0.0000004793760269
  0
VERTEX
  5
25B
330
22B
100
AcDbEntity
  8
Guides
100
AcDbVertex
100
AcDb2dVertex
 10
202.0143567559573
 20
-38.56508895900333
 30
-0.0000004793760269
  0
VERTEX
  5
25C
330
22B
100
AcDbEntity
  8
Guides
100
AcDbVertex
100
AcDb2dVertex
 10
201.9900037286135
 20
-38.59507247951115
 30
-0.0000004793760269
  0
VERTEX
  5
25D
330
22B
100
AcDbEntity
  8
Guides
100
AcDbVertex
100
AcDb2dVertex
 10
201.9726087090823
 20
-38.62865707423771
 30
-0.0000004793760269
  0
VERTEX
  5
25E
330
22B
100
AcDbEntity
  8
Guides
100
AcDbVertex
100
AcDb2dVertex
 10
201.9625684258792
 20
-38.66355392482365
 30
-0.0000004793760269
  0
VERTEX
  5
25F
330
22B
100
AcDbEntity
  8
Guides
100
AcDbVertex
100
AcDb2dVertex
 10
201.9594403741214
 20
-38.6976725771674
 30
-0.0000004793760269
  0
VERTEX
  5
260
330
22B
100
AcDbEntity
  8
Guides
100
AcDbVertex
100
AcDb2dVertex
 10
200.7094403741214
 20
-38.6976725771674
 30
-0.0000004793760269
  0
VERTEX
  5
261
330
22B
100
AcDbEntity
  8
Guides
100
AcDbVertex
100
AcDb2dVertex
 10
200.7063123223635
 20
-38.66355392482365
 30
-0.0000004793760269
  0
VERTEX
  5
262
330
22B
100
AcDbEntity
  8
Guides
100
AcDbVertex
100
AcDb2dVertex
 10
200.6962720391604
 20
-38.62865707423771
 30
-0.0000004793760269
  0
VERTEX
  5
263
330
22B
100
AcDbEntity
  8
Guides
100
AcDbVertex
100
AcDb2dVertex
 10
200.6788770196292
 20
-38.59507247951115
 30
-0.0000004793760269
  0
VERTEX
  5
264
330
22B
100
AcDbEntity
  8
Guides
100
AcDbVertex
100
AcDb2dVertex
 10
200.6545239922854
 20
-38.56508895900333
 30
-0.0000004793760269
  0
VERTEX
  5
265
330
22B
100
AcDbEntity
  8
Guides
100
AcDbVertex
100
AcDb2dVertex
 10
200.6245404717776
 20
-38.54073593165958
 30
-0.0000004793760269
  0
VERTEX
  5
266
330
22B
100
AcDbEntity
  8
Guides
100
AcDbVertex
100
AcDb2dVertex
 10
200.590955877051
 20
-38.52334091212833
 30
-0.0000004793760269
  0
VERTEX
  5
267
330
22B
100
AcDbEntity
  8
Guides
100
AcDbVertex
100
AcDb2dVertex
 10
200.5560590264651
 20
-38.51330062892521
 30
-0.0000004793760269
  0
VERTEX
  5
268
330
22B
100
AcDbEntity
  8
Guides
100
AcDbVertex
100
AcDb2dVertex
 10
200.5219403741214
 20
-38.5101725771674
 30
-0.0000004793760269
  0
VERTEX
  5
269
330
22B
100
AcDbEntity
  8
Guides
100
AcDbVertex
100
AcDb2dVertex
 10
200.4878217217776
 20
-38.51330062892521
 30
-0.0000004793760269
  0
VERTEX
  5
26A
330
22B
100
AcDbEntity
  8
Guides
100
AcDbVertex
100
AcDb2dVertex
 10
200.4529248711917
 20
-38.52334091212833
 30
-0.0000004793760269
  0
VERTEX
  5
26B
330
22B
100
AcDbEntity
  8
Guides
100
AcDbVertex
100
AcDb2dVertex
 10
200.4193402764651
 20
-38.54073593165958
 30
-0.0000004793760269
  0
VERTEX
  5
26C
330
22B
100
AcDbEntity
  8
Guides
100
AcDbVertex
100
AcDb2dVertex
 10
200.3893567559573
 20
-38.56508895900333
 30
-0.0000004793760269
  0
VERTEX
  5
26D
330
22B
100
AcDbEntity
  8
Guides
100
AcDbVertex
100
AcDb2dVertex
 10
200.3650037286135
 20
-38.59507247951115
 30
-0.0000004793760269
  0
VERTEX
  5
26E
330
22B
100
AcDbEntity
  8
Guides
100
AcDbVertex
100
AcDb2dVertex
 10
200.3476087090823
 20
-38.62865707423771
 30
-0.0000004793760269
  0
VERTEX
  5
26F
330
22B
100
AcDbEntity
  8
Guides
100
AcDbVertex
100
AcDb2dVertex
 10
200.3375684258792
 20
-38.66355392482365
 30
-0.0000004793760269
  0
SEQEND
  5
270
330
22B
100
AcDbEntity
  8
Guides
  0
POLYLINE
  5
271
330
1F
100
AcDbEntity
  8
Guides
100
AcDb2dPolyline
 66
     1
 10
0.0
 20
0.0
 30
-0.0000004793760269
 70
     1
  0
VERTEX
  5
272
330
271
100
AcDbEntity
  8
Guides
100
AcDbVertex
100
AcDb2dVertex
 10
200.5415187038184
 20
-42.69767210697594
 30
-0.0000004793760269
  0
VERTEX
  5
273
330
271
100
AcDbEntity
  8
Guides
100
AcDbVertex
100
AcDb2dVertex
 10
201.2915187038184
 20
-42.69767210697594
 30
-0.0000004793760269
  0
VERTEX
  5
274
330
271
100
AcDbEntity
  8
Guides
100
AcDbVertex
100
AcDb2dVertex
 10
201.3256373561622
 20
-42.69454405521813
 30
-0.0000004793760269
  0
VERTEX
  5
275
330
271
100
AcDbEntity
  8
Guides
100
AcDbVertex
100
AcDb2dVertex
 10
201.3605342067481
 20
-42.68450377201501
 30
-0.0000004793760269
  0
VERTEX
  5
276
330
271
100
AcDbEntity
  8
Guides
100
AcDbVertex
100
AcDb2dVertex
 10
201.3941188014747
 20
-42.66710875248376
 30
-0.0000004793760269
  0
VERTEX
  5
277
330
271
100
AcDbEntity
  8
Guides
100
AcDbVertex
100
AcDb2dVertex
 10
201.4241023219825
 20
-42.64275572514001
 30
-0.0000004793760269
  0
VERTEX
  5
278
330
271
100
AcDbEntity
  8
Guides
100
AcDbVertex
100
AcDb2dVertex
 10
201.4484553493263
 20
-42.61277220463219
 30
-0.0000004793760269
  0
VERTEX
  5
279
330
271
100
AcDbEntity
  8
Guides
100
AcDbVertex
100
AcDb2dVertex
 10
201.4658503688575
 20
-42.57918760990563
 30
-0.0000004793760269
  0
VERTEX
  5
27A
330
271
100
AcDbEntity
  8
Guides
100
AcDbVertex
100
AcDb2dVertex
 10
201.4758906520606
 20
-42.54429075931969
 30
-0.0000004793760269
  0
VERTEX
  5
27B
330
271
100
AcDbEntity
  8
Guides
100
AcDbVertex
100
AcDb2dVertex
 10
201.4790187038184
 20
-42.51017210697594
 30
-0.0000004793760269
  0
VERTEX
  5
27C
330
271
100
AcDbEntity
  8
Guides
100
AcDbVertex
100
AcDb2dVertex
 10
201.4758906520606
 20
-42.47605345463219
 30
-0.0000004793760269
  0
VERTEX
  5
27D
330
271
100
AcDbEntity
  8
Guides
100
AcDbVertex
100
AcDb2dVertex
 10
201.4658503688575
 20
-42.44115660404626
 30
-0.0000004793760269
  0
VERTEX
  5
27E
330
271
100
AcDbEntity
  8
Guides
100
AcDbVertex
100
AcDb2dVertex
 10
201.4484553493263
 20
-42.40757200931969
 30
-0.0000004793760269
  0
VERTEX
  5
27F
330
271
100
AcDbEntity
  8
Guides
100
AcDbVertex
100
AcDb2dVertex
 10
201.4241023219825
 20
-42.37758848881188
 30
-0.0000004793760269
  0
VERTEX
  5
280
330
271
100
AcDbEntity
  8
Guides
100
AcDbVertex
100
AcDb2dVertex
 10
201.3941188014747
 20
-42.35323546146813
 30
-0.0000004793760269
  0
VERTEX
  5
281
330
271
100
AcDbEntity
  8
Guides
100
AcDbVertex
100
AcDb2dVertex
 10
201.3605342067481
 20
-42.33584044193688
 30
-0.0000004793760269
  0
VERTEX
  5
282
330
271
100
AcDbEntity
  8
Guides
100
AcDbVertex
100
AcDb2dVertex
 10
201.3256373561622
 20
-42.32580015873376
 30
-0.0000004793760269
  0
VERTEX
  5
283
330
271
100
AcDbEntity
  8
Guides
100
AcDbVertex
100
AcDb2dVertex
 10
201.2915187038184
 20
-42.32267210697594
 30
-0.0000004793760269
  0
VERTEX
  5
284
330
271
100
AcDbEntity
  8
Guides
100
AcDbVertex
100
AcDb2dVertex
 10
201.2915187038184
 20
-41.07267210697594
 30
-0.0000004793760269
  0
VERTEX
  5
285
330
271
100
AcDbEntity
  8
Guides
100
AcDbVertex
100
AcDb2dVertex
 10
201.3256373561622
 20
-41.06954405521813
 30
-0.0000004793760269
  0
VERTEX
  5
286
330
271
100
AcDbEntity
  8
Guides
100
AcDbVertex
100
AcDb2dVertex
 10
201.3605342067481
 20
-41.05950377201501
 30
-0.0000004793760269
  0
VERTEX
  5
287
330
271
100
AcDbEntity
  8
Guides
100
AcDbVertex
100
AcDb2dVertex
 10
201.3941188014747
 20
-41.04210875248376
 30
-0.0000004793760269
  0
VERTEX
  5
288
330
271
100
AcDbEntity
  8
Guides
100
AcDbVertex
100
AcDb2dVertex
 10
201.4241023219825
 20
-41.01775572514001
 30
-0.0000004793760269
  0
VERTEX
  5
289
330
271
100
AcDbEntity
  8
Guides
100
AcDbVertex
100
AcDb2dVertex
 10
201.4484553493263
 20
-40.98777220463219
 30
-0.0000004793760269
  0
VERTEX
  5
28A
330
271
100
AcDbEntity
  8
Guides
100
AcDbVertex
100
AcDb2dVertex
 10
201.4658503688575
 20
-40.95418760990563
 30
-0.0000004793760269
  0
VERTEX
  5
28B
330
271
100
AcDbEntity
  8
Guides
100
AcDbVertex
100
AcDb2dVertex
 10
201.4758906520606
 20
-40.91929075931969
 30
-0.0000004793760269
  0
VERTEX
  5
28C
330
271
100
AcDbEntity
  8
Guides
100
AcDbVertex
100
AcDb2dVertex
 10
201.4790187038184
 20
-40.88517210697594
 30
-0.0000004793760269
  0
VERTEX
  5
28D
330
271
100
AcDbEntity
  8
Guides
100
AcDbVertex
100
AcDb2dVertex
 10
201.4758906520606
 20
-40.85105345463219
 30
-0.0000004793760269
  0
VERTEX
  5
28E
330
271
100
AcDbEntity
  8
Guides
100
AcDbVertex
100
AcDb2dVertex
 10
201.4658503688575
 20
-40.81615660404626
 30
-0.0000004793760269
  0
VERTEX
  5
28F
330
271
100
AcDbEntity
  8
Guides
100
AcDbVertex
100
AcDb2dVertex
 10
201.4484553493263
 20
-40.78257200931969
 30
-0.0000004793760269
  0
VERTEX
  5
290
330
271
100
AcDbEntity
  8
Guides
100
AcDbVertex
100
AcDb2dVertex
 10
201.4241023219825
 20
-40.75258848881188
 30
-0.0000004793760269
  0
VERTEX
  5
291
330
271
100
AcDbEntity
  8
Guides
100
AcDbVertex
100
AcDb2dVertex
 10
201.3941188014747
 20
-40.72823546146813
 30
-0.0000004793760269
  0
VERTEX
  5
292
330
271
100
AcDbEntity
  8
Guides
100
AcDbVertex
100
AcDb2dVertex
 10
201.3605342067481
 20
-40.71084044193688
 30
-0.0000004793760269
  0
VERTEX
  5
293
330
271
100
AcDbEntity
  8
Guides
100
AcDbVertex
100
AcDb2dVertex
 10
201.3256373561622
 20
-40.70080015873376
 30
-0.0000004793760269
  0
VERTEX
  5
294
330
271
100
AcDbEntity
  8
Guides
100
AcDbVertex
100
AcDb2dVertex
 10
201.2915187038184
 20
-40.69767210697594
 30
-0.0000004793760269
  0
VERTEX
  5
295
330
271
100
AcDbEntity
  8
Guides
100
AcDbVertex
100
AcDb2dVertex
 10
200.5415187038184
 20
-40.69767210697594
 30
-0.0000004793760269
  0
VERTEX
  5
296
330
271
100
AcDbEntity
  8
Guides
100
AcDbVertex
100
AcDb2dVertex
 10
200.5074000514747
 20
-40.70080015873376
 30
-0.0000004793760269
  0
VERTEX
  5
297
330
271
100
AcDbEntity
  8
Guides
100
AcDbVertex
100
AcDb2dVertex
 10
200.4725032008888
 20
-40.71084044193688
 30
-0.0000004793760269
  0
VERTEX
  5
298
330
271
100
AcDbEntity
  8
Guides
100
AcDbVertex
100
AcDb2dVertex
 10
200.4389186061622
 20
-40.72823546146813
 30
-0.0000004793760269
  0
VERTEX
  5
299
330
271
100
AcDbEntity
  8
Guides
100
AcDbVertex
100
AcDb2dVertex
 10
200.4089350856544
 20
-40.75258848881188
 30
-0.0000004793760269
  0
VERTEX
  5
29A
330
271
100
AcDbEntity
  8
Guides
100
AcDbVertex
100
AcDb2dVertex
 10
200.3845820583106
 20
-40.78257200931969
 30
-0.0000004793760269
  0
VERTEX
  5
29B
330
271
100
AcDbEntity
  8
Guides
100
AcDbVertex
100
AcDb2dVertex
 10
200.3671870387794
 20
-40.81615660404626
 30
-0.0000004793760269
  0
VERTEX
  5
29C
330
271
100
AcDbEntity
  8
Guides
100
AcDbVertex
100
AcDb2dVertex
 10
200.3571467555763
 20
-40.85105345463219
 30
-0.0000004793760269
  0
VERTEX
  5
29D
330
271
100
AcDbEntity
  8
Guides
100
AcDbVertex
100
AcDb2dVertex
 10
200.3540187038184
 20
-40.88517210697594
 30
-0.0000004793760269
  0
VERTEX
  5
29E
330
271
100
AcDbEntity
  8
Guides
100
AcDbVertex
100
AcDb2dVertex
 10
200.3571467555763
 20
-40.91929075931969
 30
-0.0000004793760269
  0
VERTEX
  5
29F
330
271
100
AcDbEntity
  8
Guides
100
AcDbVertex
100
AcDb2dVertex
 10
200.3671870387794
 20
-40.95418760990563
 30
-0.0000004793760269
  0
VERTEX
  5
2A0
330
271
100
AcDbEntity
  8
Guides
100
AcDbVertex
100
AcDb2dVertex
 10
200.3845820583106
 20
-40.98777220463219
 30
-0.0000004793760269
  0
VERTEX
  5
2A1
330
271
100
AcDbEntity
  8
Guides
100
AcDbVertex
100
AcDb2dVertex
 10
200.4089350856544
 20
-41.01775572514001
 30
-0.0000004793760269
  0
VERTEX
  5
2A2
330
271
100
AcDbEntity
  8
Guides
100
AcDbVertex
100
AcDb2dVertex
 10
200.4389186061622
 20
-41.04210875248376
 30
-0.0000004793760269
  0
VERTEX
  5
2A3
330
271
100
AcDbEntity
  8
Guides
100
AcDbVertex
100
AcDb2dVertex
 10
200.4725032008888
 20
-41.05950377201501
 30
-0.0000004793760269
  0
VERTEX
  5
2A4
330
271
100
AcDbEntity
  8
Guides
100
AcDbVertex
100
AcDb2dVertex
 10
200.5074000514747
 20
-41.06954405521813
 30
-0.0000004793760269
  0
VERTEX
  5
2A5
330
271
100
AcDbEntity
  8
Guides
100
AcDbVertex
100
AcDb2dVertex
 10
200.5415187038184
 20
-41.07267210697594
 30
-0.0000004793760269
  0
VERTEX
  5
2A6
330
271
100
AcDbEntity
  8
Guides
100
AcDbVertex
100
AcDb2dVertex
 10
200.5415187038184
 20
-42.32267210697594
 30
-0.0000004793760269
  0
VERTEX
  5
2A7
330
271
100
AcDbEntity
  8
Guides
100
AcDbVertex
100
AcDb2dVertex
 10
200.5074000514747
 20
-42.32580015873376
 30
-0.0000004793760269
  0
VERTEX
  5
2A8
330
271
100
AcDbEntity
  8
Guides
100
AcDbVertex
100
AcDb2dVertex
 10
200.4725032008888
 20
-42.33584044193688
 30
-0.0000004793760269
  0
VERTEX
  5
2A9
330
271
100
AcDbEntity
  8
Guides
100
AcDbVertex
100
AcDb2dVertex
 10
200.4389186061622
 20
-42.35323546146813
 30
-0.0000004793760269
  0
VERTEX
  5
2AA
330
271
100
AcDbEntity
  8
Guides
100
AcDbVertex
100
AcDb2dVertex
 10
200.4089350856544
 20
-42.37758848881188
 30
-0.0000004793760269
  0
VERTEX
  5
2AB
330
271
100
AcDbEntity
  8
Guides
100
AcDbVertex
100
AcDb2dVertex
 10
200.3845820583106
 20
-42.40757200931969
 30
-0.0000004793760269
  0
VERTEX
  5
2AC
330
271
100
AcDbEntity
  8
Guides
100
AcDbVertex
100
AcDb2dVertex
 10
200.3671870387794
 20
-42.44115660404626
 30
-0.0000004793760269
  0
VERTEX
  5
2AD
330
271
100
AcDbEntity
  8
Guides
100
AcDbVertex
100
AcDb2dVertex
 10
200.3571467555763
 20
-42.47605345463219
 30
-0.0000004793760269
  0
VERTEX
  5
2AE
330
271
100
AcDbEntity
  8
Guides
100
AcDbVertex
100
AcDb2dVertex
 10
200.3540187038184
 20
-42.51017210697594
 30
-0.0000004793760269
  0
VERTEX
  5
2AF
330
271
100
AcDbEntity
  8
Guides
100
AcDbVertex
100
AcDb2dVertex
 10
200.3571467555763
 20
-42.54429075931969
 30
-0.0000004793760269
  0
VERTEX
  5
2B0
330
271
100
AcDbEntity
  8
Guides
100
AcDbVertex
100
AcDb2dVertex
 10
200.3671870387794
 20
-42.57918760990563
 30
-0.0000004793760269
  0
VERTEX
  5
2B1
330
271
100
AcDbEntity
  8
Guides
100
AcDbVertex
100
AcDb2dVertex
 10
200.3845820583106
 20
-42.61277220463219
 30
-0.0000004793760269
  0
VERTEX
  5
2B2
330
271
100
AcDbEntity
  8
Guides
100
AcDbVertex
100
AcDb2dVertex
 10
200.4089350856544
 20
-42.64275572514001
 30
-0.0000004793760269
  0
VERTEX
  5
2B3
330
271
100
AcDbEntity
  8
Guides
100
AcDbVertex
100
AcDb2dVertex
 10
200.4389186061622
 20
-42.66710875248376
 30
-0.0000004793760269
  0
VERTEX
  5
2B4
330
271
100
AcDbEntity
  8
Guides
100
AcDbVertex
100
AcDb2dVertex
 10
200.4725032008888
 20
-42.68450377201501
 30
-0.0000004793760269
  0
VERTEX
  5
2B5
330
271
100
AcDbEntity
  8
Guides
100
AcDbVertex
100
AcDb2dVertex
 10
200.5074000514747
 20
-42.69454405521813
 30
-0.0000004793760269
  0
SEQEND
  5
2B6
330
271
100
AcDbEntity
  8
Guides
  0
SPLINE
  5
2B7
330
1F
100
AcDbEntity
  8
Guides
100
AcDbSpline
210
0.0
220
0.0
230
1.0
 70
    15
 71
     2
 72
    12
 73
     9
 74
     0
 42
0.000000001
 43
0.0000000001
 40
-0.2248896586326454
 40
-0.2248896586326454
 40
-0.2248896586326454
 40
0.0971235499733494
 40
0.0971235499733494
 40
0.4191368353532594
 40
0.4191368353532594
 40
0.7411501207331694
 40
0.7411501207331694
 40
1.063163329339164
 40
1.063163329339164
 40
1.063163329339164
 10
219.9415465274203
 20
-47.96517257716739
 30
-0.0000004793760269
 41
0.9999998603376581
 10
219.9415464582995
 20
-48.1701725771674
 30
-0.0000004793760269
 41
0.7071068510177352
 10
219.7365465274203
 20
-48.17017257716741
 30
-0.0000004793760269
 41
1.0
 10
219.5315465274203
 20
-48.17017257716739
 30
-0.0000004793760269
 41
0.7071067811865476
 10
219.5315465274203
 20
-47.96517257716739
 30
-0.0000004793760269
 41
1.0
 10
219.5315465274203
 20
-47.7601725771674
 30
-0.0000004793760269
 41
0.7071067811865476
 10
219.7365465274203
 20
-47.7601725771674
 30
-0.0000004793760269
 41
1.0
 10
219.9415464582995
 20
-47.76017257716739
 30
-0.0000004793760269
 41
0.7071068510177311
 10
219.9415465274203
 20
-47.96517257716741
 30
-0.0000004793760269
 41
0.9999998603376663
  0
SPLINE
  5
2B8
330
1F
100
AcDbEntity
  8
Guides
100
AcDbSpline
210
0.0
220
0.0
230
1.0
 70
    15
 71
     2
 72
    12
 73
     9
 74
     0
 42
0.000000001
 43
0.0000000001
 40
-1.512942646604455
 40
-1.512942646604455
 40
-1.512942646604455
 40
-1.19092938041801
 40
-1.19092938041801
 40
-0.8689161142315642
 40
-0.8689161142315642
 40
-0.5469028480451472
 40
-0.5469028480451472
 40
-0.2248896586326454
 40
-0.2248896586326454
 40
-0.2248896586326454
 10
219.9415465274203
 20
-45.96517257716739
 30
-0.0000004793760269
 41
1.0
 10
219.9415465274203
 20
-46.1701725771674
 30
-0.0000004793760269
 41
0.7071067811865476
 10
219.7365465274203
 20
-46.17017257716741
 30
-0.0000004793760269
 41
1.0
 10
219.5315465274203
 20
-46.1701725771674
 30
-0.0000004793760269
 41
0.7071067811865476
 10
219.5315465274203
 20
-45.96517257716739
 30
-0.0000004793760269
 41
1.0
 10
219.5315465274203
 20
-45.7601725771674
 30
-0.0000004793760269
 41
0.7071067811865476
 10
219.7365465274203
 20
-45.7601725771674
 30
-0.0000004793760269
 41
1.0
 10
219.9415464582995
 20
-45.7601725771674
 30
-0.0000004793760269
 41
0.7071068510177352
 10
219.9415465274203
 20
-45.96517257716739
 30
-0.0000004793760269
 41
0.9999998603376581
  0
SPLINE
  5
2B9
330
1F
100
AcDbEntity
  8
Guides
100
AcDbSpline
210
0.0
220
0.0
230
1.0
 70
    15
 71
     2
 72
    12
 73
     9
 74
     0
 42
0.000000001
 43
0.0000000001
 40
-2.80099563457627
 40
-2.80099563457627
 40
-2.80099563457627
 40
-2.47898236838983
 40
-2.47898236838983
 40
-2.15696910220339
 40
-2.15696910220339
 40
-1.83495583601695
 40
-1.83495583601695
 40
-1.512942646604455
 40
-1.512942646604455
 40
-1.512942646604455
 10
217.1915465274203
 20
-47.96517257716739
 30
-0.0000004793760269
 41
1.0
 10
217.1915465274202
 20
-48.17017257716739
 30
-0.0000004793760269
 41
0.7071067811865476
 10
216.9865465274203
 20
-48.17017257716741
 30
-0.0000004793760269
 41
1.0
 10
216.7815465274203
 20
-48.17017257716739
 30
-0.0000004793760269
 41
0.7071067811865476
 10
216.7815465274203
 20
-47.96517257716739
 30
-0.0000004793760269
 41
1.0
 10
216.7815465274203
 20
-47.7601725771674
 30
-0.0000004793760269
 41
0.7071067811865476
 10
216.9865465274203
 20
-47.7601725771674
 30
-0.0000004793760269
 41
1.0
 10
217.1915464582994
 20
-47.7601725771674
 30
-0.0000004793760269
 41
0.7071068510177326
 10
217.1915465274203
 20
-47.96517257716739
 30
-0.0000004793760269
 41
0.9999998603376632
  0
SPLINE
  5
2BA
330
1F
100
AcDbEntity
  8
Guides
100
AcDbSpline
210
0.0
220
0.0
230
1.0
 70
    15
 71
     2
 72
    12
 73
     9
 74
     0
 42
0.000000001
 43
0.0000000001
 40
-4.089048622548085
 40
-4.089048622548085
 40
-4.089048622548085
 40
-3.767035356361645
 40
-3.767035356361645
 40
-3.445022090175205
 40
-3.445022090175205
 40
-3.123008823988765
 40
-3.123008823988765
 40
-2.80099563457627
 40
-2.80099563457627
 40
-2.80099563457627
 10
217.1915465274203
 20
-45.96517257716739
 30
-0.0000004793760269
 41
1.0
 10
217.1915465274202
 20
-46.1701725771674
 30
-0.0000004793760269
 41
0.7071067811865476
 10
216.9865465274203
 20
-46.17017257716741
 30
-0.0000004793760269
 41
1.0
 10
216.7815465274203
 20
-46.1701725771674
 30
-0.0000004793760269
 41
0.7071067811865476
 10
216.7815465274203
 20
-45.96517257716739
 30
-0.0000004793760269
 41
1.0
 10
216.7815465274203
 20
-45.7601725771674
 30
-0.0000004793760269
 41
0.7071067811865476
 10
216.9865465274203
 20
-45.7601725771674
 30
-0.0000004793760269
 41
1.0
 10
217.1915464582994
 20
-45.7601725771674
 30
-0.0000004793760269
 41
0.7071068510177326
 10
217.1915465274203
 20
-45.96517257716739
 30
-0.0000004793760269
 41
0.9999998603376632
  0
SPLINE
  5
2BB
330
1F
100
AcDbEntity
  8
Guides
100
AcDbSpline
210
0.0
220
0.0
230
1.0
 70
    15
 71
     2
 72
    28
 73
    25
 74
     0
 42
0.000000001
 43
0.0000000001
 40
-26.06356262970127
 40
-26.06356262970127
 40
-26.06356262970127
 40
-25.76903831842723
 40
-25.76903831842723
 40
-25.47451400715318
 40
-25.47451400715318
 40
-24.72451400715319
 40
-24.72451400715319
 40
-22.72451400715319
 40
-22.72451400715319
 40
-21.97451400715319
 40
-21.97451400715319
 40
-21.67998969587914
 40
-21.67998969587914
 40
-21.3854653846051
 40
-21.3854653846051
 40
-20.23725700357661
 40
-20.23725700357661
 40
-15.23725700357661
 40
-15.23725700357661
 40
-10.23725700357657
 40
-10.23725700357657
 40
-5.237257003576575
 40
-5.237257003576575
 40
-4.089048622548085
 40
-4.089048622548085
 40
-4.089048622548085
 10
216.9044680485755
 20
-49.2601725771674
 30
-0.0000004793760269
 41
1.0
 10
216.9044680485756
 20
-49.0726725771674
 30
-0.0000004793760269
 41
0.7071067811865468
 10
217.0919680485755
 20
-49.0726725771674
 30
-0.0000004793760269
 41
1.0
 10
217.2794680485756
 20
-49.0726725771674
 30
-0.0000004793760269
 41
0.7071067811865468
 10
217.2794680485755
 20
-49.2601725771674
 30
-0.0000004793760269
 41
1.0
 10
217.2794680485755
 20
-49.6351725771674
 30
-0.0000004793760269
 41
1.0
 10
217.2794680485755
 20
-50.0101725771674
 30
-0.0000004793760269
 41
1.0
 10
218.2794680485755
 20
-50.0101725771674
 30
-0.0000004793760269
 41
1.0
 10
219.2794680485755
 20
-50.0101725771674
 30
-0.0000004793760269
 41
1.0
 10
219.2794680485755
 20
-49.6351725771674
 30
-0.0000004793760269
 41
1.0
 10
219.2794680485755
 20
-49.2601725771674
 30
-0.0000004793760269
 41
1.0
 10
219.2794680485754
 20
-49.0726725771674
 30
-0.0000004793760269
 41
0.7071067811865476
 10
219.4669680485755
 20
-49.0726725771674
 30
-0.0000004793760269
 41
1.0
 10
219.6544680485755
 20
-49.0726725771674
 30
-0.0000004793760269
 41
0.7071067811865476
 10
219.6544680485755
 20
-49.2601725771674
 30
-0.0000004793760269
 41
1.0
 10
220.2384288091532
 20
-49.2601725771674
 30
-0.0000004793760269
 41
1.0
 10
220.8223895697308
 20
-49.2601725771674
 30
-0.0000004793760269
 41
1.0
 10
220.8223895697308
 20
-46.7601725771674
 30
-0.0000004793760269
 41
1.0
 10
220.8223895697308
 20
-44.2601725771674
 30
-0.0000004793760269
 41
1.0
 10
218.2794680485755
 20
-44.2601725771674
 30
-0.0000004793760269
 41
1.0
 10
215.7365465274202
 20
-44.2601725771674
 30
-0.0000004793760269
 41
1.0
 10
215.7365465274202
 20
-46.7601725771674
 30
-0.0000004793760269
 41
1.0
 10
215.7365465274202
 20
-49.2601725771674
 30
-0.0000004793760269
 41
1.0
 10
216.3205072879979
 20
-49.2601725771674
 30
-0.0000004793760269
 41
1.0
 10
216.9044680485755
 20
-49.2601725771674
 30
-0.0000004793760269
 41
1.0
  0
SPLINE
  5
2BC
330
1F
100
AcDbEntity
  8
Guides
100
AcDbSpline
210
0.0
220
0.0
230
1.0
 70
    15
 71
     2
 72
    12
 73
     9
 74
     0
 42
0.000000001
 43
0.0000000001
 40
-0.2248896586326454
 40
-0.2248896586326454
 40
-0.2248896586326454
 40
0.0971235499733494
 40
0.0971235499733494
 40
0.4191368353532594
 40
0.4191368353532594
 40
0.7411501207331694
 40
0.7411501207331694
 40
1.063163329339164
 40
1.063163329339164
 40
1.063163329339164
 10
214.2932034851097
 20
-47.96517257716739
 30
-0.0000004793760269
 41
0.9999998603376581
 10
214.2932034159889
 20
-48.1701725771674
 30
-0.0000004793760269
 41
0.7071068510177352
 10
214.0882034851097
 20
-48.17017257716741
 30
-0.0000004793760269
 41
1.0
 10
213.8832034851098
 20
-48.17017257716739
 30
-0.0000004793760269
 41
0.7071067811865476
 10
213.8832034851097
 20
-47.96517257716739
 30
-0.0000004793760269
 41
1.0
 10
213.8832034851098
 20
-47.7601725771674
 30
-0.0000004793760269
 41
0.7071067811865476
 10
214.0882034851097
 20
-47.7601725771674
 30
-0.0000004793760269
 41
1.0
 10
214.2932034159889
 20
-47.76017257716739
 30
-0.0000004793760269
 41
0.7071068510177311
 10
214.2932034851098
 20
-47.96517257716741
 30
-0.0000004793760269
 41
0.9999998603376663
  0
SPLINE
  5
2BD
330
1F
100
AcDbEntity
  8
Guides
100
AcDbSpline
210
0.0
220
0.0
230
1.0
 70
    15
 71
     2
 72
    12
 73
     9
 74
     0
 42
0.000000001
 43
0.0000000001
 40
-1.512942646604455
 40
-1.512942646604455
 40
-1.512942646604455
 40
-1.19092938041801
 40
-1.19092938041801
 40
-0.8689161142315642
 40
-0.8689161142315642
 40
-0.5469028480451472
 40
-0.5469028480451472
 40
-0.2248896586326454
 40
-0.2248896586326454
 40
-0.2248896586326454
 10
214.2932034851098
 20
-45.96517257716739
 30
-0.0000004793760269
 41
1.0
 10
214.2932034851097
 20
-46.1701725771674
 30
-0.0000004793760269
 41
0.7071067811865476
 10
214.0882034851097
 20
-46.17017257716741
 30
-0.0000004793760269
 41
1.0
 10
213.8832034851098
 20
-46.1701725771674
 30
-0.0000004793760269
 41
0.7071067811865476
 10
213.8832034851097
 20
-45.96517257716739
 30
-0.0000004793760269
 41
1.0
 10
213.8832034851098
 20
-45.7601725771674
 30
-0.0000004793760269
 41
0.7071067811865476
 10
214.0882034851097
 20
-45.7601725771674
 30
-0.0000004793760269
 41
1.0
 10
214.2932034159889
 20
-45.7601725771674
 30
-0.0000004793760269
 41
0.7071068510177352
 10
214.2932034851097
 20
-45.96517257716739
 30
-0.0000004793760269
 41
0.9999998603376581
  0
SPLINE
  5
2BE
330
1F
100
AcDbEntity
  8
Guides
100
AcDbSpline
210
0.0
220
0.0
230
1.0
 70
    15
 71
     2
 72
    12
 73
     9
 74
     0
 42
0.000000001
 43
0.0000000001
 40
-2.80099563457627
 40
-2.80099563457627
 40
-2.80099563457627
 40
-2.47898236838983
 40
-2.47898236838983
 40
-2.15696910220339
 40
-2.15696910220339
 40
-1.83495583601695
 40
-1.83495583601695
 40
-1.512942646604455
 40
-1.512942646604455
 40
-1.512942646604455
 10
211.5432034851098
 20
-47.96517257716739
 30
-0.0000004793760269
 41
1.0
 10
211.5432034851097
 20
-48.17017257716739
 30
-0.0000004793760269
 41
0.7071067811865476
 10
211.3382034851097
 20
-48.17017257716741
 30
-0.0000004793760269
 41
1.0
 10
211.1332034851097
 20
-48.17017257716739
 30
-0.0000004793760269
 41
0.7071067811865476
 10
211.1332034851097
 20
-47.96517257716739
 30
-0.0000004793760269
 41
1.0
 10
211.1332034851097
 20
-47.7601725771674
 30
-0.0000004793760269
 41
0.7071067811865476
 10
211.3382034851097
 20
-47.7601725771674
 30
-0.0000004793760269
 41
1.0
 10
211.5432034159889
 20
-47.7601725771674
 30
-0.0000004793760269
 41
0.7071068510177326
 10
211.5432034851097
 20
-47.96517257716739
 30
-0.0000004793760269
 41
0.9999998603376632
  0
SPLINE
  5
2BF
330
1F
100
AcDbEntity
  8
Guides
100
AcDbSpline
210
0.0
220
0.0
230
1.0
 70
    15
 71
     2
 72
    12
 73
     9
 74
     0
 42
0.000000001
 43
0.0000000001
 40
-4.089048622548085
 40
-4.089048622548085
 40
-4.089048622548085
 40
-3.767035356361645
 40
-3.767035356361645
 40
-3.445022090175205
 40
-3.445022090175205
 40
-3.123008823988765
 40
-3.123008823988765
 40
-2.80099563457627
 40
-2.80099563457627
 40
-2.80099563457627
 10
211.5432034851098
 20
-45.96517257716739
 30
-0.0000004793760269
 41
1.0
 10
211.5432034851097
 20
-46.1701725771674
 30
-0.0000004793760269
 41
0.7071067811865476
 10
211.3382034851097
 20
-46.17017257716741
 30
-0.0000004793760269
 41
1.0
 10
211.1332034851097
 20
-46.1701725771674
 30
-0.0000004793760269
 41
0.7071067811865476
 10
211.1332034851097
 20
-45.96517257716739
 30
-0.0000004793760269
 41
1.0
 10
211.1332034851097
 20
-45.7601725771674
 30
-0.0000004793760269
 41
0.7071067811865476
 10
211.3382034851097
 20
-45.7601725771674
 30
-0.0000004793760269
 41
1.0
 10
211.5432034159889
 20
-45.7601725771674
 30
-0.0000004793760269
 41
0.7071068510177326
 10
211.5432034851097
 20
-45.96517257716739
 30
-0.0000004793760269
 41
0.9999998603376632
  0
SPLINE
  5
2C0
330
1F
100
AcDbEntity
  8
Guides
100
AcDbSpline
210
0.0
220
0.0
230
1.0
 70
    15
 71
     2
 72
    28
 73
    25
 74
     0
 42
0.000000001
 43
0.0000000001
 40
-26.06356262970127
 40
-26.06356262970127
 40
-26.06356262970127
 40
-25.76903831842723
 40
-25.76903831842723
 40
-25.47451400715318
 40
-25.47451400715318
 40
-24.72451400715319
 40
-24.72451400715319
 40
-22.72451400715319
 40
-22.72451400715319
 40
-21.97451400715319
 40
-21.97451400715319
 40
-21.67998969587914
 40
-21.67998969587914
 40
-21.3854653846051
 40
-21.3854653846051
 40
-20.23725700357661
 40
-20.23725700357661
 40
-15.23725700357661
 40
-15.23725700357661
 40
-10.23725700357657
 40
-10.23725700357657
 40
-5.237257003576575
 40
-5.237257003576575
 40
-4.089048622548085
 40
-4.089048622548085
 40
-4.089048622548085
 10
211.2561250062649
 20
-49.2601725771674
 30
-0.0000004793760269
 41
1.0
 10
211.256125006265
 20
-49.0726725771674
 30
-0.0000004793760269
 41
0.7071067811865468
 10
211.4436250062649
 20
-49.0726725771674
 30
-0.0000004793760269
 41
1.0
 10
211.631125006265
 20
-49.0726725771674
 30
-0.0000004793760269
 41
0.7071067811865468
 10
211.6311250062649
 20
-49.2601725771674
 30
-0.0000004793760269
 41
1.0
 10
211.6311250062649
 20
-49.6351725771674
 30
-0.0000004793760269
 41
1.0
 10
211.6311250062649
 20
-50.0101725771674
 30
-0.0000004793760269
 41
1.0
 10
212.6311250062649
 20
-50.0101725771674
 30
-0.0000004793760269
 41
1.0
 10
213.6311250062649
 20
-50.0101725771674
 30
-0.0000004793760269
 41
1.0
 10
213.6311250062649
 20
-49.6351725771674
 30
-0.0000004793760269
 41
1.0
 10
213.6311250062649
 20
-49.2601725771674
 30
-0.0000004793760269
 41
1.0
 10
213.6311250062649
 20
-49.0726725771674
 30
-0.0000004793760269
 41
0.7071067811865476
 10
213.8186250062649
 20
-49.0726725771674
 30
-0.0000004793760269
 41
1.0
 10
214.0061250062649
 20
-49.0726725771674
 30
-0.0000004793760269
 41
0.7071067811865476
 10
214.0061250062649
 20
-49.2601725771674
 30
-0.0000004793760269
 41
1.0
 10
214.5900857668426
 20
-49.2601725771674
 30
-0.0000004793760269
 41
1.0
 10
215.1740465274202
 20
-49.2601725771674
 30
-0.0000004793760269
 41
1.0
 10
215.1740465274202
 20
-46.7601725771674
 30
-0.0000004793760269
 41
1.0
 10
215.1740465274202
 20
-44.2601725771674
 30
-0.0000004793760269
 41
1.0
 10
212.6311250062649
 20
-44.2601725771674
 30
-0.0000004793760269
 41
1.0
 10
210.0882034851097
 20
-44.2601725771674
 30
-0.0000004793760269
 41
1.0
 10
210.0882034851097
 20
-46.7601725771674
 30
-0.0000004793760269
 41
1.0
 10
210.0882034851097
 20
-49.2601725771674
 30
-0.0000004793760269
 41
1.0
 10
210.6721642456873
 20
-49.2601725771674
 30
-0.0000004793760269
 41
1.0
 10
211.2561250062649
 20
-49.2601725771674
 30
-0.0000004793760269
 41
1.0
  0
SPLINE
  5
2C1
330
1F
100
AcDbEntity
  8
Guides
100
AcDbSpline
210
0.0
220
0.0
230
1.0
 70
    15
 71
     2
 72
    28
 73
    25
 74
     0
 42
0.000000001
 43
0.0000000001
 40
-26.06356262970127
 40
-26.06356262970127
 40
-26.06356262970127
 40
-25.76903831842723
 40
-25.76903831842723
 40
-25.47451400715318
 40
-25.47451400715318
 40
-24.72451400715319
 40
-24.72451400715319
 40
-22.72451400715319
 40
-22.72451400715319
 40
-21.97451400715319
 40
-21.97451400715319
 40
-21.67998969587914
 40
-21.67998969587914
 40
-21.3854653846051
 40
-21.3854653846051
 40
-20.23725700357661
 40
-20.23725700357661
 40
-15.23725700357661
 40
-15.23725700357661
 40
-10.23725700357657
 40
-10.23725700357657
 40
-5.237257003576575
 40
-5.237257003576575
 40
-4.089048622548085
 40
-4.089048622548085
 40
-4.089048622548085
 10
205.6077819639544
 20
-49.2601725771674
 30
-0.0000004793760269
 41
1.0
 10
205.6077819639544
 20
-49.0726725771674
 30
-0.0000004793760269
 41
0.7071067811865468
 10
205.7952819639544
 20
-49.0726725771674
 30
-0.0000004793760269
 41
1.0
 10
205.9827819639544
 20
-49.0726725771674
 30
-0.0000004793760269
 41
0.7071067811865468
 10
205.9827819639544
 20
-49.2601725771674
 30
-0.0000004793760269
 41
1.0
 10
205.9827819639544
 20
-49.6351725771674
 30
-0.0000004793760269
 41
1.0
 10
205.9827819639544
 20
-50.0101725771674
 30
-0.0000004793760269
 41
1.0
 10
206.9827819639544
 20
-50.0101725771674
 30
-0.0000004793760269
 41
1.0
 10
207.9827819639544
 20
-50.0101725771674
 30
-0.0000004793760269
 41
1.0
 10
207.9827819639544
 20
-49.6351725771674
 30
-0.0000004793760269
 41
1.0
 10
207.9827819639544
 20
-49.2601725771674
 30
-0.0000004793760269
 41
1.0
 10
207.9827819639544
 20
-49.0726725771674
 30
-0.0000004793760269
 41
0.7071067811865476
 10
208.1702819639544
 20
-49.0726725771674
 30
-0.0000004793760269
 41
1.0
 10
208.3577819639544
 20
-49.0726725771674
 30
-0.0000004793760269
 41
0.7071067811865476
 10
208.3577819639544
 20
-49.2601725771674
 30
-0.0000004793760269
 41
1.0
 10
208.941742724532
 20
-49.2601725771674
 30
-0.0000004793760269
 41
1.0
 10
209.5257034851097
 20
-49.2601725771674
 30
-0.0000004793760269
 41
1.0
 10
209.5257034851097
 20
-46.7601725771674
 30
-0.0000004793760269
 41
1.0
 10
209.5257034851097
 20
-44.2601725771674
 30
-0.0000004793760269
 41
1.0
 10
206.9827819639544
 20
-44.2601725771674
 30
-0.0000004793760269
 41
1.0
 10
204.4398604427991
 20
-44.2601725771674
 30
-0.0000004793760269
 41
1.0
 10
204.4398604427991
 20
-46.7601725771674
 30
-0.0000004793760269
 41
1.0
 10
204.4398604427991
 20
-49.2601725771674
 30
-0.0000004793760269
 41
1.0
 10
205.0238212033768
 20
-49.2601725771674
 30
-0.0000004793760269
 41
1.0
 10
205.6077819639544
 20
-49.2601725771674
 30
-0.0000004793760269
 41
1.0
  0
SPLINE
  5
2C2
330
1F
100
AcDbEntity
  8
Guides
100
AcDbSpline
210
0.0
220
0.0
230
1.0
 70
    15
 71
     2
 72
    12
 73
     9
 74
     0
 42
0.000000001
 43
0.0000000001
 40
-4.089048622548085
 40
-4.089048622548085
 40
-4.089048622548085
 40
-3.767035356361645
 40
-3.767035356361645
 40
-3.445022090175205
 40
-3.445022090175205
 40
-3.123008823988765
 40
-3.123008823988765
 40
-2.80099563457627
 40
-2.80099563457627
 40
-2.80099563457627
 10
205.8948604427992
 20
-45.96517257716739
 30
-0.0000004793760269
 41
1.0
 10
205.8948604427991
 20
-46.1701725771674
 30
-0.0000004793760269
 41
0.7071067811865476
 10
205.6898604427992
 20
-46.17017257716741
 30
-0.0000004793760269
 41
1.0
 10
205.4848604427991
 20
-46.1701725771674
 30
-0.0000004793760269
 41
0.7071067811865476
 10
205.4848604427992
 20
-45.96517257716739
 30
-0.0000004793760269
 41
1.0
 10
205.4848604427991
 20
-45.7601725771674
 30
-0.0000004793760269
 41
0.7071067811865476
 10
205.6898604427992
 20
-45.7601725771674
 30
-0.0000004793760269
 41
1.0
 10
205.8948603736783
 20
-45.7601725771674
 30
-0.0000004793760269
 41
0.7071068510177326
 10
205.8948604427992
 20
-45.96517257716739
 30
-0.0000004793760269
 41
0.9999998603376632
  0
SPLINE
  5
2C3
330
1F
100
AcDbEntity
  8
Guides
100
AcDbSpline
210
0.0
220
0.0
230
1.0
 70
    15
 71
     2
 72
    12
 73
     9
 74
     0
 42
0.000000001
 43
0.0000000001
 40
-2.80099563457627
 40
-2.80099563457627
 40
-2.80099563457627
 40
-2.47898236838983
 40
-2.47898236838983
 40
-2.15696910220339
 40
-2.15696910220339
 40
-1.83495583601695
 40
-1.83495583601695
 40
-1.512942646604455
 40
-1.512942646604455
 40
-1.512942646604455
 10
205.8948604427992
 20
-47.96517257716739
 30
-0.0000004793760269
 41
1.0
 10
205.8948604427991
 20
-48.17017257716739
 30
-0.0000004793760269
 41
0.7071067811865476
 10
205.6898604427992
 20
-48.17017257716741
 30
-0.0000004793760269
 41
1.0
 10
205.4848604427991
 20
-48.17017257716739
 30
-0.0000004793760269
 41
0.7071067811865476
 10
205.4848604427992
 20
-47.96517257716739
 30
-0.0000004793760269
 41
1.0
 10
205.4848604427991
 20
-47.7601725771674
 30
-0.0000004793760269
 41
0.7071067811865476
 10
205.6898604427992
 20
-47.7601725771674
 30
-0.0000004793760269
 41
1.0
 10
205.8948603736783
 20
-47.7601725771674
 30
-0.0000004793760269
 41
0.7071068510177326
 10
205.8948604427992
 20
-47.96517257716739
 30
-0.0000004793760269
 41
0.9999998603376632
  0
SPLINE
  5
2C4
330
1F
100
AcDbEntity
  8
Guides
100
AcDbSpline
210
0.0
220
0.0
230
1.0
 70
    15
 71
     2
 72
    12
 73
     9
 74
     0
 42
0.000000001
 43
0.0000000001
 40
-1.512942646604455
 40
-1.512942646604455
 40
-1.512942646604455
 40
-1.19092938041801
 40
-1.19092938041801
 40
-0.8689161142315642
 40
-0.8689161142315642
 40
-0.5469028480451472
 40
-0.5469028480451472
 40
-0.2248896586326454
 40
-0.2248896586326454
 40
-0.2248896586326454
 10
208.6448604427992
 20
-45.96517257716739
 30
-0.0000004793760269
 41
1.0
 10
208.6448604427991
 20
-46.1701725771674
 30
-0.0000004793760269
 41
0.7071067811865476
 10
208.4398604427992
 20
-46.17017257716741
 30
-0.0000004793760269
 41
1.0
 10
208.2348604427992
 20
-46.1701725771674
 30
-0.0000004793760269
 41
0.7071067811865476
 10
208.2348604427992
 20
-45.96517257716739
 30
-0.0000004793760269
 41
1.0
 10
208.2348604427992
 20
-45.7601725771674
 30
-0.0000004793760269
 41
0.7071067811865476
 10
208.4398604427992
 20
-45.7601725771674
 30
-0.0000004793760269
 41
1.0
 10
208.6448603736784
 20
-45.7601725771674
 30
-0.0000004793760269
 41
0.7071068510177352
 10
208.6448604427992
 20
-45.96517257716739
 30
-0.0000004793760269
 41
0.9999998603376581
  0
SPLINE
  5
2C5
330
1F
100
AcDbEntity
  8
Guides
100
AcDbSpline
210
0.0
220
0.0
230
1.0
 70
    15
 71
     2
 72
    12
 73
     9
 74
     0
 42
0.000000001
 43
0.0000000001
 40
-0.2248896586326454
 40
-0.2248896586326454
 40
-0.2248896586326454
 40
0.0971235499733494
 40
0.0971235499733494
 40
0.4191368353532594
 40
0.4191368353532594
 40
0.7411501207331694
 40
0.7411501207331694
 40
1.063163329339164
 40
1.063163329339164
 40
1.063163329339164
 10
208.6448604427992
 20
-47.96517257716739
 30
-0.0000004793760269
 41
0.9999998603376581
 10
208.6448603736784
 20
-48.1701725771674
 30
-0.0000004793760269
 41
0.7071068510177352
 10
208.4398604427992
 20
-48.17017257716741
 30
-0.0000004793760269
 41
1.0
 10
208.2348604427992
 20
-48.17017257716739
 30
-0.0000004793760269
 41
0.7071067811865476
 10
208.2348604427992
 20
-47.96517257716739
 30
-0.0000004793760269
 41
1.0
 10
208.2348604427992
 20
-47.7601725771674
 30
-0.0000004793760269
 41
0.7071067811865476
 10
208.4398604427992
 20
-47.7601725771674
 30
-0.0000004793760269
 41
1.0
 10
208.6448603736783
 20
-47.76017257716739
 30
-0.0000004793760269
 41
0.7071068510177311
 10
208.6448604427992
 20
-47.96517257716741
 30
-0.0000004793760269
 41
0.9999998603376663
  0
SPLINE
  5
2C6
330
1F
100
AcDbEntity
  8
Guides
100
AcDbSpline
210
0.0
220
0.0
230
1.0
 70
    15
 71
     2
 72
    28
 73
    25
 74
     0
 42
0.000000001
 43
0.0000000001
 40
-26.06356262970127
 40
-26.06356262970127
 40
-26.06356262970127
 40
-25.76903831842723
 40
-25.76903831842723
 40
-25.47451400715318
 40
-25.47451400715318
 40
-24.72451400715319
 40
-24.72451400715319
 40
-22.72451400715319
 40
-22.72451400715319
 40
-21.97451400715319
 40
-21.97451400715319
 40
-21.67998969587914
 40
-21.67998969587914
 40
-21.3854653846051
 40
-21.3854653846051
 40
-20.23725700357661
 40
-20.23725700357661
 40
-15.23725700357661
 40
-15.23725700357661
 40
-10.23725700357657
 40
-10.23725700357657
 40
-5.237257003576575
 40
-5.237257003576575
 40
-4.089048622548085
 40
-4.089048622548085
 40
-4.089048622548085
 10
199.9594389216438
 20
-49.2601725771674
 30
-0.0000004793760269
 41
1.0
 10
199.9594389216439
 20
-49.0726725771674
 30
-0.0000004793760269
 41
0.7071067811865468
 10
200.1469389216438
 20
-49.0726725771674
 30
-0.0000004793760269
 41
1.0
 10
200.3344389216439
 20
-49.0726725771674
 30
-0.0000004793760269
 41
0.7071067811865468
 10
200.3344389216438
 20
-49.2601725771674
 30
-0.0000004793760269
 41
1.0
 10
200.3344389216438
 20
-49.6351725771674
 30
-0.0000004793760269
 41
1.0
 10
200.3344389216438
 20
-50.0101725771674
 30
-0.0000004793760269
 41
1.0
 10
201.3344389216438
 20
-50.0101725771674
 30
-0.0000004793760269
 41
1.0
 10
202.3344389216438
 20
-50.0101725771674
 30
-0.0000004793760269
 41
1.0
 10
202.3344389216438
 20
-49.6351725771674
 30
-0.0000004793760269
 41
1.0
 10
202.3344389216438
 20
-49.2601725771674
 30
-0.0000004793760269
 41
1.0
 10
202.3344389216438
 20
-49.0726725771674
 30
-0.0000004793760269
 41
0.7071067811865476
 10
202.5219389216438
 20
-49.0726725771674
 30
-0.0000004793760269
 41
1.0
 10
202.7094389216438
 20
-49.0726725771674
 30
-0.0000004793760269
 41
0.7071067811865476
 10
202.7094389216438
 20
-49.2601725771674
 30
-0.0000004793760269
 41
1.0
 10
203.2933996822215
 20
-49.2601725771674
 30
-0.0000004793760269
 41
1.0
 10
203.8773604427991
 20
-49.2601725771674
 30
-0.0000004793760269
 41
1.0
 10
203.8773604427991
 20
-46.7601725771674
 30
-0.0000004793760269
 41
1.0
 10
203.8773604427991
 20
-44.2601725771674
 30
-0.0000004793760269
 41
1.0
 10
201.3344389216438
 20
-44.2601725771674
 30
-0.0000004793760269
 41
1.0
 10
198.7915174004885
 20
-44.2601725771674
 30
-0.0000004793760269
 41
1.0
 10
198.7915174004885
 20
-46.7601725771674
 30
-0.0000004793760269
 41
1.0
 10
198.7915174004885
 20
-49.2601725771674
 30
-0.0000004793760269
 41
1.0
 10
199.3754781610662
 20
-49.2601725771674
 30
-0.0000004793760269
 41
1.0
 10
199.9594389216438
 20
-49.2601725771674
 30
-0.0000004793760269
 41
1.0
  0
SPLINE
  5
2C7
330
1F
100
AcDbEntity
  8
Guides
100
AcDbSpline
210
0.0
220
0.0
230
1.0
 70
    15
 71
     2
 72
    12
 73
     9
 74
     0
 42
0.000000001
 43
0.0000000001
 40
-4.089048622548085
 40
-4.089048622548085
 40
-4.089048622548085
 40
-3.767035356361645
 40
-3.767035356361645
 40
-3.445022090175205
 40
-3.445022090175205
 40
-3.123008823988765
 40
-3.123008823988765
 40
-2.80099563457627
 40
-2.80099563457627
 40
-2.80099563457627
 10
200.2465174004886
 20
-45.96517257716739
 30
-0.0000004793760269
 41
1.0
 10
200.2465174004886
 20
-46.1701725771674
 30
-0.0000004793760269
 41
0.7071067811865476
 10
200.0415174004886
 20
-46.17017257716741
 30
-0.0000004793760269
 41
1.0
 10
199.8365174004886
 20
-46.1701725771674
 30
-0.0000004793760269
 41
0.7071067811865476
 10
199.8365174004886
 20
-45.96517257716739
 30
-0.0000004793760269
 41
1.0
 10
199.8365174004886
 20
-45.7601725771674
 30
-0.0000004793760269
 41
0.7071067811865476
 10
200.0415174004886
 20
-45.7601725771674
 30
-0.0000004793760269
 41
1.0
 10
200.2465173313678
 20
-45.7601725771674
 30
-0.0000004793760269
 41
0.7071068510177326
 10
200.2465174004886
 20
-45.96517257716739
 30
-0.0000004793760269
 41
0.9999998603376632
  0
SPLINE
  5
2C8
330
1F
100
AcDbEntity
  8
Guides
100
AcDbSpline
210
0.0
220
0.0
230
1.0
 70
    15
 71
     2
 72
    12
 73
     9
 74
     0
 42
0.000000001
 43
0.0000000001
 40
-2.80099563457627
 40
-2.80099563457627
 40
-2.80099563457627
 40
-2.47898236838983
 40
-2.47898236838983
 40
-2.15696910220339
 40
-2.15696910220339
 40
-1.83495583601695
 40
-1.83495583601695
 40
-1.512942646604455
 40
-1.512942646604455
 40
-1.512942646604455
 10
200.2465174004886
 20
-47.96517257716739
 30
-0.0000004793760269
 41
1.0
 10
200.2465174004886
 20
-48.17017257716739
 30
-0.0000004793760269
 41
0.7071067811865476
 10
200.0415174004886
 20
-48.17017257716741
 30
-0.0000004793760269
 41
1.0
 10
199.8365174004886
 20
-48.17017257716739
 30
-0.0000004793760269
 41
0.7071067811865476
 10
199.8365174004886
 20
-47.96517257716739
 30
-0.0000004793760269
 41
1.0
 10
199.8365174004886
 20
-47.7601725771674
 30
-0.0000004793760269
 41
0.7071067811865476
 10
200.0415174004886
 20
-47.7601725771674
 30
-0.0000004793760269
 41
1.0
 10
200.2465173313678
 20
-47.7601725771674
 30
-0.0000004793760269
 41
0.7071068510177326
 10
200.2465174004886
 20
-47.96517257716739
 30
-0.0000004793760269
 41
0.9999998603376632
  0
SPLINE
  5
2C9
330
1F
100
AcDbEntity
  8
Guides
100
AcDbSpline
210
0.0
220
0.0
230
1.0
 70
    15
 71
     2
 72
    12
 73
     9
 74
     0
 42
0.000000001
 43
0.0000000001
 40
-1.512942646604455
 40
-1.512942646604455
 40
-1.512942646604455
 40
-1.19092938041801
 40
-1.19092938041801
 40
-0.8689161142315642
 40
-0.8689161142315642
 40
-0.5469028480451472
 40
-0.5469028480451472
 40
-0.2248896586326454
 40
-0.2248896586326454
 40
-0.2248896586326454
 10
202.9965174004886
 20
-45.96517257716739
 30
-0.0000004793760269
 41
1.0
 10
202.9965174004886
 20
-46.1701725771674
 30
-0.0000004793760269
 41
0.7071067811865476
 10
202.7915174004886
 20
-46.17017257716741
 30
-0.0000004793760269
 41
1.0
 10
202.5865174004886
 20
-46.1701725771674
 30
-0.0000004793760269
 41
0.7071067811865476
 10
202.5865174004886
 20
-45.96517257716739
 30
-0.0000004793760269
 41
1.0
 10
202.5865174004886
 20
-45.7601725771674
 30
-0.0000004793760269
 41
0.7071067811865476
 10
202.7915174004886
 20
-45.7601725771674
 30
-0.0000004793760269
 41
1.0
 10
202.9965173313678
 20
-45.7601725771674
 30
-0.0000004793760269
 41
0.7071068510177352
 10
202.9965174004886
 20
-45.96517257716739
 30
-0.0000004793760269
 41
0.9999998603376581
  0
SPLINE
  5
2CA
330
1F
100
AcDbEntity
  8
Guides
100
AcDbSpline
210
0.0
220
0.0
230
1.0
 70
    15
 71
     2
 72
    12
 73
     9
 74
     0
 42
0.000000001
 43
0.0000000001
 40
-0.2248896586326454
 40
-0.2248896586326454
 40
-0.2248896586326454
 40
0.0971235499733494
 40
0.0971235499733494
 40
0.4191368353532594
 40
0.4191368353532594
 40
0.7411501207331694
 40
0.7411501207331694
 40
1.063163329339164
 40
1.063163329339164
 40
1.063163329339164
 10
202.9965174004886
 20
-47.96517257716739
 30
-0.0000004793760269
 41
0.9999998603376581
 10
202.9965173313678
 20
-48.1701725771674
 30
-0.0000004793760269
 41
0.7071068510177352
 10
202.7915174004886
 20
-48.17017257716741
 30
-0.0000004793760269
 41
1.0
 10
202.5865174004886
 20
-48.17017257716739
 30
-0.0000004793760269
 41
0.7071067811865476
 10
202.5865174004886
 20
-47.96517257716739
 30
-0.0000004793760269
 41
1.0
 10
202.5865174004886
 20
-47.7601725771674
 30
-0.0000004793760269
 41
0.7071067811865476
 10
202.7915174004886
 20
-47.7601725771674
 30
-0.0000004793760269
 41
1.0
 10
202.9965173313678
 20
-47.76017257716739
 30
-0.0000004793760269
 41
0.7071068510177311
 10
202.9965174004887
 20
-47.96517257716741
 30
-0.0000004793760269
 41
0.9999998603376663
  0
SPLINE
  5
2CB
330
1F
100
AcDbEntity
  8
Guides
100
AcDbSpline
210
0.0
220
0.0
230
1.0
 70
    15
 71
     2
 72
    12
 73
     9
 74
     0
 42
0.000000001
 43
0.0000000001
 40
-1.288052987971815
 40
-1.288052987971815
 40
-1.288052987971815
 40
-0.9660397793658362
 40
-0.9660397793658362
 40
-0.6440264939859076
 40
-0.6440264939859076
 40
-0.3220132086059788
 40
-0.3220132086059788
 40
0.0
 40
0.0
 40
0.0
 10
235.5865174004767
 20
-53.30517257716729
 30
-0.0000000000000077
 41
0.9999998603376632
 10
235.5865174695975
 20
-53.51017257716732
 30
-0.0000000000000018
 41
0.7071068510177326
 10
235.7915174004766
 20
-53.51017257716734
 30
0.0000000000000071
 41
1.0
 10
235.9965174004766
 20
-53.51017257716734
 30
0.0000000000000079
 41
0.7071067811865476
 10
235.9965174004766
 20
-53.3051725771673
 30
0.0000000000000213
 41
1.0
 10
235.9965174004766
 20
-53.10017257716732
 30
0.0000000000000079
 41
0.7071067811865476
 10
235.7915174004766
 20
-53.10017257716731
 30
0.0000000000000071
 41
1.0
 10
235.5865174695975
 20
-53.10017257716731
 30
-0.0000000000000018
 41
0.7071068510177326
 10
235.5865174004767
 20
-53.30517257716729
 30
-0.0000000000000077
 41
0.9999998603376632
  0
SPLINE
  5
2CC
330
1F
100
AcDbEntity
  8
Guides
100
AcDbSpline
210
0.0
220
0.0
230
1.0
 70
    15
 71
     2
 72
    12
 73
     9
 74
     0
 42
0.000000001
 43
0.0000000001
 40
-1.288052987971815
 40
-1.288052987971815
 40
-1.288052987971815
 40
-0.9660397985593203
 40
-0.9660397985593203
 40
-0.6440265323728801
 40
-0.6440265323728801
 40
-0.3220132661864401
 40
-0.3220132661864401
 40
0.0
 40
0.0
 40
0.0
 10
235.5865174004767
 20
-55.30517257716727
 30
-0.0000000000000077
 41
0.9999998603376632
 10
235.5865174695975
 20
-55.5101725771673
 30
-0.0000000000000018
 41
0.7071068510177326
 10
235.7915174004766
 20
-55.51017257716734
 30
0.0000000000000071
 41
1.0
 10
235.9965174004766
 20
-55.51017257716732
 30
0.000000000000028
 41
0.7071067811865476
 10
235.9965174004766
 20
-55.3051725771673
 30
0.0000000000000284
 41
1.0
 10
235.9965174004766
 20
-55.10017257716733
 30
0.000000000000028
 41
0.7071067811865476
 10
235.7915174004766
 20
-55.10017257716731
 30
0.0000000000000071
 41
1.0
 10
235.5865174004766
 20
-55.10017257716733
 30
-0.0000000000000122
 41
0.7071067811865476
 10
235.5865174004766
 20
-55.3051725771673
 30
0.0
 41
1.0
  0
SPLINE
  5
2CD
330
1F
100
AcDbEntity
  8
Guides
100
AcDbSpline
210
0.0
220
0.0
230
1.0
 70
    15
 71
     2
 72
    12
 73
     9
 74
     0
 42
0.000000001
 43
0.0000000001
 40
-1.288052987971815
 40
-1.288052987971815
 40
-1.288052987971815
 40
-0.9660397793658362
 40
-0.9660397793658362
 40
-0.6440264939859076
 40
-0.6440264939859076
 40
-0.3220132086059788
 40
-0.3220132086059788
 40
0.0
 40
0.0
 40
0.0
 10
199.9965174005007
 20
-55.30517257716727
 30
-0.0000000000000077
 41
0.9999998603376632
 10
199.9965173313799
 20
-55.10017257716729
 30
0.0000000000000183
 41
0.7071068510177326
 10
199.7915174005007
 20
-55.10017257716731
 30
-0.0000000000000071
 41
1.0
 10
199.5865174005007
 20
-55.1001725771673
 30
-0.0000000000000323
 41
0.7071067811865476
 10
199.5865174005007
 20
-55.3051725771673
 30
-0.0000000000000213
 41
1.0
 10
199.5865174005007
 20
-55.51017257716732
 30
-0.0000000000000323
 41
0.7071067811865476
 10
199.7915174005007
 20
-55.51017257716734
 30
-0.0000000000000071
 41
1.0
 10
199.9965173313798
 20
-55.5101725771673
 30
0.0000000000000183
 41
0.7071068510177326
 10
199.9965174005007
 20
-55.30517257716727
 30
-0.0000000000000077
 41
0.9999998603376632
  0
SPLINE
  5
2CE
330
1F
100
AcDbEntity
  8
Guides
100
AcDbSpline
210
0.0
220
0.0
230
1.0
 70
    15
 71
     2
 72
    12
 73
     9
 74
     0
 42
0.000000001
 43
0.0000000001
 40
-1.288052987971815
 40
-1.288052987971815
 40
-1.288052987971815
 40
-0.9660397985593203
 40
-0.9660397985593203
 40
-0.6440265323728801
 40
-0.6440265323728801
 40
-0.3220132661864401
 40
-0.3220132661864401
 40
0.0
 40
0.0
 40
0.0
 10
199.9965174005007
 20
-53.30517257716729
 30
-0.0000000000000077
 41
0.9999998603376632
 10
199.9965173313799
 20
-53.10017257716731
 30
0.0000000000000183
 41
0.7071068510177326
 10
199.7915174005008
 20
-53.10017257716731
 30
-0.0000000000000071
 41
1.0
 10
199.5865174005008
 20
-53.10017257716732
 30
-0.0000000000000323
 41
0.7071067811865476
 10
199.5865174005007
 20
-53.3051725771673
 30
-0.0000000000000213
 41
1.0
 10
199.5865174005008
 20
-53.5101725771673
 30
-0.0000000000000323
 41
0.7071067811865476
 10
199.7915174005007
 20
-53.51017257716734
 30
-0.0000000000000071
 41
1.0
 10
199.9965174005007
 20
-53.51017257716734
 30
0.0000000000000079
 41
0.7071067811865476
 10
199.9965174005007
 20
-53.3051725771673
 30
0.0
 41
1.0
  0
SPLINE
  5
2CF
330
1F
100
AcDbEntity
  8
Guides
100
AcDbSpline
210
0.0
220
0.0
230
1.0
 70
    24
 71
     2
 72
     6
 73
     3
 74
     0
 42
0.000000001
 43
0.0000000001
 40
86.00000000000003
 40
86.00000000000003
 40
86.00000000000003
 40
91.0
 40
91.0
 40
91.0
 10
236.7915174004886
 20
-52.01017257716742
 30
-0.0000002396880134
 10
236.7915174004885
 20
-54.51017257716738
 30
-0.0000001198440067
 10
236.7915174004885
 20
-57.01017257716734
 30
0.0
  0
SPLINE
  5
2D0
330
1F
100
AcDbEntity
  8
Guides
100
AcDbSpline
210
0.0
220
0.0
230
1.0
 70
    24
 71
     2
 72
     6
 73
     3
 74
     0
 42
0.000000001
 43
0.0000000001
 40
91.0
 40
91.0
 40
91.0
 40
129.0000000000001
 40
129.0000000000001
 40
129.0000000000001
 10
236.7915174004885
 20
-57.01017257716734
 30
0.0
 10
217.7915174004885
 20
-57.01017257716734
 30
0.0
 10
198.7915174004885
 20
-57.01017257716734
 30
0.0
  0
SPLINE
  5
2D1
330
1F
100
AcDbEntity
  8
Guides
100
AcDbSpline
210
0.0
220
0.0
230
1.0
 70
    24
 71
     2
 72
     6
 73
     3
 74
     0
 42
0.000000001
 43
0.0000000001
 40
129.0000000000001
 40
129.0000000000001
 40
129.0000000000001
 40
134.0
 40
134.0
 40
134.0
 10
198.7915174004885
 20
-57.01017257716734
 30
0.0
 10
198.7915174004885
 20
-54.51017257716737
 30
-0.0000001198440067
 10
198.7915174004885
 20
-52.0101725771674
 30
-0.0000002396880134
  0
POLYLINE
  5
2D2
330
1F
100
AcDbEntity
  8
Guides
100
AcDb3dPolyline
 66
     1
 10
0.0
 20
0.0
 30
0.0
 70
     8
  0
VERTEX
  5
2D3
330
2D2
100
AcDbEntity
  8
Guides
100
AcDbVertex
100
AcDb3dPolylineVertex
 10
198.7915174004885
 20
-52.0101725771674
 30
-0.0000002396880134
 70
    32
  0
VERTEX
  5
2D4
330
2D2
100
AcDbEntity
  8
Guides
100
AcDbVertex
100
AcDb3dPolylineVertex
 10
198.7915174004885
 20
-51.2601725771674
 30
-0.0000004793760269
 70
    32
  0
VERTEX
  5
2D5
330
2D2
100
AcDbEntity
  8
Guides
100
AcDbVertex
100
AcDb3dPolylineVertex
 10
200.7915174004885
 20
-51.2601725771674
 30
-0.0000004793760269
 70
    32
  0
VERTEX
  5
2D6
330
2D2
100
AcDbEntity
  8
Guides
100
AcDbVertex
100
AcDb3dPolylineVertex
 10
200.7915174004885
 20
-52.0101725771674
 30
-0.0000004793760269
 70
    32
  0
SEQEND
  5
2D7
330
2D2
100
AcDbEntity
  8
Guides
  0
ARC
  5
2D8
330
1F
100
AcDbEntity
  8
Guides
100
AcDbCircle
 10
200.9790174004885
 20
-52.0101725771674
 30
-0.0000004793760269
 40
0.1875
100
AcDbArc
 50
180.0
 51
0.0
  0
SPLINE
  5
2D9
330
1F
100
AcDbEntity
  8
Guides
100
AcDbSpline
210
0.0
220
0.0
230
1.0
 70
    24
 71
     2
 72
     6
 73
     3
 74
     0
 42
0.000000001
 43
0.0000000001
 40
138.0890486225481
 40
138.0890486225481
 40
138.0890486225481
 40
171.3390486225481
 40
171.3390486225481
 40
171.3390486225481
 10
201.1665174004885
 20
-52.0101725771674
 30
-0.0000004793760269
 10
217.7915174004885
 20
-52.0101725771674
 30
-0.0000004793760269
 10
234.4165174004885
 20
-52.0101725771674
 30
-0.0000004793760269
  0
ARC
  5
2DA
330
1F
100
AcDbEntity
  8
Guides
100
AcDbCircle
 10
234.6040174004885
 20
-52.0101725771674
 30
-0.0000004793760269
 40
0.1875
100
AcDbArc
 50
180.0
 51
0.0
  0
POLYLINE
  5
2DB
330
1F
100
AcDbEntity
  8
Guides
100
AcDb3dPolyline
 66
     1
 10
0.0
 20
0.0
 30
0.0
 70
     8
  0
VERTEX
  5
2DC
330
2DB
100
AcDbEntity
  8
Guides
100
AcDbVertex
100
AcDb3dPolylineVertex
 10
234.7915174004885
 20
-52.0101725771674
 30
-0.0000004793760269
 70
    32
  0
VERTEX
  5
2DD
330
2DB
100
AcDbEntity
  8
Guides
100
AcDbVertex
100
AcDb3dPolylineVertex
 10
234.7915174004885
 20
-51.2601725771674
 30
-0.0000004793760269
 70
    32
  0
VERTEX
  5
2DE
330
2DB
100
AcDbEntity
  8
Guides
100
AcDbVertex
100
AcDb3dPolylineVertex
 10
236.7915174004885
 20
-51.2601725771674
 30
-0.0000004793760269
 70
    32
  0
VERTEX
  5
2DF
330
2DB
100
AcDbEntity
  8
Guides
100
AcDbVertex
100
AcDb3dPolylineVertex
 10
236.7915174004886
 20
-52.01017257716742
 30
-0.0000002396880134
 70
    32
  0
SEQEND
  5
2E0
330
2DB
100
AcDbEntity
  8
Guides
  0
SPLINE
  5
2E1
330
1F
100
AcDbEntity
  8
Guides
100
AcDbSpline
210
0.0
220
0.0
230
1.0
 70
    24
 71
     2
 72
     6
 73
     3
 74
     0
 42
0.000000001
 43
0.0000000001
 40
86.00000000000003
 40
86.00000000000003
 40
86.00000000000003
 40
91.0
 40
91.0
 40
91.0
 10
236.7915174004885
 20
-59.07267257716731
 30
-0.0000002396880134
 10
236.7915174004885
 20
-61.57267257716727
 30
-0.0000001198440067
 10
236.7915174004885
 20
-64.07267257716722
 30
0.0
  0
SPLINE
  5
2E2
330
1F
100
AcDbEntity
  8
Guides
100
AcDbSpline
210
0.0
220
0.0
230
1.0
 70
    24
 71
     2
 72
     6
 73
     3
 74
     0
 42
0.000000001
 43
0.0000000001
 40
91.0
 40
91.0
 40
91.0
 40
129.0000000000001
 40
129.0000000000001
 40
129.0000000000001
 10
236.7915174004885
 20
-64.07267257716722
 30
0.0
 10
217.7915174004885
 20
-64.07267257716722
 30
0.0
 10
198.7915174004885
 20
-64.07267257716722
 30
0.0
  0
SPLINE
  5
2E3
330
1F
100
AcDbEntity
  8
Guides
100
AcDbSpline
210
0.0
220
0.0
230
1.0
 70
    24
 71
     2
 72
     6
 73
     3
 74
     0
 42
0.000000001
 43
0.0000000001
 40
129.0000000000001
 40
129.0000000000001
 40
129.0000000000001
 40
134.0
 40
134.0
 40
134.0
 10
198.7915174004885
 20
-64.07267257716722
 30
0.0
 10
198.7915174004885
 20
-61.57267257716725
 30
-0.0000001198440067
 10
198.7915174004885
 20
-59.07267257716728
 30
-0.0000002396880134
  0
POLYLINE
  5
2E4
330
1F
100
AcDbEntity
  8
Guides
100
AcDb3dPolyline
 66
     1
 10
0.0
 20
0.0
 30
0.0
 70
     8
  0
VERTEX
  5
2E5
330
2E4
100
AcDbEntity
  8
Guides
100
AcDbVertex
100
AcDb3dPolylineVertex
 10
198.7915174004885
 20
-59.07267257716728
 30
-0.0000002396880134
 70
    32
  0
VERTEX
  5
2E6
330
2E4
100
AcDbEntity
  8
Guides
100
AcDbVertex
100
AcDb3dPolylineVertex
 10
198.7915174004885
 20
-58.32267257716728
 30
-0.0000004793760269
 70
    32
  0
VERTEX
  5
2E7
330
2E4
100
AcDbEntity
  8
Guides
100
AcDbVertex
100
AcDb3dPolylineVertex
 10
200.7915174004885
 20
-58.32267257716728
 30
-0.0000004793760269
 70
    32
  0
VERTEX
  5
2E8
330
2E4
100
AcDbEntity
  8
Guides
100
AcDbVertex
100
AcDb3dPolylineVertex
 10
200.7915174004885
 20
-59.07267257716728
 30
-0.0000004793760269
 70
    32
  0
SEQEND
  5
2E9
330
2E4
100
AcDbEntity
  8
Guides
  0
ARC
  5
2EA
330
1F
100
AcDbEntity
  8
Guides
100
AcDbCircle
 10
200.9790174004885
 20
-59.07267257716728
 30
-0.0000004793760269
 40
0.1875
100
AcDbArc
 50
180.0
 51
0.0
  0
SPLINE
  5
2EB
330
1F
100
AcDbEntity
  8
Guides
100
AcDbSpline
210
0.0
220
0.0
230
1.0
 70
    24
 71
     2
 72
     6
 73
     3
 74
     0
 42
0.000000001
 43
0.0000000001
 40
138.0890486225481
 40
138.0890486225481
 40
138.0890486225481
 40
171.3390486225481
 40
171.3390486225481
 40
171.3390486225481
 10
201.1665174004885
 20
-59.07267257716728
 30
-0.0000004793760269
 10
217.7915174004885
 20
-59.07267257716728
 30
-0.0000004793760269
 10
234.4165174004885
 20
-59.07267257716728
 30
-0.0000004793760269
  0
ARC
  5
2EC
330
1F
100
AcDbEntity
  8
Guides
100
AcDbCircle
 10
234.6040174004885
 20
-59.07267257716728
 30
-0.0000004793760269
 40
0.1875
100
AcDbArc
 50
180.0
 51
0.0
  0
POLYLINE
  5
2ED
330
1F
100
AcDbEntity
  8
Guides
100
AcDb3dPolyline
 66
     1
 10
0.0
 20
0.0
 30
0.0
 70
     8
  0
VERTEX
  5
2EE
330
2ED
100
AcDbEntity
  8
Guides
100
AcDbVertex
100
AcDb3dPolylineVertex
 10
234.7915174004885
 20
-59.07267257716728
 30
-0.0000004793760269
 70
    32
  0
VERTEX
  5
2EF
330
2ED
100
AcDbEntity
  8
Guides
100
AcDbVertex
100
AcDb3dPolylineVertex
 10
234.7915174004885
 20
-58.32267257716728
 30
-0.0000004793760269
 70
    32
  0
VERTEX
  5
2F0
330
2ED
100
AcDbEntity
  8
Guides
100
AcDbVertex
100
AcDb3dPolylineVertex
 10
236.7915174004885
 20
-58.32267257716728
 30
-0.0000004793760269
 70
    32
  0
VERTEX
  5
2F1
330
2ED
100
AcDbEntity
  8
Guides
100
AcDbVertex
100
AcDb3dPolylineVertex
 10
236.7915174004885
 20
-59.07267257716731
 30
-0.0000002396880134
 70
    32
  0
SEQEND
  5
2F2
330
2ED
100
AcDbEntity
  8
Guides
  0
SPLINE
  5
2F3
330
1F
100
AcDbEntity
  8
Guides
100
AcDbSpline
210
0.0
220
0.0
230
1.0
 70
    15
 71
     2
 72
    12
 73
     9
 74
     0
 42
0.000000001
 43
0.0000000001
 40
-1.288052987971815
 40
-1.288052987971815
 40
-1.288052987971815
 40
-0.9660397985593203
 40
-0.9660397985593203
 40
-0.6440265323728801
 40
-0.6440265323728801
 40
-0.3220132661864401
 40
-0.3220132661864401
 40
0.0
 40
0.0
 40
0.0
 10
199.9965174005007
 20
-60.36767257716722
 30
-0.0000000000000077
 41
0.9999998603376632
 10
199.9965173313799
 20
-60.16267257716719
 30
0.0000000000000183
 41
0.7071068510177326
 10
199.7915174005007
 20
-60.1626725771672
 30
-0.0000000000000071
 41
1.0
 10
199.5865174005008
 20
-60.16267257716723
 30
-0.0000000000000323
 41
0.7071067811865476
 10
199.5865174005007
 20
-60.36767257716718
 30
-0.0000000000000213
 41
1.0
 10
199.5865174005007
 20
-60.5726725771672
 30
-0.0000000000000323
 41
0.7071067811865476
 10
199.7915174005007
 20
-60.57267257716722
 30
-0.0000000000000071
 41
1.0
 10
199.9965174005007
 20
-60.57267257716725
 30
0.0000000000000079
 41
0.7071067811865476
 10
199.9965174005007
 20
-60.36767257716718
 30
0.0
 41
1.0
  0
SPLINE
  5
2F4
330
1F
100
AcDbEntity
  8
Guides
100
AcDbSpline
210
0.0
220
0.0
230
1.0
 70
    15
 71
     2
 72
    12
 73
     9
 74
     0
 42
0.000000001
 43
0.0000000001
 40
-1.288052987971815
 40
-1.288052987971815
 40
-1.288052987971815
 40
-0.9660397793658362
 40
-0.9660397793658362
 40
-0.6440264939859076
 40
-0.6440264939859076
 40
-0.3220132086059788
 40
-0.3220132086059788
 40
0.0
 40
0.0
 40
0.0
 10
199.9965174005007
 20
-62.3676725771672
 30
-0.0000000000000077
 41
0.9999998603376632
 10
199.9965173313798
 20
-62.16267257716717
 30
0.0000000000000183
 41
0.7071068510177326
 10
199.7915174005007
 20
-62.1626725771672
 30
-0.0000000000000071
 41
1.0
 10
199.5865174005007
 20
-62.16267257716721
 30
-0.0000000000000323
 41
0.7071067811865476
 10
199.5865174005007
 20
-62.36767257716718
 30
-0.0000000000000213
 41
1.0
 10
199.5865174005007
 20
-62.57267257716722
 30
-0.0000000000000323
 41
0.7071067811865476
 10
199.7915174005007
 20
-62.57267257716722
 30
-0.0000000000000071
 41
1.0
 10
199.9965173313798
 20
-62.57267257716718
 30
0.0000000000000183
 41
0.7071068510177326
 10
199.9965174005007
 20
-62.3676725771672
 30
-0.0000000000000077
 41
0.9999998603376632
  0
SPLINE
  5
2F5
330
1F
100
AcDbEntity
  8
Guides
100
AcDbSpline
210
0.0
220
0.0
230
1.0
 70
    15
 71
     2
 72
    12
 73
     9
 74
     0
 42
0.000000001
 43
0.0000000001
 40
-1.288052987971815
 40
-1.288052987971815
 40
-1.288052987971815
 40
-0.9660397985593203
 40
-0.9660397985593203
 40
-0.6440265323728801
 40
-0.6440265323728801
 40
-0.3220132661864401
 40
-0.3220132661864401
 40
0.0
 40
0.0
 40
0.0
 10
235.5865174004766
 20
-62.3676725771672
 30
-0.0000000000000077
 41
0.9999998603376632
 10
235.5865174695974
 20
-62.57267257716718
 30
-0.0000000000000018
 41
0.7071068510177326
 10
235.7915174004766
 20
-62.57267257716722
 30
0.0000000000000071
 41
1.0
 10
235.9965174004766
 20
-62.57267257716722
 30
0.000000000000028
 41
0.7071067811865476
 10
235.9965174004766
 20
-62.36767257716718
 30
0.0000000000000284
 41
1.0
 10
235.9965174004766
 20
-62.16267257716724
 30
0.000000000000028
 41
0.7071067811865476
 10
235.7915174004766
 20
-62.1626725771672
 30
0.0000000000000071
 41
1.0
 10
235.5865174004766
 20
-62.16267257716724
 30
-0.0000000000000122
 41
0.7071067811865476
 10
235.5865174004766
 20
-62.36767257716718
 30
0.0
 41
1.0
  0
SPLINE
  5
2F6
330
1F
100
AcDbEntity
  8
Guides
100
AcDbSpline
210
0.0
220
0.0
230
1.0
 70
    15
 71
     2
 72
    12
 73
     9
 74
     0
 42
0.000000001
 43
0.0000000001
 40
-1.288052987971815
 40
-1.288052987971815
 40
-1.288052987971815
 40
-0.9660397793658362
 40
-0.9660397793658362
 40
-0.6440264939859076
 40
-0.6440264939859076
 40
-0.3220132086059788
 40
-0.3220132086059788
 40
0.0
 40
0.0
 40
0.0
 10
235.5865174004766
 20
-60.36767257716722
 30
-0.0000000000000077
 41
0.9999998603376632
 10
235.5865174695974
 20
-60.5726725771672
 30
-0.0000000000000018
 41
0.7071068510177326
 10
235.7915174004766
 20
-60.57267257716722
 30
0.0000000000000071
 41
1.0
 10
235.9965174004766
 20
-60.57267257716725
 30
0.0000000000000079
 41
0.7071067811865476
 10
235.9965174004766
 20
-60.36767257716718
 30
0.0000000000000213
 41
1.0
 10
235.9965174004766
 20
-60.16267257716723
 30
0.0000000000000079
 41
0.7071067811865476
 10
235.7915174004766
 20
-60.1626725771672
 30
0.0000000000000071
 41
1.0
 10
235.5865174695974
 20
-60.16267257716719
 30
-0.0000000000000018
 41
0.7071068510177326
 10
235.5865174004766
 20
-60.36767257716722
 30
-0.0000000000000077
 41
0.9999998603376632
  0
POLYLINE
  5
2F7
330
1F
100
AcDbEntity
  8
Guides
100
AcDb2dPolyline
 66
     1
 10
0.0
 20
0.0
 30
0.0000000000001492
  0
VERTEX
  5
2F8
330
2F7
100
AcDbEntity
  8
Guides
100
AcDbVertex
100
AcDb2dVertex
 10
252.9915174004936
 20
-64.63517257716722
 30
0.0000000000001492
  0
VERTEX
  5
2F9
330
2F7
100
AcDbEntity
  8
Guides
100
AcDbVertex
100
AcDb2dVertex
 10
267.6665174004885
 20
-64.63517257716722
 30
0.0000000000001492
  0
SEQEND
  5
2FA
330
2F7
100
AcDbEntity
  8
Guides
  0
LINE
  5
2FB
330
1F
100
AcDbEntity
  8
Guides
100
AcDbLine
 10
267.6665174004885
 20
-64.63517257716722
 30
0.0000000000004192
 11
267.6665174004885
 21
-69.63517257716722
 31
0.0000002396884611
  0
LINE
  5
2FC
330
1F
100
AcDbEntity
  8
Guides
100
AcDbLine
 10
267.6665174004885
 20
-69.63517257716722
 30
0.0000002396884611
 11
198.7915174004885
 21
-69.63517257716722
 31
0.0000002396876226
  0
LINE
  5
2FD
330
1F
100
AcDbEntity
  8
Guides
100
AcDbLine
 10
198.7915174004885
 20
-69.63517257716722
 30
0.0000002396876226
 11
198.7915174004885
 21
-64.63517257716722
 31
0.0
  0
POLYLINE
  5
2FE
330
1F
100
AcDbEntity
  8
Guides
100
AcDb2dPolyline
 66
     1
 10
0.0
 20
0.0
 30
0.0
  0
VERTEX
  5
2FF
330
2FE
100
AcDbEntity
  8
Guides
100
AcDbVertex
100
AcDb2dVertex
 10
198.7915174004885
 20
-64.63517257716722
 30
0.0
  0
VERTEX
  5
300
330
2FE
100
AcDbEntity
  8
Guides
100
AcDbVertex
100
AcDb2dVertex
 10
213.4665174004834
 20
-64.63517257716722
 30
0.0
  0
SEQEND
  5
301
330
2FE
100
AcDbEntity
  8
Guides
  0
LINE
  5
302
330
1F
100
AcDbEntity
  8
Guides
100
AcDbLine
 10
213.4665174004834
 20
-64.63517257716722
 30
0.0000000000001492
 11
213.4665174004834
 21
-66.76017257716703
 31
0.0000002396879211
  0
SPLINE
  5
303
330
1F
100
AcDbEntity
  8
Guides
100
AcDbSpline
210
0.0
220
0.0
230
1.0
 70
    12
 71
     2
 72
     8
 73
     5
 74
     0
 42
0.000000001
 43
0.0000000001
 40
143.1714716732828
 40
143.1714716732828
 40
143.1714716732828
 40
143.4683782988814
 40
143.4683782988814
 40
143.7605202958445
 40
143.7605202958445
 40
143.7605202958445
 10
213.4665174004834
 20
-66.76017257716704
 30
0.0000002396879211
 41
1.000000000026511
 10
213.2747914054765
 20
-66.76449604253183
 30
0.0000002396879323
 41
0.7137081960334246
 10
213.2790661356591
 20
-66.95194730734984
 30
0.0000002396879211
 41
1.009335810407305
 10
213.2832444927888
 20
-67.1351725158021
 30
0.000000239687937
 41
0.7184522996521663
 10
213.4665174004834
 20
-67.13517257716703
 30
0.0000002396879211
 41
1.0
  0
LINE
  5
304
330
1F
100
AcDbEntity
  8
Guides
100
AcDbLine
 10
213.4665174004834
 20
-67.13517257716703
 30
0.0000002396879211
 11
214.2165174004834
 21
-67.13517257716703
 31
0.0000002396879353
  0
ARC
  5
305
330
1F
100
AcDbEntity
  8
Guides
100
AcDbCircle
 10
214.2165174004834
 20
-66.94767257716703
 30
0.0000002396879337
 40
0.1875000000000071
100
AcDbArc
 50
270.0
 51
90.0
  0
LINE
  5
306
330
1F
100
AcDbEntity
  8
Guides
100
AcDbLine
 10
214.2165174004834
 20
-66.76017257716703
 30
0.0000002396879321
 11
214.2165174004834
 21
-64.63517257716714
 31
0.0000000000001563
  0
POLYLINE
  5
307
330
1F
100
AcDbEntity
  8
Guides
100
AcDb2dPolyline
 66
     1
 10
0.0
 20
0.0
 30
0.0000000000001563
  0
VERTEX
  5
308
330
307
100
AcDbEntity
  8
Guides
100
AcDbVertex
100
AcDb2dVertex
 10
214.2165174004834
 20
-64.63517257716714
 30
0.0000000000001563
  0
VERTEX
  5
309
330
307
100
AcDbEntity
  8
Guides
100
AcDbVertex
100
AcDb2dVertex
 10
226.3915174004868
 20
-64.63517257716722
 30
0.0000000000001563
  0
SEQEND
  5
30A
330
307
100
AcDbEntity
  8
Guides
  0
LINE
  5
30B
330
1F
100
AcDbEntity
  8
Guides
100
AcDbLine
 10
226.3915174004868
 20
-64.63517257716722
 30
0.00000000000027
 11
226.3915174004868
 21
-66.76017257716737
 31
0.0000002396881627
  0
ARC
  5
30C
330
1F
100
AcDbEntity
  8
Guides
100
AcDbCircle
 10
226.3915174004806
 20
-66.94767257716737
 30
0.0000002396881621
 40
0.1875
100
AcDbArc
 50
89.99999999809798
 51
270.000000001902
  0
LINE
  5
30D
330
1F
100
AcDbEntity
  8
Guides
100
AcDbLine
 10
226.3915174004868
 20
-67.13517257716737
 30
0.0000002396881615
 11
227.1415174004868
 21
-67.13517257716737
 31
0.0000002396881769
  0
ARC
  5
30E
330
1F
100
AcDbEntity
  8
Guides
100
AcDbCircle
 10
227.1415174004868
 20
-66.9476725771674
 30
0.0000002396881764
 40
0.1874999999999787
100
AcDbArc
 50
269.9999999999913
 51
90.0000000000087
  0
LINE
  5
30F
330
1F
100
AcDbEntity
  8
Guides
100
AcDbLine
 10
227.1415174004868
 20
-66.76017257716742
 30
0.0000002396881759
 11
227.1415174004868
 21
-64.63517257716731
 31
0.0000000000002771
  0
POLYLINE
  5
310
330
1F
100
AcDbEntity
  8
Guides
100
AcDb2dPolyline
 66
     1
 10
0.0
 20
0.0
 30
0.0000000000002771
  0
VERTEX
  5
311
330
310
100
AcDbEntity
  8
Guides
100
AcDbVertex
100
AcDb2dVertex
 10
227.1415174004868
 20
-64.63517257716731
 30
0.0000000000002771
  0
VERTEX
  5
312
330
310
100
AcDbEntity
  8
Guides
100
AcDbVertex
100
AcDb2dVertex
 10
239.3165174004902
 20
-64.63517257716731
 30
0.0000000000002771
  0
SEQEND
  5
313
330
310
100
AcDbEntity
  8
Guides
  0
LINE
  5
314
330
1F
100
AcDbEntity
  8
Guides
100
AcDbLine
 10
239.3165174004902
 20
-64.63517257716731
 30
0.0000000000002771
 11
239.3165174004902
 21
-66.76017257716742
 31
0.0000002396881759
  0
ARC
  5
315
330
1F
100
AcDbEntity
  8
Guides
100
AcDbCircle
 10
239.3165174004902
 20
-66.9476725771674
 30
0.0000002396881764
 40
0.1874999999999787
100
AcDbArc
 50
89.99999999999133
 51
270.0000000000086
  0
LINE
  5
316
330
1F
100
AcDbEntity
  8
Guides
100
AcDbLine
 10
239.3165174004903
 20
-67.13517257716737
 30
0.0000002396881769
 11
240.0665174004902
 21
-67.13517257716737
 31
0.0000002396881615
  0
ARC
  5
317
330
1F
100
AcDbEntity
  8
Guides
100
AcDbCircle
 10
240.0665174004965
 20
-66.94767257716737
 30
0.0000002396881621
 40
0.1875
100
AcDbArc
 50
269.999999998098
 51
90.00000000190202
  0
LINE
  5
318
330
1F
100
AcDbEntity
  8
Guides
100
AcDbLine
 10
240.0665174004903
 20
-66.76017257716737
 30
0.0000002396881627
 11
240.0665174004902
 21
-64.63517257716722
 31
0.00000000000027
  0
POLYLINE
  5
319
330
1F
100
AcDbEntity
  8
Guides
100
AcDb2dPolyline
 66
     1
 10
0.0
 20
0.0
 30
0.00000000000027
  0
VERTEX
  5
31A
330
319
100
AcDbEntity
  8
Guides
100
AcDbVertex
100
AcDb2dVertex
 10
240.0665174004902
 20
-64.63517257716722
 30
0.00000000000027
  0
VERTEX
  5
31B
330
319
100
AcDbEntity
  8
Guides
100
AcDbVertex
100
AcDb2dVertex
 10
252.2415174004936
 20
-64.63517257716714
 30
0.00000000000027
  0
SEQEND
  5
31C
330
319
100
AcDbEntity
  8
Guides
  0
LINE
  5
31D
330
1F
100
AcDbEntity
  8
Guides
100
AcDbLine
 10
252.2415174004936
 20
-64.63517257716714
 30
0.0000000000001563
 11
252.2415174004936
 21
-66.76017257716703
 31
0.0000002396879321
  0
ARC
  5
31E
330
1F
100
AcDbEntity
  8
Guides
100
AcDbCircle
 10
252.2415174004936
 20
-66.94767257716703
 30
0.0000002396879337
 40
0.1875000000000071
100
AcDbArc
 50
90.0
 51
270.0
  0
LINE
  5
31F
330
1F
100
AcDbEntity
  8
Guides
100
AcDbLine
 10
252.2415174004936
 20
-67.13517257716703
 30
0.0000002396879353
 11
252.9915174004936
 21
-67.13517257716703
 31
0.0000002396879211
  0
SPLINE
  5
320
330
1F
100
AcDbEntity
  8
Guides
100
AcDbSpline
210
0.0
220
0.0
230
1.0
 70
    12
 71
     2
 72
     8
 73
     5
 74
     0
 42
0.000000001
 43
0.0000000001
 40
199.5698120311703
 40
199.5698120311703
 40
199.5698120311703
 40
199.8619540281333
 40
199.8619540281333
 40
200.158860653732
 40
200.158860653732
 40
200.158860653732
 10
252.9915174004936
 20
-67.13517257716703
 30
0.0000002396879211
 41
1.0
 10
253.1747903081881
 20
-67.1351725158021
 30
0.000000239687937
 41
0.7184522996521663
 10
253.1789686653178
 20
-66.95194730734984
 30
0.0000002396879211
 41
1.009335810407305
 10
253.1832433955005
 20
-66.76449604253183
 30
0.0000002396879323
 41
0.7137081960334246
 10
252.9915174004936
 20
-66.76017257716704
 30
0.0000002396879211
 41
1.000000000026511
  0
LINE
  5
321
330
1F
100
AcDbEntity
  8
Guides
100
AcDbLine
 10
252.9915174004936
 20
-66.76017257716703
 30
0.0000002396879211
 11
252.9915174004936
 21
-64.63517257716722
 31
0.0000000000001492
  0
SPLINE
  5
322
330
1F
100
AcDbEntity
  8
Guides
100
AcDbSpline
210
0.0
220
0.0
230
1.0
 70
    15
 71
     2
 72
    12
 73
     9
 74
     0
 42
0.000000001
 43
0.0000000001
 40
0.2897979820777091
 40
0.2897979820777091
 40
0.2897979820777091
 40
0.6118112290706615
 40
0.6118112290706615
 40
0.933824476063614
 40
0.933824476063614
 40
1.255837723056566
 40
1.255837723056566
 40
1.577850970049519
 40
1.577850970049519
 40
1.577850970049519
 10
266.2115174004884
 20
-66.34017257716721
 30
0.0000002396884327
 41
1.0
 10
266.2115174004885
 20
-66.54517257716721
 30
0.0000002396884347
 41
0.7071067811865476
 10
266.4165174004885
 20
-66.54517257716722
 30
0.0000002396884327
 41
1.0
 10
266.6215174004884
 20
-66.54517257716721
 30
0.0000002396884448
 41
0.7071067811865476
 10
266.6215174004884
 20
-66.34017257716721
 30
0.0000002396884469
 41
1.0
 10
266.6215174004884
 20
-66.13517257716722
 30
0.0000002396884448
 41
0.7071067811865476
 10
266.4165174004885
 20
-66.13517257716722
 30
0.0000002396884327
 41
1.0
 10
266.2115174004885
 20
-66.13517257716722
 30
0.0000002396884347
 41
0.7071067811865476
 10
266.2115174004884
 20
-66.34017257716721
 30
0.0000002396884327
 41
1.0
  0
SPLINE
  5
323
330
1F
100
AcDbEntity
  8
Guides
100
AcDbSpline
210
0.0
220
0.0
230
1.0
 70
    15
 71
     2
 72
    12
 73
     9
 74
     0
 42
0.000000001
 43
0.0000000001
 40
1.577850970049519
 40
1.577850970049519
 40
1.577850970049519
 40
1.899864217042471
 40
1.899864217042471
 40
2.221877464035424
 40
2.221877464035424
 40
2.543890711028376
 40
2.543890711028376
 40
2.865903958021328
 40
2.865903958021328
 40
2.865903958021328
 10
266.2115174004884
 20
-68.34017257716721
 30
0.0000002396884327
 41
1.0
 10
266.2115174004885
 20
-68.54517257716722
 30
0.0000002396884347
 41
0.7071067811865476
 10
266.4165174004885
 20
-68.54517257716722
 30
0.0000002396884327
 41
1.0
 10
266.6215174004884
 20
-68.54517257716722
 30
0.0000002396884448
 41
0.7071067811865476
 10
266.6215174004884
 20
-68.34017257716721
 30
0.0000002396884469
 41
1.0
 10
266.6215174004884
 20
-68.13517257716721
 30
0.0000002396884448
 41
0.7071067811865476
 10
266.4165174004885
 20
-68.13517257716722
 30
0.0000002396884327
 41
1.0
 10
266.2115174004885
 20
-68.13517257716721
 30
0.0000002396884347
 41
0.7071067811865476
 10
266.2115174004884
 20
-68.34017257716721
 30
0.0000002396884327
 41
1.0
  0
SPLINE
  5
324
330
1F
100
AcDbEntity
  8
Guides
100
AcDbSpline
210
0.0
220
0.0
230
1.0
 70
    15
 71
     2
 72
    12
 73
     9
 74
     0
 42
0.000000001
 43
0.0000000001
 40
8.018115909908566
 40
8.018115909908566
 40
8.018115909908566
 40
8.340129156901519
 40
8.340129156901519
 40
8.662142403894471
 40
8.662142403894471
 40
8.984155650887423
 40
8.984155650887423
 40
9.306168897880376
 40
9.306168897880376
 40
9.306168897880376
 10
263.4615174004884
 20
-68.34017257716721
 30
0.0000002396883758
 41
1.0
 10
263.4615174004884
 20
-68.54517257716722
 30
0.0000002396883845
 41
0.7071067811865476
 10
263.6665174004884
 20
-68.54517257716722
 30
0.00000023968839
 41
1.0
 10
263.8715174004885
 20
-68.54517257716722
 30
0.0000002396883945
 41
0.7071067811865476
 10
263.8715174004884
 20
-68.34017257716721
 30
0.00000023968839
 41
1.0
 10
263.8715174004885
 20
-68.13517257716721
 30
0.0000002396883945
 41
0.7071067811865476
 10
263.6665174004884
 20
-68.13517257716722
 30
0.00000023968839
 41
1.0
 10
263.4615174004884
 20
-68.13517257716721
 30
0.0000002396883845
 41
0.7071067811865476
 10
263.4615174004884
 20
-68.34017257716721
 30
0.0000002396883758
 41
1.0
  0
SPLINE
  5
325
330
1F
100
AcDbEntity
  8
Guides
100
AcDbSpline
210
0.0
220
0.0
230
1.0
 70
    15
 71
     2
 72
    12
 73
     9
 74
     0
 42
0.000000001
 43
0.0000000001
 40
9.306168897880376
 40
9.306168897880376
 40
9.306168897880376
 40
9.628182144873328
 40
9.628182144873328
 40
9.95019539186628
 40
9.95019539186628
 40
10.27220863885923
 40
10.27220863885923
 40
10.59422188585219
 40
10.59422188585219
 40
10.59422188585219
 10
263.4615174004884
 20
-66.34017257716721
 30
0.0000002396883758
 41
1.0
 10
263.4615174004884
 20
-66.54517257716721
 30
0.0000002396883845
 41
0.7071067811865476
 10
263.6665174004884
 20
-66.54517257716722
 30
0.00000023968839
 41
1.0
 10
263.8715174004885
 20
-66.54517257716721
 30
0.0000002396883945
 41
0.7071067811865476
 10
263.8715174004884
 20
-66.34017257716721
 30
0.00000023968839
 41
1.0
 10
263.8715174004885
 20
-66.13517257716722
 30
0.0000002396883945
 41
0.7071067811865476
 10
263.6665174004884
 20
-66.13517257716722
 30
0.00000023968839
 41
1.0
 10
263.4615174004884
 20
-66.13517257716722
 30
0.0000002396883845
 41
0.7071067811865476
 10
263.4615174004884
 20
-66.34017257716721
 30
0.0000002396883758
 41
1.0
  0
SPLINE
  5
326
330
1F
100
AcDbEntity
  8
Guides
100
AcDbSpline
210
0.0
220
0.0
230
1.0
 70
    15
 71
     2
 72
    12
 73
     9
 74
     0
 42
0.000000001
 43
0.0000000001
 40
2.865903958021328
 40
2.865903958021328
 40
2.865903958021328
 40
3.187917205014281
 40
3.187917205014281
 40
3.509930452007233
 40
3.509930452007233
 40
3.831943699000186
 40
3.831943699000186
 40
4.153956945993138
 40
4.153956945993138
 40
4.153956945993138
 10
200.2465174004885
 20
-68.34017257716721
 30
0.0000002396876511
 41
1.0
 10
200.2465174004885
 20
-68.13517257716721
 30
0.000000239687661
 41
0.7071067811865476
 10
200.0415174004885
 20
-68.13517257716722
 30
0.0000002396876511
 41
1.0
 10
199.8365174004886
 20
-68.13517257716721
 30
0.0000002396876509
 41
0.7071067811865476
 10
199.8365174004885
 20
-68.34017257716721
 30
0.0000002396876511
 41
1.0
 10
199.8365174004886
 20
-68.54517257716722
 30
0.0000002396876509
 41
0.7071067811865476
 10
200.0415174004885
 20
-68.54517257716722
 30
0.0000002396876511
 41
1.0
 10
200.2465174004885
 20
-68.54517257716722
 30
0.000000239687661
 41
0.7071067811865476
 10
200.2465174004885
 20
-68.34017257716721
 30
0.0000002396876511
 41
1.0
  0
SPLINE
  5
327
330
1F
100
AcDbEntity
  8
Guides
100
AcDbSpline
210
0.0
220
0.0
230
1.0
 70
    15
 71
     2
 72
    12
 73
     9
 74
     0
 42
0.000000001
 43
0.0000000001
 40
4.153956945993138
 40
4.153956945993138
 40
4.153956945993138
 40
4.47597019298609
 40
4.47597019298609
 40
4.797983439979043
 40
4.797983439979043
 40
5.119996686971995
 40
5.119996686971995
 40
5.442009933964948
 40
5.442009933964948
 40
5.442009933964948
 10
200.2465174004885
 20
-66.34017257716721
 30
0.0000002396876511
 41
1.0
 10
200.2465174004885
 20
-66.13517257716722
 30
0.000000239687661
 41
0.7071067811865476
 10
200.0415174004885
 20
-66.13517257716722
 30
0.0000002396876511
 41
1.0
 10
199.8365174004886
 20
-66.13517257716722
 30
0.0000002396876509
 41
0.7071067811865476
 10
199.8365174004885
 20
-66.34017257716721
 30
0.0000002396876511
 41
1.0
 10
199.8365174004886
 20
-66.54517257716721
 30
0.0000002396876509
 41
0.7071067811865476
 10
200.0415174004885
 20
-66.54517257716722
 30
0.0000002396876511
 41
1.0
 10
200.2465174004885
 20
-66.54517257716721
 30
0.000000239687661
 41
0.7071067811865476
 10
200.2465174004885
 20
-66.34017257716721
 30
0.0000002396876511
 41
1.0
  0
SPLINE
  5
328
330
1F
100
AcDbEntity
  8
Guides
100
AcDbSpline
210
0.0
220
0.0
230
1.0
 70
    15
 71
     2
 72
    12
 73
     9
 74
     0
 42
0.000000001
 43
0.0000000001
 40
5.442009933964948
 40
5.442009933964948
 40
5.442009933964948
 40
5.7640231809579
 40
5.7640231809579
 40
6.086036427950853
 40
6.086036427950853
 40
6.408049674943805
 40
6.408049674943805
 40
6.730062921936757
 40
6.730062921936757
 40
6.730062921936757
 10
202.9965174004885
 20
-66.34017257716721
 30
0.0000002396877079
 41
1.0
 10
202.9965174004886
 20
-66.13517257716722
 30
0.0000002396877112
 41
0.7071067811865476
 10
202.7915174004885
 20
-66.13517257716722
 30
0.0000002396877079
 41
1.0
 10
202.5865174004885
 20
-66.13517257716722
 30
0.0000002396877112
 41
0.7071067811865476
 10
202.5865174004885
 20
-66.34017257716721
 30
0.0000002396876937
 41
1.0
 10
202.5865174004885
 20
-66.54517257716721
 30
0.0000002396877112
 41
0.7071067811865476
 10
202.7915174004885
 20
-66.54517257716722
 30
0.0000002396877079
 41
1.0
 10
202.9965174004886
 20
-66.54517257716721
 30
0.0000002396877112
 41
0.7071067811865476
 10
202.9965174004885
 20
-66.34017257716721
 30
0.0000002396877079
 41
1.0
  0
SPLINE
  5
329
330
1F
100
AcDbEntity
  8
Guides
100
AcDbSpline
210
0.0
220
0.0
230
1.0
 70
    15
 71
     2
 72
    12
 73
     9
 74
     0
 42
0.000000001
 43
0.0000000001
 40
6.730062921936757
 40
6.730062921936757
 40
6.730062921936757
 40
7.05207616892971
 40
7.05207616892971
 40
7.374089415922661
 40
7.374089415922661
 40
7.696102662915614
 40
7.696102662915614
 40
8.018115909908566
 40
8.018115909908566
 40
8.018115909908566
 10
202.9965174004885
 20
-68.34017257716721
 30
0.0000002396877079
 41
1.0
 10
202.9965174004886
 20
-68.13517257716721
 30
0.0000002396877112
 41
0.7071067811865476
 10
202.7915174004885
 20
-68.13517257716722
 30
0.0000002396877079
 41
1.0
 10
202.5865174004885
 20
-68.13517257716721
 30
0.0000002396877112
 41
0.7071067811865476
 10
202.5865174004885
 20
-68.34017257716721
 30
0.0000002396876937
 41
1.0
 10
202.5865174004885
 20
-68.54517257716722
 30
0.0000002396877112
 41
0.7071067811865476
 10
202.7915174004885
 20
-68.54517257716722
 30
0.0000002396877079
 41
1.0
 10
202.9965174004886
 20
-68.54517257716722
 30
0.0000002396877112
 41
0.7071067811865476
 10
202.9965174004885
 20
-68.34017257716721
 30
0.0000002396877079
 41
1.0
  0
SPLINE
  5
32A
330
1F
100
AcDbEntity
  8
Guides
100
AcDbSpline
210
0.0
220
0.0
230
1.0
 70
    15
 71
     2
 72
    12
 73
     9
 74
     0
 42
0.000000001
 43
0.0000000001
 40
6.730062921936757
 40
6.730062921936757
 40
6.730062921936757
 40
7.05207616892971
 40
7.05207616892971
 40
7.374089415922661
 40
7.374089415922661
 40
7.696102662915614
 40
7.696102662915614
 40
8.018115909908566
 40
8.018115909908566
 40
8.018115909908566
 10
202.9965174004885
 20
-73.90267257716721
 30
0.0000004793753305
 41
1.0
 10
202.9965174004886
 20
-73.69767257716721
 30
0.0000004793753339
 41
0.7071067811865476
 10
202.7915174004885
 20
-73.69767257716722
 30
0.0000004793753305
 41
1.0
 10
202.5865174004885
 20
-73.69767257716721
 30
0.0000004793753339
 41
0.7071067811865476
 10
202.5865174004885
 20
-73.90267257716721
 30
0.0000004793753163
 41
1.0
 10
202.5865174004885
 20
-74.10767257716722
 30
0.0000004793753339
 41
0.7071067811865476
 10
202.7915174004885
 20
-74.10767257716722
 30
0.0000004793753305
 41
1.0
 10
202.9965174004886
 20
-74.10767257716722
 30
0.0000004793753339
 41
0.7071067811865476
 10
202.9965174004885
 20
-73.90267257716721
 30
0.0000004793753305
 41
1.0
  0
SPLINE
  5
32B
330
1F
100
AcDbEntity
  8
Guides
100
AcDbSpline
210
0.0
220
0.0
230
1.0
 70
    15
 71
     2
 72
    12
 73
     9
 74
     0
 42
0.000000001
 43
0.0000000001
 40
5.442009933964948
 40
5.442009933964948
 40
5.442009933964948
 40
5.7640231809579
 40
5.7640231809579
 40
6.086036427950853
 40
6.086036427950853
 40
6.408049674943805
 40
6.408049674943805
 40
6.730062921936757
 40
6.730062921936757
 40
6.730062921936757
 10
202.9965174004885
 20
-71.90267257716721
 30
0.0000004793753305
 41
1.0
 10
202.9965174004886
 20
-71.69767257716724
 30
0.0000004793753339
 41
0.7071067811865476
 10
202.7915174004885
 20
-71.69767257716722
 30
0.0000004793753305
 41
1.0
 10
202.5865174004885
 20
-71.69767257716724
 30
0.0000004793753339
 41
0.7071067811865476
 10
202.5865174004885
 20
-71.90267257716721
 30
0.0000004793753163
 41
1.0
 10
202.5865174004885
 20
-72.10767257716721
 30
0.0000004793753339
 41
0.7071067811865476
 10
202.7915174004885
 20
-72.10767257716722
 30
0.0000004793753305
 41
1.0
 10
202.9965174004886
 20
-72.10767257716721
 30
0.0000004793753339
 41
0.7071067811865476
 10
202.9965174004885
 20
-71.90267257716721
 30
0.0000004793753305
 41
1.0
  0
SPLINE
  5
32C
330
1F
100
AcDbEntity
  8
Guides
100
AcDbSpline
210
0.0
220
0.0
230
1.0
 70
    15
 71
     2
 72
    12
 73
     9
 74
     0
 42
0.000000001
 43
0.0000000001
 40
4.153956945993138
 40
4.153956945993138
 40
4.153956945993138
 40
4.47597019298609
 40
4.47597019298609
 40
4.797983439979043
 40
4.797983439979043
 40
5.119996686971995
 40
5.119996686971995
 40
5.442009933964948
 40
5.442009933964948
 40
5.442009933964948
 10
200.2465174004885
 20
-71.90267257716721
 30
0.0000004793752737
 41
1.0
 10
200.2465174004885
 20
-71.69767257716724
 30
0.0000004793752836
 41
0.7071067811865476
 10
200.0415174004885
 20
-71.69767257716722
 30
0.0000004793752737
 41
1.0
 10
199.8365174004886
 20
-71.69767257716724
 30
0.0000004793752736
 41
0.7071067811865476
 10
199.8365174004885
 20
-71.90267257716721
 30
0.0000004793752737
 41
1.0
 10
199.8365174004886
 20
-72.10767257716721
 30
0.0000004793752736
 41
0.7071067811865476
 10
200.0415174004885
 20
-72.10767257716722
 30
0.0000004793752737
 41
1.0
 10
200.2465174004885
 20
-72.10767257716721
 30
0.0000004793752836
 41
0.7071067811865476
 10
200.2465174004885
 20
-71.90267257716721
 30
0.0000004793752737
 41
1.0
  0
SPLINE
  5
32D
330
1F
100
AcDbEntity
  8
Guides
100
AcDbSpline
210
0.0
220
0.0
230
1.0
 70
    15
 71
     2
 72
    12
 73
     9
 74
     0
 42
0.000000001
 43
0.0000000001
 40
2.865903958021328
 40
2.865903958021328
 40
2.865903958021328
 40
3.187917205014281
 40
3.187917205014281
 40
3.509930452007233
 40
3.509930452007233
 40
3.831943699000186
 40
3.831943699000186
 40
4.153956945993138
 40
4.153956945993138
 40
4.153956945993138
 10
200.2465174004885
 20
-73.90267257716721
 30
0.0000004793752737
 41
1.0
 10
200.2465174004885
 20
-73.69767257716721
 30
0.0000004793752836
 41
0.7071067811865476
 10
200.0415174004885
 20
-73.69767257716722
 30
0.0000004793752737
 41
1.0
 10
199.8365174004886
 20
-73.69767257716721
 30
0.0000004793752736
 41
0.7071067811865476
 10
199.8365174004885
 20
-73.90267257716721
 30
0.0000004793752737
 41
1.0
 10
199.8365174004886
 20
-74.10767257716722
 30
0.0000004793752736
 41
0.7071067811865476
 10
200.0415174004885
 20
-74.10767257716722
 30
0.0000004793752737
 41
1.0
 10
200.2465174004885
 20
-74.10767257716722
 30
0.0000004793752836
 41
0.7071067811865476
 10
200.2465174004885
 20
-73.90267257716721
 30
0.0000004793752737
 41
1.0
  0
SPLINE
  5
32E
330
1F
100
AcDbEntity
  8
Guides
100
AcDbSpline
210
0.0
220
0.0
230
1.0
 70
    15
 71
     2
 72
    12
 73
     9
 74
     0
 42
0.000000001
 43
0.0000000001
 40
9.306168897880376
 40
9.306168897880376
 40
9.306168897880376
 40
9.628182144873328
 40
9.628182144873328
 40
9.95019539186628
 40
9.95019539186628
 40
10.27220863885923
 40
10.27220863885923
 40
10.59422188585219
 40
10.59422188585219
 40
10.59422188585219
 10
263.4615174004884
 20
-71.90267257716721
 30
0.0000004793759985
 41
1.0
 10
263.4615174004884
 20
-72.10767257716721
 30
0.0000004793760071
 41
0.7071067811865476
 10
263.6665174004884
 20
-72.10767257716722
 30
0.0000004793760127
 41
1.0
 10
263.8715174004885
 20
-72.10767257716721
 30
0.0000004793760172
 41
0.7071067811865476
 10
263.8715174004884
 20
-71.90267257716721
 30
0.0000004793760127
 41
1.0
 10
263.8715174004885
 20
-71.69767257716724
 30
0.0000004793760172
 41
0.7071067811865476
 10
263.6665174004884
 20
-71.69767257716722
 30
0.0000004793760127
 41
1.0
 10
263.4615174004884
 20
-71.69767257716724
 30
0.0000004793760071
 41
0.7071067811865476
 10
263.4615174004884
 20
-71.90267257716721
 30
0.0000004793759985
 41
1.0
  0
SPLINE
  5
32F
330
1F
100
AcDbEntity
  8
Guides
100
AcDbSpline
210
0.0
220
0.0
230
1.0
 70
    15
 71
     2
 72
    12
 73
     9
 74
     0
 42
0.000000001
 43
0.0000000001
 40
8.018115909908566
 40
8.018115909908566
 40
8.018115909908566
 40
8.340129156901519
 40
8.340129156901519
 40
8.662142403894471
 40
8.662142403894471
 40
8.984155650887423
 40
8.984155650887423
 40
9.306168897880376
 40
9.306168897880376
 40
9.306168897880376
 10
263.4615174004884
 20
-73.90267257716721
 30
0.0000004793759985
 41
1.0
 10
263.4615174004884
 20
-74.10767257716722
 30
0.0000004793760071
 41
0.7071067811865476
 10
263.6665174004884
 20
-74.10767257716722
 30
0.0000004793760127
 41
1.0
 10
263.8715174004885
 20
-74.10767257716722
 30
0.0000004793760172
 41
0.7071067811865476
 10
263.8715174004884
 20
-73.90267257716721
 30
0.0000004793760127
 41
1.0
 10
263.8715174004885
 20
-73.69767257716721
 30
0.0000004793760172
 41
0.7071067811865476
 10
263.6665174004884
 20
-73.69767257716722
 30
0.0000004793760127
 41
1.0
 10
263.4615174004884
 20
-73.69767257716721
 30
0.0000004793760071
 41
0.7071067811865476
 10
263.4615174004884
 20
-73.90267257716721
 30
0.0000004793759985
 41
1.0
  0
SPLINE
  5
330
330
1F
100
AcDbEntity
  8
Guides
100
AcDbSpline
210
0.0
220
0.0
230
1.0
 70
    15
 71
     2
 72
    12
 73
     9
 74
     0
 42
0.000000001
 43
0.0000000001
 40
1.577850970049519
 40
1.577850970049519
 40
1.577850970049519
 40
1.899864217042471
 40
1.899864217042471
 40
2.221877464035424
 40
2.221877464035424
 40
2.543890711028376
 40
2.543890711028376
 40
2.865903958021328
 40
2.865903958021328
 40
2.865903958021328
 10
266.2115174004884
 20
-73.90267257716721
 30
0.0000004793760553
 41
1.0
 10
266.2115174004885
 20
-74.10767257716722
 30
0.0000004793760574
 41
0.7071067811865476
 10
266.4165174004885
 20
-74.10767257716722
 30
0.0000004793760553
 41
1.0
 10
266.6215174004884
 20
-74.10767257716722
 30
0.0000004793760674
 41
0.7071067811865476
 10
266.6215174004884
 20
-73.90267257716721
 30
0.0000004793760695
 41
1.0
 10
266.6215174004884
 20
-73.69767257716721
 30
0.0000004793760674
 41
0.7071067811865476
 10
266.4165174004885
 20
-73.69767257716722
 30
0.0000004793760553
 41
1.0
 10
266.2115174004885
 20
-73.69767257716721
 30
0.0000004793760574
 41
0.7071067811865476
 10
266.2115174004884
 20
-73.90267257716721
 30
0.0000004793760553
 41
1.0
  0
SPLINE
  5
331
330
1F
100
AcDbEntity
  8
Guides
100
AcDbSpline
210
0.0
220
0.0
230
1.0
 70
    15
 71
     2
 72
    12
 73
     9
 74
     0
 42
0.000000001
 43
0.0000000001
 40
0.2897979820777091
 40
0.2897979820777091
 40
0.2897979820777091
 40
0.6118112290706615
 40
0.6118112290706615
 40
0.933824476063614
 40
0.933824476063614
 40
1.255837723056566
 40
1.255837723056566
 40
1.577850970049519
 40
1.577850970049519
 40
1.577850970049519
 10
266.2115174004884
 20
-71.90267257716721
 30
0.0000004793760553
 41
1.0
 10
266.2115174004885
 20
-72.10767257716721
 30
0.0000004793760574
 41
0.7071067811865476
 10
266.4165174004885
 20
-72.10767257716722
 30
0.0000004793760553
 41
1.0
 10
266.6215174004884
 20
-72.10767257716721
 30
0.0000004793760674
 41
0.7071067811865476
 10
266.6215174004884
 20
-71.90267257716721
 30
0.0000004793760695
 41
1.0
 10
266.6215174004884
 20
-71.69767257716724
 30
0.0000004793760674
 41
0.7071067811865476
 10
266.4165174004885
 20
-71.69767257716722
 30
0.0000004793760553
 41
1.0
 10
266.2115174004885
 20
-71.69767257716724
 30
0.0000004793760574
 41
0.7071067811865476
 10
266.2115174004884
 20
-71.90267257716721
 30
0.0000004793760553
 41
1.0
  0
POLYLINE
  5
332
330
1F
100
AcDbEntity
  8
Guides
100
AcDb2dPolyline
 66
     1
 10
0.0
 20
0.0
 30
0.0000002396877719
  0
VERTEX
  5
333
330
332
100
AcDbEntity
  8
Guides
100
AcDbVertex
100
AcDb2dVertex
 10
252.9915174004936
 20
-70.19767257716722
 30
0.0000002396877719
  0
VERTEX
  5
334
330
332
100
AcDbEntity
  8
Guides
100
AcDbVertex
100
AcDb2dVertex
 10
267.6665174004885
 20
-70.19767257716722
 30
0.0000002396877719
  0
SEQEND
  5
335
330
332
100
AcDbEntity
  8
Guides
  0
LINE
  5
336
330
1F
100
AcDbEntity
  8
Guides
100
AcDbLine
 10
267.6665174004885
 20
-70.19767257716722
 30
0.0000002396880419
 11
267.6665174004885
 21
-75.19767257716722
 31
0.0000004793760837
  0
LINE
  5
337
330
1F
100
AcDbEntity
  8
Guides
100
AcDbLine
 10
267.6665174004885
 20
-75.19767257716722
 30
0.0000004793760837
 11
198.7915174004885
 21
-75.19767257716722
 31
0.0000004793752453
  0
LINE
  5
338
330
1F
100
AcDbEntity
  8
Guides
100
AcDbLine
 10
198.7915174004885
 20
-75.19767257716722
 30
0.0000004793752453
 11
198.7915174004885
 21
-70.19767257716722
 31
0.0000002396876226
  0
POLYLINE
  5
339
330
1F
100
AcDbEntity
  8
Guides
100
AcDb2dPolyline
 66
     1
 10
0.0
 20
0.0
 30
0.0000002396876226
  0
VERTEX
  5
33A
330
339
100
AcDbEntity
  8
Guides
100
AcDbVertex
100
AcDb2dVertex
 10
198.7915174004885
 20
-70.19767257716722
 30
0.0000002396876226
  0
VERTEX
  5
33B
330
339
100
AcDbEntity
  8
Guides
100
AcDbVertex
100
AcDb2dVertex
 10
213.4665174004834
 20
-70.19767257716722
 30
0.0000002396876226
  0
SEQEND
  5
33C
330
339
100
AcDbEntity
  8
Guides
  0
LINE
  5
33D
330
1F
100
AcDbEntity
  8
Guides
100
AcDbLine
 10
213.4665174004834
 20
-70.19767257716722
 30
0.0000002396877719
 11
213.4665174004834
 21
-72.32267257716703
 31
0.0000004793755437
  0
SPLINE
  5
33E
330
1F
100
AcDbEntity
  8
Guides
100
AcDbSpline
210
0.0
220
0.0
230
1.0
 70
    12
 71
     2
 72
     8
 73
     5
 74
     0
 42
0.000000001
 43
0.0000000001
 40
143.1714716732828
 40
143.1714716732828
 40
143.1714716732828
 40
143.4683782988814
 40
143.4683782988814
 40
143.7605202958445
 40
143.7605202958445
 40
143.7605202958445
 10
213.4665174004834
 20
-72.32267257716703
 30
0.0000004793755437
 41
1.000000000026511
 10
213.2747914054765
 20
-72.32699604253185
 30
0.0000004793755549
 41
0.7137081960334246
 10
213.2790661356591
 20
-72.51444730734985
 30
0.0000004793755437
 41
1.009335810407305
 10
213.2832444927888
 20
-72.6976725158021
 30
0.0000004793755596
 41
0.7184522996521663
 10
213.4665174004834
 20
-72.69767257716703
 30
0.0000004793755437
 41
1.0
  0
LINE
  5
33F
330
1F
100
AcDbEntity
  8
Guides
100
AcDbLine
 10
213.4665174004834
 20
-72.69767257716703
 30
0.0000004793755437
 11
214.2165174004834
 21
-72.69767257716703
 31
0.0000004793755579
  0
ARC
  5
340
330
1F
100
AcDbEntity
  8
Guides
100
AcDbCircle
 10
214.2165174004834
 20
-72.51017257716703
 30
0.0000004793755563
 40
0.1875000000000071
100
AcDbArc
 50
270.0
 51
90.0
  0
LINE
  5
341
330
1F
100
AcDbEntity
  8
Guides
100
AcDbLine
 10
214.2165174004834
 20
-72.32267257716703
 30
0.0000004793755547
 11
214.2165174004834
 21
-70.19767257716714
 31
0.000000239687779
  0
POLYLINE
  5
342
330
1F
100
AcDbEntity
  8
Guides
100
AcDb2dPolyline
 66
     1
 10
0.0
 20
0.0
 30
0.000000239687779
  0
VERTEX
  5
343
330
342
100
AcDbEntity
  8
Guides
100
AcDbVertex
100
AcDb2dVertex
 10
214.2165174004834
 20
-70.19767257716714
 30
0.000000239687779
  0
VERTEX
  5
344
330
342
100
AcDbEntity
  8
Guides
100
AcDbVertex
100
AcDb2dVertex
 10
226.3915174004868
 20
-70.19767257716722
 30
0.000000239687779
  0
SEQEND
  5
345
330
342
100
AcDbEntity
  8
Guides
  0
LINE
  5
346
330
1F
100
AcDbEntity
  8
Guides
100
AcDbLine
 10
226.3915174004868
 20
-70.19767257716722
 30
0.0000002396878926
 11
226.3915174004868
 21
-72.32267257716737
 31
0.0000004793757853
  0
ARC
  5
347
330
1F
100
AcDbEntity
  8
Guides
100
AcDbCircle
 10
226.3915174004806
 20
-72.51017257716737
 30
0.0000004793757847
 40
0.1875
100
AcDbArc
 50
89.99999999809798
 51
270.000000001902
  0
LINE
  5
348
330
1F
100
AcDbEntity
  8
Guides
100
AcDbLine
 10
226.3915174004868
 20
-72.69767257716737
 30
0.0000004793757842
 11
227.1415174004868
 21
-72.69767257716737
 31
0.0000004793757995
  0
ARC
  5
349
330
1F
100
AcDbEntity
  8
Guides
100
AcDbCircle
 10
227.1415174004868
 20
-72.5101725771674
 30
0.000000479375799
 40
0.1874999999999787
100
AcDbArc
 50
269.9999999999913
 51
90.0000000000087
  0
LINE
  5
34A
330
1F
100
AcDbEntity
  8
Guides
100
AcDbLine
 10
227.1415174004868
 20
-72.32267257716742
 30
0.0000004793757985
 11
227.1415174004868
 21
-70.19767257716731
 31
0.0000002396878998
  0
POLYLINE
  5
34B
330
1F
100
AcDbEntity
  8
Guides
100
AcDb2dPolyline
 66
     1
 10
0.0
 20
0.0
 30
0.0000002396878998
  0
VERTEX
  5
34C
330
34B
100
AcDbEntity
  8
Guides
100
AcDbVertex
100
AcDb2dVertex
 10
227.1415174004868
 20
-70.19767257716731
 30
0.0000002396878998
  0
VERTEX
  5
34D
330
34B
100
AcDbEntity
  8
Guides
100
AcDbVertex
100
AcDb2dVertex
 10
239.3165174004902
 20
-70.19767257716731
 30
0.0000002396878998
  0
SEQEND
  5
34E
330
34B
100
AcDbEntity
  8
Guides
  0
LINE
  5
34F
330
1F
100
AcDbEntity
  8
Guides
100
AcDbLine
 10
239.3165174004902
 20
-70.19767257716731
 30
0.0000002396878998
 11
239.3165174004902
 21
-72.32267257716742
 31
0.0000004793757985
  0
ARC
  5
350
330
1F
100
AcDbEntity
  8
Guides
100
AcDbCircle
 10
239.3165174004902
 20
-72.5101725771674
 30
0.000000479375799
 40
0.1874999999999787
100
AcDbArc
 50
89.99999999999133
 51
270.0000000000086
  0
LINE
  5
351
330
1F
100
AcDbEntity
  8
Guides
100
AcDbLine
 10
239.3165174004903
 20
-72.69767257716737
 30
0.0000004793757995
 11
240.0665174004902
 21
-72.69767257716737
 31
0.0000004793757842
  0
ARC
  5
352
330
1F
100
AcDbEntity
  8
Guides
100
AcDbCircle
 10
240.0665174004965
 20
-72.51017257716737
 30
0.0000004793757847
 40
0.1875
100
AcDbArc
 50
269.999999998098
 51
90.00000000190202
  0
LINE
  5
353
330
1F
100
AcDbEntity
  8
Guides
100
AcDbLine
 10
240.0665174004903
 20
-72.32267257716737
 30
0.0000004793757853
 11
240.0665174004902
 21
-70.19767257716722
 31
0.0000002396878926
  0
POLYLINE
  5
354
330
1F
100
AcDbEntity
  8
Guides
100
AcDb2dPolyline
 66
     1
 10
0.0
 20
0.0
 30
0.0000002396878926
  0
VERTEX
  5
355
330
354
100
AcDbEntity
  8
Guides
100
AcDbVertex
100
AcDb2dVertex
 10
240.0665174004902
 20
-70.19767257716722
 30
0.0000002396878926
  0
VERTEX
  5
356
330
354
100
AcDbEntity
  8
Guides
100
AcDbVertex
100
AcDb2dVertex
 10
252.2415174004936
 20
-70.19767257716714
 30
0.0000002396878926
  0
SEQEND
  5
357
330
354
100
AcDbEntity
  8
Guides
  0
LINE
  5
358
330
1F
100
AcDbEntity
  8
Guides
100
AcDbLine
 10
252.2415174004936
 20
-70.19767257716714
 30
0.000000239687779
 11
252.2415174004936
 21
-72.32267257716703
 31
0.0000004793755547
  0
ARC
  5
359
330
1F
100
AcDbEntity
  8
Guides
100
AcDbCircle
 10
252.2415174004936
 20
-72.51017257716703
 30
0.0000004793755563
 40
0.1875000000000071
100
AcDbArc
 50
90.0
 51
270.0
  0
LINE
  5
35A
330
1F
100
AcDbEntity
  8
Guides
100
AcDbLine
 10
252.2415174004936
 20
-72.69767257716703
 30
0.0000004793755579
 11
252.9915174004936
 21
-72.69767257716703
 31
0.0000004793755437
  0
SPLINE
  5
35B
330
1F
100
AcDbEntity
  8
Guides
100
AcDbSpline
210
0.0
220
0.0
230
1.0
 70
    12
 71
     2
 72
     8
 73
     5
 74
     0
 42
0.000000001
 43
0.0000000001
 40
199.5698120311703
 40
199.5698120311703
 40
199.5698120311703
 40
199.8619540281333
 40
199.8619540281333
 40
200.158860653732
 40
200.158860653732
 40
200.158860653732
 10
252.9915174004936
 20
-72.69767257716703
 30
0.0000004793755437
 41
1.0
 10
253.1747903081881
 20
-72.6976725158021
 30
0.0000004793755596
 41
0.7184522996521663
 10
253.1789686653178
 20
-72.51444730734985
 30
0.0000004793755437
 41
1.009335810407305
 10
253.1832433955005
 20
-72.32699604253185
 30
0.0000004793755549
 41
0.7137081960334246
 10
252.9915174004936
 20
-72.32267257716703
 30
0.0000004793755437
 41
1.000000000026511
  0
LINE
  5
35C
330
1F
100
AcDbEntity
  8
Guides
100
AcDbLine
 10
252.9915174004936
 20
-72.32267257716703
 30
0.0000004793755437
 11
252.9915174004936
 21
-70.19767257716722
 31
0.0000002396877719
  0
ENDSEC
  0
SECTION
  2
OBJECTS
  0
DICTIONARY
  5
C
330
0
100
AcDbDictionary
281
     1
  3
ACAD_DETAILVIEWSTYLE
350
3A2
  3
ACAD_GROUP
350
D
  3
ACAD_LAYOUT
350
1A
  3
ACAD_MATERIAL
350
43
  3
ACAD_MLEADERSTYLE
350
6B
  3
ACAD_MLINESTYLE
350
17
  3
ACAD_PLOTSETTINGS
350
19
  3
ACAD_PLOTSTYLENAME
350
E
  3
ACAD_SCALELIST
350
47
  3
ACAD_SECTIONVIEWSTYLE
350
3A3
  3
ACAD_TABLESTYLE
350
69
  3
ACAD_VISUALSTYLE
350
2A
  3
ACDB_RECOMPOSE_DATA
350
39F
  3
AcDbVariableDictionary
350
35F
  0
DICTIONARY
  5
35D
330
8
100
AcDbDictionary
280
     1
281
     1
  3
ACAD_XREC_ROUNDTRIP
360
35E
  0
DICTIONARY
  5
3A2
102
{ACAD_REACTORS
330
C
102
}
330
C
100
AcDbDictionary
281
     1
  0
DICTIONARY
  5
D
102
{ACAD_REACTORS
330
C
102
}
330
C
100
AcDbDictionary
281
     1
  0
DICTIONARY
  5
1A
102
{ACAD_REACTORS
330
C
102
}
330
C
100
AcDbDictionary
281
     1
  3
Layout1
350
1E
  3
Layout2
350
26
  3
Model
350
22
  0
DICTIONARY
  5
43
102
{ACAD_REACTORS
330
C
102
}
330
C
100
AcDbDictionary
281
     1
  3
ByBlock
350
45
  3
ByLayer
350
44
  3
Global
350
46
  0
DICTIONARY
  5
6B
102
{ACAD_REACTORS
330
C
102
}
330
C
100
AcDbDictionary
281
     1
  3
Standard
350
6C
  0
DICTIONARY
  5
17
102
{ACAD_REACTORS
330
C
102
}
330
C
100
AcDbDictionary
281
     1
  3
Standard
350
18
  0
DICTIONARY
  5
19
102
{ACAD_REACTORS
330
C
102
}
330
C
100
AcDbDictionary
281
     1
  0
ACDBDICTIONARYWDFLT
  5
E
102
{ACAD_REACTORS
330
C
102
}
330
C
100
AcDbDictionary
281
     1
  3
Normal
350
F
100
AcDbDictionaryWithDefault
340
F
  0
DICTIONARY
  5
47
102
{ACAD_REACTORS
330
C
102
}
330
C
100
AcDbDictionary
281
     1
  3
A0
350
48
  3
A1
350
49
  3
A2
350
4A
  3
A3
350
4B
  3
A4
350
4C
  3
A5
350
4D
  3
A6
350
4E
  3
A7
350
4F
  3
A8
350
50
  3
A9
350
51
  3
B0
350
52
  3
B1
350
53
  3
B2
350
54
  3
B3
350
55
  3
B4
350
56
  3
B5
350
57
  3
B6
350
58
  3
B7
350
59
  3
B8
350
5A
  3
B9
350
5B
  3
C0
350
5C
  3
C1
350
5D
  3
C2
350
5E
  3
C3
350
5F
  3
C4
350
60
  3
C5
350
61
  3
C6
350
62
  3
C7
350
63
  3
C8
350
64
  3
C9
350
65
  3
D0
350
66
  3
D1
350
67
  3
D2
350
68
  0
DICTIONARY
  5
3A3
102
{ACAD_REACTORS
330
C
102
}
330
C
100
AcDbDictionary
281
     1
  0
DICTIONARY
  5
69
102
{ACAD_REACTORS
330
C
102
}
330
C
100
AcDbDictionary
281
     1
  3
Standard
350
6A
  0
DICTIONARY
  5
2A
102
{ACAD_REACTORS
330
C
102
}
330
C
100
AcDbDictionary
281
     1
  3
2dWireframe
350
2F
  3
Basic
350
32
  3
Brighten
350
36
  3
ColorChange
350
3A
  3
Conceptual
350
34
  3
Dim
350
35
  3
EdgeColorOff
350
3D
  3
Facepattern
350
39
  3
Flat
350
2B
  3
FlatWithEdges
350
2C
  3
Gouraud
350
2D
  3
GouraudWithEdges
350
2E
  3
Hidden
350
31
  3
JitterOff
350
3B
  3
Linepattern
350
38
  3
OverhangOff
350
3C
  3
Realistic
350
33
  3
Shaded
350
42
  3
Shaded with edges
350
41
  3
Shades of Gray
350
3E
  3
Sketchy
350
3F
  3
Thicken
350
37
  3
Wireframe
350
30
  3
X-Ray
350
40
  0
XRECORD
  5
39F
102
{ACAD_REACTORS
330
C
102
}
330
C
100
AcDbXrecord
280
     1
 90
        1
330
6A
  0
DICTIONARY
  5
35F
102
{ACAD_REACTORS
330
C
102
}
330
C
100
AcDbDictionary
281
     1
  3
CANNOSCALE
350
360
  3
CMLEADERSTYLE
350
3A1
  3
CTABLESTYLE
350
3A0
  3
MSLTSCALE
350
361
  3
XCLIPFRAME
350
362
  0
XRECORD
  5
35E
102
{ACAD_REACTORS
330
35D
102
}
330
35D
100
AcDbXrecord
280
     1
102
VTR_0.000_0.000_1.000_1.000_GRIDDISPLAY
 70
     3
102
VTR_0.000_0.000_1.000_1.000_GRIDMAJOR
 70
     5
102
VTR_0.000_0.000_1.000_1.000_DEFAULTLIGHTING
280
     1
102
VTR_0.000_0.000_1.000_1.000_DEFAULTLIGHTINGTYPE
 70
     1
102
VTR_0.000_0.000_1.000_1.000_BRIGHTNESS
141
0.0
102
VTR_0.000_0.000_1.000_1.000_CONTRAST
142
0.0
  0
LAYOUT
  5
1E
102
{ACAD_REACTORS
330
1A
102
}
330
1A
100
AcDbPlotSettings
  1

  2
none_device
  4

  6

 40
0.0
 41
0.0
 42
0.0
 43
0.0
 44
0.0
 45
0.0
 46
0.0
 47
0.0
 48
0.0
 49
0.0
140
0.0
141
0.0
142
1.0
143
1.0
 70
   688
 72
     0
 73
     0
 74
     5
  7

 75
    16
 76
     0
 77
     2
 78
   300
147
1.0
148
0.0
149
0.0
100
AcDbLayout
  1
Layout1
 70
     1
 71
     1
 10
0.0
 20
0.0
 11
12.0
 21
9.0
 12
0.0
 22
0.0
 32
0.0
 14
1.000000000000000E+20
 24
1.000000000000000E+20
 34
1.000000000000000E+20
 15
-1.000000000000000E+20
 25
-1.000000000000000E+20
 35
-1.000000000000000E+20
146
0.0
 13
0.0
 23
0.0
 33
0.0
 16
1.0
 26
0.0
 36
0.0
 17
0.0
 27
1.0
 37
0.0
 76
     0
330
1B
  0
LAYOUT
  5
26
102
{ACAD_REACTORS
330
1A
102
}
330
1A
100
AcDbPlotSettings
  1

  2
none_device
  4

  6

 40
0.0
 41
0.0
 42
0.0
 43
0.0
 44
0.0
 45
0.0
 46
0.0
 47
0.0
 48
0.0
 49
0.0
140
0.0
141
0.0
142
1.0
143
1.0
 70
   688
 72
     0
 73
     0
 74
     5
  7

 75
    16
 76
     0
 77
     2
 78
   300
147
1.0
148
0.0
149
0.0
100
AcDbLayout
  1
Layout2
 70
     1
 71
     2
 10
0.0
 20
0.0
 11
0.0
 21
0.0
 12
0.0
 22
0.0
 32
0.0
 14
0.0
 24
0.0
 34
0.0
 15
0.0
 25
0.0
 35
0.0
146
0.0
 13
0.0
 23
0.0
 33
0.0
 16
1.0
 26
0.0
 36
0.0
 17
0.0
 27
1.0
 37
0.0
 76
     0
330
23
  0
LAYOUT
  5
22
102
{ACAD_REACTORS
330
1A
102
}
330
1A
100
AcDbPlotSettings
  1

  2
none_device
  4
Letter_(8.50_x_11.00_Inches)
  6

 40
6.35
 41
6.35
 42
6.35000508
 43
6.35000508
 44
215.9
 45
279.4
 46
0.0
 47
0.0
 48
0.0
 49
0.0
140
0.0
141
0.0
142
1.0
143
1.0
 70
  1712
 72
     0
 73
     0
 74
     0
  7

 75
     0
 76
     0
 77
     2
 78
   300
147
1.0
148
0.0
149
0.0
100
AcDbLayout
  1
Model
 70
     1
 71
     0
 10
0.0
 20
0.0
 11
12.0
 21
9.0
 12
0.0
 22
0.0
 32
0.0
 14
198.7915174004885
 24
-75.19767257716722
 34
-0.0000004793760269
 15
267.6665174004885
 25
-37.6976725771674
 35
0.0000004793760837
146
0.0
 13
0.0
 23
0.0
 33
0.0
 16
1.0
 26
0.0
 36
0.0
 17
0.0
 27
1.0
 37
0.0
 76
     0
330
1F
331
29
  0
MATERIAL
  5
45
102
{ACAD_REACTORS
330
43
102
}
102
{ACAD_XDICTIONARY
360
395
102
}
330
43
100
AcDbMaterial
  1
ByBlock
  0
MATERIAL
  5
44
102
{ACAD_REACTORS
330
43
102
}
102
{ACAD_XDICTIONARY
360
393
102
}
330
43
100
AcDbMaterial
  1
ByLayer
  0
MATERIAL
  5
46
102
{ACAD_REACTORS
330
43
102
}
102
{ACAD_XDICTIONARY
360
397
102
}
330
43
100
AcDbMaterial
  1
Global
  0
MLEADERSTYLE
  5
6C
102
{ACAD_REACTORS
330
6B
102
}
102
{ACAD_XDICTIONARY
360
39D
102
}
330
6B
100
AcDbMLeaderStyle
170
     2
171
     1
172
     0
 90
        2
 40
0.0
 41
0.0
173
     1
 91
-1056964608
340
14
 92
       -2
290
     1
 42
0.09
291
     1
 43
0.36
  3
Standard
341
0
 44
0.18
300

342
11
174
     1
178
     6
175
     1
176
     0
 93
-1056964608
 45
0.18
292
     0
297
     0
 46
0.18
343
0
 94
-1056964608
 47
1.0
 49
1.0
140
1.0
293
     1
141
0.0
294
     1
177
     0
142
1.0
295
     0
296
     0
143
0.125
1001
ACAD_MLEADERVER
1070
     2
  0
MLINESTYLE
  5
18
102
{ACAD_REACTORS
330
17
102
}
330
17
100
AcDbMlineStyle
  2
Standard
 70
     0
  3

 62
   256
 51
90.0
 52
90.0
 71
     2
 49
0.5
 62
   256
  6
BYLAYER
 49
-0.5
 62
   256
  6
BYLAYER
  0
ACDBPLACEHOLDER
  5
F
102
{ACAD_REACTORS
330
E
102
}
330
E
  0
SCALE
  5
48
102
{ACAD_REACTORS
330
47
102
}
330
47
100
AcDbScale
 70
     0
300
1:1
140
1.0
141
1.0
290
     1
  0
SCALE
  5
49
102
{ACAD_REACTORS
330
47
102
}
330
47
100
AcDbScale
 70
     0
300
1:2
140
1.0
141
2.0
290
     0
  0
SCALE
  5
4A
102
{ACAD_REACTORS
330
47
102
}
330
47
100
AcDbScale
 70
     0
300
1:4
140
1.0
141
4.0
290
     0
  0
SCALE
  5
4B
102
{ACAD_REACTORS
330
47
102
}
330
47
100
AcDbScale
 70
     0
300
1:5
140
1.0
141
5.0
290
     0
  0
SCALE
  5
4C
102
{ACAD_REACTORS
330
47
102
}
330
47
100
AcDbScale
 70
     0
300
1:8
140
1.0
141
8.0
290
     0
  0
SCALE
  5
4D
102
{ACAD_REACTORS
330
47
102
}
330
47
100
AcDbScale
 70
     0
300
1:10
140
1.0
141
10.0
290
     0
  0
SCALE
  5
4E
102
{ACAD_REACTORS
330
47
102
}
330
47
100
AcDbScale
 70
     0
300
1:16
140
1.0
141
16.0
290
     0
  0
SCALE
  5
4F
102
{ACAD_REACTORS
330
47
102
}
330
47
100
AcDbScale
 70
     0
300
1:20
140
1.0
141
20.0
290
     0
  0
SCALE
  5
50
102
{ACAD_REACTORS
330
47
102
}
330
47
100
AcDbScale
 70
     0
300
1:30
140
1.0
141
30.0
290
     0
  0
SCALE
  5
51
102
{ACAD_REACTORS
330
47
102
}
330
47
100
AcDbScale
 70
     0
300
1:40
140
1.0
141
40.0
290
     0
  0
SCALE
  5
52
102
{ACAD_REACTORS
330
47
102
}
330
47
100
AcDbScale
 70
     0
300
1:50
140
1.0
141
50.0
290
     0
  0
SCALE
  5
53
102
{ACAD_REACTORS
330
47
102
}
330
47
100
AcDbScale
 70
     0
300
1:100
140
1.0
141
100.0
290
     0
  0
SCALE
  5
54
102
{ACAD_REACTORS
330
47
102
}
330
47
100
AcDbScale
 70
     0
300
2:1
140
2.0
141
1.0
290
     0
  0
SCALE
  5
55
102
{ACAD_REACTORS
330
47
102
}
330
47
100
AcDbScale
 70
     0
300
4:1
140
4.0
141
1.0
290
     0
  0
SCALE
  5
56
102
{ACAD_REACTORS
330
47
102
}
330
47
100
AcDbScale
 70
     0
300
8:1
140
8.0
141
1.0
290
     0
  0
SCALE
  5
57
102
{ACAD_REACTORS
330
47
102
}
330
47
100
AcDbScale
 70
     0
300
10:1
140
10.0
141
1.0
290
     0
  0
SCALE
  5
58
102
{ACAD_REACTORS
330
47
102
}
330
47
100
AcDbScale
 70
     0
300
100:1
140
100.0
141
1.0
290
     0
  0
SCALE
  5
59
102
{ACAD_REACTORS
330
47
102
}
330
47
100
AcDbScale
 70
     0
300
1/128" = 1'-0"
140
0.0078125
141
12.0
290
     0
  0
SCALE
  5
5A
102
{ACAD_REACTORS
330
47
102
}
330
47
100
AcDbScale
 70
     0
300
1/64" = 1'-0"
140
0.015625
141
12.0
290
     0
  0
SCALE
  5
5B
102
{ACAD_REACTORS
330
47
102
}
330
47
100
AcDbScale
 70
     0
300
1/32" = 1'-0"
140
0.03125
141
12.0
290
     0
  0
SCALE
  5
5C
102
{ACAD_REACTORS
330
47
102
}
330
47
100
AcDbScale
 70
     0
300
1/16" = 1'-0"
140
0.0625
141
12.0
290
     0
  0
SCALE
  5
5D
102
{ACAD_REACTORS
330
47
102
}
330
47
100
AcDbScale
 70
     0
300
3/32" = 1'-0"
140
0.09375
141
12.0
290
     0
  0
SCALE
  5
5E
102
{ACAD_REACTORS
330
47
102
}
330
47
100
AcDbScale
 70
     0
300
1/8" = 1'-0"
140
0.125
141
12.0
290
     0
  0
SCALE
  5
5F
102
{ACAD_REACTORS
330
47
102
}
330
47
100
AcDbScale
 70
     0
300
3/16" = 1'-0"
140
0.1875
141
12.0
290
     0
  0
SCALE
  5
60
102
{ACAD_REACTORS
330
47
102
}
330
47
100
AcDbScale
 70
     0
300
1/4" = 1'-0"
140
0.25
141
12.0
290
     0
  0
SCALE
  5
61
102
{ACAD_REACTORS
330
47
102
}
330
47
100
AcDbScale
 70
     0
300
3/8" = 1'-0"
140
0.375
141
12.0
290
     0
  0
SCALE
  5
62
102
{ACAD_REACTORS
330
47
102
}
330
47
100
AcDbScale
 70
     0
300
1/2" = 1'-0"
140
0.5
141
12.0
290
     0
  0
SCALE
  5
63
102
{ACAD_REACTORS
330
47
102
}
330
47
100
AcDbScale
 70
     0
300
3/4" = 1'-0"
140
0.75
141
12.0
290
     0
  0
SCALE
  5
64
102
{ACAD_REACTORS
330
47
102
}
330
47
100
AcDbScale
 70
     0
300
1" = 1'-0"
140
1.0
141
12.0
290
     0
  0
SCALE
  5
65
102
{ACAD_REACTORS
330
47
102
}
330
47
100
AcDbScale
 70
     0
300
1-1/2" = 1'-0"
140
1.5
141
12.0
290
     0
  0
SCALE
  5
66
102
{ACAD_REACTORS
330
47
102
}
330
47
100
AcDbScale
 70
     0
300
3" = 1'-0"
140
3.0
141
12.0
290
     0
  0
SCALE
  5
67
102
{ACAD_REACTORS
330
47
102
}
330
47
100
AcDbScale
 70
     0
300
6" = 1'-0"
140
6.0
141
12.0
290
     0
  0
SCALE
  5
68
102
{ACAD_REACTORS
330
47
102
}
330
47
100
AcDbScale
 70
     0
300
1'-0" = 1'-0"
140
12.0
141
12.0
290
     0
  0
TABLESTYLE
  5
6A
102
{ACAD_REACTORS
330
69
102
}
102
{ACAD_XDICTIONARY
360
399
102
}
330
69
100
AcDbTableStyle
  3
Standard
 70
     0
 71
     0
 40
0.06
 41
0.06
280
     0
281
     0
  7
Standard
140
0.18
170
     2
 62
     0
 63
   257
283
     0
274
    -2
284
     1
 64
     0
275
    -2
285
     1
 65
     0
276
    -2
286
     1
 66
     0
277
    -2
287
     1
 67
     0
278
    -2
288
     1
 68
     0
279
    -2
289
     1
 69
     0
  7
Standard
140
0.25
170
     5
 62
     0
 63
   257
283
     0
274
    -2
284
     1
 64
     0
275
    -2
285
     1
 65
     0
276
    -2
286
     1
 66
     0
277
    -2
287
     1
 67
     0
278
    -2
288
     1
 68
     0
279
    -2
289
     1
 69
     0
  7
Standard
140
0.18
170
     5
 62
     0
 63
   257
283
     0
274
    -2
284
     1
 64
     0
275
    -2
285
     1
 65
     0
276
    -2
286
     1
 66
     0
277
    -2
287
     1
 67
     0
278
    -2
288
     1
 68
     0
279
    -2
289
     1
 69
     0
  0
VISUALSTYLE
  5
2F
102
{ACAD_REACTORS
330
2A
102
}
102
{ACAD_XDICTIONARY
360
36B
102
}
330
2A
100
AcDbVisualStyle
  2
2dWireframe
 70
     4
 71
     0
 72
     2
 73
     0
 90
        0
 40
0.6
 41
30.0
 62
     5
 63
     7
421
 16777215
 74
     1
 91
        4
 64
     7
 65
   257
 75
     1
175
     1
 42
1.0
 92
        0
 66
   257
 43
1.0
 76
     1
 77
     6
 78
     2
 67
     7
 79
     5
170
     0
171
     0
290
     0
174
     0
 93
        1
 44
0.0
173
     0
291
     0
 45
0.0
1001
ACAD
1000
AcDbSavedByObjectVersion
1070
     0
  0
VISUALSTYLE
  5
32
102
{ACAD_REACTORS
330
2A
102
}
102
{ACAD_XDICTIONARY
360
371
102
}
330
2A
100
AcDbVisualStyle
  2
Basic
 70
     7
 71
     1
 72
     0
 73
     1
 90
        0
 40
0.6
 41
30.0
 62
     5
 63
     7
421
 16777215
 74
     0
 91
        4
 64
     7
 65
   257
 75
     1
175
     1
 42
1.0
 92
        8
 66
     7
 43
1.0
 76
     1
 77
     6
 78
     2
 67
     7
 79
     5
170
     0
171
     0
290
     0
174
     0
 93
        1
 44
0.0
173
     0
291
     1
 45
0.0
1001
ACAD
1000
AcDbSavedByObjectVersion
1070
     0
  0
VISUALSTYLE
  5
36
102
{ACAD_REACTORS
330
2A
102
}
102
{ACAD_XDICTIONARY
360
379
102
}
330
2A
100
AcDbVisualStyle
  2
Brighten
 70
    12
 71
     2
 72
     2
 73
     0
 90
        0
 40
0.6
 41
30.0
 62
     5
 63
     7
421
 16777215
 74
     1
 91
        4
 64
     7
 65
   257
 75
     1
175
     1
 42
1.0
 92
        8
 66
     7
 43
1.0
 76
     1
 77
     6
 78
     2
 67
     7
 79
     5
170
     0
171
     0
290
     0
174
     0
 93
        1
 44
50.0
173
     0
291
     1
 45
0.0
1001
ACAD
1000
AcDbSavedByObjectVersion
1070
     0
  0
VISUALSTYLE
  5
3A
102
{ACAD_REACTORS
330
2A
102
}
102
{ACAD_XDICTIONARY
360
381
102
}
330
2A
100
AcDbVisualStyle
  2
ColorChange
 70
    16
 71
     2
 72
     2
 73
     3
 90
        0
 40
0.6
 41
30.0
 62
     5
 63
     8
421
  8421504
 74
     1
 91
        4
 64
     7
 65
   257
 75
     1
175
     1
 42
1.0
 92
        8
 66
     8
424
  8421504
 43
1.0
 76
     1
 77
     6
 78
     2
 67
     7
 79
     5
170
     0
171
     0
290
     0
174
     0
 93
        1
 44
0.0
173
     0
291
     1
 45
0.0
1001
ACAD
1000
AcDbSavedByObjectVersion
1070
     0
  0
VISUALSTYLE
  5
34
102
{ACAD_REACTORS
330
2A
102
}
102
{ACAD_XDICTIONARY
360
375
102
}
330
2A
100
AcDbVisualStyle
  2
Conceptual
 70
     9
 71
     3
 72
     2
 73
     0
 90
        0
 40
0.6
 41
30.0
 62
     5
 63
     7
421
 16777215
 74
     2
 91
        2
 64
     7
 65
   257
 75
     1
175
     1
 42
179.0
 92
        8
 66
     7
 43
1.0
 76
     1
 77
     6
 78
     2
 67
     7
 79
     3
170
     0
171
     0
290
     0
174
     0
 93
        1
 44
0.0
173
     0
291
     0
 45
0.0
1001
ACAD
1000
AcDbSavedByObjectVersion
1070
     0
  0
VISUALSTYLE
  5
35
102
{ACAD_REACTORS
330
2A
102
}
102
{ACAD_XDICTIONARY
360
377
102
}
330
2A
100
AcDbVisualStyle
  2
Dim
 70
    11
 71
     2
 72
     2
 73
     0
 90
        0
 40
0.6
 41
30.0
 62
     5
 63
     7
421
 16777215
 74
     1
 91
        4
 64
     7
 65
   257
 75
     1
175
     1
 42
1.0
 92
        8
 66
     7
 43
1.0
 76
     1
 77
     6
 78
     2
 67
     7
 79
     5
170
     0
171
     0
290
     0
174
     0
 93
        1
 44
-50.0
173
     0
291
     1
 45
0.0
1001
ACAD
1000
AcDbSavedByObjectVersion
1070
     0
  0
VISUALSTYLE
  5
3D
102
{ACAD_REACTORS
330
2A
102
}
102
{ACAD_XDICTIONARY
360
387
102
}
330
2A
100
AcDbVisualStyle
  2
EdgeColorOff
 70
    22
 71
     2
 72
     2
 73
     0
 90
        0
 40
0.6
 41
30.0
 62
     5
 63
     7
421
 16777215
 74
     1
 91
        4
 64
     7
 65
   257
 75
     1
175
     1
 42
1.0
 92
        8
 66
     7
 43
1.0
 76
     1
 77
     6
 78
     2
 67
     7
 79
     5
170
     0
171
     0
290
     0
174
     0
 93
        1
 44
0.0
173
     0
291
     1
 45
0.0
1001
ACAD
1000
AcDbSavedByObjectVersion
1070
     0
  0
VISUALSTYLE
  5
39
102
{ACAD_REACTORS
330
2A
102
}
102
{ACAD_XDICTIONARY
360
37F
102
}
330
2A
100
AcDbVisualStyle
  2
Facepattern
 70
    15
 71
     2
 72
     2
 73
     0
 90
        0
 40
0.6
 41
30.0
 62
     5
 63
     7
421
 16777215
 74
     1
 91
        4
 64
     7
 65
   257
 75
     1
175
     1
 42
1.0
 92
        8
 66
     7
 43
1.0
 76
     1
 77
     6
 78
     2
 67
     7
 79
     5
170
     0
171
     0
290
     0
174
     0
 93
        1
 44
0.0
173
     0
291
     1
 45
0.0
1001
ACAD
1000
AcDbSavedByObjectVersion
1070
     0
  0
VISUALSTYLE
  5
2B
102
{ACAD_REACTORS
330
2A
102
}
102
{ACAD_XDICTIONARY
360
363
102
}
330
2A
100
AcDbVisualStyle
  2
Flat
 70
     0
 71
     2
 72
     1
 73
     1
 90
        2
 40
0.6
 41
30.0
 62
     5
 63
     7
421
 16777215
 74
     0
 91
        0
 64
     7
 65
   257
 75
     1
175
     1
 42
1.0
 92
        8
 66
     7
 43
1.0
 76
     1
 77
     6
 78
     2
 67
     7
 79
     5
170
     0
171
     0
290
     0
174
     0
 93
       13
 44
0.0
173
     0
291
     1
 45
0.0
1001
ACAD
1000
AcDbSavedByObjectVersion
1070
     0
  0
VISUALSTYLE
  5
2C
102
{ACAD_REACTORS
330
2A
102
}
102
{ACAD_XDICTIONARY
360
365
102
}
330
2A
100
AcDbVisualStyle
  2
FlatWithEdges
 70
     1
 71
     2
 72
     1
 73
     1
 90
        2
 40
0.6
 41
30.0
 62
     5
 63
     7
421
 16777215
 74
     1
 91
        0
 64
     7
 65
   257
 75
     1
175
     1
 42
1.0
 92
        0
 66
   257
 43
1.0
 76
     1
 77
     6
 78
     2
 67
     7
 79
     5
170
     0
171
     0
290
     0
174
     0
 93
       13
 44
0.0
173
     0
291
     1
 45
0.0
1001
ACAD
1000
AcDbSavedByObjectVersion
1070
     0
  0
VISUALSTYLE
  5
2D
102
{ACAD_REACTORS
330
2A
102
}
102
{ACAD_XDICTIONARY
360
367
102
}
330
2A
100
AcDbVisualStyle
  2
Gouraud
 70
     2
 71
     2
 72
     2
 73
     1
 90
        2
 40
0.6
 41
30.0
 62
     5
 63
     7
421
 16777215
 74
     0
 91
        0
 64
     7
 65
   257
 75
     1
175
     1
 42
1.0
 92
        0
 66
     7
 43
1.0
 76
     1
 77
     6
 78
     2
 67
     7
 79
     5
170
     0
171
     0
290
     0
174
     0
 93
       13
 44
0.0
173
     0
291
     1
 45
0.0
1001
ACAD
1000
AcDbSavedByObjectVersion
1070
     0
  0
VISUALSTYLE
  5
2E
102
{ACAD_REACTORS
330
2A
102
}
102
{ACAD_XDICTIONARY
360
369
102
}
330
2A
100
AcDbVisualStyle
  2
GouraudWithEdges
 70
     3
 71
     2
 72
     2
 73
     1
 90
        2
 40
0.6
 41
30.0
 62
     5
 63
     7
421
 16777215
 74
     1
 91
        0
 64
     7
 65
   257
 75
     1
175
     1
 42
1.0
 92
        0
 66
   257
 43
1.0
 76
     1
 77
     6
 78
     2
 67
     7
 79
     5
170
     0
171
     0
290
     0
174
     0
 93
       13
 44
0.0
173
     0
291
     1
 45
0.0
1001
ACAD
1000
AcDbSavedByObjectVersion
1070
     0
  0
VISUALSTYLE
  5
31
102
{ACAD_REACTORS
330
2A
102
}
102
{ACAD_XDICTIONARY
360
36F
102
}
330
2A
100
AcDbVisualStyle
  2
Hidden
 70
     6
 71
     1
 72
     2
 73
     2
 90
        0
 40
0.6
 41
30.0
 62
     5
 63
     7
421
 16777215
 74
     2
 91
        2
 64
     7
 65
   257
 75
     2
175
     1
 42
40.0
 92
        0
 66
   257
 43
1.0
 76
     1
 77
     6
 78
     2
 67
     7
 79
     3
170
     0
171
     0
290
     0
174
     0
 93
        1
 44
0.0
173
     0
291
     0
 45
0.0
1001
ACAD
1000
AcDbSavedByObjectVersion
1070
     0
  0
VISUALSTYLE
  5
3B
102
{ACAD_REACTORS
330
2A
102
}
102
{ACAD_XDICTIONARY
360
383
102
}
330
2A
100
AcDbVisualStyle
  2
JitterOff
 70
    20
 71
     2
 72
     2
 73
     0
 90
        0
 40
0.6
 41
30.0
 62
     5
 63
     7
421
 16777215
 74
     1
 91
        4
 64
     7
 65
   257
 75
     1
175
     1
 42
1.0
 92
       10
 66
     7
 43
1.0
 76
     1
 77
     6
 78
     2
 67
     7
 79
     5
170
     0
171
     0
290
     0
174
     0
 93
        1
 44
0.0
173
     0
291
     1
 45
0.0
1001
ACAD
1000
AcDbSavedByObjectVersion
1070
     0
  0
VISUALSTYLE
  5
38
102
{ACAD_REACTORS
330
2A
102
}
102
{ACAD_XDICTIONARY
360
37D
102
}
330
2A
100
AcDbVisualStyle
  2
Linepattern
 70
    14
 71
     2
 72
     2
 73
     0
 90
        0
 40
0.6
 41
30.0
 62
     5
 63
     7
421
 16777215
 74
     1
 91
        4
 64
     7
 65
   257
 75
     7
175
     7
 42
1.0
 92
        8
 66
     7
 43
1.0
 76
     1
 77
     6
 78
     2
 67
     7
 79
     5
170
     0
171
     0
290
     0
174
     0
 93
        1
 44
0.0
173
     0
291
     1
 45
0.0
1001
ACAD
1000
AcDbSavedByObjectVersion
1070
     0
  0
VISUALSTYLE
  5
3C
102
{ACAD_REACTORS
330
2A
102
}
102
{ACAD_XDICTIONARY
360
385
102
}
330
2A
100
AcDbVisualStyle
  2
OverhangOff
 70
    21
 71
     2
 72
     2
 73
     0
 90
        0
 40
0.6
 41
30.0
 62
     5
 63
     7
421
 16777215
 74
     1
 91
        4
 64
     7
 65
   257
 75
     1
175
     1
 42
1.0
 92
        9
 66
     7
 43
1.0
 76
     1
 77
     6
 78
     2
 67
     7
 79
     5
170
     0
171
     0
290
     0
174
     0
 93
        1
 44
0.0
173
     0
291
     1
 45
0.0
1001
ACAD
1000
AcDbSavedByObjectVersion
1070
     0
  0
VISUALSTYLE
  5
33
102
{ACAD_REACTORS
330
2A
102
}
102
{ACAD_XDICTIONARY
360
373
102
}
330
2A
100
AcDbVisualStyle
  2
Realistic
 70
     8
 71
     2
 72
     3
 73
     0
 90
        2
 40
0.6
 41
30.0
 62
     5
 63
     7
421
 16777215
 74
     0
 91
        0
 64
     7
 65
   257
 75
     1
175
     1
 42
1.0
 92
        8
 66
   257
 43
1.0
 76
     1
 77
     6
 78
     2
 67
     7
 79
     3
170
     0
171
     0
290
     0
174
     0
 93
       13
 44
0.0
173
     0
291
     0
 45
0.0
1001
ACAD
1000
AcDbSavedByObjectVersion
1070
     0
  0
VISUALSTYLE
  5
42
102
{ACAD_REACTORS
330
2A
102
}
102
{ACAD_XDICTIONARY
360
391
102
}
330
2A
100
AcDbVisualStyle
  2
Shaded
 70
    27
 71
     2
 72
     2
 73
     1
 90
        2
 40
0.6
 41
30.0
 62
     5
 63
     7
421
 16777215
 74
     0
 91
        4
 64
     7
 65
   257
 75
     1
175
     1
 42
1.0
 92
        8
 66
   257
 43
1.0
 76
     1
 77
     6
 78
     2
 67
     8
425
  7895160
 79
     3
170
     0
171
     0
290
     0
174
     0
 93
        5
 44
0.0
173
     0
291
     0
 45
0.0
1001
ACAD
1000
AcDbSavedByObjectVersion
1070
     0
  0
VISUALSTYLE
  5
41
102
{ACAD_REACTORS
330
2A
102
}
102
{ACAD_XDICTIONARY
360
38F
102
}
330
2A
100
AcDbVisualStyle
  2
Shaded with edges
 70
    26
 71
     2
 72
     2
 73
     1
 90
        2
 40
0.6
 41
30.0
 62
     5
 63
     7
421
 16777215
 74
     1
 91
       10
 64
     7
 65
   257
 75
     2
175
     1
 42
1.0
 92
        8
 66
   257
 43
1.0
 76
     1
 77
     6
 78
     2
 67
     7
 79
     3
170
     0
171
     0
290
     0
174
     0
 93
        5
 44
0.0
173
     0
291
     0
 45
0.0
1001
ACAD
1000
AcDbSavedByObjectVersion
1070
     0
  0
VISUALSTYLE
  5
3E
102
{ACAD_REACTORS
330
2A
102
}
102
{ACAD_XDICTIONARY
360
389
102
}
330
2A
100
AcDbVisualStyle
  2
Shades of Gray
 70
    23
 71
     2
 72
     2
 73
     3
 90
        0
 40
0.6
 41
30.0
 62
     5
 63
     7
421
 16777215
 74
     2
 91
        2
 64
     7
 65
     7
 75
     1
175
     1
 42
40.0
 92
        8
 66
     7
 43
1.0
 76
     1
 77
     6
 78
     2
 67
     7
 79
     3
170
     0
171
     0
290
     0
174
     0
 93
        1
 44
0.0
173
     0
291
     0
 45
0.0
1001
ACAD
1000
AcDbSavedByObjectVersion
1070
     0
  0
VISUALSTYLE
  5
3F
102
{ACAD_REACTORS
330
2A
102
}
102
{ACAD_XDICTIONARY
360
38B
102
}
330
2A
100
AcDbVisualStyle
  2
Sketchy
 70
    24
 71
     1
 72
     2
 73
     2
 90
        0
 40
0.6
 41
30.0
 62
     5
 63
     7
421
 16777215
 74
     2
 91
        2
 64
     7
 65
     7
 75
     1
175
     1
 42
40.0
 92
       11
 66
     7
 43
1.0
 76
     1
 77
     6
 78
     2
 67
     7
 79
     6
170
     0
171
     0
290
     0
174
     0
 93
        1
 44
0.0
173
     0
291
     0
 45
0.0
1001
ACAD
1000
AcDbSavedByObjectVersion
1070
     0
  0
VISUALSTYLE
  5
37
102
{ACAD_REACTORS
330
2A
102
}
102
{ACAD_XDICTIONARY
360
37B
102
}
330
2A
100
AcDbVisualStyle
  2
Thicken
 70
    13
 71
     2
 72
     2
 73
     0
 90
        0
 40
0.6
 41
30.0
 62
     5
 63
     7
421
 16777215
 74
     1
 91
        4
 64
     7
 65
   257
 75
     1
175
     1
 42
1.0
 92
       12
 66
     7
 43
1.0
 76
     1
 77
     6
 78
     2
 67
     7
 79
     5
170
     0
171
     0
290
     0
174
     0
 93
        1
 44
0.0
173
     0
291
     1
 45
0.0
1001
ACAD
1000
AcDbSavedByObjectVersion
1070
     0
  0
VISUALSTYLE
  5
30
102
{ACAD_REACTORS
330
2A
102
}
102
{ACAD_XDICTIONARY
360
36D
102
}
330
2A
100
AcDbVisualStyle
  2
Wireframe
 70
     5
 71
     0
 72
     2
 73
     0
 90
        0
 40
0.6
 41
30.0
 62
     5
 63
     7
421
 16777215
 74
     1
 91
        4
 64
     7
 65
   257
 75
     1
175
     1
 42
1.0
 92
        0
 66
   257
 43
1.0
 76
     1
 77
     6
 78
     2
 67
     7
 79
     3
170
     0
171
     0
290
     0
174
     0
 93
        1
 44
0.0
173
     0
291
     0
 45
0.0
1001
ACAD
1000
AcDbSavedByObjectVersion
1070
     0
  0
VISUALSTYLE
  5
40
102
{ACAD_REACTORS
330
2A
102
}
102
{ACAD_XDICTIONARY
360
38D
102
}
330
2A
100
AcDbVisualStyle
  2
X-Ray
 70
    25
 71
     2
 72
     2
 73
     1
 90
        1
 40
0.5
 41
30.0
 62
     5
 63
     7
421
 16777215
 74
     1
 91
        0
 64
     7
 65
   257
 75
     1
175
     1
 42
1.0
 92
        8
 66
     7
 43
1.0
 76
     1
 77
     6
 78
     2
 67
     7
 79
     3
170
     0
171
     0
290
     0
174
     0
 93
       13
 44
0.0
173
     0
291
     0
 45
0.0
1001
ACAD
1000
AcDbSavedByObjectVersion
1070
     0
  0
DICTIONARYVAR
  5
360
102
{ACAD_REACTORS
330
35F
102
}
330
35F
100
DictionaryVariables
280
     0
  1
1:1
  0
DICTIONARYVAR
  5
3A1
102
{ACAD_REACTORS
330
35F
102
}
330
35F
100
DictionaryVariables
280
     0
  1
Standard
  0
DICTIONARYVAR
  5
3A0
102
{ACAD_REACTORS
330
35F
102
}
330
35F
100
DictionaryVariables
280
     0
  1
Standard
  0
DICTIONARYVAR
  5
361
102
{ACAD_REACTORS
330
35F
102
}
330
35F
100
DictionaryVariables
280
     0
  1
1
  0
DICTIONARYVAR
  5
362
102
{ACAD_REACTORS
330
35F
102
}
330
35F
100
DictionaryVariables
280
     0
  1
2
  0
DICTIONARY
  5
395
330
45
100
AcDbDictionary
280
     1
281
     1
  3
ACAD_XREC_ROUNDTRIP
360
396
  0
DICTIONARY
  5
393
330
44
100
AcDbDictionary
280
     1
281
     1
  3
ACAD_XREC_ROUNDTRIP
360
394
  0
DICTIONARY
  5
397
330
46
100
AcDbDictionary
280
     1
281
     1
  3
ACAD_XREC_ROUNDTRIP
360
398
  0
DICTIONARY
  5
39D
330
6C
100
AcDbDictionary
280
     1
281
     1
  3
ACAD_XREC_ROUNDTRIP
360
39E
  0
DICTIONARY
  5
399
330
6A
100
AcDbDictionary
280
     1
281
     1
  3
ACAD_ROUNDTRIP_2008_TABLESTYLE_CELLSTYLEMAP
360
39B
  3
ACAD_XREC_ROUNDTRIP
360
39A
  0
DICTIONARY
  5
36B
330
2F
100
AcDbDictionary
280
     1
281
     1
  3
ACAD_XREC_ROUNDTRIP
360
36C
  0
DICTIONARY
  5
371
330
32
100
AcDbDictionary
280
     1
281
     1
  3
ACAD_XREC_ROUNDTRIP
360
372
  0
DICTIONARY
  5
379
330
36
100
AcDbDictionary
280
     1
281
     1
  3
ACAD_XREC_ROUNDTRIP
360
37A
  0
DICTIONARY
  5
381
330
3A
100
AcDbDictionary
280
     1
281
     1
  3
ACAD_XREC_ROUNDTRIP
360
382
  0
DICTIONARY
  5
375
330
34
100
AcDbDictionary
280
     1
281
     1
  3
ACAD_XREC_ROUNDTRIP
360
376
  0
DICTIONARY
  5
377
330
35
100
AcDbDictionary
280
     1
281
     1
  3
ACAD_XREC_ROUNDTRIP
360
378
  0
DICTIONARY
  5
387
330
3D
100
AcDbDictionary
280
     1
281
     1
  3
ACAD_XREC_ROUNDTRIP
360
388
  0
DICTIONARY
  5
37F
330
39
100
AcDbDictionary
280
     1
281
     1
  3
ACAD_XREC_ROUNDTRIP
360
380
  0
DICTIONARY
  5
363
330
2B
100
AcDbDictionary
280
     1
281
     1
  3
ACAD_XREC_ROUNDTRIP
360
364
  0
DICTIONARY
  5
365
330
2C
100
AcDbDictionary
280
     1
281
     1
  3
ACAD_XREC_ROUNDTRIP
360
366
  0
DICTIONARY
  5
367
330
2D
100
AcDbDictionary
280
     1
281
     1
  3
ACAD_XREC_ROUNDTRIP
360
368
  0
DICTIONARY
  5
369
330
2E
100
AcDbDictionary
280
     1
281
     1
  3
ACAD_XREC_ROUNDTRIP
360
36A
  0
DICTIONARY
  5
36F
330
31
100
AcDbDictionary
280
     1
281
     1
  3
ACAD_XREC_ROUNDTRIP
360
370
  0
DICTIONARY
  5
383
330
3B
100
AcDbDictionary
280
     1
281
     1
  3
ACAD_XREC_ROUNDTRIP
360
384
  0
DICTIONARY
  5
37D
330
38
100
AcDbDictionary
280
     1
281
     1
  3
ACAD_XREC_ROUNDTRIP
360
37E
  0
DICTIONARY
  5
385
330
3C
100
AcDbDictionary
280
     1
281
     1
  3
ACAD_XREC_ROUNDTRIP
360
386
  0
DICTIONARY
  5
373
330
33
100
AcDbDictionary
280
     1
281
     1
  3
ACAD_XREC_ROUNDTRIP
360
374
  0
DICTIONARY
  5
391
330
42
100
AcDbDictionary
280
     1
281
     1
  3
ACAD_XREC_ROUNDTRIP
360
392
  0
DICTIONARY
  5
38F
330
41
100
AcDbDictionary
280
     1
281
     1
  3
ACAD_XREC_ROUNDTRIP
360
390
  0
DICTIONARY
  5
389
330
3E
100
AcDbDictionary
280
     1
281
     1
  3
ACAD_XREC_ROUNDTRIP
360
38A
  0
DICTIONARY
  5
38B
330
3F
100
AcDbDictionary
280
     1
281
     1
  3
ACAD_XREC_ROUNDTRIP
360
38C
  0
DICTIONARY
  5
37B
330
37
100
AcDbDictionary
280
     1
281
     1
  3
ACAD_XREC_ROUNDTRIP
360
37C
  0
DICTIONARY
  5
36D
330
30
100
AcDbDictionary
280
     1
281
     1
  3
ACAD_XREC_ROUNDTRIP
360
36E
  0
DICTIONARY
  5
38D
330
40
100
AcDbDictionary
280
     1
281
     1
  3
ACAD_XREC_ROUNDTRIP
360
38E
  0
XRECORD
  5
396
102
{ACAD_REACTORS
330
395
102
}
330
395
100
AcDbXrecord
280
     1
102
MATERIAL
148
0.0
149
0.0
149
0.0
 93
        0
 94
      127
282
     0
 72
     1
 77
     1
171
     1
175
     1
179
     1
273
     0
  0
XRECORD
  5
394
102
{ACAD_REACTORS
330
393
102
}
330
393
100
AcDbXrecord
280
     1
102
MATERIAL
148
0.0
149
0.0
149
0.0
 93
        0
 94
      127
282
     0
 72
     1
 77
     1
171
     1
175
     1
179
     1
273
     0
  0
XRECORD
  5
398
102
{ACAD_REACTORS
330
397
102
}
330
397
100
AcDbXrecord
280
     1
102
MATERIAL
148
0.0
149
0.0
149
0.0
 93
        0
 94
      127
282
     0
 72
     1
 77
     1
171
     1
175
     1
179
     1
273
     0
  0
XRECORD
  5
39E
102
{ACAD_REACTORS
330
39D
102
}
330
39D
100
AcDbXrecord
280
     1
102
ACAD_ROUNDTRIP_2010_MLEADER_STYLE
  0
CELLSTYLEMAP
  5
39B
102
{ACAD_REACTORS
330
399
102
}
330
399
100
AcDbCellStyleMap
 90
        3
300
CELLSTYLE
  1
TABLEFORMAT_BEGIN
 90
        5
170
     1
 91
        0
 92
    32768
 62
   257
 93
        1
300
CONTENTFORMAT
  1
CONTENTFORMAT_BEGIN
 90
        0
 91
        0
 92
        4
 93
        0
300

 40
0.0
140
1.0
 94
        5
 62
     0
340
11
144
0.25
309
CONTENTFORMAT_END
171
     1
301
MARGIN
  1
CELLMARGIN_BEGIN
 40
0.06
 40
0.06
 40
0.06
 40
0.06
 40
0.06
 40
0.06
309
CELLMARGIN_END
 94
        6
 95
        1
302
GRIDFORMAT
  1
GRIDFORMAT_BEGIN
 90
        0
 91
        1
 62
     0
 92
       -2
340
14
 93
        0
 40
0.045
309
GRIDFORMAT_END
 95
        2
302
GRIDFORMAT
  1
GRIDFORMAT_BEGIN
 90
        0
 91
        1
 62
     0
 92
       -2
340
14
 93
        0
 40
0.045
309
GRIDFORMAT_END
 95
        4
302
GRIDFORMAT
  1
GRIDFORMAT_BEGIN
 90
        0
 91
        1
 62
     0
 92
       -2
340
14
 93
        0
 40
0.045
309
GRIDFORMAT_END
 95
        8
302
GRIDFORMAT
  1
GRIDFORMAT_BEGIN
 90
        0
 91
        1
 62
     0
 92
       -2
340
14
 93
        0
 40
0.045
309
GRIDFORMAT_END
 95
       16
302
GRIDFORMAT
  1
GRIDFORMAT_BEGIN
 90
        0
 91
        1
 62
     0
 92
       -2
340
14
 93
        0
 40
0.045
309
GRIDFORMAT_END
 95
       32
302
GRIDFORMAT
  1
GRIDFORMAT_BEGIN
 90
        0
 91
        1
 62
     0
 92
       -2
340
14
 93
        0
 40
0.045
309
GRIDFORMAT_END
309
TABLEFORMAT_END
  1
CELLSTYLE_BEGIN
 90
        1
 91
        1
300
_TITLE
309
CELLSTYLE_END
300
CELLSTYLE
  1
TABLEFORMAT_BEGIN
 90
        5
170
     1
 91
        0
 92
        0
 62
   257
 93
        1
300
CONTENTFORMAT
  1
CONTENTFORMAT_BEGIN
 90
        0
 91
        0
 92
        4
 93
        0
300

 40
0.0
140
1.0
 94
        5
 62
     0
340
11
144
0.18
309
CONTENTFORMAT_END
171
     1
301
MARGIN
  1
CELLMARGIN_BEGIN
 40
0.06
 40
0.06
 40
0.06
 40
0.06
 40
0.06
 40
0.06
309
CELLMARGIN_END
 94
        6
 95
        1
302
GRIDFORMAT
  1
GRIDFORMAT_BEGIN
 90
        0
 91
        1
 62
     0
 92
       -2
340
14
 93
        0
 40
0.045
309
GRIDFORMAT_END
 95
        2
302
GRIDFORMAT
  1
GRIDFORMAT_BEGIN
 90
        0
 91
        1
 62
     0
 92
       -2
340
14
 93
        0
 40
0.045
309
GRIDFORMAT_END
 95
        4
302
GRIDFORMAT
  1
GRIDFORMAT_BEGIN
 90
        0
 91
        1
 62
     0
 92
       -2
340
14
 93
        0
 40
0.045
309
GRIDFORMAT_END
 95
        8
302
GRIDFORMAT
  1
GRIDFORMAT_BEGIN
 90
        0
 91
        1
 62
     0
 92
       -2
340
14
 93
        0
 40
0.045
309
GRIDFORMAT_END
 95
       16
302
GRIDFORMAT
  1
GRIDFORMAT_BEGIN
 90
        0
 91
        1
 62
     0
 92
       -2
340
14
 93
        0
 40
0.045
309
GRIDFORMAT_END
 95
       32
302
GRIDFORMAT
  1
GRIDFORMAT_BEGIN
 90
        0
 91
        1
 62
     0
 92
       -2
340
14
 93
        0
 40
0.045
309
GRIDFORMAT_END
309
TABLEFORMAT_END
  1
CELLSTYLE_BEGIN
 90
        2
 91
        1
300
_HEADER
309
CELLSTYLE_END
300
CELLSTYLE
  1
TABLEFORMAT_BEGIN
 90
        5
170
     1
 91
        0
 92
        0
 62
   257
 93
        1
300
CONTENTFORMAT
  1
CONTENTFORMAT_BEGIN
 90
        0
 91
        0
 92
        4
 93
        0
300

 40
0.0
140
1.0
 94
        2
 62
     0
340
11
144
0.18
309
CONTENTFORMAT_END
171
     1
301
MARGIN
  1
CELLMARGIN_BEGIN
 40
0.06
 40
0.06
 40
0.06
 40
0.06
 40
0.06
 40
0.06
309
CELLMARGIN_END
 94
        6
 95
        1
302
GRIDFORMAT
  1
GRIDFORMAT_BEGIN
 90
        0
 91
        1
 62
     0
 92
       -2
340
14
 93
        0
 40
0.045
309
GRIDFORMAT_END
 95
        2
302
GRIDFORMAT
  1
GRIDFORMAT_BEGIN
 90
        0
 91
        1
 62
     0
 92
       -2
340
14
 93
        0
 40
0.045
309
GRIDFORMAT_END
 95
        4
302
GRIDFORMAT
  1
GRIDFORMAT_BEGIN
 90
        0
 91
        1
 62
     0
 92
       -2
340
14
 93
        0
 40
0.045
309
GRIDFORMAT_END
 95
        8
302
GRIDFORMAT
  1
GRIDFORMAT_BEGIN
 90
        0
 91
        1
 62
     0
 92
       -2
340
14
 93
        0
 40
0.045
309
GRIDFORMAT_END
 95
       16
302
GRIDFORMAT
  1
GRIDFORMAT_BEGIN
 90
        0
 91
        1
 62
     0
 92
       -2
340
14
 93
        0
 40
0.045
309
GRIDFORMAT_END
 95
       32
302
GRIDFORMAT
  1
GRIDFORMAT_BEGIN
 90
        0
 91
        1
 62
     0
 92
       -2
340
14
 93
        0
 40
0.045
309
GRIDFORMAT_END
309
TABLEFORMAT_END
  1
CELLSTYLE_BEGIN
 90
        3
 91
        2
300
_DATA
309
CELLSTYLE_END
  0
XRECORD
  5
39A
102
{ACAD_REACTORS
330
399
102
}
330
399
100
AcDbXrecord
280
     1
102
ACAD_ROUNDTRIP_PRE2007_TABLESTYLE
 90
        4
 91
        0
  1

 92
        4
 93
        0
  2

 94
        4
 95
        0
  3

  0
XRECORD
  5
36C
102
{ACAD_REACTORS
330
36B
102
}
330
36B
100
AcDbXrecord
280
     1
102
RTVSPropertyOp0
 70
     1
102
RTVSPropertyOp1
 70
     1
102
RTVSPropertyOp2
 70
     1
102
RTVSPropertyOp3
 70
     1
102
RTVSPropertyOp4
 70
     1
102
RTVSPropertyOp5
 70
     1
102
RTVSPropertyOp6
 70
     1
102
RTVSPropertyOp7
 70
     1
102
RTVSPropertyOp8
 70
     1
102
RTVSPropertyOp9
 70
     1
102
RTVSPropertyOp10
 70
     1
102
RTVSPropertyOp11
 70
     1
102
RTVSPropertyOp12
 70
     1
102
RTVSPropertyOp13
 70
     1
102
RTVSPropertyOp14
 70
     1
102
RTVSPropertyOp15
 70
     1
102
RTVSPropertyOp16
 70
     1
102
RTVSPropertyOp17
 70
     1
102
RTVSPropertyOp18
 70
     1
102
RTVSPropertyOp19
 70
     1
102
RTVSPropertyOp20
 70
     1
102
RTVSPropertyOp21
 70
     1
102
RTVSPropertyOp22
 70
     1
102
RTVSPropertyOp23
 70
     1
102
RTVSPropertyOp24
 70
     1
102
RTVSPropertyOp25
 70
     1
102
RTVSPropertyOp26
 70
     1
102
RTVSPropertyOp27
 70
     1
102
RTVSPropertyOp28
 70
     1
102
RTVSPropertyOp29
 70
     1
102
RTVSPropertyOp30
 70
     1
102
RTVSPropertyOp31
 70
     1
102
RTVSPropertyOp32
 70
     1
102
RTVSPropertyOp33
 70
     1
102
RTVSPropertyOp34
 70
     1
102
RTVSPropertyOp35
 70
     1
102
RTVSPropertyOp36
 70
     1
102
RTVSPropertyOp37
 70
     1
102
RTVSPropertyOp38
 70
     1
102
RTVSPropertyOp39
 70
     1
102
RTVSPropertyOp40
 70
     1
102
RTVSPropertyOp41
 70
     1
102
RTVSPropertyOp42
 70
     1
102
RTVSPropertyOp43
 70
     1
102
RTVSPropertyOp44
 70
     1
102
RTVSPropertyOp45
 70
     1
102
RTVSPropertyOp46
 70
     1
102
RTVSPropertyOp47
 70
     1
102
RTVSPropertyOp48
 70
     1
102
RTVSPropertyOp49
 70
     1
102
RTVSPropertyOp50
 70
     1
102
RTVSPropertyOp51
 70
     0
102
RTVSPropertyOp52
 70
     0
102
RTVSPropertyOp53
 70
     1
102
RTVSPropertyOp54
 70
     1
102
RTVSPropertyOp55
 70
     1
102
RTVSPropertyOp56
 70
     1
102
RTVSPropertyOp57
 70
     1
102
RTVSPost2010Prop28
280
     1
102
RTVSPost2010PropOp28
 70
     1
102
RTVSPost2010Prop29
280
     1
102
RTVSPost2010PropOp29
 70
     1
102
RTVSPost2010Prop30
280
     0
102
RTVSPost2010PropOp30
 70
     1
102
RTVSPost2010Prop31
280
     0
102
RTVSPost2010PropOp31
 70
     1
102
RTVSPost2010Prop32
280
     0
102
RTVSPost2010PropOp32
 70
     1
102
RTVSPost2010Prop33
280
     0
102
RTVSPost2010PropOp33
 70
     1
102
RTVSPost2010Prop34
280
     0
102
RTVSPost2010PropOp34
 70
     1
102
RTVSPost2010Prop35
280
     0
102
RTVSPost2010PropOp35
 70
     1
102
RTVSPost2010Prop36
280
     0
102
RTVSPost2010PropOp36
 70
     1
102
RTVSPost2010Prop37
 90
       50
102
RTVSPost2010PropOp37
 70
     1
102
RTVSPost2010Prop38
140
0.0
102
RTVSPost2010PropOp38
 70
     1
102
RTVSPost2010Prop39
140
1.0
102
RTVSPost2010PropOp39
 70
     1
102
RTVSPost2010Prop40
 90
        0
102
RTVSPost2010PropOp40
 70
     1
102
RTVSPost2010Prop41ColorIndex
 90
       18
102
RTVSPost2010Prop41ColorRGB
 90
        0
102
RTVSPost2010PropOp41
 70
     1
102
RTVSPost2010Prop42
 90
       50
102
RTVSPost2010PropOp42
 70
     1
102
RTVSPost2010Prop43
 90
        3
102
RTVSPost2010PropOp43
 70
     1
102
RTVSPost2010Prop44ColorIndex
 90
        5
102
RTVSPost2010Prop44ColorRGB
 90
      255
102
RTVSPost2010PropOp44
 70
     1
102
RTVSPost2010Prop45
280
     0
102
RTVSPost2010PropOp45
 70
     1
102
RTVSPost2010Prop46
 90
       50
102
RTVSPost2010PropOp46
 70
     1
102
RTVSPost2010Prop47
 90
       50
102
RTVSPost2010PropOp47
 70
     1
102
RTVSPost2010Prop48
 90
       50
102
RTVSPost2010PropOp48
 70
     1
102
RTVSPost2010Prop49
280
     0
102
RTVSPost2010PropOp49
 70
     1
102
RTVSPost2010Prop50
 90
       50
102
RTVSPost2010PropOp50
 70
     1
102
RTVSPost2010Prop51ColorIndex
 90
      256
102
RTVSPost2010Prop51ColorRGB
 90
-16777216
102
RTVSPost2010PropOp51
 70
     0
102
RTVSPost2010Prop52
140
1.0
102
RTVSPost2010PropOp52
 70
     0
102
RTVSPost2010Prop53
 90
        2
102
RTVSPost2010PropOp53
 70
     1
102
RTVSPost2010Prop54
  1
strokes_ogs.tif
102
RTVSPost2010PropOp54
 70
     1
102
RTVSPost2010Prop55
280
     0
102
RTVSPost2010PropOp55
 70
     1
102
RTVSPost2010Prop56
140
1.0
102
RTVSPost2010PropOp56
 70
     1
102
RTVSPost2010Prop57
140
1.0
102
RTVSPost2010PropOp57
 70
     1
  0
XRECORD
  5
372
102
{ACAD_REACTORS
330
371
102
}
330
371
100
AcDbXrecord
280
     1
102
RTVSPropertyOp0
 70
     1
102
RTVSPropertyOp1
 70
     1
102
RTVSPropertyOp2
 70
     1
102
RTVSPropertyOp3
 70
     1
102
RTVSPropertyOp4
 70
     1
102
RTVSPropertyOp5
 70
     1
102
RTVSPropertyOp6
 70
     1
102
RTVSPropertyOp7
 70
     1
102
RTVSPropertyOp8
 70
     1
102
RTVSPropertyOp9
 70
     1
102
RTVSPropertyOp10
 70
     1
102
RTVSPropertyOp11
 70
     1
102
RTVSPropertyOp12
 70
     1
102
RTVSPropertyOp13
 70
     1
102
RTVSPropertyOp14
 70
     1
102
RTVSPropertyOp15
 70
     1
102
RTVSPropertyOp16
 70
     1
102
RTVSPropertyOp17
 70
     1
102
RTVSPropertyOp18
 70
     1
102
RTVSPropertyOp19
 70
     1
102
RTVSPropertyOp20
 70
     1
102
RTVSPropertyOp21
 70
     1
102
RTVSPropertyOp22
 70
     1
102
RTVSPropertyOp23
 70
     1
102
RTVSPropertyOp24
 70
     1
102
RTVSPropertyOp25
 70
     1
102
RTVSPropertyOp26
 70
     1
102
RTVSPropertyOp27
 70
     1
102
RTVSPropertyOp28
 70
     1
102
RTVSPropertyOp29
 70
     1
102
RTVSPropertyOp30
 70
     1
102
RTVSPropertyOp31
 70
     1
102
RTVSPropertyOp32
 70
     1
102
RTVSPropertyOp33
 70
     1
102
RTVSPropertyOp34
 70
     1
102
RTVSPropertyOp35
 70
     1
102
RTVSPropertyOp36
 70
     1
102
RTVSPropertyOp37
 70
     1
102
RTVSPropertyOp38
 70
     1
102
RTVSPropertyOp39
 70
     1
102
RTVSPropertyOp40
 70
     1
102
RTVSPropertyOp41
 70
     1
102
RTVSPropertyOp42
 70
     1
102
RTVSPropertyOp43
 70
     1
102
RTVSPropertyOp44
 70
     1
102
RTVSPropertyOp45
 70
     1
102
RTVSPropertyOp46
 70
     1
102
RTVSPropertyOp47
 70
     1
102
RTVSPropertyOp48
 70
     1
102
RTVSPropertyOp49
 70
     1
102
RTVSPropertyOp50
 70
     1
102
RTVSPropertyOp51
 70
     0
102
RTVSPropertyOp52
 70
     0
102
RTVSPropertyOp53
 70
     1
102
RTVSPropertyOp54
 70
     1
102
RTVSPropertyOp55
 70
     1
102
RTVSPropertyOp56
 70
     1
102
RTVSPropertyOp57
 70
     1
102
RTVSPost2010Prop28
280
     0
102
RTVSPost2010PropOp28
 70
     1
102
RTVSPost2010Prop29
280
     1
102
RTVSPost2010PropOp29
 70
     1
102
RTVSPost2010Prop30
280
     1
102
RTVSPost2010PropOp30
 70
     1
102
RTVSPost2010Prop31
280
     0
102
RTVSPost2010PropOp31
 70
     1
102
RTVSPost2010Prop32
280
     0
102
RTVSPost2010PropOp32
 70
     1
102
RTVSPost2010Prop33
280
     0
102
RTVSPost2010PropOp33
 70
     1
102
RTVSPost2010Prop34
280
     0
102
RTVSPost2010PropOp34
 70
     1
102
RTVSPost2010Prop35
280
     0
102
RTVSPost2010PropOp35
 70
     1
102
RTVSPost2010Prop36
280
     0
102
RTVSPost2010PropOp36
 70
     1
102
RTVSPost2010Prop37
 90
       50
102
RTVSPost2010PropOp37
 70
     1
102
RTVSPost2010Prop38
140
0.0
102
RTVSPost2010PropOp38
 70
     1
102
RTVSPost2010Prop39
140
1.0
102
RTVSPost2010PropOp39
 70
     1
102
RTVSPost2010Prop40
 90
        0
102
RTVSPost2010PropOp40
 70
     1
102
RTVSPost2010Prop41ColorIndex
 90
       18
102
RTVSPost2010Prop41ColorRGB
 90
        0
102
RTVSPost2010PropOp41
 70
     1
102
RTVSPost2010Prop42
 90
       50
102
RTVSPost2010PropOp42
 70
     1
102
RTVSPost2010Prop43
 90
        3
102
RTVSPost2010PropOp43
 70
     1
102
RTVSPost2010Prop44ColorIndex
 90
        5
102
RTVSPost2010Prop44ColorRGB
 90
      255
102
RTVSPost2010PropOp44
 70
     1
102
RTVSPost2010Prop45
280
     0
102
RTVSPost2010PropOp45
 70
     1
102
RTVSPost2010Prop46
 90
       50
102
RTVSPost2010PropOp46
 70
     1
102
RTVSPost2010Prop47
 90
       50
102
RTVSPost2010PropOp47
 70
     1
102
RTVSPost2010Prop48
 90
       50
102
RTVSPost2010PropOp48
 70
     1
102
RTVSPost2010Prop49
280
     0
102
RTVSPost2010PropOp49
 70
     1
102
RTVSPost2010Prop50
 90
       50
102
RTVSPost2010PropOp50
 70
     1
102
RTVSPost2010Prop51ColorIndex
 90
      256
102
RTVSPost2010Prop51ColorRGB
 90
-16777216
102
RTVSPost2010PropOp51
 70
     0
102
RTVSPost2010Prop52
140
1.0
102
RTVSPost2010PropOp52
 70
     0
102
RTVSPost2010Prop53
 90
        2
102
RTVSPost2010PropOp53
 70
     1
102
RTVSPost2010Prop54
  1
strokes_ogs.tif
102
RTVSPost2010PropOp54
 70
     1
102
RTVSPost2010Prop55
280
     0
102
RTVSPost2010PropOp55
 70
     1
102
RTVSPost2010Prop56
140
1.0
102
RTVSPost2010PropOp56
 70
     1
102
RTVSPost2010Prop57
140
1.0
102
RTVSPost2010PropOp57
 70
     1
  0
XRECORD
  5
37A
102
{ACAD_REACTORS
330
379
102
}
330
379
100
AcDbXrecord
280
     1
102
RTVSPropertyOp0
 70
     1
102
RTVSPropertyOp1
 70
     1
102
RTVSPropertyOp2
 70
     1
102
RTVSPropertyOp3
 70
     1
102
RTVSPropertyOp4
 70
     1
102
RTVSPropertyOp5
 70
     1
102
RTVSPropertyOp6
 70
     1
102
RTVSPropertyOp7
 70
     1
102
RTVSPropertyOp8
 70
     1
102
RTVSPropertyOp9
 70
     1
102
RTVSPropertyOp10
 70
     1
102
RTVSPropertyOp11
 70
     1
102
RTVSPropertyOp12
 70
     1
102
RTVSPropertyOp13
 70
     1
102
RTVSPropertyOp14
 70
     1
102
RTVSPropertyOp15
 70
     1
102
RTVSPropertyOp16
 70
     1
102
RTVSPropertyOp17
 70
     1
102
RTVSPropertyOp18
 70
     1
102
RTVSPropertyOp19
 70
     1
102
RTVSPropertyOp20
 70
     1
102
RTVSPropertyOp21
 70
     1
102
RTVSPropertyOp22
 70
     1
102
RTVSPropertyOp23
 70
     1
102
RTVSPropertyOp24
 70
     1
102
RTVSPropertyOp25
 70
     1
102
RTVSPropertyOp26
 70
     1
102
RTVSPropertyOp27
 70
     1
102
RTVSPropertyOp28
 70
     1
102
RTVSPropertyOp29
 70
     1
102
RTVSPropertyOp30
 70
     1
102
RTVSPropertyOp31
 70
     1
102
RTVSPropertyOp32
 70
     1
102
RTVSPropertyOp33
 70
     1
102
RTVSPropertyOp34
 70
     1
102
RTVSPropertyOp35
 70
     1
102
RTVSPropertyOp36
 70
     1
102
RTVSPropertyOp37
 70
     1
102
RTVSPropertyOp38
 70
     1
102
RTVSPropertyOp39
 70
     1
102
RTVSPropertyOp40
 70
     1
102
RTVSPropertyOp41
 70
     1
102
RTVSPropertyOp42
 70
     1
102
RTVSPropertyOp43
 70
     1
102
RTVSPropertyOp44
 70
     1
102
RTVSPropertyOp45
 70
     1
102
RTVSPropertyOp46
 70
     1
102
RTVSPropertyOp47
 70
     1
102
RTVSPropertyOp48
 70
     1
102
RTVSPropertyOp49
 70
     1
102
RTVSPropertyOp50
 70
     1
102
RTVSPropertyOp51
 70
     0
102
RTVSPropertyOp52
 70
     0
102
RTVSPropertyOp53
 70
     1
102
RTVSPropertyOp54
 70
     1
102
RTVSPropertyOp55
 70
     1
102
RTVSPropertyOp56
 70
     1
102
RTVSPropertyOp57
 70
     1
102
RTVSPost2010Prop28
280
     0
102
RTVSPost2010PropOp28
 70
     1
102
RTVSPost2010Prop29
280
     1
102
RTVSPost2010PropOp29
 70
     1
102
RTVSPost2010Prop30
280
     1
102
RTVSPost2010PropOp30
 70
     1
102
RTVSPost2010Prop31
280
     0
102
RTVSPost2010PropOp31
 70
     1
102
RTVSPost2010Prop32
280
     0
102
RTVSPost2010PropOp32
 70
     1
102
RTVSPost2010Prop33
280
     0
102
RTVSPost2010PropOp33
 70
     1
102
RTVSPost2010Prop34
280
     0
102
RTVSPost2010PropOp34
 70
     1
102
RTVSPost2010Prop35
280
     0
102
RTVSPost2010PropOp35
 70
     1
102
RTVSPost2010Prop36
280
     0
102
RTVSPost2010PropOp36
 70
     1
102
RTVSPost2010Prop37
 90
       50
102
RTVSPost2010PropOp37
 70
     1
102
RTVSPost2010Prop38
140
0.0
102
RTVSPost2010PropOp38
 70
     1
102
RTVSPost2010Prop39
140
1.0
102
RTVSPost2010PropOp39
 70
     1
102
RTVSPost2010Prop40
 90
        0
102
RTVSPost2010PropOp40
 70
     1
102
RTVSPost2010Prop41ColorIndex
 90
       18
102
RTVSPost2010Prop41ColorRGB
 90
        0
102
RTVSPost2010PropOp41
 70
     1
102
RTVSPost2010Prop42
 90
       50
102
RTVSPost2010PropOp42
 70
     1
102
RTVSPost2010Prop43
 90
        3
102
RTVSPost2010PropOp43
 70
     1
102
RTVSPost2010Prop44ColorIndex
 90
        5
102
RTVSPost2010Prop44ColorRGB
 90
      255
102
RTVSPost2010PropOp44
 70
     1
102
RTVSPost2010Prop45
280
     0
102
RTVSPost2010PropOp45
 70
     1
102
RTVSPost2010Prop46
 90
       50
102
RTVSPost2010PropOp46
 70
     1
102
RTVSPost2010Prop47
 90
       50
102
RTVSPost2010PropOp47
 70
     1
102
RTVSPost2010Prop48
 90
       50
102
RTVSPost2010PropOp48
 70
     1
102
RTVSPost2010Prop49
280
     0
102
RTVSPost2010PropOp49
 70
     1
102
RTVSPost2010Prop50
 90
       50
102
RTVSPost2010PropOp50
 70
     1
102
RTVSPost2010Prop51ColorIndex
 90
      256
102
RTVSPost2010Prop51ColorRGB
 90
-16777216
102
RTVSPost2010PropOp51
 70
     0
102
RTVSPost2010Prop52
140
1.0
102
RTVSPost2010PropOp52
 70
     0
102
RTVSPost2010Prop53
 90
        2
102
RTVSPost2010PropOp53
 70
     1
102
RTVSPost2010Prop54
  1
strokes_ogs.tif
102
RTVSPost2010PropOp54
 70
     1
102
RTVSPost2010Prop55
280
     0
102
RTVSPost2010PropOp55
 70
     1
102
RTVSPost2010Prop56
140
1.0
102
RTVSPost2010PropOp56
 70
     1
102
RTVSPost2010Prop57
140
1.0
102
RTVSPost2010PropOp57
 70
     1
  0
XRECORD
  5
382
102
{ACAD_REACTORS
330
381
102
}
330
381
100
AcDbXrecord
280
     1
102
RTVSPropertyOp0
 70
     1
102
RTVSPropertyOp1
 70
     1
102
RTVSPropertyOp2
 70
     1
102
RTVSPropertyOp3
 70
     1
102
RTVSPropertyOp4
 70
     1
102
RTVSPropertyOp5
 70
     1
102
RTVSPropertyOp6
 70
     1
102
RTVSPropertyOp7
 70
     1
102
RTVSPropertyOp8
 70
     1
102
RTVSPropertyOp9
 70
     1
102
RTVSPropertyOp10
 70
     1
102
RTVSPropertyOp11
 70
     1
102
RTVSPropertyOp12
 70
     1
102
RTVSPropertyOp13
 70
     1
102
RTVSPropertyOp14
 70
     1
102
RTVSPropertyOp15
 70
     1
102
RTVSPropertyOp16
 70
     1
102
RTVSPropertyOp17
 70
     1
102
RTVSPropertyOp18
 70
     1
102
RTVSPropertyOp19
 70
     1
102
RTVSPropertyOp20
 70
     1
102
RTVSPropertyOp21
 70
     1
102
RTVSPropertyOp22
 70
     1
102
RTVSPropertyOp23
 70
     1
102
RTVSPropertyOp24
 70
     1
102
RTVSPropertyOp25
 70
     1
102
RTVSPropertyOp26
 70
     1
102
RTVSPropertyOp27
 70
     1
102
RTVSPropertyOp28
 70
     1
102
RTVSPropertyOp29
 70
     1
102
RTVSPropertyOp30
 70
     1
102
RTVSPropertyOp31
 70
     1
102
RTVSPropertyOp32
 70
     1
102
RTVSPropertyOp33
 70
     1
102
RTVSPropertyOp34
 70
     1
102
RTVSPropertyOp35
 70
     1
102
RTVSPropertyOp36
 70
     1
102
RTVSPropertyOp37
 70
     1
102
RTVSPropertyOp38
 70
     1
102
RTVSPropertyOp39
 70
     1
102
RTVSPropertyOp40
 70
     1
102
RTVSPropertyOp41
 70
     1
102
RTVSPropertyOp42
 70
     1
102
RTVSPropertyOp43
 70
     1
102
RTVSPropertyOp44
 70
     1
102
RTVSPropertyOp45
 70
     1
102
RTVSPropertyOp46
 70
     1
102
RTVSPropertyOp47
 70
     1
102
RTVSPropertyOp48
 70
     1
102
RTVSPropertyOp49
 70
     1
102
RTVSPropertyOp50
 70
     1
102
RTVSPropertyOp51
 70
     0
102
RTVSPropertyOp52
 70
     0
102
RTVSPropertyOp53
 70
     1
102
RTVSPropertyOp54
 70
     1
102
RTVSPropertyOp55
 70
     1
102
RTVSPropertyOp56
 70
     1
102
RTVSPropertyOp57
 70
     1
102
RTVSPost2010Prop28
280
     0
102
RTVSPost2010PropOp28
 70
     1
102
RTVSPost2010Prop29
280
     1
102
RTVSPost2010PropOp29
 70
     1
102
RTVSPost2010Prop30
280
     1
102
RTVSPost2010PropOp30
 70
     1
102
RTVSPost2010Prop31
280
     0
102
RTVSPost2010PropOp31
 70
     1
102
RTVSPost2010Prop32
280
     0
102
RTVSPost2010PropOp32
 70
     1
102
RTVSPost2010Prop33
280
     0
102
RTVSPost2010PropOp33
 70
     1
102
RTVSPost2010Prop34
280
     0
102
RTVSPost2010PropOp34
 70
     1
102
RTVSPost2010Prop35
280
     0
102
RTVSPost2010PropOp35
 70
     1
102
RTVSPost2010Prop36
280
     0
102
RTVSPost2010PropOp36
 70
     1
102
RTVSPost2010Prop37
 90
       50
102
RTVSPost2010PropOp37
 70
     1
102
RTVSPost2010Prop38
140
0.0
102
RTVSPost2010PropOp38
 70
     1
102
RTVSPost2010Prop39
140
1.0
102
RTVSPost2010PropOp39
 70
     1
102
RTVSPost2010Prop40
 90
        0
102
RTVSPost2010PropOp40
 70
     1
102
RTVSPost2010Prop41ColorIndex
 90
       18
102
RTVSPost2010Prop41ColorRGB
 90
        0
102
RTVSPost2010PropOp41
 70
     1
102
RTVSPost2010Prop42
 90
       50
102
RTVSPost2010PropOp42
 70
     1
102
RTVSPost2010Prop43
 90
        3
102
RTVSPost2010PropOp43
 70
     1
102
RTVSPost2010Prop44ColorIndex
 90
        5
102
RTVSPost2010Prop44ColorRGB
 90
      255
102
RTVSPost2010PropOp44
 70
     1
102
RTVSPost2010Prop45
280
     0
102
RTVSPost2010PropOp45
 70
     1
102
RTVSPost2010Prop46
 90
       50
102
RTVSPost2010PropOp46
 70
     1
102
RTVSPost2010Prop47
 90
       50
102
RTVSPost2010PropOp47
 70
     1
102
RTVSPost2010Prop48
 90
       50
102
RTVSPost2010PropOp48
 70
     1
102
RTVSPost2010Prop49
280
     0
102
RTVSPost2010PropOp49
 70
     1
102
RTVSPost2010Prop50
 90
       50
102
RTVSPost2010PropOp50
 70
     1
102
RTVSPost2010Prop51ColorIndex
 90
      256
102
RTVSPost2010Prop51ColorRGB
 90
-16777216
102
RTVSPost2010PropOp51
 70
     0
102
RTVSPost2010Prop52
140
1.0
102
RTVSPost2010PropOp52
 70
     0
102
RTVSPost2010Prop53
 90
        2
102
RTVSPost2010PropOp53
 70
     1
102
RTVSPost2010Prop54
  1
strokes_ogs.tif
102
RTVSPost2010PropOp54
 70
     1
102
RTVSPost2010Prop55
280
     0
102
RTVSPost2010PropOp55
 70
     1
102
RTVSPost2010Prop56
140
1.0
102
RTVSPost2010PropOp56
 70
     1
102
RTVSPost2010Prop57
140
1.0
102
RTVSPost2010PropOp57
 70
     1
  0
XRECORD
  5
376
102
{ACAD_REACTORS
330
375
102
}
330
375
100
AcDbXrecord
280
     1
102
RTVSPropertyOp0
 70
     1
102
RTVSPropertyOp1
 70
     1
102
RTVSPropertyOp2
 70
     1
102
RTVSPropertyOp3
 70
     1
102
RTVSPropertyOp4
 70
     1
102
RTVSPropertyOp5
 70
     1
102
RTVSPropertyOp6
 70
     1
102
RTVSPropertyOp7
 70
     1
102
RTVSPropertyOp8
 70
     1
102
RTVSPropertyOp9
 70
     1
102
RTVSPropertyOp10
 70
     1
102
RTVSPropertyOp11
 70
     1
102
RTVSPropertyOp12
 70
     1
102
RTVSPropertyOp13
 70
     1
102
RTVSPropertyOp14
 70
     1
102
RTVSPropertyOp15
 70
     1
102
RTVSPropertyOp16
 70
     1
102
RTVSPropertyOp17
 70
     1
102
RTVSPropertyOp18
 70
     1
102
RTVSPropertyOp19
 70
     1
102
RTVSPropertyOp20
 70
     1
102
RTVSPropertyOp21
 70
     1
102
RTVSPropertyOp22
 70
     1
102
RTVSPropertyOp23
 70
     1
102
RTVSPropertyOp24
 70
     1
102
RTVSPropertyOp25
 70
     1
102
RTVSPropertyOp26
 70
     1
102
RTVSPropertyOp27
 70
     1
102
RTVSPropertyOp28
 70
     1
102
RTVSPropertyOp29
 70
     1
102
RTVSPropertyOp30
 70
     1
102
RTVSPropertyOp31
 70
     1
102
RTVSPropertyOp32
 70
     1
102
RTVSPropertyOp33
 70
     1
102
RTVSPropertyOp34
 70
     1
102
RTVSPropertyOp35
 70
     1
102
RTVSPropertyOp36
 70
     1
102
RTVSPropertyOp37
 70
     1
102
RTVSPropertyOp38
 70
     1
102
RTVSPropertyOp39
 70
     1
102
RTVSPropertyOp40
 70
     1
102
RTVSPropertyOp41
 70
     1
102
RTVSPropertyOp42
 70
     1
102
RTVSPropertyOp43
 70
     1
102
RTVSPropertyOp44
 70
     1
102
RTVSPropertyOp45
 70
     1
102
RTVSPropertyOp46
 70
     1
102
RTVSPropertyOp47
 70
     1
102
RTVSPropertyOp48
 70
     1
102
RTVSPropertyOp49
 70
     1
102
RTVSPropertyOp50
 70
     1
102
RTVSPropertyOp51
 70
     0
102
RTVSPropertyOp52
 70
     0
102
RTVSPropertyOp53
 70
     1
102
RTVSPropertyOp54
 70
     1
102
RTVSPropertyOp55
 70
     1
102
RTVSPropertyOp56
 70
     1
102
RTVSPropertyOp57
 70
     1
102
RTVSPost2010Prop28
280
     0
102
RTVSPost2010PropOp28
 70
     1
102
RTVSPost2010Prop29
280
     1
102
RTVSPost2010PropOp29
 70
     1
102
RTVSPost2010Prop30
280
     1
102
RTVSPost2010PropOp30
 70
     1
102
RTVSPost2010Prop31
280
     0
102
RTVSPost2010PropOp31
 70
     1
102
RTVSPost2010Prop32
280
     0
102
RTVSPost2010PropOp32
 70
     1
102
RTVSPost2010Prop33
280
     0
102
RTVSPost2010PropOp33
 70
     1
102
RTVSPost2010Prop34
280
     0
102
RTVSPost2010PropOp34
 70
     1
102
RTVSPost2010Prop35
280
     0
102
RTVSPost2010PropOp35
 70
     1
102
RTVSPost2010Prop36
280
     0
102
RTVSPost2010PropOp36
 70
     1
102
RTVSPost2010Prop37
 90
       50
102
RTVSPost2010PropOp37
 70
     1
102
RTVSPost2010Prop38
140
0.0
102
RTVSPost2010PropOp38
 70
     1
102
RTVSPost2010Prop39
140
1.0
102
RTVSPost2010PropOp39
 70
     1
102
RTVSPost2010Prop40
 90
        0
102
RTVSPost2010PropOp40
 70
     1
102
RTVSPost2010Prop41ColorIndex
 90
       18
102
RTVSPost2010Prop41ColorRGB
 90
        0
102
RTVSPost2010PropOp41
 70
     1
102
RTVSPost2010Prop42
 90
       50
102
RTVSPost2010PropOp42
 70
     1
102
RTVSPost2010Prop43
 90
        3
102
RTVSPost2010PropOp43
 70
     1
102
RTVSPost2010Prop44ColorIndex
 90
        5
102
RTVSPost2010Prop44ColorRGB
 90
      255
102
RTVSPost2010PropOp44
 70
     1
102
RTVSPost2010Prop45
280
     0
102
RTVSPost2010PropOp45
 70
     1
102
RTVSPost2010Prop46
 90
       50
102
RTVSPost2010PropOp46
 70
     1
102
RTVSPost2010Prop47
 90
       50
102
RTVSPost2010PropOp47
 70
     1
102
RTVSPost2010Prop48
 90
       50
102
RTVSPost2010PropOp48
 70
     1
102
RTVSPost2010Prop49
280
     0
102
RTVSPost2010PropOp49
 70
     1
102
RTVSPost2010Prop50
 90
       50
102
RTVSPost2010PropOp50
 70
     1
102
RTVSPost2010Prop51ColorIndex
 90
      256
102
RTVSPost2010Prop51ColorRGB
 90
-16777216
102
RTVSPost2010PropOp51
 70
     0
102
RTVSPost2010Prop52
140
1.0
102
RTVSPost2010PropOp52
 70
     0
102
RTVSPost2010Prop53
 90
        2
102
RTVSPost2010PropOp53
 70
     1
102
RTVSPost2010Prop54
  1
strokes_ogs.tif
102
RTVSPost2010PropOp54
 70
     1
102
RTVSPost2010Prop55
280
     0
102
RTVSPost2010PropOp55
 70
     1
102
RTVSPost2010Prop56
140
1.0
102
RTVSPost2010PropOp56
 70
     1
102
RTVSPost2010Prop57
140
1.0
102
RTVSPost2010PropOp57
 70
     1
  0
XRECORD
  5
378
102
{ACAD_REACTORS
330
377
102
}
330
377
100
AcDbXrecord
280
     1
102
RTVSPropertyOp0
 70
     1
102
RTVSPropertyOp1
 70
     1
102
RTVSPropertyOp2
 70
     1
102
RTVSPropertyOp3
 70
     1
102
RTVSPropertyOp4
 70
     1
102
RTVSPropertyOp5
 70
     1
102
RTVSPropertyOp6
 70
     1
102
RTVSPropertyOp7
 70
     1
102
RTVSPropertyOp8
 70
     1
102
RTVSPropertyOp9
 70
     1
102
RTVSPropertyOp10
 70
     1
102
RTVSPropertyOp11
 70
     1
102
RTVSPropertyOp12
 70
     1
102
RTVSPropertyOp13
 70
     1
102
RTVSPropertyOp14
 70
     1
102
RTVSPropertyOp15
 70
     1
102
RTVSPropertyOp16
 70
     1
102
RTVSPropertyOp17
 70
     1
102
RTVSPropertyOp18
 70
     1
102
RTVSPropertyOp19
 70
     1
102
RTVSPropertyOp20
 70
     1
102
RTVSPropertyOp21
 70
     1
102
RTVSPropertyOp22
 70
     1
102
RTVSPropertyOp23
 70
     1
102
RTVSPropertyOp24
 70
     1
102
RTVSPropertyOp25
 70
     1
102
RTVSPropertyOp26
 70
     1
102
RTVSPropertyOp27
 70
     1
102
RTVSPropertyOp28
 70
     1
102
RTVSPropertyOp29
 70
     1
102
RTVSPropertyOp30
 70
     1
102
RTVSPropertyOp31
 70
     1
102
RTVSPropertyOp32
 70
     1
102
RTVSPropertyOp33
 70
     1
102
RTVSPropertyOp34
 70
     1
102
RTVSPropertyOp35
 70
     1
102
RTVSPropertyOp36
 70
     1
102
RTVSPropertyOp37
 70
     1
102
RTVSPropertyOp38
 70
     1
102
RTVSPropertyOp39
 70
     1
102
RTVSPropertyOp40
 70
     1
102
RTVSPropertyOp41
 70
     1
102
RTVSPropertyOp42
 70
     1
102
RTVSPropertyOp43
 70
     1
102
RTVSPropertyOp44
 70
     1
102
RTVSPropertyOp45
 70
     1
102
RTVSPropertyOp46
 70
     1
102
RTVSPropertyOp47
 70
     1
102
RTVSPropertyOp48
 70
     1
102
RTVSPropertyOp49
 70
     1
102
RTVSPropertyOp50
 70
     1
102
RTVSPropertyOp51
 70
     0
102
RTVSPropertyOp52
 70
     0
102
RTVSPropertyOp53
 70
     1
102
RTVSPropertyOp54
 70
     1
102
RTVSPropertyOp55
 70
     1
102
RTVSPropertyOp56
 70
     1
102
RTVSPropertyOp57
 70
     1
102
RTVSPost2010Prop28
280
     0
102
RTVSPost2010PropOp28
 70
     1
102
RTVSPost2010Prop29
280
     1
102
RTVSPost2010PropOp29
 70
     1
102
RTVSPost2010Prop30
280
     1
102
RTVSPost2010PropOp30
 70
     1
102
RTVSPost2010Prop31
280
     0
102
RTVSPost2010PropOp31
 70
     1
102
RTVSPost2010Prop32
280
     0
102
RTVSPost2010PropOp32
 70
     1
102
RTVSPost2010Prop33
280
     0
102
RTVSPost2010PropOp33
 70
     1
102
RTVSPost2010Prop34
280
     0
102
RTVSPost2010PropOp34
 70
     1
102
RTVSPost2010Prop35
280
     0
102
RTVSPost2010PropOp35
 70
     1
102
RTVSPost2010Prop36
280
     0
102
RTVSPost2010PropOp36
 70
     1
102
RTVSPost2010Prop37
 90
       50
102
RTVSPost2010PropOp37
 70
     1
102
RTVSPost2010Prop38
140
0.0
102
RTVSPost2010PropOp38
 70
     1
102
RTVSPost2010Prop39
140
1.0
102
RTVSPost2010PropOp39
 70
     1
102
RTVSPost2010Prop40
 90
        0
102
RTVSPost2010PropOp40
 70
     1
102
RTVSPost2010Prop41ColorIndex
 90
       18
102
RTVSPost2010Prop41ColorRGB
 90
        0
102
RTVSPost2010PropOp41
 70
     1
102
RTVSPost2010Prop42
 90
       50
102
RTVSPost2010PropOp42
 70
     1
102
RTVSPost2010Prop43
 90
        3
102
RTVSPost2010PropOp43
 70
     1
102
RTVSPost2010Prop44ColorIndex
 90
        5
102
RTVSPost2010Prop44ColorRGB
 90
      255
102
RTVSPost2010PropOp44
 70
     1
102
RTVSPost2010Prop45
280
     0
102
RTVSPost2010PropOp45
 70
     1
102
RTVSPost2010Prop46
 90
       50
102
RTVSPost2010PropOp46
 70
     1
102
RTVSPost2010Prop47
 90
       50
102
RTVSPost2010PropOp47
 70
     1
102
RTVSPost2010Prop48
 90
       50
102
RTVSPost2010PropOp48
 70
     1
102
RTVSPost2010Prop49
280
     0
102
RTVSPost2010PropOp49
 70
     1
102
RTVSPost2010Prop50
 90
       50
102
RTVSPost2010PropOp50
 70
     1
102
RTVSPost2010Prop51ColorIndex
 90
      256
102
RTVSPost2010Prop51ColorRGB
 90
-16777216
102
RTVSPost2010PropOp51
 70
     0
102
RTVSPost2010Prop52
140
1.0
102
RTVSPost2010PropOp52
 70
     0
102
RTVSPost2010Prop53
 90
        2
102
RTVSPost2010PropOp53
 70
     1
102
RTVSPost2010Prop54
  1
strokes_ogs.tif
102
RTVSPost2010PropOp54
 70
     1
102
RTVSPost2010Prop55
280
     0
102
RTVSPost2010PropOp55
 70
     1
102
RTVSPost2010Prop56
140
1.0
102
RTVSPost2010PropOp56
 70
     1
102
RTVSPost2010Prop57
140
1.0
102
RTVSPost2010PropOp57
 70
     1
  0
XRECORD
  5
388
102
{ACAD_REACTORS
330
387
102
}
330
387
100
AcDbXrecord
280
     1
102
RTVSPropertyOp0
 70
     0
102
RTVSPropertyOp1
 70
     0
102
RTVSPropertyOp2
 70
     0
102
RTVSPropertyOp3
 70
     0
102
RTVSPropertyOp4
 70
     0
102
RTVSPropertyOp5
 70
     0
102
RTVSPropertyOp6
 70
     0
102
RTVSPropertyOp7
 70
     0
102
RTVSPropertyOp8
 70
     0
102
RTVSPropertyOp9
 70
     0
102
RTVSPropertyOp10
 70
     0
102
RTVSPropertyOp11
 70
     0
102
RTVSPropertyOp12
 70
     0
102
RTVSPropertyOp13
 70
     0
102
RTVSPropertyOp14
 70
     2
102
RTVSPropertyOp15
 70
     0
102
RTVSPropertyOp16
 70
     0
102
RTVSPropertyOp17
 70
     0
102
RTVSPropertyOp18
 70
     0
102
RTVSPropertyOp19
 70
     0
102
RTVSPropertyOp20
 70
     0
102
RTVSPropertyOp21
 70
     0
102
RTVSPropertyOp22
 70
     0
102
RTVSPropertyOp23
 70
     0
102
RTVSPropertyOp24
 70
     0
102
RTVSPropertyOp25
 70
     0
102
RTVSPropertyOp26
 70
     0
102
RTVSPropertyOp27
 70
     0
102
RTVSPropertyOp28
 70
     0
102
RTVSPropertyOp29
 70
     0
102
RTVSPropertyOp30
 70
     0
102
RTVSPropertyOp31
 70
     0
102
RTVSPropertyOp32
 70
     0
102
RTVSPropertyOp33
 70
     0
102
RTVSPropertyOp34
 70
     0
102
RTVSPropertyOp35
 70
     0
102
RTVSPropertyOp36
 70
     0
102
RTVSPropertyOp37
 70
     0
102
RTVSPropertyOp38
 70
     0
102
RTVSPropertyOp39
 70
     0
102
RTVSPropertyOp40
 70
     0
102
RTVSPropertyOp41
 70
     0
102
RTVSPropertyOp42
 70
     0
102
RTVSPropertyOp43
 70
     0
102
RTVSPropertyOp44
 70
     0
102
RTVSPropertyOp45
 70
     0
102
RTVSPropertyOp46
 70
     0
102
RTVSPropertyOp47
 70
     0
102
RTVSPropertyOp48
 70
     0
102
RTVSPropertyOp49
 70
     0
102
RTVSPropertyOp50
 70
     0
102
RTVSPropertyOp51
 70
     0
102
RTVSPropertyOp52
 70
     0
102
RTVSPropertyOp53
 70
     0
102
RTVSPropertyOp54
 70
     0
102
RTVSPropertyOp55
 70
     0
102
RTVSPropertyOp56
 70
     0
102
RTVSPropertyOp57
 70
     0
102
RTVSPost2010Prop28
280
     0
102
RTVSPost2010PropOp28
 70
     0
102
RTVSPost2010Prop29
280
     1
102
RTVSPost2010PropOp29
 70
     0
102
RTVSPost2010Prop30
280
     1
102
RTVSPost2010PropOp30
 70
     0
102
RTVSPost2010Prop31
280
     0
102
RTVSPost2010PropOp31
 70
     0
102
RTVSPost2010Prop32
280
     0
102
RTVSPost2010PropOp32
 70
     0
102
RTVSPost2010Prop33
280
     0
102
RTVSPost2010PropOp33
 70
     0
102
RTVSPost2010Prop34
280
     0
102
RTVSPost2010PropOp34
 70
     0
102
RTVSPost2010Prop35
280
     0
102
RTVSPost2010PropOp35
 70
     0
102
RTVSPost2010Prop36
280
     0
102
RTVSPost2010PropOp36
 70
     0
102
RTVSPost2010Prop37
 90
       50
102
RTVSPost2010PropOp37
 70
     0
102
RTVSPost2010Prop38
140
0.0
102
RTVSPost2010PropOp38
 70
     0
102
RTVSPost2010Prop39
140
1.0
102
RTVSPost2010PropOp39
 70
     0
102
RTVSPost2010Prop40
 90
        0
102
RTVSPost2010PropOp40
 70
     0
102
RTVSPost2010Prop41ColorIndex
 90
       18
102
RTVSPost2010Prop41ColorRGB
 90
        0
102
RTVSPost2010PropOp41
 70
     0
102
RTVSPost2010Prop42
 90
       50
102
RTVSPost2010PropOp42
 70
     0
102
RTVSPost2010Prop43
 90
        3
102
RTVSPost2010PropOp43
 70
     0
102
RTVSPost2010Prop44ColorIndex
 90
        5
102
RTVSPost2010Prop44ColorRGB
 90
      255
102
RTVSPost2010PropOp44
 70
     0
102
RTVSPost2010Prop45
280
     0
102
RTVSPost2010PropOp45
 70
     0
102
RTVSPost2010Prop46
 90
       50
102
RTVSPost2010PropOp46
 70
     0
102
RTVSPost2010Prop47
 90
       50
102
RTVSPost2010PropOp47
 70
     0
102
RTVSPost2010Prop48
 90
       50
102
RTVSPost2010PropOp48
 70
     0
102
RTVSPost2010Prop49
280
     0
102
RTVSPost2010PropOp49
 70
     0
102
RTVSPost2010Prop50
 90
       50
102
RTVSPost2010PropOp50
 70
     0
102
RTVSPost2010Prop51ColorIndex
 90
      256
102
RTVSPost2010Prop51ColorRGB
 90
-16777216
102
RTVSPost2010PropOp51
 70
     0
102
RTVSPost2010Prop52
140
1.0
102
RTVSPost2010PropOp52
 70
     0
102
RTVSPost2010Prop53
 90
        2
102
RTVSPost2010PropOp53
 70
     0
102
RTVSPost2010Prop54
  1
strokes_ogs.tif
102
RTVSPost2010PropOp54
 70
     0
102
RTVSPost2010Prop55
280
     0
102
RTVSPost2010PropOp55
 70
     0
102
RTVSPost2010Prop56
140
1.0
102
RTVSPost2010PropOp56
 70
     0
102
RTVSPost2010Prop57
140
1.0
102
RTVSPost2010PropOp57
 70
     0
  0
XRECORD
  5
380
102
{ACAD_REACTORS
330
37F
102
}
330
37F
100
AcDbXrecord
280
     1
102
RTVSPropertyOp0
 70
     1
102
RTVSPropertyOp1
 70
     1
102
RTVSPropertyOp2
 70
     1
102
RTVSPropertyOp3
 70
     1
102
RTVSPropertyOp4
 70
     1
102
RTVSPropertyOp5
 70
     1
102
RTVSPropertyOp6
 70
     1
102
RTVSPropertyOp7
 70
     1
102
RTVSPropertyOp8
 70
     1
102
RTVSPropertyOp9
 70
     1
102
RTVSPropertyOp10
 70
     1
102
RTVSPropertyOp11
 70
     1
102
RTVSPropertyOp12
 70
     1
102
RTVSPropertyOp13
 70
     1
102
RTVSPropertyOp14
 70
     1
102
RTVSPropertyOp15
 70
     1
102
RTVSPropertyOp16
 70
     1
102
RTVSPropertyOp17
 70
     1
102
RTVSPropertyOp18
 70
     1
102
RTVSPropertyOp19
 70
     1
102
RTVSPropertyOp20
 70
     1
102
RTVSPropertyOp21
 70
     1
102
RTVSPropertyOp22
 70
     1
102
RTVSPropertyOp23
 70
     1
102
RTVSPropertyOp24
 70
     1
102
RTVSPropertyOp25
 70
     1
102
RTVSPropertyOp26
 70
     1
102
RTVSPropertyOp27
 70
     1
102
RTVSPropertyOp28
 70
     1
102
RTVSPropertyOp29
 70
     1
102
RTVSPropertyOp30
 70
     1
102
RTVSPropertyOp31
 70
     1
102
RTVSPropertyOp32
 70
     1
102
RTVSPropertyOp33
 70
     1
102
RTVSPropertyOp34
 70
     1
102
RTVSPropertyOp35
 70
     1
102
RTVSPropertyOp36
 70
     1
102
RTVSPropertyOp37
 70
     1
102
RTVSPropertyOp38
 70
     1
102
RTVSPropertyOp39
 70
     1
102
RTVSPropertyOp40
 70
     1
102
RTVSPropertyOp41
 70
     1
102
RTVSPropertyOp42
 70
     1
102
RTVSPropertyOp43
 70
     1
102
RTVSPropertyOp44
 70
     1
102
RTVSPropertyOp45
 70
     1
102
RTVSPropertyOp46
 70
     1
102
RTVSPropertyOp47
 70
     1
102
RTVSPropertyOp48
 70
     1
102
RTVSPropertyOp49
 70
     1
102
RTVSPropertyOp50
 70
     1
102
RTVSPropertyOp51
 70
     0
102
RTVSPropertyOp52
 70
     0
102
RTVSPropertyOp53
 70
     1
102
RTVSPropertyOp54
 70
     1
102
RTVSPropertyOp55
 70
     1
102
RTVSPropertyOp56
 70
     1
102
RTVSPropertyOp57
 70
     1
102
RTVSPost2010Prop28
280
     0
102
RTVSPost2010PropOp28
 70
     1
102
RTVSPost2010Prop29
280
     1
102
RTVSPost2010PropOp29
 70
     1
102
RTVSPost2010Prop30
280
     1
102
RTVSPost2010PropOp30
 70
     1
102
RTVSPost2010Prop31
280
     0
102
RTVSPost2010PropOp31
 70
     1
102
RTVSPost2010Prop32
280
     0
102
RTVSPost2010PropOp32
 70
     1
102
RTVSPost2010Prop33
280
     0
102
RTVSPost2010PropOp33
 70
     1
102
RTVSPost2010Prop34
280
     0
102
RTVSPost2010PropOp34
 70
     1
102
RTVSPost2010Prop35
280
     0
102
RTVSPost2010PropOp35
 70
     1
102
RTVSPost2010Prop36
280
     0
102
RTVSPost2010PropOp36
 70
     1
102
RTVSPost2010Prop37
 90
       50
102
RTVSPost2010PropOp37
 70
     1
102
RTVSPost2010Prop38
140
0.0
102
RTVSPost2010PropOp38
 70
     1
102
RTVSPost2010Prop39
140
1.0
102
RTVSPost2010PropOp39
 70
     1
102
RTVSPost2010Prop40
 90
        0
102
RTVSPost2010PropOp40
 70
     1
102
RTVSPost2010Prop41ColorIndex
 90
       18
102
RTVSPost2010Prop41ColorRGB
 90
        0
102
RTVSPost2010PropOp41
 70
     1
102
RTVSPost2010Prop42
 90
       50
102
RTVSPost2010PropOp42
 70
     1
102
RTVSPost2010Prop43
 90
        3
102
RTVSPost2010PropOp43
 70
     1
102
RTVSPost2010Prop44ColorIndex
 90
        5
102
RTVSPost2010Prop44ColorRGB
 90
      255
102
RTVSPost2010PropOp44
 70
     1
102
RTVSPost2010Prop45
280
     0
102
RTVSPost2010PropOp45
 70
     1
102
RTVSPost2010Prop46
 90
       50
102
RTVSPost2010PropOp46
 70
     1
102
RTVSPost2010Prop47
 90
       50
102
RTVSPost2010PropOp47
 70
     1
102
RTVSPost2010Prop48
 90
       50
102
RTVSPost2010PropOp48
 70
     1
102
RTVSPost2010Prop49
280
     0
102
RTVSPost2010PropOp49
 70
     1
102
RTVSPost2010Prop50
 90
       50
102
RTVSPost2010PropOp50
 70
     1
102
RTVSPost2010Prop51ColorIndex
 90
      256
102
RTVSPost2010Prop51ColorRGB
 90
-16777216
102
RTVSPost2010PropOp51
 70
     0
102
RTVSPost2010Prop52
140
1.0
102
RTVSPost2010PropOp52
 70
     0
102
RTVSPost2010Prop53
 90
        2
102
RTVSPost2010PropOp53
 70
     1
102
RTVSPost2010Prop54
  1
strokes_ogs.tif
102
RTVSPost2010PropOp54
 70
     1
102
RTVSPost2010Prop55
280
     0
102
RTVSPost2010PropOp55
 70
     1
102
RTVSPost2010Prop56
140
1.0
102
RTVSPost2010PropOp56
 70
     1
102
RTVSPost2010Prop57
140
1.0
102
RTVSPost2010PropOp57
 70
     1
  0
XRECORD
  5
364
102
{ACAD_REACTORS
330
363
102
}
330
363
100
AcDbXrecord
280
     1
102
RTVSPropertyOp0
 70
     1
102
RTVSPropertyOp1
 70
     1
102
RTVSPropertyOp2
 70
     1
102
RTVSPropertyOp3
 70
     1
102
RTVSPropertyOp4
 70
     1
102
RTVSPropertyOp5
 70
     1
102
RTVSPropertyOp6
 70
     1
102
RTVSPropertyOp7
 70
     1
102
RTVSPropertyOp8
 70
     1
102
RTVSPropertyOp9
 70
     1
102
RTVSPropertyOp10
 70
     1
102
RTVSPropertyOp11
 70
     1
102
RTVSPropertyOp12
 70
     1
102
RTVSPropertyOp13
 70
     1
102
RTVSPropertyOp14
 70
     1
102
RTVSPropertyOp15
 70
     1
102
RTVSPropertyOp16
 70
     1
102
RTVSPropertyOp17
 70
     1
102
RTVSPropertyOp18
 70
     1
102
RTVSPropertyOp19
 70
     1
102
RTVSPropertyOp20
 70
     1
102
RTVSPropertyOp21
 70
     1
102
RTVSPropertyOp22
 70
     1
102
RTVSPropertyOp23
 70
     1
102
RTVSPropertyOp24
 70
     1
102
RTVSPropertyOp25
 70
     1
102
RTVSPropertyOp26
 70
     1
102
RTVSPropertyOp27
 70
     1
102
RTVSPropertyOp28
 70
     1
102
RTVSPropertyOp29
 70
     1
102
RTVSPropertyOp30
 70
     1
102
RTVSPropertyOp31
 70
     1
102
RTVSPropertyOp32
 70
     1
102
RTVSPropertyOp33
 70
     1
102
RTVSPropertyOp34
 70
     1
102
RTVSPropertyOp35
 70
     1
102
RTVSPropertyOp36
 70
     1
102
RTVSPropertyOp37
 70
     1
102
RTVSPropertyOp38
 70
     1
102
RTVSPropertyOp39
 70
     1
102
RTVSPropertyOp40
 70
     1
102
RTVSPropertyOp41
 70
     1
102
RTVSPropertyOp42
 70
     1
102
RTVSPropertyOp43
 70
     1
102
RTVSPropertyOp44
 70
     1
102
RTVSPropertyOp45
 70
     1
102
RTVSPropertyOp46
 70
     1
102
RTVSPropertyOp47
 70
     1
102
RTVSPropertyOp48
 70
     1
102
RTVSPropertyOp49
 70
     1
102
RTVSPropertyOp50
 70
     1
102
RTVSPropertyOp51
 70
     0
102
RTVSPropertyOp52
 70
     0
102
RTVSPropertyOp53
 70
     1
102
RTVSPropertyOp54
 70
     1
102
RTVSPropertyOp55
 70
     1
102
RTVSPropertyOp56
 70
     1
102
RTVSPropertyOp57
 70
     1
102
RTVSPost2010Prop28
280
     0
102
RTVSPost2010PropOp28
 70
     1
102
RTVSPost2010Prop29
280
     1
102
RTVSPost2010PropOp29
 70
     1
102
RTVSPost2010Prop30
280
     1
102
RTVSPost2010PropOp30
 70
     1
102
RTVSPost2010Prop31
280
     0
102
RTVSPost2010PropOp31
 70
     1
102
RTVSPost2010Prop32
280
     0
102
RTVSPost2010PropOp32
 70
     1
102
RTVSPost2010Prop33
280
     0
102
RTVSPost2010PropOp33
 70
     1
102
RTVSPost2010Prop34
280
     0
102
RTVSPost2010PropOp34
 70
     1
102
RTVSPost2010Prop35
280
     0
102
RTVSPost2010PropOp35
 70
     1
102
RTVSPost2010Prop36
280
     0
102
RTVSPost2010PropOp36
 70
     1
102
RTVSPost2010Prop37
 90
       50
102
RTVSPost2010PropOp37
 70
     1
102
RTVSPost2010Prop38
140
0.0
102
RTVSPost2010PropOp38
 70
     1
102
RTVSPost2010Prop39
140
1.0
102
RTVSPost2010PropOp39
 70
     1
102
RTVSPost2010Prop40
 90
        0
102
RTVSPost2010PropOp40
 70
     1
102
RTVSPost2010Prop41ColorIndex
 90
       18
102
RTVSPost2010Prop41ColorRGB
 90
        0
102
RTVSPost2010PropOp41
 70
     1
102
RTVSPost2010Prop42
 90
       50
102
RTVSPost2010PropOp42
 70
     1
102
RTVSPost2010Prop43
 90
        3
102
RTVSPost2010PropOp43
 70
     1
102
RTVSPost2010Prop44ColorIndex
 90
        5
102
RTVSPost2010Prop44ColorRGB
 90
      255
102
RTVSPost2010PropOp44
 70
     1
102
RTVSPost2010Prop45
280
     0
102
RTVSPost2010PropOp45
 70
     1
102
RTVSPost2010Prop46
 90
       50
102
RTVSPost2010PropOp46
 70
     1
102
RTVSPost2010Prop47
 90
       50
102
RTVSPost2010PropOp47
 70
     1
102
RTVSPost2010Prop48
 90
       50
102
RTVSPost2010PropOp48
 70
     1
102
RTVSPost2010Prop49
280
     0
102
RTVSPost2010PropOp49
 70
     1
102
RTVSPost2010Prop50
 90
       50
102
RTVSPost2010PropOp50
 70
     1
102
RTVSPost2010Prop51ColorIndex
 90
      256
102
RTVSPost2010Prop51ColorRGB
 90
-16777216
102
RTVSPost2010PropOp51
 70
     0
102
RTVSPost2010Prop52
140
1.0
102
RTVSPost2010PropOp52
 70
     0
102
RTVSPost2010Prop53
 90
        2
102
RTVSPost2010PropOp53
 70
     1
102
RTVSPost2010Prop54
  1
strokes_ogs.tif
102
RTVSPost2010PropOp54
 70
     1
102
RTVSPost2010Prop55
280
     0
102
RTVSPost2010PropOp55
 70
     1
102
RTVSPost2010Prop56
140
1.0
102
RTVSPost2010PropOp56
 70
     1
102
RTVSPost2010Prop57
140
1.0
102
RTVSPost2010PropOp57
 70
     1
  0
XRECORD
  5
366
102
{ACAD_REACTORS
330
365
102
}
330
365
100
AcDbXrecord
280
     1
102
RTVSPropertyOp0
 70
     1
102
RTVSPropertyOp1
 70
     1
102
RTVSPropertyOp2
 70
     1
102
RTVSPropertyOp3
 70
     1
102
RTVSPropertyOp4
 70
     1
102
RTVSPropertyOp5
 70
     1
102
RTVSPropertyOp6
 70
     1
102
RTVSPropertyOp7
 70
     1
102
RTVSPropertyOp8
 70
     1
102
RTVSPropertyOp9
 70
     1
102
RTVSPropertyOp10
 70
     1
102
RTVSPropertyOp11
 70
     1
102
RTVSPropertyOp12
 70
     1
102
RTVSPropertyOp13
 70
     1
102
RTVSPropertyOp14
 70
     1
102
RTVSPropertyOp15
 70
     1
102
RTVSPropertyOp16
 70
     1
102
RTVSPropertyOp17
 70
     1
102
RTVSPropertyOp18
 70
     1
102
RTVSPropertyOp19
 70
     1
102
RTVSPropertyOp20
 70
     1
102
RTVSPropertyOp21
 70
     1
102
RTVSPropertyOp22
 70
     1
102
RTVSPropertyOp23
 70
     1
102
RTVSPropertyOp24
 70
     1
102
RTVSPropertyOp25
 70
     1
102
RTVSPropertyOp26
 70
     1
102
RTVSPropertyOp27
 70
     1
102
RTVSPropertyOp28
 70
     1
102
RTVSPropertyOp29
 70
     1
102
RTVSPropertyOp30
 70
     1
102
RTVSPropertyOp31
 70
     1
102
RTVSPropertyOp32
 70
     1
102
RTVSPropertyOp33
 70
     1
102
RTVSPropertyOp34
 70
     1
102
RTVSPropertyOp35
 70
     1
102
RTVSPropertyOp36
 70
     1
102
RTVSPropertyOp37
 70
     1
102
RTVSPropertyOp38
 70
     1
102
RTVSPropertyOp39
 70
     1
102
RTVSPropertyOp40
 70
     1
102
RTVSPropertyOp41
 70
     1
102
RTVSPropertyOp42
 70
     1
102
RTVSPropertyOp43
 70
     1
102
RTVSPropertyOp44
 70
     1
102
RTVSPropertyOp45
 70
     1
102
RTVSPropertyOp46
 70
     1
102
RTVSPropertyOp47
 70
     1
102
RTVSPropertyOp48
 70
     1
102
RTVSPropertyOp49
 70
     1
102
RTVSPropertyOp50
 70
     1
102
RTVSPropertyOp51
 70
     0
102
RTVSPropertyOp52
 70
     0
102
RTVSPropertyOp53
 70
     1
102
RTVSPropertyOp54
 70
     1
102
RTVSPropertyOp55
 70
     1
102
RTVSPropertyOp56
 70
     1
102
RTVSPropertyOp57
 70
     1
102
RTVSPost2010Prop28
280
     0
102
RTVSPost2010PropOp28
 70
     1
102
RTVSPost2010Prop29
280
     1
102
RTVSPost2010PropOp29
 70
     1
102
RTVSPost2010Prop30
280
     1
102
RTVSPost2010PropOp30
 70
     1
102
RTVSPost2010Prop31
280
     0
102
RTVSPost2010PropOp31
 70
     1
102
RTVSPost2010Prop32
280
     0
102
RTVSPost2010PropOp32
 70
     1
102
RTVSPost2010Prop33
280
     0
102
RTVSPost2010PropOp33
 70
     1
102
RTVSPost2010Prop34
280
     0
102
RTVSPost2010PropOp34
 70
     1
102
RTVSPost2010Prop35
280
     0
102
RTVSPost2010PropOp35
 70
     1
102
RTVSPost2010Prop36
280
     0
102
RTVSPost2010PropOp36
 70
     1
102
RTVSPost2010Prop37
 90
       50
102
RTVSPost2010PropOp37
 70
     1
102
RTVSPost2010Prop38
140
0.0
102
RTVSPost2010PropOp38
 70
     1
102
RTVSPost2010Prop39
140
1.0
102
RTVSPost2010PropOp39
 70
     1
102
RTVSPost2010Prop40
 90
        0
102
RTVSPost2010PropOp40
 70
     1
102
RTVSPost2010Prop41ColorIndex
 90
       18
102
RTVSPost2010Prop41ColorRGB
 90
        0
102
RTVSPost2010PropOp41
 70
     1
102
RTVSPost2010Prop42
 90
       50
102
RTVSPost2010PropOp42
 70
     1
102
RTVSPost2010Prop43
 90
        3
102
RTVSPost2010PropOp43
 70
     1
102
RTVSPost2010Prop44ColorIndex
 90
        5
102
RTVSPost2010Prop44ColorRGB
 90
      255
102
RTVSPost2010PropOp44
 70
     1
102
RTVSPost2010Prop45
280
     0
102
RTVSPost2010PropOp45
 70
     1
102
RTVSPost2010Prop46
 90
       50
102
RTVSPost2010PropOp46
 70
     1
102
RTVSPost2010Prop47
 90
       50
102
RTVSPost2010PropOp47
 70
     1
102
RTVSPost2010Prop48
 90
       50
102
RTVSPost2010PropOp48
 70
     1
102
RTVSPost2010Prop49
280
     0
102
RTVSPost2010PropOp49
 70
     1
102
RTVSPost2010Prop50
 90
       50
102
RTVSPost2010PropOp50
 70
     1
102
RTVSPost2010Prop51ColorIndex
 90
      256
102
RTVSPost2010Prop51ColorRGB
 90
-16777216
102
RTVSPost2010PropOp51
 70
     0
102
RTVSPost2010Prop52
140
1.0
102
RTVSPost2010PropOp52
 70
     0
102
RTVSPost2010Prop53
 90
        2
102
RTVSPost2010PropOp53
 70
     1
102
RTVSPost2010Prop54
  1
strokes_ogs.tif
102
RTVSPost2010PropOp54
 70
     1
102
RTVSPost2010Prop55
280
     0
102
RTVSPost2010PropOp55
 70
     1
102
RTVSPost2010Prop56
140
1.0
102
RTVSPost2010PropOp56
 70
     1
102
RTVSPost2010Prop57
140
1.0
102
RTVSPost2010PropOp57
 70
     1
  0
XRECORD
  5
368
102
{ACAD_REACTORS
330
367
102
}
330
367
100
AcDbXrecord
280
     1
102
RTVSPropertyOp0
 70
     1
102
RTVSPropertyOp1
 70
     1
102
RTVSPropertyOp2
 70
     1
102
RTVSPropertyOp3
 70
     1
102
RTVSPropertyOp4
 70
     1
102
RTVSPropertyOp5
 70
     1
102
RTVSPropertyOp6
 70
     1
102
RTVSPropertyOp7
 70
     1
102
RTVSPropertyOp8
 70
     1
102
RTVSPropertyOp9
 70
     1
102
RTVSPropertyOp10
 70
     1
102
RTVSPropertyOp11
 70
     1
102
RTVSPropertyOp12
 70
     1
102
RTVSPropertyOp13
 70
     1
102
RTVSPropertyOp14
 70
     1
102
RTVSPropertyOp15
 70
     1
102
RTVSPropertyOp16
 70
     1
102
RTVSPropertyOp17
 70
     1
102
RTVSPropertyOp18
 70
     1
102
RTVSPropertyOp19
 70
     1
102
RTVSPropertyOp20
 70
     1
102
RTVSPropertyOp21
 70
     1
102
RTVSPropertyOp22
 70
     1
102
RTVSPropertyOp23
 70
     1
102
RTVSPropertyOp24
 70
     1
102
RTVSPropertyOp25
 70
     1
102
RTVSPropertyOp26
 70
     1
102
RTVSPropertyOp27
 70
     1
102
RTVSPropertyOp28
 70
     1
102
RTVSPropertyOp29
 70
     1
102
RTVSPropertyOp30
 70
     1
102
RTVSPropertyOp31
 70
     1
102
RTVSPropertyOp32
 70
     1
102
RTVSPropertyOp33
 70
     1
102
RTVSPropertyOp34
 70
     1
102
RTVSPropertyOp35
 70
     1
102
RTVSPropertyOp36
 70
     1
102
RTVSPropertyOp37
 70
     1
102
RTVSPropertyOp38
 70
     1
102
RTVSPropertyOp39
 70
     1
102
RTVSPropertyOp40
 70
     1
102
RTVSPropertyOp41
 70
     1
102
RTVSPropertyOp42
 70
     1
102
RTVSPropertyOp43
 70
     1
102
RTVSPropertyOp44
 70
     1
102
RTVSPropertyOp45
 70
     1
102
RTVSPropertyOp46
 70
     1
102
RTVSPropertyOp47
 70
     1
102
RTVSPropertyOp48
 70
     1
102
RTVSPropertyOp49
 70
     1
102
RTVSPropertyOp50
 70
     1
102
RTVSPropertyOp51
 70
     0
102
RTVSPropertyOp52
 70
     0
102
RTVSPropertyOp53
 70
     1
102
RTVSPropertyOp54
 70
     1
102
RTVSPropertyOp55
 70
     1
102
RTVSPropertyOp56
 70
     1
102
RTVSPropertyOp57
 70
     1
102
RTVSPost2010Prop28
280
     0
102
RTVSPost2010PropOp28
 70
     1
102
RTVSPost2010Prop29
280
     1
102
RTVSPost2010PropOp29
 70
     1
102
RTVSPost2010Prop30
280
     1
102
RTVSPost2010PropOp30
 70
     1
102
RTVSPost2010Prop31
280
     0
102
RTVSPost2010PropOp31
 70
     1
102
RTVSPost2010Prop32
280
     0
102
RTVSPost2010PropOp32
 70
     1
102
RTVSPost2010Prop33
280
     0
102
RTVSPost2010PropOp33
 70
     1
102
RTVSPost2010Prop34
280
     0
102
RTVSPost2010PropOp34
 70
     1
102
RTVSPost2010Prop35
280
     0
102
RTVSPost2010PropOp35
 70
     1
102
RTVSPost2010Prop36
280
     0
102
RTVSPost2010PropOp36
 70
     1
102
RTVSPost2010Prop37
 90
       50
102
RTVSPost2010PropOp37
 70
     1
102
RTVSPost2010Prop38
140
0.0
102
RTVSPost2010PropOp38
 70
     1
102
RTVSPost2010Prop39
140
1.0
102
RTVSPost2010PropOp39
 70
     1
102
RTVSPost2010Prop40
 90
        0
102
RTVSPost2010PropOp40
 70
     1
102
RTVSPost2010Prop41ColorIndex
 90
       18
102
RTVSPost2010Prop41ColorRGB
 90
        0
102
RTVSPost2010PropOp41
 70
     1
102
RTVSPost2010Prop42
 90
       50
102
RTVSPost2010PropOp42
 70
     1
102
RTVSPost2010Prop43
 90
        3
102
RTVSPost2010PropOp43
 70
     1
102
RTVSPost2010Prop44ColorIndex
 90
        5
102
RTVSPost2010Prop44ColorRGB
 90
      255
102
RTVSPost2010PropOp44
 70
     1
102
RTVSPost2010Prop45
280
     0
102
RTVSPost2010PropOp45
 70
     1
102
RTVSPost2010Prop46
 90
       50
102
RTVSPost2010PropOp46
 70
     1
102
RTVSPost2010Prop47
 90
       50
102
RTVSPost2010PropOp47
 70
     1
102
RTVSPost2010Prop48
 90
       50
102
RTVSPost2010PropOp48
 70
     1
102
RTVSPost2010Prop49
280
     0
102
RTVSPost2010PropOp49
 70
     1
102
RTVSPost2010Prop50
 90
       50
102
RTVSPost2010PropOp50
 70
     1
102
RTVSPost2010Prop51ColorIndex
 90
      256
102
RTVSPost2010Prop51ColorRGB
 90
-16777216
102
RTVSPost2010PropOp51
 70
     0
102
RTVSPost2010Prop52
140
1.0
102
RTVSPost2010PropOp52
 70
     0
102
RTVSPost2010Prop53
 90
        2
102
RTVSPost2010PropOp53
 70
     1
102
RTVSPost2010Prop54
  1
strokes_ogs.tif
102
RTVSPost2010PropOp54
 70
     1
102
RTVSPost2010Prop55
280
     0
102
RTVSPost2010PropOp55
 70
     1
102
RTVSPost2010Prop56
140
1.0
102
RTVSPost2010PropOp56
 70
     1
102
RTVSPost2010Prop57
140
1.0
102
RTVSPost2010PropOp57
 70
     1
  0
XRECORD
  5
36A
102
{ACAD_REACTORS
330
369
102
}
330
369
100
AcDbXrecord
280
     1
102
RTVSPropertyOp0
 70
     1
102
RTVSPropertyOp1
 70
     1
102
RTVSPropertyOp2
 70
     1
102
RTVSPropertyOp3
 70
     1
102
RTVSPropertyOp4
 70
     1
102
RTVSPropertyOp5
 70
     1
102
RTVSPropertyOp6
 70
     1
102
RTVSPropertyOp7
 70
     1
102
RTVSPropertyOp8
 70
     1
102
RTVSPropertyOp9
 70
     1
102
RTVSPropertyOp10
 70
     1
102
RTVSPropertyOp11
 70
     1
102
RTVSPropertyOp12
 70
     1
102
RTVSPropertyOp13
 70
     1
102
RTVSPropertyOp14
 70
     1
102
RTVSPropertyOp15
 70
     1
102
RTVSPropertyOp16
 70
     1
102
RTVSPropertyOp17
 70
     1
102
RTVSPropertyOp18
 70
     1
102
RTVSPropertyOp19
 70
     1
102
RTVSPropertyOp20
 70
     1
102
RTVSPropertyOp21
 70
     1
102
RTVSPropertyOp22
 70
     1
102
RTVSPropertyOp23
 70
     1
102
RTVSPropertyOp24
 70
     1
102
RTVSPropertyOp25
 70
     1
102
RTVSPropertyOp26
 70
     1
102
RTVSPropertyOp27
 70
     1
102
RTVSPropertyOp28
 70
     1
102
RTVSPropertyOp29
 70
     1
102
RTVSPropertyOp30
 70
     1
102
RTVSPropertyOp31
 70
     1
102
RTVSPropertyOp32
 70
     1
102
RTVSPropertyOp33
 70
     1
102
RTVSPropertyOp34
 70
     1
102
RTVSPropertyOp35
 70
     1
102
RTVSPropertyOp36
 70
     1
102
RTVSPropertyOp37
 70
     1
102
RTVSPropertyOp38
 70
     1
102
RTVSPropertyOp39
 70
     1
102
RTVSPropertyOp40
 70
     1
102
RTVSPropertyOp41
 70
     1
102
RTVSPropertyOp42
 70
     1
102
RTVSPropertyOp43
 70
     1
102
RTVSPropertyOp44
 70
     1
102
RTVSPropertyOp45
 70
     1
102
RTVSPropertyOp46
 70
     1
102
RTVSPropertyOp47
 70
     1
102
RTVSPropertyOp48
 70
     1
102
RTVSPropertyOp49
 70
     1
102
RTVSPropertyOp50
 70
     1
102
RTVSPropertyOp51
 70
     0
102
RTVSPropertyOp52
 70
     0
102
RTVSPropertyOp53
 70
     1
102
RTVSPropertyOp54
 70
     1
102
RTVSPropertyOp55
 70
     1
102
RTVSPropertyOp56
 70
     1
102
RTVSPropertyOp57
 70
     1
102
RTVSPost2010Prop28
280
     0
102
RTVSPost2010PropOp28
 70
     1
102
RTVSPost2010Prop29
280
     1
102
RTVSPost2010PropOp29
 70
     1
102
RTVSPost2010Prop30
280
     1
102
RTVSPost2010PropOp30
 70
     1
102
RTVSPost2010Prop31
280
     0
102
RTVSPost2010PropOp31
 70
     1
102
RTVSPost2010Prop32
280
     0
102
RTVSPost2010PropOp32
 70
     1
102
RTVSPost2010Prop33
280
     0
102
RTVSPost2010PropOp33
 70
     1
102
RTVSPost2010Prop34
280
     0
102
RTVSPost2010PropOp34
 70
     1
102
RTVSPost2010Prop35
280
     0
102
RTVSPost2010PropOp35
 70
     1
102
RTVSPost2010Prop36
280
     0
102
RTVSPost2010PropOp36
 70
     1
102
RTVSPost2010Prop37
 90
       50
102
RTVSPost2010PropOp37
 70
     1
102
RTVSPost2010Prop38
140
0.0
102
RTVSPost2010PropOp38
 70
     1
102
RTVSPost2010Prop39
140
1.0
102
RTVSPost2010PropOp39
 70
     1
102
RTVSPost2010Prop40
 90
        0
102
RTVSPost2010PropOp40
 70
     1
102
RTVSPost2010Prop41ColorIndex
 90
       18
102
RTVSPost2010Prop41ColorRGB
 90
        0
102
RTVSPost2010PropOp41
 70
     1
102
RTVSPost2010Prop42
 90
       50
102
RTVSPost2010PropOp42
 70
     1
102
RTVSPost2010Prop43
 90
        3
102
RTVSPost2010PropOp43
 70
     1
102
RTVSPost2010Prop44ColorIndex
 90
        5
102
RTVSPost2010Prop44ColorRGB
 90
      255
102
RTVSPost2010PropOp44
 70
     1
102
RTVSPost2010Prop45
280
     0
102
RTVSPost2010PropOp45
 70
     1
102
RTVSPost2010Prop46
 90
       50
102
RTVSPost2010PropOp46
 70
     1
102
RTVSPost2010Prop47
 90
       50
102
RTVSPost2010PropOp47
 70
     1
102
RTVSPost2010Prop48
 90
       50
102
RTVSPost2010PropOp48
 70
     1
102
RTVSPost2010Prop49
280
     0
102
RTVSPost2010PropOp49
 70
     1
102
RTVSPost2010Prop50
 90
       50
102
RTVSPost2010PropOp50
 70
     1
102
RTVSPost2010Prop51ColorIndex
 90
      256
102
RTVSPost2010Prop51ColorRGB
 90
-16777216
102
RTVSPost2010PropOp51
 70
     0
102
RTVSPost2010Prop52
140
1.0
102
RTVSPost2010PropOp52
 70
     0
102
RTVSPost2010Prop53
 90
        2
102
RTVSPost2010PropOp53
 70
     1
102
RTVSPost2010Prop54
  1
strokes_ogs.tif
102
RTVSPost2010PropOp54
 70
     1
102
RTVSPost2010Prop55
280
     0
102
RTVSPost2010PropOp55
 70
     1
102
RTVSPost2010Prop56
140
1.0
102
RTVSPost2010PropOp56
 70
     1
102
RTVSPost2010Prop57
140
1.0
102
RTVSPost2010PropOp57
 70
     1
  0
XRECORD
  5
370
102
{ACAD_REACTORS
330
36F
102
}
330
36F
100
AcDbXrecord
280
     1
102
RTVSPropertyOp0
 70
     1
102
RTVSPropertyOp1
 70
     1
102
RTVSPropertyOp2
 70
     1
102
RTVSPropertyOp3
 70
     1
102
RTVSPropertyOp4
 70
     1
102
RTVSPropertyOp5
 70
     1
102
RTVSPropertyOp6
 70
     1
102
RTVSPropertyOp7
 70
     1
102
RTVSPropertyOp8
 70
     1
102
RTVSPropertyOp9
 70
     1
102
RTVSPropertyOp10
 70
     1
102
RTVSPropertyOp11
 70
     1
102
RTVSPropertyOp12
 70
     1
102
RTVSPropertyOp13
 70
     1
102
RTVSPropertyOp14
 70
     1
102
RTVSPropertyOp15
 70
     1
102
RTVSPropertyOp16
 70
     1
102
RTVSPropertyOp17
 70
     1
102
RTVSPropertyOp18
 70
     1
102
RTVSPropertyOp19
 70
     1
102
RTVSPropertyOp20
 70
     1
102
RTVSPropertyOp21
 70
     1
102
RTVSPropertyOp22
 70
     1
102
RTVSPropertyOp23
 70
     1
102
RTVSPropertyOp24
 70
     1
102
RTVSPropertyOp25
 70
     1
102
RTVSPropertyOp26
 70
     1
102
RTVSPropertyOp27
 70
     1
102
RTVSPropertyOp28
 70
     1
102
RTVSPropertyOp29
 70
     1
102
RTVSPropertyOp30
 70
     1
102
RTVSPropertyOp31
 70
     1
102
RTVSPropertyOp32
 70
     1
102
RTVSPropertyOp33
 70
     1
102
RTVSPropertyOp34
 70
     1
102
RTVSPropertyOp35
 70
     1
102
RTVSPropertyOp36
 70
     1
102
RTVSPropertyOp37
 70
     1
102
RTVSPropertyOp38
 70
     1
102
RTVSPropertyOp39
 70
     1
102
RTVSPropertyOp40
 70
     1
102
RTVSPropertyOp41
 70
     1
102
RTVSPropertyOp42
 70
     1
102
RTVSPropertyOp43
 70
     1
102
RTVSPropertyOp44
 70
     1
102
RTVSPropertyOp45
 70
     1
102
RTVSPropertyOp46
 70
     1
102
RTVSPropertyOp47
 70
     1
102
RTVSPropertyOp48
 70
     1
102
RTVSPropertyOp49
 70
     1
102
RTVSPropertyOp50
 70
     1
102
RTVSPropertyOp51
 70
     0
102
RTVSPropertyOp52
 70
     0
102
RTVSPropertyOp53
 70
     1
102
RTVSPropertyOp54
 70
     1
102
RTVSPropertyOp55
 70
     1
102
RTVSPropertyOp56
 70
     1
102
RTVSPropertyOp57
 70
     1
102
RTVSPost2010Prop28
280
     0
102
RTVSPost2010PropOp28
 70
     1
102
RTVSPost2010Prop29
280
     1
102
RTVSPost2010PropOp29
 70
     1
102
RTVSPost2010Prop30
280
     1
102
RTVSPost2010PropOp30
 70
     1
102
RTVSPost2010Prop31
280
     0
102
RTVSPost2010PropOp31
 70
     1
102
RTVSPost2010Prop32
280
     0
102
RTVSPost2010PropOp32
 70
     1
102
RTVSPost2010Prop33
280
     0
102
RTVSPost2010PropOp33
 70
     1
102
RTVSPost2010Prop34
280
     0
102
RTVSPost2010PropOp34
 70
     1
102
RTVSPost2010Prop35
280
     0
102
RTVSPost2010PropOp35
 70
     1
102
RTVSPost2010Prop36
280
     0
102
RTVSPost2010PropOp36
 70
     1
102
RTVSPost2010Prop37
 90
       50
102
RTVSPost2010PropOp37
 70
     1
102
RTVSPost2010Prop38
140
0.0
102
RTVSPost2010PropOp38
 70
     1
102
RTVSPost2010Prop39
140
1.0
102
RTVSPost2010PropOp39
 70
     1
102
RTVSPost2010Prop40
 90
        0
102
RTVSPost2010PropOp40
 70
     1
102
RTVSPost2010Prop41ColorIndex
 90
       18
102
RTVSPost2010Prop41ColorRGB
 90
        0
102
RTVSPost2010PropOp41
 70
     1
102
RTVSPost2010Prop42
 90
       50
102
RTVSPost2010PropOp42
 70
     1
102
RTVSPost2010Prop43
 90
        3
102
RTVSPost2010PropOp43
 70
     1
102
RTVSPost2010Prop44ColorIndex
 90
        5
102
RTVSPost2010Prop44ColorRGB
 90
      255
102
RTVSPost2010PropOp44
 70
     1
102
RTVSPost2010Prop45
280
     0
102
RTVSPost2010PropOp45
 70
     1
102
RTVSPost2010Prop46
 90
       50
102
RTVSPost2010PropOp46
 70
     1
102
RTVSPost2010Prop47
 90
       50
102
RTVSPost2010PropOp47
 70
     1
102
RTVSPost2010Prop48
 90
       50
102
RTVSPost2010PropOp48
 70
     1
102
RTVSPost2010Prop49
280
     0
102
RTVSPost2010PropOp49
 70
     1
102
RTVSPost2010Prop50
 90
       50
102
RTVSPost2010PropOp50
 70
     1
102
RTVSPost2010Prop51ColorIndex
 90
      256
102
RTVSPost2010Prop51ColorRGB
 90
-16777216
102
RTVSPost2010PropOp51
 70
     0
102
RTVSPost2010Prop52
140
1.0
102
RTVSPost2010PropOp52
 70
     0
102
RTVSPost2010Prop53
 90
        2
102
RTVSPost2010PropOp53
 70
     1
102
RTVSPost2010Prop54
  1
strokes_ogs.tif
102
RTVSPost2010PropOp54
 70
     1
102
RTVSPost2010Prop55
280
     0
102
RTVSPost2010PropOp55
 70
     1
102
RTVSPost2010Prop56
140
1.0
102
RTVSPost2010PropOp56
 70
     1
102
RTVSPost2010Prop57
140
1.0
102
RTVSPost2010PropOp57
 70
     1
  0
XRECORD
  5
384
102
{ACAD_REACTORS
330
383
102
}
330
383
100
AcDbXrecord
280
     1
102
RTVSPropertyOp0
 70
     0
102
RTVSPropertyOp1
 70
     0
102
RTVSPropertyOp2
 70
     0
102
RTVSPropertyOp3
 70
     0
102
RTVSPropertyOp4
 70
     0
102
RTVSPropertyOp5
 70
     0
102
RTVSPropertyOp6
 70
     0
102
RTVSPropertyOp7
 70
     0
102
RTVSPropertyOp8
 70
     0
102
RTVSPropertyOp9
 70
     0
102
RTVSPropertyOp10
 70
     0
102
RTVSPropertyOp11
 70
     0
102
RTVSPropertyOp12
 70
     0
102
RTVSPropertyOp13
 70
     0
102
RTVSPropertyOp14
 70
     2
102
RTVSPropertyOp15
 70
     0
102
RTVSPropertyOp16
 70
     0
102
RTVSPropertyOp17
 70
     0
102
RTVSPropertyOp18
 70
     0
102
RTVSPropertyOp19
 70
     0
102
RTVSPropertyOp20
 70
     0
102
RTVSPropertyOp21
 70
     0
102
RTVSPropertyOp22
 70
     0
102
RTVSPropertyOp23
 70
     0
102
RTVSPropertyOp24
 70
     0
102
RTVSPropertyOp25
 70
     0
102
RTVSPropertyOp26
 70
     0
102
RTVSPropertyOp27
 70
     0
102
RTVSPropertyOp28
 70
     0
102
RTVSPropertyOp29
 70
     0
102
RTVSPropertyOp30
 70
     0
102
RTVSPropertyOp31
 70
     0
102
RTVSPropertyOp32
 70
     0
102
RTVSPropertyOp33
 70
     0
102
RTVSPropertyOp34
 70
     0
102
RTVSPropertyOp35
 70
     0
102
RTVSPropertyOp36
 70
     0
102
RTVSPropertyOp37
 70
     0
102
RTVSPropertyOp38
 70
     0
102
RTVSPropertyOp39
 70
     0
102
RTVSPropertyOp40
 70
     0
102
RTVSPropertyOp41
 70
     0
102
RTVSPropertyOp42
 70
     0
102
RTVSPropertyOp43
 70
     0
102
RTVSPropertyOp44
 70
     0
102
RTVSPropertyOp45
 70
     0
102
RTVSPropertyOp46
 70
     0
102
RTVSPropertyOp47
 70
     0
102
RTVSPropertyOp48
 70
     0
102
RTVSPropertyOp49
 70
     0
102
RTVSPropertyOp50
 70
     0
102
RTVSPropertyOp51
 70
     0
102
RTVSPropertyOp52
 70
     0
102
RTVSPropertyOp53
 70
     0
102
RTVSPropertyOp54
 70
     0
102
RTVSPropertyOp55
 70
     0
102
RTVSPropertyOp56
 70
     0
102
RTVSPropertyOp57
 70
     0
102
RTVSPost2010Prop28
280
     0
102
RTVSPost2010PropOp28
 70
     0
102
RTVSPost2010Prop29
280
     1
102
RTVSPost2010PropOp29
 70
     0
102
RTVSPost2010Prop30
280
     1
102
RTVSPost2010PropOp30
 70
     0
102
RTVSPost2010Prop31
280
     0
102
RTVSPost2010PropOp31
 70
     0
102
RTVSPost2010Prop32
280
     0
102
RTVSPost2010PropOp32
 70
     0
102
RTVSPost2010Prop33
280
     0
102
RTVSPost2010PropOp33
 70
     0
102
RTVSPost2010Prop34
280
     0
102
RTVSPost2010PropOp34
 70
     0
102
RTVSPost2010Prop35
280
     0
102
RTVSPost2010PropOp35
 70
     0
102
RTVSPost2010Prop36
280
     0
102
RTVSPost2010PropOp36
 70
     0
102
RTVSPost2010Prop37
 90
       50
102
RTVSPost2010PropOp37
 70
     0
102
RTVSPost2010Prop38
140
0.0
102
RTVSPost2010PropOp38
 70
     0
102
RTVSPost2010Prop39
140
1.0
102
RTVSPost2010PropOp39
 70
     0
102
RTVSPost2010Prop40
 90
        0
102
RTVSPost2010PropOp40
 70
     0
102
RTVSPost2010Prop41ColorIndex
 90
       18
102
RTVSPost2010Prop41ColorRGB
 90
        0
102
RTVSPost2010PropOp41
 70
     0
102
RTVSPost2010Prop42
 90
       50
102
RTVSPost2010PropOp42
 70
     0
102
RTVSPost2010Prop43
 90
        3
102
RTVSPost2010PropOp43
 70
     0
102
RTVSPost2010Prop44ColorIndex
 90
        5
102
RTVSPost2010Prop44ColorRGB
 90
      255
102
RTVSPost2010PropOp44
 70
     0
102
RTVSPost2010Prop45
280
     0
102
RTVSPost2010PropOp45
 70
     0
102
RTVSPost2010Prop46
 90
       50
102
RTVSPost2010PropOp46
 70
     0
102
RTVSPost2010Prop47
 90
       50
102
RTVSPost2010PropOp47
 70
     0
102
RTVSPost2010Prop48
 90
       50
102
RTVSPost2010PropOp48
 70
     0
102
RTVSPost2010Prop49
280
     0
102
RTVSPost2010PropOp49
 70
     0
102
RTVSPost2010Prop50
 90
       50
102
RTVSPost2010PropOp50
 70
     0
102
RTVSPost2010Prop51ColorIndex
 90
      256
102
RTVSPost2010Prop51ColorRGB
 90
-16777216
102
RTVSPost2010PropOp51
 70
     0
102
RTVSPost2010Prop52
140
1.0
102
RTVSPost2010PropOp52
 70
     0
102
RTVSPost2010Prop53
 90
        2
102
RTVSPost2010PropOp53
 70
     0
102
RTVSPost2010Prop54
  1
strokes_ogs.tif
102
RTVSPost2010PropOp54
 70
     0
102
RTVSPost2010Prop55
280
     0
102
RTVSPost2010PropOp55
 70
     0
102
RTVSPost2010Prop56
140
1.0
102
RTVSPost2010PropOp56
 70
     0
102
RTVSPost2010Prop57
140
1.0
102
RTVSPost2010PropOp57
 70
     0
  0
XRECORD
  5
37E
102
{ACAD_REACTORS
330
37D
102
}
330
37D
100
AcDbXrecord
280
     1
102
RTVSPropertyOp0
 70
     1
102
RTVSPropertyOp1
 70
     1
102
RTVSPropertyOp2
 70
     1
102
RTVSPropertyOp3
 70
     1
102
RTVSPropertyOp4
 70
     1
102
RTVSPropertyOp5
 70
     1
102
RTVSPropertyOp6
 70
     1
102
RTVSPropertyOp7
 70
     1
102
RTVSPropertyOp8
 70
     1
102
RTVSPropertyOp9
 70
     1
102
RTVSPropertyOp10
 70
     1
102
RTVSPropertyOp11
 70
     1
102
RTVSPropertyOp12
 70
     1
102
RTVSPropertyOp13
 70
     1
102
RTVSPropertyOp14
 70
     1
102
RTVSPropertyOp15
 70
     1
102
RTVSPropertyOp16
 70
     1
102
RTVSPropertyOp17
 70
     1
102
RTVSPropertyOp18
 70
     1
102
RTVSPropertyOp19
 70
     1
102
RTVSPropertyOp20
 70
     1
102
RTVSPropertyOp21
 70
     1
102
RTVSPropertyOp22
 70
     1
102
RTVSPropertyOp23
 70
     1
102
RTVSPropertyOp24
 70
     1
102
RTVSPropertyOp25
 70
     1
102
RTVSPropertyOp26
 70
     1
102
RTVSPropertyOp27
 70
     1
102
RTVSPropertyOp28
 70
     1
102
RTVSPropertyOp29
 70
     1
102
RTVSPropertyOp30
 70
     1
102
RTVSPropertyOp31
 70
     1
102
RTVSPropertyOp32
 70
     1
102
RTVSPropertyOp33
 70
     1
102
RTVSPropertyOp34
 70
     1
102
RTVSPropertyOp35
 70
     1
102
RTVSPropertyOp36
 70
     1
102
RTVSPropertyOp37
 70
     1
102
RTVSPropertyOp38
 70
     1
102
RTVSPropertyOp39
 70
     1
102
RTVSPropertyOp40
 70
     1
102
RTVSPropertyOp41
 70
     1
102
RTVSPropertyOp42
 70
     1
102
RTVSPropertyOp43
 70
     1
102
RTVSPropertyOp44
 70
     1
102
RTVSPropertyOp45
 70
     1
102
RTVSPropertyOp46
 70
     1
102
RTVSPropertyOp47
 70
     1
102
RTVSPropertyOp48
 70
     1
102
RTVSPropertyOp49
 70
     1
102
RTVSPropertyOp50
 70
     1
102
RTVSPropertyOp51
 70
     0
102
RTVSPropertyOp52
 70
     0
102
RTVSPropertyOp53
 70
     1
102
RTVSPropertyOp54
 70
     1
102
RTVSPropertyOp55
 70
     1
102
RTVSPropertyOp56
 70
     1
102
RTVSPropertyOp57
 70
     1
102
RTVSPost2010Prop28
280
     0
102
RTVSPost2010PropOp28
 70
     1
102
RTVSPost2010Prop29
280
     1
102
RTVSPost2010PropOp29
 70
     1
102
RTVSPost2010Prop30
280
     1
102
RTVSPost2010PropOp30
 70
     1
102
RTVSPost2010Prop31
280
     0
102
RTVSPost2010PropOp31
 70
     1
102
RTVSPost2010Prop32
280
     0
102
RTVSPost2010PropOp32
 70
     1
102
RTVSPost2010Prop33
280
     0
102
RTVSPost2010PropOp33
 70
     1
102
RTVSPost2010Prop34
280
     0
102
RTVSPost2010PropOp34
 70
     1
102
RTVSPost2010Prop35
280
     0
102
RTVSPost2010PropOp35
 70
     1
102
RTVSPost2010Prop36
280
     0
102
RTVSPost2010PropOp36
 70
     1
102
RTVSPost2010Prop37
 90
       50
102
RTVSPost2010PropOp37
 70
     1
102
RTVSPost2010Prop38
140
0.0
102
RTVSPost2010PropOp38
 70
     1
102
RTVSPost2010Prop39
140
1.0
102
RTVSPost2010PropOp39
 70
     1
102
RTVSPost2010Prop40
 90
        0
102
RTVSPost2010PropOp40
 70
     1
102
RTVSPost2010Prop41ColorIndex
 90
       18
102
RTVSPost2010Prop41ColorRGB
 90
        0
102
RTVSPost2010PropOp41
 70
     1
102
RTVSPost2010Prop42
 90
       50
102
RTVSPost2010PropOp42
 70
     1
102
RTVSPost2010Prop43
 90
        3
102
RTVSPost2010PropOp43
 70
     1
102
RTVSPost2010Prop44ColorIndex
 90
        5
102
RTVSPost2010Prop44ColorRGB
 90
      255
102
RTVSPost2010PropOp44
 70
     1
102
RTVSPost2010Prop45
280
     0
102
RTVSPost2010PropOp45
 70
     1
102
RTVSPost2010Prop46
 90
       50
102
RTVSPost2010PropOp46
 70
     1
102
RTVSPost2010Prop47
 90
       50
102
RTVSPost2010PropOp47
 70
     1
102
RTVSPost2010Prop48
 90
       50
102
RTVSPost2010PropOp48
 70
     1
102
RTVSPost2010Prop49
280
     0
102
RTVSPost2010PropOp49
 70
     1
102
RTVSPost2010Prop50
 90
       50
102
RTVSPost2010PropOp50
 70
     1
102
RTVSPost2010Prop51ColorIndex
 90
      256
102
RTVSPost2010Prop51ColorRGB
 90
-16777216
102
RTVSPost2010PropOp51
 70
     0
102
RTVSPost2010Prop52
140
1.0
102
RTVSPost2010PropOp52
 70
     0
102
RTVSPost2010Prop53
 90
        2
102
RTVSPost2010PropOp53
 70
     1
102
RTVSPost2010Prop54
  1
strokes_ogs.tif
102
RTVSPost2010PropOp54
 70
     1
102
RTVSPost2010Prop55
280
     0
102
RTVSPost2010PropOp55
 70
     1
102
RTVSPost2010Prop56
140
1.0
102
RTVSPost2010PropOp56
 70
     1
102
RTVSPost2010Prop57
140
1.0
102
RTVSPost2010PropOp57
 70
     1
  0
XRECORD
  5
386
102
{ACAD_REACTORS
330
385
102
}
330
385
100
AcDbXrecord
280
     1
102
RTVSPropertyOp0
 70
     0
102
RTVSPropertyOp1
 70
     0
102
RTVSPropertyOp2
 70
     0
102
RTVSPropertyOp3
 70
     0
102
RTVSPropertyOp4
 70
     0
102
RTVSPropertyOp5
 70
     0
102
RTVSPropertyOp6
 70
     0
102
RTVSPropertyOp7
 70
     0
102
RTVSPropertyOp8
 70
     0
102
RTVSPropertyOp9
 70
     0
102
RTVSPropertyOp10
 70
     0
102
RTVSPropertyOp11
 70
     0
102
RTVSPropertyOp12
 70
     0
102
RTVSPropertyOp13
 70
     0
102
RTVSPropertyOp14
 70
     2
102
RTVSPropertyOp15
 70
     0
102
RTVSPropertyOp16
 70
     0
102
RTVSPropertyOp17
 70
     0
102
RTVSPropertyOp18
 70
     0
102
RTVSPropertyOp19
 70
     0
102
RTVSPropertyOp20
 70
     0
102
RTVSPropertyOp21
 70
     0
102
RTVSPropertyOp22
 70
     0
102
RTVSPropertyOp23
 70
     0
102
RTVSPropertyOp24
 70
     0
102
RTVSPropertyOp25
 70
     0
102
RTVSPropertyOp26
 70
     0
102
RTVSPropertyOp27
 70
     0
102
RTVSPropertyOp28
 70
     0
102
RTVSPropertyOp29
 70
     0
102
RTVSPropertyOp30
 70
     0
102
RTVSPropertyOp31
 70
     0
102
RTVSPropertyOp32
 70
     0
102
RTVSPropertyOp33
 70
     0
102
RTVSPropertyOp34
 70
     0
102
RTVSPropertyOp35
 70
     0
102
RTVSPropertyOp36
 70
     0
102
RTVSPropertyOp37
 70
     0
102
RTVSPropertyOp38
 70
     0
102
RTVSPropertyOp39
 70
     0
102
RTVSPropertyOp40
 70
     0
102
RTVSPropertyOp41
 70
     0
102
RTVSPropertyOp42
 70
     0
102
RTVSPropertyOp43
 70
     0
102
RTVSPropertyOp44
 70
     0
102
RTVSPropertyOp45
 70
     0
102
RTVSPropertyOp46
 70
     0
102
RTVSPropertyOp47
 70
     0
102
RTVSPropertyOp48
 70
     0
102
RTVSPropertyOp49
 70
     0
102
RTVSPropertyOp50
 70
     0
102
RTVSPropertyOp51
 70
     0
102
RTVSPropertyOp52
 70
     0
102
RTVSPropertyOp53
 70
     0
102
RTVSPropertyOp54
 70
     0
102
RTVSPropertyOp55
 70
     0
102
RTVSPropertyOp56
 70
     0
102
RTVSPropertyOp57
 70
     0
102
RTVSPost2010Prop28
280
     0
102
RTVSPost2010PropOp28
 70
     0
102
RTVSPost2010Prop29
280
     1
102
RTVSPost2010PropOp29
 70
     0
102
RTVSPost2010Prop30
280
     1
102
RTVSPost2010PropOp30
 70
     0
102
RTVSPost2010Prop31
280
     0
102
RTVSPost2010PropOp31
 70
     0
102
RTVSPost2010Prop32
280
     0
102
RTVSPost2010PropOp32
 70
     0
102
RTVSPost2010Prop33
280
     0
102
RTVSPost2010PropOp33
 70
     0
102
RTVSPost2010Prop34
280
     0
102
RTVSPost2010PropOp34
 70
     0
102
RTVSPost2010Prop35
280
     0
102
RTVSPost2010PropOp35
 70
     0
102
RTVSPost2010Prop36
280
     0
102
RTVSPost2010PropOp36
 70
     0
102
RTVSPost2010Prop37
 90
       50
102
RTVSPost2010PropOp37
 70
     0
102
RTVSPost2010Prop38
140
0.0
102
RTVSPost2010PropOp38
 70
     0
102
RTVSPost2010Prop39
140
1.0
102
RTVSPost2010PropOp39
 70
     0
102
RTVSPost2010Prop40
 90
        0
102
RTVSPost2010PropOp40
 70
     0
102
RTVSPost2010Prop41ColorIndex
 90
       18
102
RTVSPost2010Prop41ColorRGB
 90
        0
102
RTVSPost2010PropOp41
 70
     0
102
RTVSPost2010Prop42
 90
       50
102
RTVSPost2010PropOp42
 70
     0
102
RTVSPost2010Prop43
 90
        3
102
RTVSPost2010PropOp43
 70
     0
102
RTVSPost2010Prop44ColorIndex
 90
        5
102
RTVSPost2010Prop44ColorRGB
 90
      255
102
RTVSPost2010PropOp44
 70
     0
102
RTVSPost2010Prop45
280
     0
102
RTVSPost2010PropOp45
 70
     0
102
RTVSPost2010Prop46
 90
       50
102
RTVSPost2010PropOp46
 70
     0
102
RTVSPost2010Prop47
 90
       50
102
RTVSPost2010PropOp47
 70
     0
102
RTVSPost2010Prop48
 90
       50
102
RTVSPost2010PropOp48
 70
     0
102
RTVSPost2010Prop49
280
     0
102
RTVSPost2010PropOp49
 70
     0
102
RTVSPost2010Prop50
 90
       50
102
RTVSPost2010PropOp50
 70
     0
102
RTVSPost2010Prop51ColorIndex
 90
      256
102
RTVSPost2010Prop51ColorRGB
 90
-16777216
102
RTVSPost2010PropOp51
 70
     0
102
RTVSPost2010Prop52
140
1.0
102
RTVSPost2010PropOp52
 70
     0
102
RTVSPost2010Prop53
 90
        2
102
RTVSPost2010PropOp53
 70
     0
102
RTVSPost2010Prop54
  1
strokes_ogs.tif
102
RTVSPost2010PropOp54
 70
     0
102
RTVSPost2010Prop55
280
     0
102
RTVSPost2010PropOp55
 70
     0
102
RTVSPost2010Prop56
140
1.0
102
RTVSPost2010PropOp56
 70
     0
102
RTVSPost2010Prop57
140
1.0
102
RTVSPost2010PropOp57
 70
     0
  0
XRECORD
  5
374
102
{ACAD_REACTORS
330
373
102
}
330
373
100
AcDbXrecord
280
     1
102
RTVSPropertyOp0
 70
     1
102
RTVSPropertyOp1
 70
     1
102
RTVSPropertyOp2
 70
     1
102
RTVSPropertyOp3
 70
     1
102
RTVSPropertyOp4
 70
     1
102
RTVSPropertyOp5
 70
     1
102
RTVSPropertyOp6
 70
     1
102
RTVSPropertyOp7
 70
     1
102
RTVSPropertyOp8
 70
     1
102
RTVSPropertyOp9
 70
     1
102
RTVSPropertyOp10
 70
     1
102
RTVSPropertyOp11
 70
     1
102
RTVSPropertyOp12
 70
     1
102
RTVSPropertyOp13
 70
     1
102
RTVSPropertyOp14
 70
     1
102
RTVSPropertyOp15
 70
     1
102
RTVSPropertyOp16
 70
     1
102
RTVSPropertyOp17
 70
     1
102
RTVSPropertyOp18
 70
     1
102
RTVSPropertyOp19
 70
     1
102
RTVSPropertyOp20
 70
     1
102
RTVSPropertyOp21
 70
     1
102
RTVSPropertyOp22
 70
     1
102
RTVSPropertyOp23
 70
     1
102
RTVSPropertyOp24
 70
     1
102
RTVSPropertyOp25
 70
     1
102
RTVSPropertyOp26
 70
     1
102
RTVSPropertyOp27
 70
     1
102
RTVSPropertyOp28
 70
     1
102
RTVSPropertyOp29
 70
     1
102
RTVSPropertyOp30
 70
     1
102
RTVSPropertyOp31
 70
     1
102
RTVSPropertyOp32
 70
     1
102
RTVSPropertyOp33
 70
     1
102
RTVSPropertyOp34
 70
     1
102
RTVSPropertyOp35
 70
     1
102
RTVSPropertyOp36
 70
     1
102
RTVSPropertyOp37
 70
     1
102
RTVSPropertyOp38
 70
     1
102
RTVSPropertyOp39
 70
     1
102
RTVSPropertyOp40
 70
     1
102
RTVSPropertyOp41
 70
     1
102
RTVSPropertyOp42
 70
     1
102
RTVSPropertyOp43
 70
     1
102
RTVSPropertyOp44
 70
     1
102
RTVSPropertyOp45
 70
     1
102
RTVSPropertyOp46
 70
     1
102
RTVSPropertyOp47
 70
     1
102
RTVSPropertyOp48
 70
     1
102
RTVSPropertyOp49
 70
     1
102
RTVSPropertyOp50
 70
     1
102
RTVSPropertyOp51
 70
     0
102
RTVSPropertyOp52
 70
     0
102
RTVSPropertyOp53
 70
     1
102
RTVSPropertyOp54
 70
     1
102
RTVSPropertyOp55
 70
     1
102
RTVSPropertyOp56
 70
     1
102
RTVSPropertyOp57
 70
     1
102
RTVSPost2010Prop28
280
     0
102
RTVSPost2010PropOp28
 70
     1
102
RTVSPost2010Prop29
280
     1
102
RTVSPost2010PropOp29
 70
     1
102
RTVSPost2010Prop30
280
     1
102
RTVSPost2010PropOp30
 70
     1
102
RTVSPost2010Prop31
280
     0
102
RTVSPost2010PropOp31
 70
     1
102
RTVSPost2010Prop32
280
     0
102
RTVSPost2010PropOp32
 70
     1
102
RTVSPost2010Prop33
280
     0
102
RTVSPost2010PropOp33
 70
     1
102
RTVSPost2010Prop34
280
     0
102
RTVSPost2010PropOp34
 70
     1
102
RTVSPost2010Prop35
280
     0
102
RTVSPost2010PropOp35
 70
     1
102
RTVSPost2010Prop36
280
     0
102
RTVSPost2010PropOp36
 70
     1
102
RTVSPost2010Prop37
 90
       50
102
RTVSPost2010PropOp37
 70
     1
102
RTVSPost2010Prop38
140
0.0
102
RTVSPost2010PropOp38
 70
     1
102
RTVSPost2010Prop39
140
1.0
102
RTVSPost2010PropOp39
 70
     1
102
RTVSPost2010Prop40
 90
        0
102
RTVSPost2010PropOp40
 70
     1
102
RTVSPost2010Prop41ColorIndex
 90
       18
102
RTVSPost2010Prop41ColorRGB
 90
        0
102
RTVSPost2010PropOp41
 70
     1
102
RTVSPost2010Prop42
 90
       50
102
RTVSPost2010PropOp42
 70
     1
102
RTVSPost2010Prop43
 90
        3
102
RTVSPost2010PropOp43
 70
     1
102
RTVSPost2010Prop44ColorIndex
 90
        5
102
RTVSPost2010Prop44ColorRGB
 90
      255
102
RTVSPost2010PropOp44
 70
     1
102
RTVSPost2010Prop45
280
     0
102
RTVSPost2010PropOp45
 70
     1
102
RTVSPost2010Prop46
 90
       50
102
RTVSPost2010PropOp46
 70
     1
102
RTVSPost2010Prop47
 90
       50
102
RTVSPost2010PropOp47
 70
     1
102
RTVSPost2010Prop48
 90
       50
102
RTVSPost2010PropOp48
 70
     1
102
RTVSPost2010Prop49
280
     0
102
RTVSPost2010PropOp49
 70
     1
102
RTVSPost2010Prop50
 90
       50
102
RTVSPost2010PropOp50
 70
     1
102
RTVSPost2010Prop51ColorIndex
 90
      256
102
RTVSPost2010Prop51ColorRGB
 90
-16777216
102
RTVSPost2010PropOp51
 70
     0
102
RTVSPost2010Prop52
140
1.0
102
RTVSPost2010PropOp52
 70
     0
102
RTVSPost2010Prop53
 90
        2
102
RTVSPost2010PropOp53
 70
     1
102
RTVSPost2010Prop54
  1
strokes_ogs.tif
102
RTVSPost2010PropOp54
 70
     1
102
RTVSPost2010Prop55
280
     0
102
RTVSPost2010PropOp55
 70
     1
102
RTVSPost2010Prop56
140
1.0
102
RTVSPost2010PropOp56
 70
     1
102
RTVSPost2010Prop57
140
1.0
102
RTVSPost2010PropOp57
 70
     1
  0
XRECORD
  5
392
102
{ACAD_REACTORS
330
391
102
}
330
391
100
AcDbXrecord
280
     1
102
RTVSPropertyOp0
 70
     1
102
RTVSPropertyOp1
 70
     1
102
RTVSPropertyOp2
 70
     1
102
RTVSPropertyOp3
 70
     1
102
RTVSPropertyOp4
 70
     1
102
RTVSPropertyOp5
 70
     1
102
RTVSPropertyOp6
 70
     1
102
RTVSPropertyOp7
 70
     1
102
RTVSPropertyOp8
 70
     1
102
RTVSPropertyOp9
 70
     1
102
RTVSPropertyOp10
 70
     1
102
RTVSPropertyOp11
 70
     1
102
RTVSPropertyOp12
 70
     1
102
RTVSPropertyOp13
 70
     1
102
RTVSPropertyOp14
 70
     1
102
RTVSPropertyOp15
 70
     1
102
RTVSPropertyOp16
 70
     1
102
RTVSPropertyOp17
 70
     1
102
RTVSPropertyOp18
 70
     1
102
RTVSPropertyOp19
 70
     1
102
RTVSPropertyOp20
 70
     1
102
RTVSPropertyOp21
 70
     1
102
RTVSPropertyOp22
 70
     1
102
RTVSPropertyOp23
 70
     1
102
RTVSPropertyOp24
 70
     1
102
RTVSPropertyOp25
 70
     1
102
RTVSPropertyOp26
 70
     1
102
RTVSPropertyOp27
 70
     1
102
RTVSPropertyOp28
 70
     1
102
RTVSPropertyOp29
 70
     1
102
RTVSPropertyOp30
 70
     1
102
RTVSPropertyOp31
 70
     1
102
RTVSPropertyOp32
 70
     1
102
RTVSPropertyOp33
 70
     1
102
RTVSPropertyOp34
 70
     1
102
RTVSPropertyOp35
 70
     1
102
RTVSPropertyOp36
 70
     1
102
RTVSPropertyOp37
 70
     1
102
RTVSPropertyOp38
 70
     1
102
RTVSPropertyOp39
 70
     1
102
RTVSPropertyOp40
 70
     1
102
RTVSPropertyOp41
 70
     1
102
RTVSPropertyOp42
 70
     1
102
RTVSPropertyOp43
 70
     1
102
RTVSPropertyOp44
 70
     1
102
RTVSPropertyOp45
 70
     1
102
RTVSPropertyOp46
 70
     1
102
RTVSPropertyOp47
 70
     1
102
RTVSPropertyOp48
 70
     1
102
RTVSPropertyOp49
 70
     1
102
RTVSPropertyOp50
 70
     1
102
RTVSPropertyOp51
 70
     0
102
RTVSPropertyOp52
 70
     0
102
RTVSPropertyOp53
 70
     1
102
RTVSPropertyOp54
 70
     1
102
RTVSPropertyOp55
 70
     1
102
RTVSPropertyOp56
 70
     1
102
RTVSPropertyOp57
 70
     1
102
RTVSPost2010Prop28
280
     0
102
RTVSPost2010PropOp28
 70
     1
102
RTVSPost2010Prop29
280
     1
102
RTVSPost2010PropOp29
 70
     1
102
RTVSPost2010Prop30
280
     1
102
RTVSPost2010PropOp30
 70
     1
102
RTVSPost2010Prop31
280
     0
102
RTVSPost2010PropOp31
 70
     1
102
RTVSPost2010Prop32
280
     0
102
RTVSPost2010PropOp32
 70
     1
102
RTVSPost2010Prop33
280
     0
102
RTVSPost2010PropOp33
 70
     1
102
RTVSPost2010Prop34
280
     0
102
RTVSPost2010PropOp34
 70
     1
102
RTVSPost2010Prop35
280
     0
102
RTVSPost2010PropOp35
 70
     1
102
RTVSPost2010Prop36
280
     0
102
RTVSPost2010PropOp36
 70
     1
102
RTVSPost2010Prop37
 90
       50
102
RTVSPost2010PropOp37
 70
     1
102
RTVSPost2010Prop38
140
0.0
102
RTVSPost2010PropOp38
 70
     1
102
RTVSPost2010Prop39
140
1.0
102
RTVSPost2010PropOp39
 70
     1
102
RTVSPost2010Prop40
 90
        0
102
RTVSPost2010PropOp40
 70
     1
102
RTVSPost2010Prop41ColorIndex
 90
       18
102
RTVSPost2010Prop41ColorRGB
 90
        0
102
RTVSPost2010PropOp41
 70
     1
102
RTVSPost2010Prop42
 90
       50
102
RTVSPost2010PropOp42
 70
     1
102
RTVSPost2010Prop43
 90
        3
102
RTVSPost2010PropOp43
 70
     1
102
RTVSPost2010Prop44ColorIndex
 90
        5
102
RTVSPost2010Prop44ColorRGB
 90
      255
102
RTVSPost2010PropOp44
 70
     1
102
RTVSPost2010Prop45
280
     0
102
RTVSPost2010PropOp45
 70
     1
102
RTVSPost2010Prop46
 90
       50
102
RTVSPost2010PropOp46
 70
     1
102
RTVSPost2010Prop47
 90
       50
102
RTVSPost2010PropOp47
 70
     1
102
RTVSPost2010Prop48
 90
       50
102
RTVSPost2010PropOp48
 70
     1
102
RTVSPost2010Prop49
280
     0
102
RTVSPost2010PropOp49
 70
     1
102
RTVSPost2010Prop50
 90
       50
102
RTVSPost2010PropOp50
 70
     1
102
RTVSPost2010Prop51ColorIndex
 90
      256
102
RTVSPost2010Prop51ColorRGB
 90
-16777216
102
RTVSPost2010PropOp51
 70
     0
102
RTVSPost2010Prop52
140
1.0
102
RTVSPost2010PropOp52
 70
     0
102
RTVSPost2010Prop53
 90
        2
102
RTVSPost2010PropOp53
 70
     1
102
RTVSPost2010Prop54
  1
strokes_ogs.tif
102
RTVSPost2010PropOp54
 70
     1
102
RTVSPost2010Prop55
280
     0
102
RTVSPost2010PropOp55
 70
     1
102
RTVSPost2010Prop56
140
1.0
102
RTVSPost2010PropOp56
 70
     1
102
RTVSPost2010Prop57
140
1.0
102
RTVSPost2010PropOp57
 70
     1
  0
XRECORD
  5
390
102
{ACAD_REACTORS
330
38F
102
}
330
38F
100
AcDbXrecord
280
     1
102
RTVSPropertyOp0
 70
     1
102
RTVSPropertyOp1
 70
     1
102
RTVSPropertyOp2
 70
     1
102
RTVSPropertyOp3
 70
     1
102
RTVSPropertyOp4
 70
     1
102
RTVSPropertyOp5
 70
     1
102
RTVSPropertyOp6
 70
     1
102
RTVSPropertyOp7
 70
     1
102
RTVSPropertyOp8
 70
     1
102
RTVSPropertyOp9
 70
     1
102
RTVSPropertyOp10
 70
     1
102
RTVSPropertyOp11
 70
     1
102
RTVSPropertyOp12
 70
     1
102
RTVSPropertyOp13
 70
     1
102
RTVSPropertyOp14
 70
     1
102
RTVSPropertyOp15
 70
     1
102
RTVSPropertyOp16
 70
     1
102
RTVSPropertyOp17
 70
     1
102
RTVSPropertyOp18
 70
     1
102
RTVSPropertyOp19
 70
     1
102
RTVSPropertyOp20
 70
     1
102
RTVSPropertyOp21
 70
     1
102
RTVSPropertyOp22
 70
     1
102
RTVSPropertyOp23
 70
     1
102
RTVSPropertyOp24
 70
     1
102
RTVSPropertyOp25
 70
     1
102
RTVSPropertyOp26
 70
     1
102
RTVSPropertyOp27
 70
     1
102
RTVSPropertyOp28
 70
     1
102
RTVSPropertyOp29
 70
     1
102
RTVSPropertyOp30
 70
     1
102
RTVSPropertyOp31
 70
     1
102
RTVSPropertyOp32
 70
     1
102
RTVSPropertyOp33
 70
     1
102
RTVSPropertyOp34
 70
     1
102
RTVSPropertyOp35
 70
     1
102
RTVSPropertyOp36
 70
     1
102
RTVSPropertyOp37
 70
     1
102
RTVSPropertyOp38
 70
     1
102
RTVSPropertyOp39
 70
     1
102
RTVSPropertyOp40
 70
     1
102
RTVSPropertyOp41
 70
     1
102
RTVSPropertyOp42
 70
     1
102
RTVSPropertyOp43
 70
     1
102
RTVSPropertyOp44
 70
     1
102
RTVSPropertyOp45
 70
     1
102
RTVSPropertyOp46
 70
     1
102
RTVSPropertyOp47
 70
     1
102
RTVSPropertyOp48
 70
     1
102
RTVSPropertyOp49
 70
     1
102
RTVSPropertyOp50
 70
     1
102
RTVSPropertyOp51
 70
     0
102
RTVSPropertyOp52
 70
     0
102
RTVSPropertyOp53
 70
     1
102
RTVSPropertyOp54
 70
     1
102
RTVSPropertyOp55
 70
     1
102
RTVSPropertyOp56
 70
     1
102
RTVSPropertyOp57
 70
     1
102
RTVSPost2010Prop28
280
     0
102
RTVSPost2010PropOp28
 70
     1
102
RTVSPost2010Prop29
280
     1
102
RTVSPost2010PropOp29
 70
     1
102
RTVSPost2010Prop30
280
     1
102
RTVSPost2010PropOp30
 70
     1
102
RTVSPost2010Prop31
280
     0
102
RTVSPost2010PropOp31
 70
     1
102
RTVSPost2010Prop32
280
     0
102
RTVSPost2010PropOp32
 70
     1
102
RTVSPost2010Prop33
280
     0
102
RTVSPost2010PropOp33
 70
     1
102
RTVSPost2010Prop34
280
     0
102
RTVSPost2010PropOp34
 70
     1
102
RTVSPost2010Prop35
280
     0
102
RTVSPost2010PropOp35
 70
     1
102
RTVSPost2010Prop36
280
     0
102
RTVSPost2010PropOp36
 70
     1
102
RTVSPost2010Prop37
 90
       50
102
RTVSPost2010PropOp37
 70
     1
102
RTVSPost2010Prop38
140
0.0
102
RTVSPost2010PropOp38
 70
     1
102
RTVSPost2010Prop39
140
1.0
102
RTVSPost2010PropOp39
 70
     1
102
RTVSPost2010Prop40
 90
        0
102
RTVSPost2010PropOp40
 70
     1
102
RTVSPost2010Prop41ColorIndex
 90
       18
102
RTVSPost2010Prop41ColorRGB
 90
        0
102
RTVSPost2010PropOp41
 70
     1
102
RTVSPost2010Prop42
 90
       50
102
RTVSPost2010PropOp42
 70
     1
102
RTVSPost2010Prop43
 90
        3
102
RTVSPost2010PropOp43
 70
     1
102
RTVSPost2010Prop44ColorIndex
 90
        5
102
RTVSPost2010Prop44ColorRGB
 90
      255
102
RTVSPost2010PropOp44
 70
     1
102
RTVSPost2010Prop45
280
     0
102
RTVSPost2010PropOp45
 70
     1
102
RTVSPost2010Prop46
 90
       50
102
RTVSPost2010PropOp46
 70
     1
102
RTVSPost2010Prop47
 90
       50
102
RTVSPost2010PropOp47
 70
     1
102
RTVSPost2010Prop48
 90
       50
102
RTVSPost2010PropOp48
 70
     1
102
RTVSPost2010Prop49
280
     0
102
RTVSPost2010PropOp49
 70
     1
102
RTVSPost2010Prop50
 90
       50
102
RTVSPost2010PropOp50
 70
     1
102
RTVSPost2010Prop51ColorIndex
 90
      256
102
RTVSPost2010Prop51ColorRGB
 90
-16777216
102
RTVSPost2010PropOp51
 70
     0
102
RTVSPost2010Prop52
140
1.0
102
RTVSPost2010PropOp52
 70
     0
102
RTVSPost2010Prop53
 90
        2
102
RTVSPost2010PropOp53
 70
     1
102
RTVSPost2010Prop54
  1
strokes_ogs.tif
102
RTVSPost2010PropOp54
 70
     1
102
RTVSPost2010Prop55
280
     0
102
RTVSPost2010PropOp55
 70
     1
102
RTVSPost2010Prop56
140
1.0
102
RTVSPost2010PropOp56
 70
     1
102
RTVSPost2010Prop57
140
1.0
102
RTVSPost2010PropOp57
 70
     1
  0
XRECORD
  5
38A
102
{ACAD_REACTORS
330
389
102
}
330
389
100
AcDbXrecord
280
     1
102
RTVSPropertyOp0
 70
     1
102
RTVSPropertyOp1
 70
     1
102
RTVSPropertyOp2
 70
     1
102
RTVSPropertyOp3
 70
     1
102
RTVSPropertyOp4
 70
     1
102
RTVSPropertyOp5
 70
     1
102
RTVSPropertyOp6
 70
     1
102
RTVSPropertyOp7
 70
     1
102
RTVSPropertyOp8
 70
     1
102
RTVSPropertyOp9
 70
     1
102
RTVSPropertyOp10
 70
     1
102
RTVSPropertyOp11
 70
     1
102
RTVSPropertyOp12
 70
     1
102
RTVSPropertyOp13
 70
     1
102
RTVSPropertyOp14
 70
     1
102
RTVSPropertyOp15
 70
     1
102
RTVSPropertyOp16
 70
     1
102
RTVSPropertyOp17
 70
     1
102
RTVSPropertyOp18
 70
     1
102
RTVSPropertyOp19
 70
     1
102
RTVSPropertyOp20
 70
     1
102
RTVSPropertyOp21
 70
     1
102
RTVSPropertyOp22
 70
     1
102
RTVSPropertyOp23
 70
     1
102
RTVSPropertyOp24
 70
     1
102
RTVSPropertyOp25
 70
     1
102
RTVSPropertyOp26
 70
     1
102
RTVSPropertyOp27
 70
     1
102
RTVSPropertyOp28
 70
     1
102
RTVSPropertyOp29
 70
     1
102
RTVSPropertyOp30
 70
     1
102
RTVSPropertyOp31
 70
     1
102
RTVSPropertyOp32
 70
     1
102
RTVSPropertyOp33
 70
     1
102
RTVSPropertyOp34
 70
     1
102
RTVSPropertyOp35
 70
     1
102
RTVSPropertyOp36
 70
     1
102
RTVSPropertyOp37
 70
     1
102
RTVSPropertyOp38
 70
     1
102
RTVSPropertyOp39
 70
     1
102
RTVSPropertyOp40
 70
     1
102
RTVSPropertyOp41
 70
     1
102
RTVSPropertyOp42
 70
     1
102
RTVSPropertyOp43
 70
     1
102
RTVSPropertyOp44
 70
     1
102
RTVSPropertyOp45
 70
     1
102
RTVSPropertyOp46
 70
     1
102
RTVSPropertyOp47
 70
     1
102
RTVSPropertyOp48
 70
     1
102
RTVSPropertyOp49
 70
     1
102
RTVSPropertyOp50
 70
     1
102
RTVSPropertyOp51
 70
     0
102
RTVSPropertyOp52
 70
     0
102
RTVSPropertyOp53
 70
     1
102
RTVSPropertyOp54
 70
     1
102
RTVSPropertyOp55
 70
     1
102
RTVSPropertyOp56
 70
     1
102
RTVSPropertyOp57
 70
     1
102
RTVSPost2010Prop28
280
     0
102
RTVSPost2010PropOp28
 70
     1
102
RTVSPost2010Prop29
280
     1
102
RTVSPost2010PropOp29
 70
     1
102
RTVSPost2010Prop30
280
     1
102
RTVSPost2010PropOp30
 70
     1
102
RTVSPost2010Prop31
280
     0
102
RTVSPost2010PropOp31
 70
     1
102
RTVSPost2010Prop32
280
     0
102
RTVSPost2010PropOp32
 70
     1
102
RTVSPost2010Prop33
280
     0
102
RTVSPost2010PropOp33
 70
     1
102
RTVSPost2010Prop34
280
     0
102
RTVSPost2010PropOp34
 70
     1
102
RTVSPost2010Prop35
280
     0
102
RTVSPost2010PropOp35
 70
     1
102
RTVSPost2010Prop36
280
     0
102
RTVSPost2010PropOp36
 70
     1
102
RTVSPost2010Prop37
 90
       50
102
RTVSPost2010PropOp37
 70
     1
102
RTVSPost2010Prop38
140
0.0
102
RTVSPost2010PropOp38
 70
     1
102
RTVSPost2010Prop39
140
1.0
102
RTVSPost2010PropOp39
 70
     1
102
RTVSPost2010Prop40
 90
        0
102
RTVSPost2010PropOp40
 70
     1
102
RTVSPost2010Prop41ColorIndex
 90
       18
102
RTVSPost2010Prop41ColorRGB
 90
        0
102
RTVSPost2010PropOp41
 70
     1
102
RTVSPost2010Prop42
 90
       50
102
RTVSPost2010PropOp42
 70
     1
102
RTVSPost2010Prop43
 90
        3
102
RTVSPost2010PropOp43
 70
     1
102
RTVSPost2010Prop44ColorIndex
 90
        5
102
RTVSPost2010Prop44ColorRGB
 90
      255
102
RTVSPost2010PropOp44
 70
     1
102
RTVSPost2010Prop45
280
     0
102
RTVSPost2010PropOp45
 70
     1
102
RTVSPost2010Prop46
 90
       50
102
RTVSPost2010PropOp46
 70
     1
102
RTVSPost2010Prop47
 90
       50
102
RTVSPost2010PropOp47
 70
     1
102
RTVSPost2010Prop48
 90
       50
102
RTVSPost2010PropOp48
 70
     1
102
RTVSPost2010Prop49
280
     0
102
RTVSPost2010PropOp49
 70
     1
102
RTVSPost2010Prop50
 90
       50
102
RTVSPost2010PropOp50
 70
     1
102
RTVSPost2010Prop51ColorIndex
 90
      256
102
RTVSPost2010Prop51ColorRGB
 90
-16777216
102
RTVSPost2010PropOp51
 70
     0
102
RTVSPost2010Prop52
140
1.0
102
RTVSPost2010PropOp52
 70
     0
102
RTVSPost2010Prop53
 90
        2
102
RTVSPost2010PropOp53
 70
     1
102
RTVSPost2010Prop54
  1
strokes_ogs.tif
102
RTVSPost2010PropOp54
 70
     1
102
RTVSPost2010Prop55
280
     0
102
RTVSPost2010PropOp55
 70
     1
102
RTVSPost2010Prop56
140
1.0
102
RTVSPost2010PropOp56
 70
     1
102
RTVSPost2010Prop57
140
1.0
102
RTVSPost2010PropOp57
 70
     1
  0
XRECORD
  5
38C
102
{ACAD_REACTORS
330
38B
102
}
330
38B
100
AcDbXrecord
280
     1
102
RTVSPropertyOp0
 70
     1
102
RTVSPropertyOp1
 70
     1
102
RTVSPropertyOp2
 70
     1
102
RTVSPropertyOp3
 70
     1
102
RTVSPropertyOp4
 70
     1
102
RTVSPropertyOp5
 70
     1
102
RTVSPropertyOp6
 70
     1
102
RTVSPropertyOp7
 70
     1
102
RTVSPropertyOp8
 70
     1
102
RTVSPropertyOp9
 70
     1
102
RTVSPropertyOp10
 70
     1
102
RTVSPropertyOp11
 70
     1
102
RTVSPropertyOp12
 70
     1
102
RTVSPropertyOp13
 70
     1
102
RTVSPropertyOp14
 70
     1
102
RTVSPropertyOp15
 70
     1
102
RTVSPropertyOp16
 70
     1
102
RTVSPropertyOp17
 70
     1
102
RTVSPropertyOp18
 70
     1
102
RTVSPropertyOp19
 70
     1
102
RTVSPropertyOp20
 70
     1
102
RTVSPropertyOp21
 70
     1
102
RTVSPropertyOp22
 70
     1
102
RTVSPropertyOp23
 70
     1
102
RTVSPropertyOp24
 70
     1
102
RTVSPropertyOp25
 70
     1
102
RTVSPropertyOp26
 70
     1
102
RTVSPropertyOp27
 70
     1
102
RTVSPropertyOp28
 70
     1
102
RTVSPropertyOp29
 70
     1
102
RTVSPropertyOp30
 70
     1
102
RTVSPropertyOp31
 70
     1
102
RTVSPropertyOp32
 70
     1
102
RTVSPropertyOp33
 70
     1
102
RTVSPropertyOp34
 70
     1
102
RTVSPropertyOp35
 70
     1
102
RTVSPropertyOp36
 70
     1
102
RTVSPropertyOp37
 70
     1
102
RTVSPropertyOp38
 70
     1
102
RTVSPropertyOp39
 70
     1
102
RTVSPropertyOp40
 70
     1
102
RTVSPropertyOp41
 70
     1
102
RTVSPropertyOp42
 70
     1
102
RTVSPropertyOp43
 70
     1
102
RTVSPropertyOp44
 70
     1
102
RTVSPropertyOp45
 70
     1
102
RTVSPropertyOp46
 70
     1
102
RTVSPropertyOp47
 70
     1
102
RTVSPropertyOp48
 70
     1
102
RTVSPropertyOp49
 70
     1
102
RTVSPropertyOp50
 70
     1
102
RTVSPropertyOp51
 70
     0
102
RTVSPropertyOp52
 70
     0
102
RTVSPropertyOp53
 70
     1
102
RTVSPropertyOp54
 70
     1
102
RTVSPropertyOp55
 70
     1
102
RTVSPropertyOp56
 70
     1
102
RTVSPropertyOp57
 70
     1
102
RTVSPost2010Prop28
280
     0
102
RTVSPost2010PropOp28
 70
     1
102
RTVSPost2010Prop29
280
     1
102
RTVSPost2010PropOp29
 70
     1
102
RTVSPost2010Prop30
280
     1
102
RTVSPost2010PropOp30
 70
     1
102
RTVSPost2010Prop31
280
     0
102
RTVSPost2010PropOp31
 70
     1
102
RTVSPost2010Prop32
280
     0
102
RTVSPost2010PropOp32
 70
     1
102
RTVSPost2010Prop33
280
     0
102
RTVSPost2010PropOp33
 70
     1
102
RTVSPost2010Prop34
280
     0
102
RTVSPost2010PropOp34
 70
     1
102
RTVSPost2010Prop35
280
     0
102
RTVSPost2010PropOp35
 70
     1
102
RTVSPost2010Prop36
280
     0
102
RTVSPost2010PropOp36
 70
     1
102
RTVSPost2010Prop37
 90
       50
102
RTVSPost2010PropOp37
 70
     1
102
RTVSPost2010Prop38
140
0.0
102
RTVSPost2010PropOp38
 70
     1
102
RTVSPost2010Prop39
140
1.0
102
RTVSPost2010PropOp39
 70
     1
102
RTVSPost2010Prop40
 90
        0
102
RTVSPost2010PropOp40
 70
     1
102
RTVSPost2010Prop41ColorIndex
 90
       18
102
RTVSPost2010Prop41ColorRGB
 90
        0
102
RTVSPost2010PropOp41
 70
     1
102
RTVSPost2010Prop42
 90
       50
102
RTVSPost2010PropOp42
 70
     1
102
RTVSPost2010Prop43
 90
        3
102
RTVSPost2010PropOp43
 70
     1
102
RTVSPost2010Prop44ColorIndex
 90
        5
102
RTVSPost2010Prop44ColorRGB
 90
      255
102
RTVSPost2010PropOp44
 70
     1
102
RTVSPost2010Prop45
280
     0
102
RTVSPost2010PropOp45
 70
     1
102
RTVSPost2010Prop46
 90
       50
102
RTVSPost2010PropOp46
 70
     1
102
RTVSPost2010Prop47
 90
       50
102
RTVSPost2010PropOp47
 70
     1
102
RTVSPost2010Prop48
 90
       50
102
RTVSPost2010PropOp48
 70
     1
102
RTVSPost2010Prop49
280
     0
102
RTVSPost2010PropOp49
 70
     1
102
RTVSPost2010Prop50
 90
       50
102
RTVSPost2010PropOp50
 70
     1
102
RTVSPost2010Prop51ColorIndex
 90
      256
102
RTVSPost2010Prop51ColorRGB
 90
-16777216
102
RTVSPost2010PropOp51
 70
     0
102
RTVSPost2010Prop52
140
1.0
102
RTVSPost2010PropOp52
 70
     0
102
RTVSPost2010Prop53
 90
        2
102
RTVSPost2010PropOp53
 70
     1
102
RTVSPost2010Prop54
  1
strokes_ogs.tif
102
RTVSPost2010PropOp54
 70
     1
102
RTVSPost2010Prop55
280
     0
102
RTVSPost2010PropOp55
 70
     1
102
RTVSPost2010Prop56
140
1.0
102
RTVSPost2010PropOp56
 70
     1
102
RTVSPost2010Prop57
140
1.0
102
RTVSPost2010PropOp57
 70
     1
  0
XRECORD
  5
37C
102
{ACAD_REACTORS
330
37B
102
}
330
37B
100
AcDbXrecord
280
     1
102
RTVSPropertyOp0
 70
     1
102
RTVSPropertyOp1
 70
     1
102
RTVSPropertyOp2
 70
     1
102
RTVSPropertyOp3
 70
     1
102
RTVSPropertyOp4
 70
     1
102
RTVSPropertyOp5
 70
     1
102
RTVSPropertyOp6
 70
     1
102
RTVSPropertyOp7
 70
     1
102
RTVSPropertyOp8
 70
     1
102
RTVSPropertyOp9
 70
     1
102
RTVSPropertyOp10
 70
     1
102
RTVSPropertyOp11
 70
     1
102
RTVSPropertyOp12
 70
     1
102
RTVSPropertyOp13
 70
     1
102
RTVSPropertyOp14
 70
     1
102
RTVSPropertyOp15
 70
     1
102
RTVSPropertyOp16
 70
     1
102
RTVSPropertyOp17
 70
     1
102
RTVSPropertyOp18
 70
     1
102
RTVSPropertyOp19
 70
     1
102
RTVSPropertyOp20
 70
     1
102
RTVSPropertyOp21
 70
     1
102
RTVSPropertyOp22
 70
     1
102
RTVSPropertyOp23
 70
     1
102
RTVSPropertyOp24
 70
     1
102
RTVSPropertyOp25
 70
     1
102
RTVSPropertyOp26
 70
     1
102
RTVSPropertyOp27
 70
     1
102
RTVSPropertyOp28
 70
     1
102
RTVSPropertyOp29
 70
     1
102
RTVSPropertyOp30
 70
     1
102
RTVSPropertyOp31
 70
     1
102
RTVSPropertyOp32
 70
     1
102
RTVSPropertyOp33
 70
     1
102
RTVSPropertyOp34
 70
     1
102
RTVSPropertyOp35
 70
     1
102
RTVSPropertyOp36
 70
     1
102
RTVSPropertyOp37
 70
     1
102
RTVSPropertyOp38
 70
     1
102
RTVSPropertyOp39
 70
     1
102
RTVSPropertyOp40
 70
     1
102
RTVSPropertyOp41
 70
     1
102
RTVSPropertyOp42
 70
     1
102
RTVSPropertyOp43
 70
     1
102
RTVSPropertyOp44
 70
     1
102
RTVSPropertyOp45
 70
     1
102
RTVSPropertyOp46
 70
     1
102
RTVSPropertyOp47
 70
     1
102
RTVSPropertyOp48
 70
     1
102
RTVSPropertyOp49
 70
     1
102
RTVSPropertyOp50
 70
     1
102
RTVSPropertyOp51
 70
     0
102
RTVSPropertyOp52
 70
     0
102
RTVSPropertyOp53
 70
     1
102
RTVSPropertyOp54
 70
     1
102
RTVSPropertyOp55
 70
     1
102
RTVSPropertyOp56
 70
     1
102
RTVSPropertyOp57
 70
     1
102
RTVSPost2010Prop28
280
     0
102
RTVSPost2010PropOp28
 70
     1
102
RTVSPost2010Prop29
280
     1
102
RTVSPost2010PropOp29
 70
     1
102
RTVSPost2010Prop30
280
     1
102
RTVSPost2010PropOp30
 70
     1
102
RTVSPost2010Prop31
280
     0
102
RTVSPost2010PropOp31
 70
     1
102
RTVSPost2010Prop32
280
     0
102
RTVSPost2010PropOp32
 70
     1
102
RTVSPost2010Prop33
280
     0
102
RTVSPost2010PropOp33
 70
     1
102
RTVSPost2010Prop34
280
     0
102
RTVSPost2010PropOp34
 70
     1
102
RTVSPost2010Prop35
280
     0
102
RTVSPost2010PropOp35
 70
     1
102
RTVSPost2010Prop36
280
     0
102
RTVSPost2010PropOp36
 70
     1
102
RTVSPost2010Prop37
 90
       50
102
RTVSPost2010PropOp37
 70
     1
102
RTVSPost2010Prop38
140
0.0
102
RTVSPost2010PropOp38
 70
     1
102
RTVSPost2010Prop39
140
1.0
102
RTVSPost2010PropOp39
 70
     1
102
RTVSPost2010Prop40
 90
        0
102
RTVSPost2010PropOp40
 70
     1
102
RTVSPost2010Prop41ColorIndex
 90
       18
102
RTVSPost2010Prop41ColorRGB
 90
        0
102
RTVSPost2010PropOp41
 70
     1
102
RTVSPost2010Prop42
 90
       50
102
RTVSPost2010PropOp42
 70
     1
102
RTVSPost2010Prop43
 90
        3
102
RTVSPost2010PropOp43
 70
     1
102
RTVSPost2010Prop44ColorIndex
 90
        5
102
RTVSPost2010Prop44ColorRGB
 90
      255
102
RTVSPost2010PropOp44
 70
     1
102
RTVSPost2010Prop45
280
     0
102
RTVSPost2010PropOp45
 70
     1
102
RTVSPost2010Prop46
 90
       50
102
RTVSPost2010PropOp46
 70
     1
102
RTVSPost2010Prop47
 90
       50
102
RTVSPost2010PropOp47
 70
     1
102
RTVSPost2010Prop48
 90
       50
102
RTVSPost2010PropOp48
 70
     1
102
RTVSPost2010Prop49
280
     0
102
RTVSPost2010PropOp49
 70
     1
102
RTVSPost2010Prop50
 90
       50
102
RTVSPost2010PropOp50
 70
     1
102
RTVSPost2010Prop51ColorIndex
 90
      256
102
RTVSPost2010Prop51ColorRGB
 90
-16777216
102
RTVSPost2010PropOp51
 70
     0
102
RTVSPost2010Prop52
140
1.0
102
RTVSPost2010PropOp52
 70
     0
102
RTVSPost2010Prop53
 90
        2
102
RTVSPost2010PropOp53
 70
     1
102
RTVSPost2010Prop54
  1
strokes_ogs.tif
102
RTVSPost2010PropOp54
 70
     1
102
RTVSPost2010Prop55
280
     0
102
RTVSPost2010PropOp55
 70
     1
102
RTVSPost2010Prop56
140
1.0
102
RTVSPost2010PropOp56
 70
     1
102
RTVSPost2010Prop57
140
1.0
102
RTVSPost2010PropOp57
 70
     1
  0
XRECORD
  5
36E
102
{ACAD_REACTORS
330
36D
102
}
330
36D
100
AcDbXrecord
280
     1
102
RTVSPropertyOp0
 70
     1
102
RTVSPropertyOp1
 70
     1
102
RTVSPropertyOp2
 70
     1
102
RTVSPropertyOp3
 70
     1
102
RTVSPropertyOp4
 70
     1
102
RTVSPropertyOp5
 70
     1
102
RTVSPropertyOp6
 70
     1
102
RTVSPropertyOp7
 70
     1
102
RTVSPropertyOp8
 70
     1
102
RTVSPropertyOp9
 70
     1
102
RTVSPropertyOp10
 70
     1
102
RTVSPropertyOp11
 70
     1
102
RTVSPropertyOp12
 70
     1
102
RTVSPropertyOp13
 70
     1
102
RTVSPropertyOp14
 70
     1
102
RTVSPropertyOp15
 70
     1
102
RTVSPropertyOp16
 70
     1
102
RTVSPropertyOp17
 70
     1
102
RTVSPropertyOp18
 70
     1
102
RTVSPropertyOp19
 70
     1
102
RTVSPropertyOp20
 70
     1
102
RTVSPropertyOp21
 70
     1
102
RTVSPropertyOp22
 70
     1
102
RTVSPropertyOp23
 70
     1
102
RTVSPropertyOp24
 70
     1
102
RTVSPropertyOp25
 70
     1
102
RTVSPropertyOp26
 70
     1
102
RTVSPropertyOp27
 70
     1
102
RTVSPropertyOp28
 70
     1
102
RTVSPropertyOp29
 70
     1
102
RTVSPropertyOp30
 70
     1
102
RTVSPropertyOp31
 70
     1
102
RTVSPropertyOp32
 70
     1
102
RTVSPropertyOp33
 70
     1
102
RTVSPropertyOp34
 70
     1
102
RTVSPropertyOp35
 70
     1
102
RTVSPropertyOp36
 70
     1
102
RTVSPropertyOp37
 70
     1
102
RTVSPropertyOp38
 70
     1
102
RTVSPropertyOp39
 70
     1
102
RTVSPropertyOp40
 70
     1
102
RTVSPropertyOp41
 70
     1
102
RTVSPropertyOp42
 70
     1
102
RTVSPropertyOp43
 70
     1
102
RTVSPropertyOp44
 70
     1
102
RTVSPropertyOp45
 70
     1
102
RTVSPropertyOp46
 70
     1
102
RTVSPropertyOp47
 70
     1
102
RTVSPropertyOp48
 70
     1
102
RTVSPropertyOp49
 70
     1
102
RTVSPropertyOp50
 70
     1
102
RTVSPropertyOp51
 70
     0
102
RTVSPropertyOp52
 70
     0
102
RTVSPropertyOp53
 70
     1
102
RTVSPropertyOp54
 70
     1
102
RTVSPropertyOp55
 70
     1
102
RTVSPropertyOp56
 70
     1
102
RTVSPropertyOp57
 70
     1
102
RTVSPost2010Prop28
280
     0
102
RTVSPost2010PropOp28
 70
     1
102
RTVSPost2010Prop29
280
     1
102
RTVSPost2010PropOp29
 70
     1
102
RTVSPost2010Prop30
280
     1
102
RTVSPost2010PropOp30
 70
     1
102
RTVSPost2010Prop31
280
     0
102
RTVSPost2010PropOp31
 70
     1
102
RTVSPost2010Prop32
280
     0
102
RTVSPost2010PropOp32
 70
     1
102
RTVSPost2010Prop33
280
     0
102
RTVSPost2010PropOp33
 70
     1
102
RTVSPost2010Prop34
280
     0
102
RTVSPost2010PropOp34
 70
     1
102
RTVSPost2010Prop35
280
     0
102
RTVSPost2010PropOp35
 70
     1
102
RTVSPost2010Prop36
280
     0
102
RTVSPost2010PropOp36
 70
     1
102
RTVSPost2010Prop37
 90
       50
102
RTVSPost2010PropOp37
 70
     1
102
RTVSPost2010Prop38
140
0.0
102
RTVSPost2010PropOp38
 70
     1
102
RTVSPost2010Prop39
140
1.0
102
RTVSPost2010PropOp39
 70
     1
102
RTVSPost2010Prop40
 90
        0
102
RTVSPost2010PropOp40
 70
     1
102
RTVSPost2010Prop41ColorIndex
 90
       18
102
RTVSPost2010Prop41ColorRGB
 90
        0
102
RTVSPost2010PropOp41
 70
     1
102
RTVSPost2010Prop42
 90
       50
102
RTVSPost2010PropOp42
 70
     1
102
RTVSPost2010Prop43
 90
        3
102
RTVSPost2010PropOp43
 70
     1
102
RTVSPost2010Prop44ColorIndex
 90
        5
102
RTVSPost2010Prop44ColorRGB
 90
      255
102
RTVSPost2010PropOp44
 70
     1
102
RTVSPost2010Prop45
280
     0
102
RTVSPost2010PropOp45
 70
     1
102
RTVSPost2010Prop46
 90
       50
102
RTVSPost2010PropOp46
 70
     1
102
RTVSPost2010Prop47
 90
       50
102
RTVSPost2010PropOp47
 70
     1
102
RTVSPost2010Prop48
 90
       50
102
RTVSPost2010PropOp48
 70
     1
102
RTVSPost2010Prop49
280
     0
102
RTVSPost2010PropOp49
 70
     1
102
RTVSPost2010Prop50
 90
       50
102
RTVSPost2010PropOp50
 70
     1
102
RTVSPost2010Prop51ColorIndex
 90
      256
102
RTVSPost2010Prop51ColorRGB
 90
-16777216
102
RTVSPost2010PropOp51
 70
     0
102
RTVSPost2010Prop52
140
1.0
102
RTVSPost2010PropOp52
 70
     0
102
RTVSPost2010Prop53
 90
        2
102
RTVSPost2010PropOp53
 70
     1
102
RTVSPost2010Prop54
  1
strokes_ogs.tif
102
RTVSPost2010PropOp54
 70
     1
102
RTVSPost2010Prop55
280
     0
102
RTVSPost2010PropOp55
 70
     1
102
RTVSPost2010Prop56
140
1.0
102
RTVSPost2010PropOp56
 70
     1
102
RTVSPost2010Prop57
140
1.0
102
RTVSPost2010PropOp57
 70
     1
  0
XRECORD
  5
38E
102
{ACAD_REACTORS
330
38D
102
}
330
38D
100
AcDbXrecord
280
     1
102
RTVSPropertyOp0
 70
     1
102
RTVSPropertyOp1
 70
     1
102
RTVSPropertyOp2
 70
     1
102
RTVSPropertyOp3
 70
     1
102
RTVSPropertyOp4
 70
     1
102
RTVSPropertyOp5
 70
     1
102
RTVSPropertyOp6
 70
     1
102
RTVSPropertyOp7
 70
     1
102
RTVSPropertyOp8
 70
     1
102
RTVSPropertyOp9
 70
     1
102
RTVSPropertyOp10
 70
     1
102
RTVSPropertyOp11
 70
     1
102
RTVSPropertyOp12
 70
     1
102
RTVSPropertyOp13
 70
     1
102
RTVSPropertyOp14
 70
     1
102
RTVSPropertyOp15
 70
     1
102
RTVSPropertyOp16
 70
     1
102
RTVSPropertyOp17
 70
     1
102
RTVSPropertyOp18
 70
     1
102
RTVSPropertyOp19
 70
     1
102
RTVSPropertyOp20
 70
     1
102
RTVSPropertyOp21
 70
     1
102
RTVSPropertyOp22
 70
     1
102
RTVSPropertyOp23
 70
     1
102
RTVSPropertyOp24
 70
     1
102
RTVSPropertyOp25
 70
     1
102
RTVSPropertyOp26
 70
     1
102
RTVSPropertyOp27
 70
     1
102
RTVSPropertyOp28
 70
     1
102
RTVSPropertyOp29
 70
     1
102
RTVSPropertyOp30
 70
     1
102
RTVSPropertyOp31
 70
     1
102
RTVSPropertyOp32
 70
     1
102
RTVSPropertyOp33
 70
     1
102
RTVSPropertyOp34
 70
     1
102
RTVSPropertyOp35
 70
     1
102
RTVSPropertyOp36
 70
     1
102
RTVSPropertyOp37
 70
     1
102
RTVSPropertyOp38
 70
     1
102
RTVSPropertyOp39
 70
     1
102
RTVSPropertyOp40
 70
     1
102
RTVSPropertyOp41
 70
     1
102
RTVSPropertyOp42
 70
     1
102
RTVSPropertyOp43
 70
     1
102
RTVSPropertyOp44
 70
     1
102
RTVSPropertyOp45
 70
     1
102
RTVSPropertyOp46
 70
     1
102
RTVSPropertyOp47
 70
     1
102
RTVSPropertyOp48
 70
     1
102
RTVSPropertyOp49
 70
     1
102
RTVSPropertyOp50
 70
     1
102
RTVSPropertyOp51
 70
     0
102
RTVSPropertyOp52
 70
     0
102
RTVSPropertyOp53
 70
     1
102
RTVSPropertyOp54
 70
     1
102
RTVSPropertyOp55
 70
     1
102
RTVSPropertyOp56
 70
     1
102
RTVSPropertyOp57
 70
     1
102
RTVSPost2010Prop28
280
     0
102
RTVSPost2010PropOp28
 70
     1
102
RTVSPost2010Prop29
280
     1
102
RTVSPost2010PropOp29
 70
     1
102
RTVSPost2010Prop30
280
     1
102
RTVSPost2010PropOp30
 70
     1
102
RTVSPost2010Prop31
280
     0
102
RTVSPost2010PropOp31
 70
     1
102
RTVSPost2010Prop32
280
     0
102
RTVSPost2010PropOp32
 70
     1
102
RTVSPost2010Prop33
280
     0
102
RTVSPost2010PropOp33
 70
     1
102
RTVSPost2010Prop34
280
     0
102
RTVSPost2010PropOp34
 70
     1
102
RTVSPost2010Prop35
280
     0
102
RTVSPost2010PropOp35
 70
     1
102
RTVSPost2010Prop36
280
     0
102
RTVSPost2010PropOp36
 70
     1
102
RTVSPost2010Prop37
 90
       50
102
RTVSPost2010PropOp37
 70
     1
102
RTVSPost2010Prop38
140
0.0
102
RTVSPost2010PropOp38
 70
     1
102
RTVSPost2010Prop39
140
1.0
102
RTVSPost2010PropOp39
 70
     1
102
RTVSPost2010Prop40
 90
        0
102
RTVSPost2010PropOp40
 70
     1
102
RTVSPost2010Prop41ColorIndex
 90
       18
102
RTVSPost2010Prop41ColorRGB
 90
        0
102
RTVSPost2010PropOp41
 70
     1
102
RTVSPost2010Prop42
 90
       50
102
RTVSPost2010PropOp42
 70
     1
102
RTVSPost2010Prop43
 90
        3
102
RTVSPost2010PropOp43
 70
     1
102
RTVSPost2010Prop44ColorIndex
 90
        5
102
RTVSPost2010Prop44ColorRGB
 90
      255
102
RTVSPost2010PropOp44
 70
     1
102
RTVSPost2010Prop45
280
     0
102
RTVSPost2010PropOp45
 70
     1
102
RTVSPost2010Prop46
 90
       50
102
RTVSPost2010PropOp46
 70
     1
102
RTVSPost2010Prop47
 90
       50
102
RTVSPost2010PropOp47
 70
     1
102
RTVSPost2010Prop48
 90
       50
102
RTVSPost2010PropOp48
 70
     1
102
RTVSPost2010Prop49
280
     0
102
RTVSPost2010PropOp49
 70
     1
102
RTVSPost2010Prop50
 90
       50
102
RTVSPost2010PropOp50
 70
     1
102
RTVSPost2010Prop51ColorIndex
 90
      256
102
RTVSPost2010Prop51ColorRGB
 90
-16777216
102
RTVSPost2010PropOp51
 70
     0
102
RTVSPost2010Prop52
140
1.0
102
RTVSPost2010PropOp52
 70
     0
102
RTVSPost2010Prop53
 90
        2
102
RTVSPost2010PropOp53
 70
     1
102
RTVSPost2010Prop54
  1
strokes_ogs.tif
102
RTVSPost2010PropOp54
 70
     1
102
RTVSPost2010Prop55
280
     0
102
RTVSPost2010PropOp55
 70
     1
102
RTVSPost2010Prop56
140
1.0
102
RTVSPost2010PropOp56
 70
     1
102
RTVSPost2010Prop57
140
1.0
102
RTVSPost2010PropOp57
 70
     1
  0
ENDSEC
  0
EOF
