  0
SECTION
  2
HEADER
  9
$ACADVER
  1
AC1009
  9
$EXTMIN
 10
0.0
 20
0.0
 30
0.0
  9
$EXTMAX
 10
1000.0
 20
1000.0
 30
0.0
  9
$FILLMODE
 70
 0
  9
$SPLFRAME
 70
 1
  0
ENDSEC
  0
SECTION
  2
TABLES
  0
TABLE
  2
LAYER
 70
1
  0
LAYER
  2
0
 70
     0
 62
     7
  6
CONTINUOUS
  0
ENDTAB
  0
ENDSEC
  0
SECTION
  2
ENTITIES
  0
POLYLINE
  8
0
 62
     0
 66
     1
 10
0
 20
0
 30
0.0
 40
25.4
 41
25.4
  0
VERTEX
  8
0
 10
107.177
 20
3.18435
 30
0.0
 40
0.352778
 41
0.352778
  0
VERTEX
  8
0
 10
107.177
 20
30.1844
 30
0.0
 40
0.352778
 41
0.352778
  0
SEQEND
 8
0
  0
POLYLINE
  8
0
 62
     0
 66
     1
 10
0
 20
0
 30
0.0
 40
25.4
 41
25.4
  0
VERTEX
  8
0
 10
36.1764
 20
212.185
 30
0.0
 40
0.352778
 41
0.352778
  0
VERTEX
  8
0
 10
36.1764
 20
216.185
 30
0.0
 40
0.352778
 41
0.352778
  0
VERTEX
  8
0
 10
20.1764
 20
216.185
 30
0.0
 40
0.352778
 41
0.352778
  0
VERTEX
  8
0
 10
20.1764
 20
212.185
 30
0.0
 40
0.352778
 41
0.352778
  0
VERTEX
  8
0
 10
4.17638
 20
212.185
 30
0.0
 40
0.352778
 41
0.352778
  0
VERTEX
  8
0
 10
4.17638
 20
221.685
 30
0.0
 40
0.352778
 41
0.352778
  0
VERTEX
  8
0
 10
0.176378
 20
221.685
 30
0.0
 40
0.352778
 41
0.352778
  0
VERTEX
  8
0
 10
0.176378
 20
237.685
 30
0.0
 40
0.352778
 41
0.352778
  0
VERTEX
  8
0
 10
4.17638
 20
237.685
 30
0.0
 40
0.352778
 41
0.352778
  0
VERTEX
  8
0
 10
4.17638
 20
247.185
 30
0.0
 40
0.352778
 41
0.352778
  0
VERTEX
  8
0
 10
20.1764
 20
247.185
 30
0.0
 40
0.352778
 41
0.352778
  0
VERTEX
  8
0
 10
20.1764
 20
243.185
 30
0.0
 40
0.352778
 41
0.352778
  0
VERTEX
  8
0
 10
36.1764
 20
243.185
 30
0.0
 40
0.352778
 41
0.352778
  0
VERTEX
  8
0
 10
36.1764
 20
247.185
 30
0.0
 40
0.352778
 41
0.352778
  0
VERTEX
  8
0
 10
52.1765
 20
247.185
 30
0.0
 40
0.352778
 41
0.352778
  0
VERTEX
  8
0
 10
52.1765
 20
243.185
 30
0.0
 40
0.352778
 41
0.352778
  0
VERTEX
  8
0
 10
68.1765
 20
243.185
 30
0.0
 40
0.352778
 41
0.352778
  0
VERTEX
  8
0
 10
68.1765
 20
247.185
 30
0.0
 40
0.352778
 41
0.352778
  0
VERTEX
  8
0
 10
84.1765
 20
247.185
 30
0.0
 40
0.352778
 41
0.352778
  0
VERTEX
  8
0
 10
84.1765
 20
243.185
 30
0.0
 40
0.352778
 41
0.352778
  0
VERTEX
  8
0
 10
100.177
 20
243.185
 30
0.0
 40
0.352778
 41
0.352778
  0
VERTEX
  8
0
 10
100.177
 20
247.185
 30
0.0
 40
0.352778
 41
0.352778
  0
VERTEX
  8
0
 10
116.177
 20
247.185
 30
0.0
 40
0.352778
 41
0.352778
  0
VERTEX
  8
0
 10
116.177
 20
237.685
 30
0.0
 40
0.352778
 41
0.352778
  0
VERTEX
  8
0
 10
120.177
 20
237.685
 30
0.0
 40
0.352778
 41
0.352778
  0
SEQEND
 8
0
  0
POLYLINE
  8
0
 62
     0
 66
     1
 10
0
 20
0
 30
0.0
 40
25.4
 41
25.4
  0
VERTEX
  8
0
 10
120.177
 20
221.685
 30
0.0
 40
0.352778
 41
0.352778
  0
VERTEX
  8
0
 10
116.177
 20
221.685
 30
0.0
 40
0.352778
 41
0.352778
  0
VERTEX
  8
0
 10
116.177
 20
212.185
 30
0.0
 40
0.352778
 41
0.352778
  0
SEQEND
 8
0
  0
POLYLINE
  8
0
 62
     0
 66
     1
 10
0
 20
0
 30
0.0
 40
25.4
 41
25.4
  0
VERTEX
  8
0
 10
118.427
 20
212.185
 30
0.0
 40
0.352778
 41
0.352778
  0
VERTEX
  8
0
 10
100.177
 20
212.185
 30
0.0
 40
0.352778
 41
0.352778
  0
VERTEX
  8
0
 10
100.177
 20
216.185
 30
0.0
 40
0.352778
 41
0.352778
  0
VERTEX
  8
0
 10
84.1765
 20
216.185
 30
0.0
 40
0.352778
 41
0.352778
  0
VERTEX
  8
0
 10
84.1765
 20
212.185
 30
0.0
 40
0.352778
 41
0.352778
  0
VERTEX
  8
0
 10
55.6765
 20
212.185
 30
0.0
 40
0.352778
 41
0.352778
  0
SEQEND
 8
0
  0
POLYLINE
  8
0
 62
     0
 66
     1
 10
0
 20
0
 30
0.0
 40
25.4
 41
25.4
  0
VERTEX
  8
0
 10
68.1765
 20
212.185
 30
0.0
 40
0.352778
 41
0.352778
  0
VERTEX
  8
0
 10
68.1765
 20
216.185
 30
0.0
 40
0.352778
 41
0.352778
  0
VERTEX
  8
0
 10
52.1765
 20
216.185
 30
0.0
 40
0.352778
 41
0.352778
  0
VERTEX
  8
0
 10
52.1765
 20
212.185
 30
0.0
 40
0.352778
 41
0.352778
  0
VERTEX
  8
0
 10
23.6764
 20
212.185
 30
0.0
 40
0.352778
 41
0.352778
  0
SEQEND
 8
0
  0
POLYLINE
  8
0
 62
     0
 66
     1
 10
0
 20
0
 30
0.0
 40
25.4
 41
25.4
  0
VERTEX
  8
0
 10
23.6764
 20
212.185
 30
0.0
 40
0.352778
 41
0.352778
  0
VERTEX
  8
0
 10
23.6764
 20
208.185
 30
0.0
 40
0.352778
 41
0.352778
  0
VERTEX
  8
0
 10
4.17638
 20
208.185
 30
0.0
 40
0.352778
 41
0.352778
  0
VERTEX
  8
0
 10
4.17638
 20
192.185
 30
0.0
 40
0.352778
 41
0.352778
  0
VERTEX
  8
0
 10
0.176378
 20
192.185
 30
0.0
 40
0.352778
 41
0.352778
  0
VERTEX
  8
0
 10
0.176378
 20
176.185
 30
0.0
 40
0.352778
 41
0.352778
  0
VERTEX
  8
0
 10
4.17638
 20
176.185
 30
0.0
 40
0.352778
 41
0.352778
  0
VERTEX
  8
0
 10
4.17638
 20
160.185
 30
0.0
 40
0.352778
 41
0.352778
  0
VERTEX
  8
0
 10
0.176378
 20
160.185
 30
0.0
 40
0.352778
 41
0.352778
  0
VERTEX
  8
0
 10
0.176378
 20
144.185
 30
0.0
 40
0.352778
 41
0.352778
  0
VERTEX
  8
0
 10
4.17638
 20
144.185
 30
0.0
 40
0.352778
 41
0.352778
  0
VERTEX
  8
0
 10
4.17638
 20
128.185
 30
0.0
 40
0.352778
 41
0.352778
  0
VERTEX
  8
0
 10
0.176378
 20
128.185
 30
0.0
 40
0.352778
 41
0.352778
  0
VERTEX
  8
0
 10
0.176378
 20
112.185
 30
0.0
 40
0.352778
 41
0.352778
  0
VERTEX
  8
0
 10
4.17638
 20
112.185
 30
0.0
 40
0.352778
 41
0.352778
  0
VERTEX
  8
0
 10
4.17638
 20
96.1846
 30
0.0
 40
0.352778
 41
0.352778
  0
VERTEX
  8
0
 10
23.6764
 20
96.1846
 30
0.0
 40
0.352778
 41
0.352778
  0
VERTEX
  8
0
 10
23.6764
 20
92.1844
 30
0.0
 40
0.352778
 41
0.352778
  0
VERTEX
  8
0
 10
52.1765
 20
92.1844
 30
0.0
 40
0.352778
 41
0.352778
  0
VERTEX
  8
0
 10
52.1765
 20
88.1844
 30
0.0
 40
0.352778
 41
0.352778
  0
VERTEX
  8
0
 10
68.1765
 20
88.1844
 30
0.0
 40
0.352778
 41
0.352778
  0
VERTEX
  8
0
 10
68.1765
 20
92.1844
 30
0.0
 40
0.352778
 41
0.352778
  0
SEQEND
 8
0
  0
POLYLINE
  8
0
 62
     0
 66
     1
 10
0
 20
0
 30
0.0
 40
25.4
 41
25.4
  0
VERTEX
  8
0
 10
39.6764
 20
212.185
 30
0.0
 40
0.352778
 41
0.352778
  0
VERTEX
  8
0
 10
39.6764
 20
208.185
 30
0.0
 40
0.352778
 41
0.352778
  0
VERTEX
  8
0
 10
55.6765
 20
208.185
 30
0.0
 40
0.352778
 41
0.352778
  0
VERTEX
  8
0
 10
55.6765
 20
212.185
 30
0.0
 40
0.352778
 41
0.352778
  0
SEQEND
 8
0
  0
POLYLINE
  8
0
 62
     0
 66
     1
 10
0
 20
0
 30
0.0
 40
25.4
 41
25.4
  0
VERTEX
  8
0
 10
71.6765
 20
212.185
 30
0.0
 40
0.352778
 41
0.352778
  0
VERTEX
  8
0
 10
71.6765
 20
208.185
 30
0.0
 40
0.352778
 41
0.352778
  0
VERTEX
  8
0
 10
91.1765
 20
208.185
 30
0.0
 40
0.352778
 41
0.352778
  0
VERTEX
  8
0
 10
91.1765
 20
192.185
 30
0.0
 40
0.352778
 41
0.352778
  0
VERTEX
  8
0
 10
95.1765
 20
192.185
 30
0.0
 40
0.352778
 41
0.352778
  0
VERTEX
  8
0
 10
95.1765
 20
176.185
 30
0.0
 40
0.352778
 41
0.352778
  0
VERTEX
  8
0
 10
91.1765
 20
176.185
 30
0.0
 40
0.352778
 41
0.352778
  0
VERTEX
  8
0
 10
91.1765
 20
160.185
 30
0.0
 40
0.352778
 41
0.352778
  0
VERTEX
  8
0
 10
95.1765
 20
160.185
 30
0.0
 40
0.352778
 41
0.352778
  0
SEQEND
 8
0
  0
POLYLINE
  8
0
 62
     0
 66
     1
 10
0
 20
0
 30
0.0
 40
25.4
 41
25.4
  0
VERTEX
  8
0
 10
95.1765
 20
128.185
 30
0.0
 40
0.352778
 41
0.352778
  0
VERTEX
  8
0
 10
91.1765
 20
128.185
 30
0.0
 40
0.352778
 41
0.352778
  0
VERTEX
  8
0
 10
91.1765
 20
144.185
 30
0.0
 40
0.352778
 41
0.352778
  0
VERTEX
  8
0
 10
95.1765
 20
144.185
 30
0.0
 40
0.352778
 41
0.352778
  0
VERTEX
  8
0
 10
95.1765
 20
162.935
 30
0.0
 40
0.352778
 41
0.352778
  0
VERTEX
  8
0
 10
99.1765
 20
162.935
 30
0.0
 40
0.352778
 41
0.352778
  0
VERTEX
  8
0
 10
99.1765
 20
176.435
 30
0.0
 40
0.352778
 41
0.352778
  0
VERTEX
  8
0
 10
95.1765
 20
176.435
 30
0.0
 40
0.352778
 41
0.352778
  0
SEQEND
 8
0
  0
POLYLINE
  8
0
 62
     0
 66
     1
 10
0
 20
0
 30
0.0
 40
25.4
 41
25.4
  0
VERTEX
  8
0
 10
71.6765
 20
92.1844
 30
0.0
 40
0.352778
 41
0.352778
  0
VERTEX
  8
0
 10
71.6765
 20
96.1846
 30
0.0
 40
0.352778
 41
0.352778
  0
VERTEX
  8
0
 10
91.1765
 20
96.1846
 30
0.0
 40
0.352778
 41
0.352778
  0
VERTEX
  8
0
 10
91.1765
 20
112.185
 30
0.0
 40
0.352778
 41
0.352778
  0
VERTEX
  8
0
 10
95.1765
 20
112.185
 30
0.0
 40
0.352778
 41
0.352778
  0
VERTEX
  8
0
 10
95.1765
 20
135.935
 30
0.0
 40
0.352778
 41
0.352778
  0
VERTEX
  8
0
 10
99.1765
 20
135.935
 30
0.0
 40
0.352778
 41
0.352778
  0
VERTEX
  8
0
 10
99.1765
 20
149.435
 30
0.0
 40
0.352778
 41
0.352778
  0
VERTEX
  8
0
 10
95.1765
 20
149.435
 30
0.0
 40
0.352778
 41
0.352778
  0
SEQEND
 8
0
  0
POLYLINE
  8
0
 62
     0
 66
     1
 10
0
 20
0
 30
0.0
 40
25.4
 41
25.4
  0
VERTEX
  8
0
 10
39.6764
 20
92.1844
 30
0.0
 40
0.352778
 41
0.352778
  0
VERTEX
  8
0
 10
39.6764
 20
96.1846
 30
0.0
 40
0.352778
 41
0.352778
  0
VERTEX
  8
0
 10
55.6765
 20
96.1846
 30
0.0
 40
0.352778
 41
0.352778
  0
VERTEX
  8
0
 10
55.6765
 20
92.1844
 30
0.0
 40
0.352778
 41
0.352778
  0
VERTEX
  8
0
 10
84.1765
 20
92.1844
 30
0.0
 40
0.352778
 41
0.352778
  0
VERTEX
  8
0
 10
84.1765
 20
88.1844
 30
0.0
 40
0.352778
 41
0.352778
  0
VERTEX
  8
0
 10
100.177
 20
88.1844
 30
0.0
 40
0.352778
 41
0.352778
  0
VERTEX
  8
0
 10
100.177
 20
92.1844
 30
0.0
 40
0.352778
 41
0.352778
  0
VERTEX
  8
0
 10
116.177
 20
92.1844
 30
0.0
 40
0.352778
 41
0.352778
  0
VERTEX
  8
0
 10
116.177
 20
82.6844
 30
0.0
 40
0.352778
 41
0.352778
  0
VERTEX
  8
0
 10
120.177
 20
82.6844
 30
0.0
 40
0.352778
 41
0.352778
  0
VERTEX
  8
0
 10
120.177
 20
65.1844
 30
0.0
 40
0.352778
 41
0.352778
  0
SEQEND
 8
0
  0
POLYLINE
  8
0
 62
     0
 66
     1
 10
0
 20
0
 30
0.0
 40
25.4
 41
25.4
  0
VERTEX
  8
0
 10
104.927
 20
212.185
 30
0.0
 40
0.352778
 41
0.352778
  0
VERTEX
  8
0
 10
104.927
 20
208.185
 30
0.0
 40
0.352778
 41
0.352778
  0
VERTEX
  8
0
 10
99.1765
 20
208.185
 30
0.0
 40
0.352778
 41
0.352778
  0
VERTEX
  8
0
 10
99.1765
 20
189.935
 30
0.0
 40
0.352778
 41
0.352778
  0
VERTEX
  8
0
 10
95.1765
 20
189.935
 30
0.0
 40
0.352778
 41
0.352778
  0
SEQEND
 8
0
  0
POLYLINE
  8
0
 62
     0
 66
     1
 10
0
 20
0
 30
0.0
 40
25.4
 41
25.4
  0
VERTEX
  8
0
 10
118.427
 20
212.185
 30
0.0
 40
0.352778
 41
0.352778
  0
VERTEX
  8
0
 10
118.427
 20
208.185
 30
0.0
 40
0.352778
 41
0.352778
  0
VERTEX
  8
0
 10
131.927
 20
208.185
 30
0.0
 40
0.352778
 41
0.352778
  0
VERTEX
  8
0
 10
131.927
 20
212.185
 30
0.0
 40
0.352778
 41
0.352778
  0
VERTEX
  8
0
 10
145.426
 20
212.185
 30
0.0
 40
0.352778
 41
0.352778
  0
VERTEX
  8
0
 10
145.426
 20
208.185
 30
0.0
 40
0.352778
 41
0.352778
  0
VERTEX
  8
0
 10
158.926
 20
208.185
 30
0.0
 40
0.352778
 41
0.352778
  0
VERTEX
  8
0
 10
158.926
 20
212.185
 30
0.0
 40
0.352778
 41
0.352778
  0
VERTEX
  8
0
 10
172.426
 20
212.185
 30
0.0
 40
0.352778
 41
0.352778
  0
VERTEX
  8
0
 10
172.426
 20
208.185
 30
0.0
 40
0.352778
 41
0.352778
  0
VERTEX
  8
0
 10
178.176
 20
208.185
 30
0.0
 40
0.352778
 41
0.352778
  0
VERTEX
  8
0
 10
178.176
 20
189.935
 30
0.0
 40
0.352778
 41
0.352778
  0
VERTEX
  8
0
 10
182.176
 20
189.935
 30
0.0
 40
0.352778
 41
0.352778
  0
VERTEX
  8
0
 10
182.176
 20
176.435
 30
0.0
 40
0.352778
 41
0.352778
  0
VERTEX
  8
0
 10
178.176
 20
176.435
 30
0.0
 40
0.352778
 41
0.352778
  0
VERTEX
  8
0
 10
178.176
 20
162.935
 30
0.0
 40
0.352778
 41
0.352778
  0
VERTEX
  8
0
 10
182.176
 20
162.935
 30
0.0
 40
0.352778
 41
0.352778
  0
VERTEX
  8
0
 10
182.176
 20
149.435
 30
0.0
 40
0.352778
 41
0.352778
  0
VERTEX
  8
0
 10
178.176
 20
149.435
 30
0.0
 40
0.352778
 41
0.352778
  0
VERTEX
  8
0
 10
178.176
 20
135.935
 30
0.0
 40
0.352778
 41
0.352778
  0
VERTEX
  8
0
 10
182.176
 20
135.935
 30
0.0
 40
0.352778
 41
0.352778
  0
VERTEX
  8
0
 10
182.176
 20
122.435
 30
0.0
 40
0.352778
 41
0.352778
  0
VERTEX
  8
0
 10
178.176
 20
122.435
 30
0.0
 40
0.352778
 41
0.352778
  0
VERTEX
  8
0
 10
178.176
 20
104.185
 30
0.0
 40
0.352778
 41
0.352778
  0
VERTEX
  8
0
 10
172.426
 20
104.185
 30
0.0
 40
0.352778
 41
0.352778
  0
VERTEX
  8
0
 10
172.426
 20
100.185
 30
0.0
 40
0.352778
 41
0.352778
  0
SEQEND
 8
0
  0
POLYLINE
  8
0
 62
     0
 66
     1
 10
0
 20
0
 30
0.0
 40
25.4
 41
25.4
  0
VERTEX
  8
0
 10
215.176
 20
100.185
 30
0.0
 40
0.352778
 41
0.352778
  0
VERTEX
  8
0
 10
191.676
 20
100.185
 30
0.0
 40
0.352778
 41
0.352778
  0
VERTEX
  8
0
 10
191.676
 20
96.1846
 30
0.0
 40
0.352778
 41
0.352778
  0
VERTEX
  8
0
 10
175.676
 20
96.1846
 30
0.0
 40
0.352778
 41
0.352778
  0
VERTEX
  8
0
 10
175.676
 20
100.185
 30
0.0
 40
0.352778
 41
0.352778
  0
VERTEX
  8
0
 10
158.926
 20
100.185
 30
0.0
 40
0.352778
 41
0.352778
  0
VERTEX
  8
0
 10
158.926
 20
104.185
 30
0.0
 40
0.352778
 41
0.352778
  0
VERTEX
  8
0
 10
145.426
 20
104.185
 30
0.0
 40
0.352778
 41
0.352778
  0
VERTEX
  8
0
 10
145.426
 20
100.185
 30
0.0
 40
0.352778
 41
0.352778
  0
VERTEX
  8
0
 10
120.177
 20
100.185
 30
0.0
 40
0.352778
 41
0.352778
  0
VERTEX
  8
0
 10
120.177
 20
90.6844
 30
0.0
 40
0.352778
 41
0.352778
  0
VERTEX
  8
0
 10
124.177
 20
90.6844
 30
0.0
 40
0.352778
 41
0.352778
  0
VERTEX
  8
0
 10
124.177
 20
74.6844
 30
0.0
 40
0.352778
 41
0.352778
  0
VERTEX
  8
0
 10
120.177
 20
74.6844
 30
0.0
 40
0.352778
 41
0.352778
  0
SEQEND
 8
0
  0
POLYLINE
  8
0
 62
     0
 66
     1
 10
0
 20
0
 30
0.0
 40
25.4
 41
25.4
  0
VERTEX
  8
0
 10
131.927
 20
100.185
 30
0.0
 40
0.352778
 41
0.352778
  0
VERTEX
  8
0
 10
131.927
 20
104.185
 30
0.0
 40
0.352778
 41
0.352778
  0
VERTEX
  8
0
 10
118.427
 20
104.185
 30
0.0
 40
0.352778
 41
0.352778
  0
VERTEX
  8
0
 10
118.427
 20
100.185
 30
0.0
 40
0.352778
 41
0.352778
  0
VERTEX
  8
0
 10
104.927
 20
100.185
 30
0.0
 40
0.352778
 41
0.352778
  0
VERTEX
  8
0
 10
104.927
 20
104.185
 30
0.0
 40
0.352778
 41
0.352778
  0
VERTEX
  8
0
 10
99.1765
 20
104.185
 30
0.0
 40
0.352778
 41
0.352778
  0
VERTEX
  8
0
 10
99.1765
 20
122.435
 30
0.0
 40
0.352778
 41
0.352778
  0
VERTEX
  8
0
 10
95.1765
 20
122.435
 30
0.0
 40
0.352778
 41
0.352778
  0
SEQEND
 8
0
  0
POLYLINE
  8
0
 62
     0
 66
     1
 10
0
 20
0
 30
0.0
 40
25.4
 41
25.4
  0
VERTEX
  8
0
 10
36.1764
 20
92.1844
 30
0.0
 40
0.352778
 41
0.352778
  0
VERTEX
  8
0
 10
36.1764
 20
88.1844
 30
0.0
 40
0.352778
 41
0.352778
  0
VERTEX
  8
0
 10
20.1764
 20
88.1844
 30
0.0
 40
0.352778
 41
0.352778
  0
VERTEX
  8
0
 10
20.1764
 20
92.1844
 30
0.0
 40
0.352778
 41
0.352778
  0
VERTEX
  8
0
 10
4.17638
 20
92.1844
 30
0.0
 40
0.352778
 41
0.352778
  0
VERTEX
  8
0
 10
4.17638
 20
82.6844
 30
0.0
 40
0.352778
 41
0.352778
  0
VERTEX
  8
0
 10
0.176378
 20
82.6844
 30
0.0
 40
0.352778
 41
0.352778
  0
VERTEX
  8
0
 10
0.176378
 20
66.6844
 30
0.0
 40
0.352778
 41
0.352778
  0
VERTEX
  8
0
 10
4.17638
 20
66.6844
 30
0.0
 40
0.352778
 41
0.352778
  0
VERTEX
  8
0
 10
4.17638
 20
57.1844
 30
0.0
 40
0.352778
 41
0.352778
  0
VERTEX
  8
0
 10
30.4264
 20
57.1844
 30
0.0
 40
0.352778
 41
0.352778
  0
VERTEX
  8
0
 10
30.4264
 20
53.1844
 30
0.0
 40
0.352778
 41
0.352778
  0
VERTEX
  8
0
 10
43.9264
 20
53.1844
 30
0.0
 40
0.352778
 41
0.352778
  0
VERTEX
  8
0
 10
43.9264
 20
57.1844
 30
0.0
 40
0.352778
 41
0.352778
  0
SEQEND
 8
0
  0
POLYLINE
  8
0
 62
     0
 66
     1
 10
0
 20
0
 30
0.0
 40
25.4
 41
25.4
  0
VERTEX
  8
0
 10
120.177
 20
66.6844
 30
0.0
 40
0.352778
 41
0.352778
  0
VERTEX
  8
0
 10
116.177
 20
66.6844
 30
0.0
 40
0.352778
 41
0.352778
  0
VERTEX
  8
0
 10
116.177
 20
30.1844
 30
0.0
 40
0.352778
 41
0.352778
  0
SEQEND
 8
0
  0
POLYLINE
  8
0
 62
     0
 66
     1
 10
0
 20
0
 30
0.0
 40
25.4
 41
25.4
  0
VERTEX
  8
0
 10
100.177
 20
57.1844
 30
0.0
 40
0.352778
 41
0.352778
  0
VERTEX
  8
0
 10
100.177
 20
61.1844
 30
0.0
 40
0.352778
 41
0.352778
  0
VERTEX
  8
0
 10
84.1765
 20
61.1844
 30
0.0
 40
0.352778
 41
0.352778
  0
VERTEX
  8
0
 10
84.1765
 20
57.1844
 30
0.0
 40
0.352778
 41
0.352778
  0
SEQEND
 8
0
  0
POLYLINE
  8
0
 62
     0
 66
     1
 10
0
 20
0
 30
0.0
 40
25.4
 41
25.4
  0
VERTEX
  8
0
 10
52.1765
 20
57.1844
 30
0.0
 40
0.352778
 41
0.352778
  0
VERTEX
  8
0
 10
52.1765
 20
61.1844
 30
0.0
 40
0.352778
 41
0.352778
  0
VERTEX
  8
0
 10
68.1765
 20
61.1844
 30
0.0
 40
0.352778
 41
0.352778
  0
VERTEX
  8
0
 10
68.1765
 20
57.1844
 30
0.0
 40
0.352778
 41
0.352778
  0
VERTEX
  8
0
 10
84.4265
 20
57.1844
 30
0.0
 40
0.352778
 41
0.352778
  0
VERTEX
  8
0
 10
84.4265
 20
53.1844
 30
0.0
 40
0.352778
 41
0.352778
  0
VERTEX
  8
0
 10
97.9265
 20
53.1844
 30
0.0
 40
0.352778
 41
0.352778
  0
VERTEX
  8
0
 10
97.9265
 20
57.1844
 30
0.0
 40
0.352778
 41
0.352778
  0
VERTEX
  8
0
 10
116.177
 20
57.1844
 30
0.0
 40
0.352778
 41
0.352778
  0
SEQEND
 8
0
  0
POLYLINE
  8
0
 62
     0
 66
     1
 10
0
 20
0
 30
0.0
 40
25.4
 41
25.4
  0
VERTEX
  8
0
 10
20.1764
 20
57.1844
 30
0.0
 40
0.352778
 41
0.352778
  0
VERTEX
  8
0
 10
20.1764
 20
61.1844
 30
0.0
 40
0.352778
 41
0.352778
  0
VERTEX
  8
0
 10
36.1764
 20
61.1844
 30
0.0
 40
0.352778
 41
0.352778
  0
VERTEX
  8
0
 10
36.1764
 20
57.1844
 30
0.0
 40
0.352778
 41
0.352778
  0
VERTEX
  8
0
 10
57.4265
 20
57.1844
 30
0.0
 40
0.352778
 41
0.352778
  0
VERTEX
  8
0
 10
57.4265
 20
53.1844
 30
0.0
 40
0.352778
 41
0.352778
  0
VERTEX
  8
0
 10
70.9265
 20
53.1844
 30
0.0
 40
0.352778
 41
0.352778
  0
VERTEX
  8
0
 10
70.9265
 20
57.1844
 30
0.0
 40
0.352778
 41
0.352778
  0
SEQEND
 8
0
  0
POLYLINE
  8
0
 62
     0
 66
     1
 10
0
 20
0
 30
0.0
 40
25.4
 41
25.4
  0
VERTEX
  8
0
 10
143.676
 20
100.185
 30
0.0
 40
0.352778
 41
0.352778
  0
VERTEX
  8
0
 10
143.676
 20
96.1846
 30
0.0
 40
0.352778
 41
0.352778
  0
VERTEX
  8
0
 10
159.676
 20
96.1846
 30
0.0
 40
0.352778
 41
0.352778
  0
VERTEX
  8
0
 10
159.676
 20
100.185
 30
0.0
 40
0.352778
 41
0.352778
  0
SEQEND
 8
0
  0
POLYLINE
  8
0
 62
     0
 66
     1
 10
0
 20
0
 30
0.0
 40
25.4
 41
25.4
  0
VERTEX
  8
0
 10
215.176
 20
90.6844
 30
0.0
 40
0.352778
 41
0.352778
  0
VERTEX
  8
0
 10
211.176
 20
90.6844
 30
0.0
 40
0.352778
 41
0.352778
  0
VERTEX
  8
0
 10
211.176
 20
74.6844
 30
0.0
 40
0.352778
 41
0.352778
  0
VERTEX
  8
0
 10
215.176
 20
74.6844
 30
0.0
 40
0.352778
 41
0.352778
  0
SEQEND
 8
0
  0
POLYLINE
  8
0
 62
     0
 66
     1
 10
0
 20
0
 30
0.0
 40
25.4
 41
25.4
  0
VERTEX
  8
0
 10
191.676
 20
65.1844
 30
0.0
 40
0.352778
 41
0.352778
  0
VERTEX
  8
0
 10
191.676
 20
69.1844
 30
0.0
 40
0.352778
 41
0.352778
  0
VERTEX
  8
0
 10
175.676
 20
69.1844
 30
0.0
 40
0.352778
 41
0.352778
  0
VERTEX
  8
0
 10
175.676
 20
65.1844
 30
0.0
 40
0.352778
 41
0.352778
  0
VERTEX
  8
0
 10
155.676
 20
65.1844
 30
0.0
 40
0.352778
 41
0.352778
  0
VERTEX
  8
0
 10
155.676
 20
61.1844
 30
0.0
 40
0.352778
 41
0.352778
  0
VERTEX
  8
0
 10
139.676
 20
61.1844
 30
0.0
 40
0.352778
 41
0.352778
  0
VERTEX
  8
0
 10
139.676
 20
65.1844
 30
0.0
 40
0.352778
 41
0.352778
  0
SEQEND
 8
0
  0
POLYLINE
  8
0
 62
     0
 66
     1
 10
0
 20
0
 30
0.0
 40
25.4
 41
25.4
  0
VERTEX
  8
0
 10
159.676
 20
65.1844
 30
0.0
 40
0.352778
 41
0.352778
  0
VERTEX
  8
0
 10
159.676
 20
69.1844
 30
0.0
 40
0.352778
 41
0.352778
  0
VERTEX
  8
0
 10
143.676
 20
69.1844
 30
0.0
 40
0.352778
 41
0.352778
  0
VERTEX
  8
0
 10
143.676
 20
65.1844
 30
0.0
 40
0.352778
 41
0.352778
  0
VERTEX
  8
0
 10
116.177
 20
65.1844
 30
0.0
 40
0.352778
 41
0.352778
  0
SEQEND
 8
0
  0
POLYLINE
  8
0
 62
     0
 66
     1
 10
0
 20
0
 30
0.0
 40
25.4
 41
25.4
  0
VERTEX
  8
0
 10
171.676
 20
65.1844
 30
0.0
 40
0.352778
 41
0.352778
  0
VERTEX
  8
0
 10
171.676
 20
61.1844
 30
0.0
 40
0.352778
 41
0.352778
  0
VERTEX
  8
0
 10
187.676
 20
61.1844
 30
0.0
 40
0.352778
 41
0.352778
  0
VERTEX
  8
0
 10
187.676
 20
65.1844
 30
0.0
 40
0.352778
 41
0.352778
  0
VERTEX
  8
0
 10
215.176
 20
65.1844
 30
0.0
 40
0.352778
 41
0.352778
  0
SEQEND
 8
0
  0
POLYLINE
  8
0
 62
     0
 66
     1
 10
0
 20
0
 30
0.0
 40
25.4
 41
25.4
  0
VERTEX
  8
0
 10
211.176
 20
55.6844
 30
0.0
 40
0.352778
 41
0.352778
  0
VERTEX
  8
0
 10
207.176
 20
55.6844
 30
0.0
 40
0.352778
 41
0.352778
  0
VERTEX
  8
0
 10
207.176
 20
39.6844
 30
0.0
 40
0.352778
 41
0.352778
  0
VERTEX
  8
0
 10
211.176
 20
39.6844
 30
0.0
 40
0.352778
 41
0.352778
  0
VERTEX
  8
0
 10
211.176
 20
3.18435
 30
0.0
 40
0.352778
 41
0.352778
  0
VERTEX
  8
0
 10
192.926
 20
3.18435
 30
0.0
 40
0.352778
 41
0.352778
  0
VERTEX
  8
0
 10
192.926
 20
7.18435
 30
0.0
 40
0.352778
 41
0.352778
  0
VERTEX
  8
0
 10
179.426
 20
7.18435
 30
0.0
 40
0.352778
 41
0.352778
  0
VERTEX
  8
0
 10
179.426
 20
3.18435
 30
0.0
 40
0.352778
 41
0.352778
  0
VERTEX
  8
0
 10
165.926
 20
3.18435
 30
0.0
 40
0.352778
 41
0.352778
  0
VERTEX
  8
0
 10
165.926
 20
7.18435
 30
0.0
 40
0.352778
 41
0.352778
  0
VERTEX
  8
0
 10
152.426
 20
7.18435
 30
0.0
 40
0.352778
 41
0.352778
  0
VERTEX
  8
0
 10
152.426
 20
3.18435
 30
0.0
 40
0.352778
 41
0.352778
  0
VERTEX
  8
0
 10
138.926
 20
3.18435
 30
0.0
 40
0.352778
 41
0.352778
  0
VERTEX
  8
0
 10
138.926
 20
7.18435
 30
0.0
 40
0.352778
 41
0.352778
  0
VERTEX
  8
0
 10
125.427
 20
7.18435
 30
0.0
 40
0.352778
 41
0.352778
  0
VERTEX
  8
0
 10
125.427
 20
3.18435
 30
0.0
 40
0.352778
 41
0.352778
  0
VERTEX
  8
0
 10
97.4265
 20
3.18435
 30
0.0
 40
0.352778
 41
0.352778
  0
VERTEX
  8
0
 10
97.4265
 20
7.18435
 30
0.0
 40
0.352778
 41
0.352778
  0
VERTEX
  8
0
 10
83.9265
 20
7.18435
 30
0.0
 40
0.352778
 41
0.352778
  0
VERTEX
  8
0
 10
83.9265
 20
3.18435
 30
0.0
 40
0.352778
 41
0.352778
  0
VERTEX
  8
0
 10
70.4265
 20
3.18435
 30
0.0
 40
0.352778
 41
0.352778
  0
VERTEX
  8
0
 10
70.4265
 20
7.18435
 30
0.0
 40
0.352778
 41
0.352778
  0
VERTEX
  8
0
 10
56.9265
 20
7.18435
 30
0.0
 40
0.352778
 41
0.352778
  0
VERTEX
  8
0
 10
56.9265
 20
3.18435
 30
0.0
 40
0.352778
 41
0.352778
  0
VERTEX
  8
0
 10
43.4264
 20
3.18435
 30
0.0
 40
0.352778
 41
0.352778
  0
VERTEX
  8
0
 10
43.4264
 20
7.18435
 30
0.0
 40
0.352778
 41
0.352778
  0
VERTEX
  8
0
 10
29.9264
 20
7.18435
 30
0.0
 40
0.352778
 41
0.352778
  0
VERTEX
  8
0
 10
29.9264
 20
3.18435
 30
0.0
 40
0.352778
 41
0.352778
  0
VERTEX
  8
0
 10
20.1764
 20
3.18435
 30
0.0
 40
0.352778
 41
0.352778
  0
VERTEX
  8
0
 10
20.1764
 20
30.1844
 30
0.0
 40
0.352778
 41
0.352778
  0
SEQEND
 8
0
  0
POLYLINE
  8
0
 62
     0
 66
     1
 10
0
 20
0
 30
0.0
 40
25.4
 41
25.4
  0
VERTEX
  8
0
 10
171.676
 20
30.1844
 30
0.0
 40
0.352778
 41
0.352778
  0
VERTEX
  8
0
 10
171.676
 20
34.1844
 30
0.0
 40
0.352778
 41
0.352778
  0
VERTEX
  8
0
 10
187.676
 20
34.1844
 30
0.0
 40
0.352778
 41
0.352778
  0
VERTEX
  8
0
 10
187.676
 20
30.1844
 30
0.0
 40
0.352778
 41
0.352778
  0
VERTEX
  8
0
 10
211.176
 20
30.1844
 30
0.0
 40
0.352778
 41
0.352778
  0
SEQEND
 8
0
  0
POLYLINE
  8
0
 62
     0
 66
     1
 10
0
 20
0
 30
0.0
 40
25.4
 41
25.4
  0
VERTEX
  8
0
 10
139.676
 20
30.1844
 30
0.0
 40
0.352778
 41
0.352778
  0
VERTEX
  8
0
 10
139.676
 20
34.1844
 30
0.0
 40
0.352778
 41
0.352778
  0
VERTEX
  8
0
 10
155.676
 20
34.1844
 30
0.0
 40
0.352778
 41
0.352778
  0
VERTEX
  8
0
 10
155.676
 20
30.1844
 30
0.0
 40
0.352778
 41
0.352778
  0
VERTEX
  8
0
 10
179.426
 20
30.1844
 30
0.0
 40
0.352778
 41
0.352778
  0
VERTEX
  8
0
 10
179.426
 20
26.1844
 30
0.0
 40
0.352778
 41
0.352778
  0
VERTEX
  8
0
 10
192.926
 20
26.1844
 30
0.0
 40
0.352778
 41
0.352778
  0
VERTEX
  8
0
 10
192.926
 20
30.1844
 30
0.0
 40
0.352778
 41
0.352778
  0
SEQEND
 8
0
  0
POLYLINE
  8
0
 62
     0
 66
     1
 10
0
 20
0
 30
0.0
 40
25.4
 41
25.4
  0
VERTEX
  8
0
 10
116.177
 20
39.6844
 30
0.0
 40
0.352778
 41
0.352778
  0
VERTEX
  8
0
 10
120.177
 20
39.6844
 30
0.0
 40
0.352778
 41
0.352778
  0
VERTEX
  8
0
 10
120.177
 20
55.6844
 30
0.0
 40
0.352778
 41
0.352778
  0
VERTEX
  8
0
 10
116.177
 20
55.6844
 30
0.0
 40
0.352778
 41
0.352778
  0
SEQEND
 8
0
  0
POLYLINE
  8
0
 62
     0
 66
     1
 10
0
 20
0
 30
0.0
 40
25.4
 41
25.4
  0
VERTEX
  8
0
 10
97.9265
 20
30.1844
 30
0.0
 40
0.352778
 41
0.352778
  0
VERTEX
  8
0
 10
97.9265
 20
34.1844
 30
0.0
 40
0.352778
 41
0.352778
  0
VERTEX
  8
0
 10
84.4265
 20
34.1844
 30
0.0
 40
0.352778
 41
0.352778
  0
VERTEX
  8
0
 10
84.4265
 20
30.1844
 30
0.0
 40
0.352778
 41
0.352778
  0
VERTEX
  8
0
 10
70.4265
 20
30.1844
 30
0.0
 40
0.352778
 41
0.352778
  0
VERTEX
  8
0
 10
70.4265
 20
26.1844
 30
0.0
 40
0.352778
 41
0.352778
  0
VERTEX
  8
0
 10
56.9265
 20
26.1844
 30
0.0
 40
0.352778
 41
0.352778
  0
VERTEX
  8
0
 10
56.9265
 20
30.1844
 30
0.0
 40
0.352778
 41
0.352778
  0
SEQEND
 8
0
  0
POLYLINE
  8
0
 62
     0
 66
     1
 10
0
 20
0
 30
0.0
 40
25.4
 41
25.4
  0
VERTEX
  8
0
 10
70.9265
 20
30.1844
 30
0.0
 40
0.352778
 41
0.352778
  0
VERTEX
  8
0
 10
70.9265
 20
34.1844
 30
0.0
 40
0.352778
 41
0.352778
  0
VERTEX
  8
0
 10
57.4265
 20
34.1844
 30
0.0
 40
0.352778
 41
0.352778
  0
VERTEX
  8
0
 10
57.4265
 20
30.1844
 30
0.0
 40
0.352778
 41
0.352778
  0
VERTEX
  8
0
 10
43.4264
 20
30.1844
 30
0.0
 40
0.352778
 41
0.352778
  0
VERTEX
  8
0
 10
43.4264
 20
26.1844
 30
0.0
 40
0.352778
 41
0.352778
  0
VERTEX
  8
0
 10
29.9264
 20
26.1844
 30
0.0
 40
0.352778
 41
0.352778
  0
VERTEX
  8
0
 10
29.9264
 20
30.1844
 30
0.0
 40
0.352778
 41
0.352778
  0
SEQEND
 8
0
  0
POLYLINE
  8
0
 62
     0
 66
     1
 10
0
 20
0
 30
0.0
 40
25.4
 41
25.4
  0
VERTEX
  8
0
 10
43.9264
 20
30.1844
 30
0.0
 40
0.352778
 41
0.352778
  0
VERTEX
  8
0
 10
43.9264
 20
34.1844
 30
0.0
 40
0.352778
 41
0.352778
  0
VERTEX
  8
0
 10
30.4264
 20
34.1844
 30
0.0
 40
0.352778
 41
0.352778
  0
VERTEX
  8
0
 10
30.4264
 20
30.1844
 30
0.0
 40
0.352778
 41
0.352778
  0
VERTEX
  8
0
 10
12.1764
 20
30.1844
 30
0.0
 40
0.352778
 41
0.352778
  0
VERTEX
  8
0
 10
12.1764
 20
57.1844
 30
0.0
 40
0.352778
 41
0.352778
  0
SEQEND
 8
0
  0
POLYLINE
  8
0
 62
     0
 66
     1
 10
0
 20
0
 30
0.0
 40
25.4
 41
25.4
  0
VERTEX
  8
0
 10
226.676
 20
112.185
 30
0.0
 40
0.352778
 41
0.352778
  0
VERTEX
  8
0
 10
226.676
 20
116.185
 30
0.0
 40
0.352778
 41
0.352778
  0
VERTEX
  8
0
 10
207.176
 20
116.185
 30
0.0
 40
0.352778
 41
0.352778
  0
VERTEX
  8
0
 10
207.176
 20
132.185
 30
0.0
 40
0.352778
 41
0.352778
  0
VERTEX
  8
0
 10
203.176
 20
132.185
 30
0.0
 40
0.352778
 41
0.352778
  0
VERTEX
  8
0
 10
203.176
 20
148.185
 30
0.0
 40
0.352778
 41
0.352778
  0
VERTEX
  8
0
 10
207.176
 20
148.185
 30
0.0
 40
0.352778
 41
0.352778
  0
VERTEX
  8
0
 10
207.176
 20
164.185
 30
0.0
 40
0.352778
 41
0.352778
  0
VERTEX
  8
0
 10
203.176
 20
164.185
 30
0.0
 40
0.352778
 41
0.352778
  0
VERTEX
  8
0
 10
203.176
 20
180.185
 30
0.0
 40
0.352778
 41
0.352778
  0
VERTEX
  8
0
 10
207.176
 20
180.185
 30
0.0
 40
0.352778
 41
0.352778
  0
VERTEX
  8
0
 10
207.176
 20
196.185
 30
0.0
 40
0.352778
 41
0.352778
  0
VERTEX
  8
0
 10
203.176
 20
196.185
 30
0.0
 40
0.352778
 41
0.352778
  0
VERTEX
  8
0
 10
203.176
 20
212.185
 30
0.0
 40
0.352778
 41
0.352778
  0
VERTEX
  8
0
 10
207.176
 20
212.185
 30
0.0
 40
0.352778
 41
0.352778
  0
VERTEX
  8
0
 10
197.426
 20
212.185
 30
0.0
 40
0.352778
 41
0.352778
  0
VERTEX
  8
0
 10
197.426
 20
216.185
 30
0.0
 40
0.352778
 41
0.352778
  0
VERTEX
  8
0
 10
183.926
 20
216.185
 30
0.0
 40
0.352778
 41
0.352778
  0
VERTEX
  8
0
 10
183.926
 20
212.185
 30
0.0
 40
0.352778
 41
0.352778
  0
VERTEX
  8
0
 10
170.426
 20
212.185
 30
0.0
 40
0.352778
 41
0.352778
  0
VERTEX
  8
0
 10
170.426
 20
216.185
 30
0.0
 40
0.352778
 41
0.352778
  0
VERTEX
  8
0
 10
156.926
 20
216.185
 30
0.0
 40
0.352778
 41
0.352778
  0
VERTEX
  8
0
 10
156.926
 20
212.185
 30
0.0
 40
0.352778
 41
0.352778
  0
VERTEX
  8
0
 10
143.426
 20
212.185
 30
0.0
 40
0.352778
 41
0.352778
  0
VERTEX
  8
0
 10
143.426
 20
216.185
 30
0.0
 40
0.352778
 41
0.352778
  0
VERTEX
  8
0
 10
129.927
 20
216.185
 30
0.0
 40
0.352778
 41
0.352778
  0
VERTEX
  8
0
 10
129.927
 20
212.185
 30
0.0
 40
0.352778
 41
0.352778
  0
VERTEX
  8
0
 10
120.177
 20
212.185
 30
0.0
 40
0.352778
 41
0.352778
  0
VERTEX
  8
0
 10
120.177
 20
239.185
 30
0.0
 40
0.352778
 41
0.352778
  0
VERTEX
  8
0
 10
129.927
 20
239.185
 30
0.0
 40
0.352778
 41
0.352778
  0
VERTEX
  8
0
 10
129.927
 20
235.185
 30
0.0
 40
0.352778
 41
0.352778
  0
VERTEX
  8
0
 10
143.426
 20
235.185
 30
0.0
 40
0.352778
 41
0.352778
  0
VERTEX
  8
0
 10
143.426
 20
239.185
 30
0.0
 40
0.352778
 41
0.352778
  0
VERTEX
  8
0
 10
156.926
 20
239.185
 30
0.0
 40
0.352778
 41
0.352778
  0
VERTEX
  8
0
 10
156.926
 20
235.185
 30
0.0
 40
0.352778
 41
0.352778
  0
VERTEX
  8
0
 10
170.426
 20
235.185
 30
0.0
 40
0.352778
 41
0.352778
  0
VERTEX
  8
0
 10
170.426
 20
239.185
 30
0.0
 40
0.352778
 41
0.352778
  0
VERTEX
  8
0
 10
183.926
 20
239.185
 30
0.0
 40
0.352778
 41
0.352778
  0
VERTEX
  8
0
 10
183.926
 20
235.185
 30
0.0
 40
0.352778
 41
0.352778
  0
VERTEX
  8
0
 10
197.426
 20
235.185
 30
0.0
 40
0.352778
 41
0.352778
  0
VERTEX
  8
0
 10
197.426
 20
239.185
 30
0.0
 40
0.352778
 41
0.352778
  0
VERTEX
  8
0
 10
207.176
 20
239.185
 30
0.0
 40
0.352778
 41
0.352778
  0
VERTEX
  8
0
 10
207.176
 20
212.185
 30
0.0
 40
0.352778
 41
0.352778
  0
SEQEND
 8
0
  0
POLYLINE
  8
0
 62
     0
 66
     1
 10
0
 20
0
 30
0.0
 40
25.4
 41
25.4
  0
VERTEX
  8
0
 10
207.176
 20
228.185
 30
0.0
 40
0.352778
 41
0.352778
  0
VERTEX
  8
0
 10
226.676
 20
228.185
 30
0.0
 40
0.352778
 41
0.352778
  0
VERTEX
  8
0
 10
226.676
 20
232.185
 30
0.0
 40
0.352778
 41
0.352778
  0
VERTEX
  8
0
 10
242.676
 20
232.185
 30
0.0
 40
0.352778
 41
0.352778
  0
VERTEX
  8
0
 10
242.676
 20
228.185
 30
0.0
 40
0.352778
 41
0.352778
  0
VERTEX
  8
0
 10
258.676
 20
228.185
 30
0.0
 40
0.352778
 41
0.352778
  0
VERTEX
  8
0
 10
258.676
 20
232.185
 30
0.0
 40
0.352778
 41
0.352778
  0
VERTEX
  8
0
 10
274.676
 20
232.185
 30
0.0
 40
0.352778
 41
0.352778
  0
VERTEX
  8
0
 10
274.676
 20
228.185
 30
0.0
 40
0.352778
 41
0.352778
  0
VERTEX
  8
0
 10
294.176
 20
228.185
 30
0.0
 40
0.352778
 41
0.352778
  0
VERTEX
  8
0
 10
294.176
 20
212.185
 30
0.0
 40
0.352778
 41
0.352778
  0
VERTEX
  8
0
 10
298.176
 20
212.185
 30
0.0
 40
0.352778
 41
0.352778
  0
VERTEX
  8
0
 10
298.176
 20
196.185
 30
0.0
 40
0.352778
 41
0.352778
  0
VERTEX
  8
0
 10
294.176
 20
196.185
 30
0.0
 40
0.352778
 41
0.352778
  0
VERTEX
  8
0
 10
294.176
 20
180.185
 30
0.0
 40
0.352778
 41
0.352778
  0
VERTEX
  8
0
 10
298.176
 20
180.185
 30
0.0
 40
0.352778
 41
0.352778
  0
VERTEX
  8
0
 10
298.176
 20
164.185
 30
0.0
 40
0.352778
 41
0.352778
  0
VERTEX
  8
0
 10
294.176
 20
164.185
 30
0.0
 40
0.352778
 41
0.352778
  0
VERTEX
  8
0
 10
294.176
 20
148.185
 30
0.0
 40
0.352778
 41
0.352778
  0
VERTEX
  8
0
 10
298.176
 20
148.185
 30
0.0
 40
0.352778
 41
0.352778
  0
VERTEX
  8
0
 10
298.176
 20
132.185
 30
0.0
 40
0.352778
 41
0.352778
  0
VERTEX
  8
0
 10
294.176
 20
132.185
 30
0.0
 40
0.352778
 41
0.352778
  0
VERTEX
  8
0
 10
294.176
 20
116.185
 30
0.0
 40
0.352778
 41
0.352778
  0
VERTEX
  8
0
 10
274.676
 20
116.185
 30
0.0
 40
0.352778
 41
0.352778
  0
VERTEX
  8
0
 10
274.676
 20
112.185
 30
0.0
 40
0.352778
 41
0.352778
  0
VERTEX
  8
0
 10
247.926
 20
112.185
 30
0.0
 40
0.352778
 41
0.352778
  0
VERTEX
  8
0
 10
247.926
 20
108.185
 30
0.0
 40
0.352778
 41
0.352778
  0
VERTEX
  8
0
 10
234.426
 20
108.185
 30
0.0
 40
0.352778
 41
0.352778
  0
VERTEX
  8
0
 10
234.426
 20
112.185
 30
0.0
 40
0.352778
 41
0.352778
  0
SEQEND
 8
0
  0
POLYLINE
  8
0
 62
     0
 66
     1
 10
0
 20
0
 30
0.0
 40
25.4
 41
25.4
  0
VERTEX
  8
0
 10
258.676
 20
112.185
 30
0.0
 40
0.352778
 41
0.352778
  0
VERTEX
  8
0
 10
258.676
 20
116.185
 30
0.0
 40
0.352778
 41
0.352778
  0
VERTEX
  8
0
 10
242.676
 20
116.185
 30
0.0
 40
0.352778
 41
0.352778
  0
VERTEX
  8
0
 10
242.676
 20
112.185
 30
0.0
 40
0.352778
 41
0.352778
  0
VERTEX
  8
0
 10
220.926
 20
112.185
 30
0.0
 40
0.352778
 41
0.352778
  0
VERTEX
  8
0
 10
220.926
 20
108.185
 30
0.0
 40
0.352778
 41
0.352778
  0
VERTEX
  8
0
 10
215.176
 20
108.185
 30
0.0
 40
0.352778
 41
0.352778
  0
VERTEX
  8
0
 10
215.176
 20
89.9344
 30
0.0
 40
0.352778
 41
0.352778
  0
VERTEX
  8
0
 10
211.176
 20
89.9344
 30
0.0
 40
0.352778
 41
0.352778
  0
SEQEND
 8
0
  0
POLYLINE
  8
0
 62
     0
 66
     1
 10
0
 20
0
 30
0.0
 40
25.4
 41
25.4
  0
VERTEX
  8
0
 10
261.426
 20
112.185
 30
0.0
 40
0.352778
 41
0.352778
  0
VERTEX
  8
0
 10
261.426
 20
108.185
 30
0.0
 40
0.352778
 41
0.352778
  0
VERTEX
  8
0
 10
274.926
 20
108.185
 30
0.0
 40
0.352778
 41
0.352778
  0
VERTEX
  8
0
 10
274.926
 20
112.185
 30
0.0
 40
0.352778
 41
0.352778
  0
VERTEX
  8
0
 10
288.426
 20
112.185
 30
0.0
 40
0.352778
 41
0.352778
  0
VERTEX
  8
0
 10
288.426
 20
108.185
 30
0.0
 40
0.352778
 41
0.352778
  0
VERTEX
  8
0
 10
294.176
 20
108.185
 30
0.0
 40
0.352778
 41
0.352778
  0
VERTEX
  8
0
 10
294.176
 20
89.9344
 30
0.0
 40
0.352778
 41
0.352778
  0
VERTEX
  8
0
 10
298.176
 20
89.9344
 30
0.0
 40
0.352778
 41
0.352778
  0
VERTEX
  8
0
 10
298.176
 20
76.4344
 30
0.0
 40
0.352778
 41
0.352778
  0
VERTEX
  8
0
 10
294.176
 20
76.4344
 30
0.0
 40
0.352778
 41
0.352778
  0
VERTEX
  8
0
 10
294.176
 20
62.9344
 30
0.0
 40
0.352778
 41
0.352778
  0
VERTEX
  8
0
 10
298.176
 20
62.9344
 30
0.0
 40
0.352778
 41
0.352778
  0
VERTEX
  8
0
 10
298.176
 20
49.4344
 30
0.0
 40
0.352778
 41
0.352778
  0
VERTEX
  8
0
 10
294.176
 20
49.4344
 30
0.0
 40
0.352778
 41
0.352778
  0
VERTEX
  8
0
 10
294.176
 20
35.9344
 30
0.0
 40
0.352778
 41
0.352778
  0
VERTEX
  8
0
 10
298.176
 20
35.9344
 30
0.0
 40
0.352778
 41
0.352778
  0
VERTEX
  8
0
 10
298.176
 20
22.4343
 30
0.0
 40
0.352778
 41
0.352778
  0
VERTEX
  8
0
 10
294.176
 20
22.4343
 30
0.0
 40
0.352778
 41
0.352778
  0
VERTEX
  8
0
 10
294.176
 20
4.18435
 30
0.0
 40
0.352778
 41
0.352778
  0
VERTEX
  8
0
 10
288.426
 20
4.18435
 30
0.0
 40
0.352778
 41
0.352778
  0
VERTEX
  8
0
 10
288.426
 20
0.184353
 30
0.0
 40
0.352778
 41
0.352778
  0
VERTEX
  8
0
 10
274.926
 20
0.184353
 30
0.0
 40
0.352778
 41
0.352778
  0
VERTEX
  8
0
 10
274.926
 20
4.18435
 30
0.0
 40
0.352778
 41
0.352778
  0
VERTEX
  8
0
 10
261.426
 20
4.18435
 30
0.0
 40
0.352778
 41
0.352778
  0
VERTEX
  8
0
 10
261.426
 20
0.184353
 30
0.0
 40
0.352778
 41
0.352778
  0
VERTEX
  8
0
 10
247.926
 20
0.184353
 30
0.0
 40
0.352778
 41
0.352778
  0
VERTEX
  8
0
 10
247.926
 20
4.18435
 30
0.0
 40
0.352778
 41
0.352778
  0
VERTEX
  8
0
 10
234.426
 20
4.18435
 30
0.0
 40
0.352778
 41
0.352778
  0
VERTEX
  8
0
 10
234.426
 20
0.184353
 30
0.0
 40
0.352778
 41
0.352778
  0
VERTEX
  8
0
 10
220.926
 20
0.184353
 30
0.0
 40
0.352778
 41
0.352778
  0
VERTEX
  8
0
 10
220.926
 20
4.18435
 30
0.0
 40
0.352778
 41
0.352778
  0
VERTEX
  8
0
 10
215.176
 20
4.18435
 30
0.0
 40
0.352778
 41
0.352778
  0
VERTEX
  8
0
 10
215.176
 20
22.4343
 30
0.0
 40
0.352778
 41
0.352778
  0
VERTEX
  8
0
 10
211.176
 20
22.4343
 30
0.0
 40
0.352778
 41
0.352778
  0
SEQEND
 8
0
  0
POLYLINE
  8
0
 62
     0
 66
     1
 10
0
 20
0
 30
0.0
 40
25.4
 41
25.4
  0
VERTEX
  8
0
 10
211.176
 20
35.9344
 30
0.0
 40
0.352778
 41
0.352778
  0
VERTEX
  8
0
 10
215.176
 20
35.9344
 30
0.0
 40
0.352778
 41
0.352778
  0
VERTEX
  8
0
 10
215.176
 20
49.4344
 30
0.0
 40
0.352778
 41
0.352778
  0
VERTEX
  8
0
 10
211.176
 20
49.4344
 30
0.0
 40
0.352778
 41
0.352778
  0
VERTEX
  8
0
 10
211.176
 20
65.1844
 30
0.0
 40
0.352778
 41
0.352778
  0
SEQEND
 8
0
  0
POLYLINE
  8
0
 62
     0
 66
     1
 10
0
 20
0
 30
0.0
 40
25.4
 41
25.4
  0
VERTEX
  8
0
 10
211.176
 20
62.9344
 30
0.0
 40
0.352778
 41
0.352778
  0
VERTEX
  8
0
 10
215.176
 20
62.9344
 30
0.0
 40
0.352778
 41
0.352778
  0
VERTEX
  8
0
 10
215.176
 20
76.4344
 30
0.0
 40
0.352778
 41
0.352778
  0
VERTEX
  8
0
 10
211.176
 20
76.4344
 30
0.0
 40
0.352778
 41
0.352778
  0
SEQEND
 8
0
  0
POLYLINE
  8
0
 62
     0
 66
     1
 10
0
 20
0
 30
0.0
 40
25.4
 41
25.4
  0
VERTEX
  8
0
 10
125.427
 20
30.1844
 30
0.0
 40
0.352778
 41
0.352778
  0
VERTEX
  8
0
 10
125.427
 20
26.1844
 30
0.0
 40
0.352778
 41
0.352778
  0
VERTEX
  8
0
 10
138.926
 20
26.1844
 30
0.0
 40
0.352778
 41
0.352778
  0
VERTEX
  8
0
 10
138.926
 20
30.1844
 30
0.0
 40
0.352778
 41
0.352778
  0
SEQEND
 8
0
  0
POLYLINE
  8
0
 62
     0
 66
     1
 10
0
 20
0
 30
0.0
 40
25.4
 41
25.4
  0
VERTEX
  8
0
 10
165.926
 20
30.1844
 30
0.0
 40
0.352778
 41
0.352778
  0
VERTEX
  8
0
 10
165.926
 20
26.1844
 30
0.0
 40
0.352778
 41
0.352778
  0
VERTEX
  8
0
 10
152.426
 20
26.1844
 30
0.0
 40
0.352778
 41
0.352778
  0
VERTEX
  8
0
 10
152.426
 20
30.1844
 30
0.0
 40
0.352778
 41
0.352778
  0
VERTEX
  8
0
 10
111.427
 20
30.1844
 30
0.0
 40
0.352778
 41
0.352778
  0
SEQEND
 8
0
  0
POLYLINE
  8
0
 62
     0
 66
     1
 10
0
 20
0
 30
0.0
 40
25.4
 41
25.4
  0
VERTEX
  8
0
 10
83.9265
 20
30.1844
 30
0.0
 40
0.352778
 41
0.352778
  0
VERTEX
  8
0
 10
83.9265
 20
26.1844
 30
0.0
 40
0.352778
 41
0.352778
  0
VERTEX
  8
0
 10
97.4265
 20
26.1844
 30
0.0
 40
0.352778
 41
0.352778
  0
VERTEX
  8
0
 10
97.4265
 20
30.1844
 30
0.0
 40
0.352778
 41
0.352778
  0
VERTEX
  8
0
 10
111.927
 20
30.1844
 30
0.0
 40
0.352778
 41
0.352778
  0
SEQEND
 8
0
  0
ENDSEC
  0
EOF
