0
SECTION
2
HEADER
9
$INSUNITS
70
4
9
$ACADVER
1
AC1014
9
$HANDSEED
5
FFFF
0
ENDSEC
0
SECTION
2
TABLES
0
TABLE
2
VPORT
5
8
100
AcDbSymbolTable
0
ENDTAB
0
TABLE
2
LTYPE
5
5
100
AcDbSymbolTable
0
LTYPE
5
14
100
AcDbSymbolTableRecord
100
AcDbLinetypeTableRecord
2
BYBLOCK
70
0
0
LTYPE
5
15
100
AcDbSymbolTableRecord
100
AcDbLinetypeTableRecord
2
BYLAYER
70
0
0
ENDTAB
0
TABLE
2
LAYER
5
2
100
AcDbSymbolTable
70
2
0
LAYER
5
50
100
AcDbSymbolTableRecord
100
AcDbLayerTableRecord
2
0
70
0
6
CONTINUOUS
0
ENDTAB
0
TABLE
2
STYLE
5
3
100
AcDbSymbolTable
70
1
0
STYLE
5
11
100
AcDbSymbolTableRecord
100
AcDbTextStyleTableRecord
2
STANDARD
70
0
0
ENDTAB
0
TABLE
2
VIEW
5
6
100
AcDbSymbolTable
70
0
0
ENDTAB
0
TABLE
2
UCS
5
7
100
AcDbSymbolTable
70
0
0
ENDTAB
0
TABLE
2
APPID
5
9
100
AcDbSymbolTable
70
2
0
APPID
5
12
100
AcDbSymbolTableRecord
100
AcDbRegAppTableRecord
2
ACAD
70
0
0
ENDTAB
0
TABLE
2
DIMSTYLE
5
A
100
AcDbSymbolTable
70
1
0
ENDTAB
0
TABLE
2
BLOCK_RECORD
5
1
100
AcDbSymbolTable
70
1
0
BLOCK_RECORD
5
1F
100
AcDbSymbolTableRecord
100
AcDbBlockTableRecord
2
*MODEL_SPACE
0
BLOCK_RECORD
5
1B
100
AcDbSymbolTableRecord
100
AcDbBlockTableRecord
2
*PAPER_SPACE
0
ENDTAB
0
ENDSEC
0
SECTION
2
BLOCKS
0
BLOCK
5
20
100
AcDbEntity
100
AcDbBlockBegin
2
*MODEL_SPACE
0
ENDBLK
5
21
100
AcDbEntity
100
AcDbBlockEnd
0
BLOCK
5
1C
100
AcDbEntity
100
AcDbBlockBegin
2
*PAPER_SPACE
0
ENDBLK
5
1D
100
AcDbEntity
100
AcDbBlockEnd
0
ENDSEC
0
SECTION
2
ENTITIES
0
CIRCLE
5
100
100
AcDbEntity
8
0
100
AcDbCircle
10
348.33642191178626
20
-124.17552063501412
30
0
40
1.5121951712154471
0
LWPOLYLINE
5
101
100
AcDbEntity
8
0
100
AcDbPolyline
90
6
70
1
43
0.0
10
362.17690495207142
20
-123.81748726433517
10
365.85666309422049
20
-117.54501056471437
10
362.17690495207142
20
-111.27253386509355
10
354.81738866777329
20
-111.27253386509355
10
351.13763052562422
20
-117.54501056471437
10
354.81738866777329
20
-123.81748726433517
0
CIRCLE
5
102
100
AcDbEntity
8
0
100
AcDbCircle
10
339.42444475859725
20
-117.54501154312149
30
0
40
7.5494240772605448
0
LWPOLYLINE
5
103
100
AcDbEntity
8
0
100
AcDbPolyline
90
8
70
1
43
0.0
10
329.84391284147034
20
-104.52091544144373
10
329.9150454500753
20
-127.69750880584024
10
367.83797591780962
20
-127.69748296762427
10
367.86956744321975
20
-104.5254414356103
10
372.82819669825255
20
-104.49308983601325
10
372.82805889443404
20
-98.558945196045457
10
324.91314579600726
20
-98.548474259017794
10
324.91144908649096
20
-104.49991758458711
0
CIRCLE
5
104
100
AcDbEntity
8
0
100
AcDbCircle
10
225.08769788209082
20
-272.38297030871757
30
0
40
7.5494240772605448
0
LWPOLYLINE
5
105
100
AcDbEntity
8
0
100
AcDbPolyline
90
10
70
1
43
0.0
10
215.50719742061477
20
-259.35887352008774
10
215.57832141648103
20
-282.53546903766897
10
239.38367269456393
20
-282.41680272439152
10
239.41932943262231
20
-279.56717478538746
10
235.54003136116478
20
-272.44667491805251
10
239.29661513217397
20
-259.24476765193157
10
258.49148127739704
20
-259.331050067842
10
258.49134347357847
20
-253.39690327468946
10
210.57642176241302
20
-253.38643449084651
10
210.57473366563539
20
-259.33787566323116
0
CIRCLE
5
106
100
AcDbEntity
8
0
100
AcDbCircle
10
234.96180670926651
20
-279.01347940061021
30
0
40
1.5121951712154471
0
ELLIPSE
5
107
100
AcDbEntity
8
0
100
AcDbEllipse
10
339.00745070342572
20
-86.397907548901983
30
0
11
-4.4721127787159629
21
0
31
0.0
40
0.99999993689286593
41
0
42
6.2831853071795862
0
ELLIPSE
5
108
100
AcDbEntity
8
0
100
AcDbEllipse
10
358.08015536199912
20
-86.397907548901983
30
0
11
-4.4721127787159629
21
0
31
0.0
40
0.99999993689286593
41
0
42
6.2831853071795862
0
LWPOLYLINE
5
109
100
AcDbEntity
8
0
100
AcDbPolyline
90
8
70
1
43
0.0
10
329.5179022008864
20
-73.373820114395414
10
329.58902619675263
20
-96.550415631976577
10
367.51194805174833
20
-96.550381181021919
10
367.54353957715841
20
-73.378346108561985
10
372.50216883219133
20
-73.345996662149588
10
372.50203102837276
20
-67.411849868997123
10
324.5871265426847
20
-67.401381085154142
10
324.58543844590702
20
-73.35282225753879
0
CIRCLE
5
110
100
AcDbEntity
8
0
100
AcDbCircle
10
348.37974866707106
20
-93.028425107461246
30
0
40
1.5121951712154471
0
CIRCLE
5
111
100
AcDbEntity
8
0
100
AcDbCircle
10
577.80314749984154
20
-16.672577111351949
30
0
40
1.5121951712154471
0
CIRCLE
5
112
100
AcDbEntity
8
0
100
AcDbCircle
10
47.917350878294343
20
-71.611426701539699
30
0
40
1.499999953958334
0
CIRCLE
5
113
100
AcDbEntity
8
0
100
AcDbCircle
10
16.917016267601984
20
-71.611426701539699
30
0
40
1.499999953958334
0
CIRCLE
5
114
100
AcDbEntity
8
0
100
AcDbCircle
10
47.917350878294343
20
-40.610772050849349
30
0
40
1.499999953958334
0
CIRCLE
5
115
100
AcDbEntity
8
0
100
AcDbCircle
10
16.917016267601984
20
-40.610772050849349
30
0
40
1.499999953958334
0
LINE
5
116
100
AcDbEntity
8
0
100
AcDbLine
10
20.893263758305991
20
-26.258242023385989
30
0
11
5.8946961437137047
21
-42.541692442447768
31
0
0
LINE
5
117
100
AcDbEntity
8
0
100
AcDbLine
10
5.8946961437137047
20
-42.541692442447768
30
0
11
5.8946961437137055
21
-69.680776474217382
31
0
0
LINE
5
118
100
AcDbEntity
8
0
100
AcDbLine
10
5.8946961437137055
20
-69.680776474217382
30
0
11
20.893263758305991
21
-85.964226893279147
31
0
0
LINE
5
119
100
AcDbEntity
8
0
100
AcDbLine
10
20.893263758305991
20
-85.964226893279147
30
0
11
120.92615809837821
21
-85.964226893279147
31
0
0
LINE
5
120
100
AcDbEntity
8
0
100
AcDbLine
10
120.92615809837821
20
-85.964226893279147
30
0
11
120.9244613888619
21
-82.164501914314755
31
0
0
LINE
5
121
100
AcDbEntity
8
0
100
AcDbLine
10
120.9244613888619
20
-82.164501914314755
30
0
11
89.026735893778238
21
-82.164501914314755
31
0
0
LINE
5
122
100
AcDbEntity
8
0
100
AcDbLine
10
89.026735893778238
20
-82.164501914314755
30
0
11
89.026735893778238
21
-74.164163422650205
31
0
0
LINE
5
123
100
AcDbEntity
8
0
100
AcDbLine
10
89.026735893778238
20
-74.164163422650205
30
0
11
120.92170531249023
21
-74.164163422650205
31
0
0
LINE
5
124
100
AcDbEntity
8
0
100
AcDbLine
10
120.92170531249023
20
-74.164163422650205
30
0
11
120.91944877496093
21
-68.896948354116304
31
0
0
LINE
5
125
100
AcDbEntity
8
0
100
AcDbLine
10
120.91944877496093
20
-68.896948354116304
30
0
11
32.420182835025777
21
-68.723315542701513
31
0
0
SPLINE
5
126
100
AcDbEntity
8
0
100
AcDbSpline
70
1064
71
3
72
8
73
4
74
0
42
0.000000001
43
0.0000000001
44
0.0000000001
40
0
40
0
40
0
40
0
40
1
40
1
40
1
40
1
10
32.42018283502577
20
-68.723315542701499
30
0
10
25.517331180034915
20
-68.723315542701499
30
0
10
19.9213764895322
20
-63.648207610011212
30
0
10
19.9213764895322
20
-56.153953642093349
30
0
0
SPLINE
5
127
100
AcDbEntity
8
0
100
AcDbSpline
70
1064
71
3
72
8
73
4
74
0
42
0.000000001
43
0.0000000001
44
0.0000000001
40
0
40
0
40
0
40
0
40
1
40
1
40
1
40
1
10
19.9213764895322
20
-56.153953642093349
30
0
10
19.9213764895322
20
-48.65970828691416
30
0
10
25.517331180034915
20
-43.584591741485198
30
0
10
32.42018283502577
20
-43.584591741485198
30
0
0
LINE
5
128
100
AcDbEntity
8
0
100
AcDbLine
10
32.42018283502577
20
-43.584591741485198
30
0
11
120.91283419166894
21
-43.751609969607998
31
0
0
LINE
5
129
100
AcDbEntity
8
0
100
AcDbLine
10
120.91283419166894
20
-43.751609969607998
30
0
11
120.91944016222227
21
-43.781375594421974
31
0
0
LINE
5
130
100
AcDbEntity
8
0
100
AcDbLine
10
120.91944016222227
20
-43.781375594421974
30
0
11
120.92169669975156
21
-38.107716775715666
31
0
0
LINE
5
131
100
AcDbEntity
8
0
100
AcDbLine
10
120.92169669975156
20
-38.107716775715666
30
0
11
89.02672728103957
21
-38.107716775715666
31
0
0
LINE
5
132
100
AcDbEntity
8
0
100
AcDbLine
10
89.02672728103957
20
-38.107716775715666
30
0
11
89.02672728103957
21
-30.107929499325444
31
0
0
LINE
5
133
100
AcDbEntity
8
0
100
AcDbLine
10
89.02672728103957
20
-30.107929499325444
30
0
11
120.92445277612325
21
-30.107929499325444
31
0
0
LINE
5
134
100
AcDbEntity
8
0
100
AcDbLine
10
120.92445277612325
20
-30.107929499325444
30
0
11
120.92614948563954
21
-26.258242023385989
31
0
0
LINE
5
135
100
AcDbEntity
8
0
100
AcDbLine
10
120.92614948563954
20
-26.258242023385989
30
0
11
20.893263758305991
21
-26.258242023385989
31
0
0
CIRCLE
5
136
100
AcDbEntity
8
0
100
AcDbCircle
10
117.29957557798878
20
-71.37431400308833
30
0
40
1.499999953958334
0
CIRCLE
5
137
100
AcDbEntity
8
0
100
AcDbCircle
10
117.29957557798878
20
-40.848156749432363
30
0
40
1.499999953958334
0
CIRCLE
5
138
100
AcDbEntity
8
0
100
AcDbCircle
10
191.32230687090225
20
-77.317081356768256
30
0
40
1.499999953958334
0
CIRCLE
5
139
100
AcDbEntity
8
0
100
AcDbCircle
10
191.32230687090225
20
-108.3174131452384
30
0
40
1.499999953958334
0
CIRCLE
5
140
100
AcDbEntity
8
0
100
AcDbCircle
10
160.32166350910069
20
-77.317081356768256
30
0
40
1.499999953958334
0
CIRCLE
5
141
100
AcDbEntity
8
0
100
AcDbCircle
10
160.32166350910069
20
-108.3174131452384
30
0
40
1.499999953958334
0
ELLIPSE
5
142
100
AcDbEntity
8
0
100
AcDbEllipse
10
175.82195696777939
20
-92.817239348781172
30
0
11
-11.197007987796482
21
0
31
0.0
40
0.9999999243845622
41
0
42
6.2831853071795862
0
LWPOLYLINE
5
143
100
AcDbEntity
8
0
100
AcDbPolyline
90
6
70
1
43
0.0
10
145.96900097246888
20
-104.34118316223393
10
145.96900097246888
20
-4.3380544469757094
10
205.67496592540391
20
-4.3380544469757254
10
205.67496592540385
20
-104.34118316223396
10
189.39152196589612
20
-119.33964311759297
10
162.25244493197664
20
-119.33964311759297
0
CIRCLE
5
144
100
AcDbEntity
8
0
100
AcDbCircle
10
191.08506240571839
20
-7.934854718138018
30
0
40
1.499999953958334
0
CIRCLE
5
145
100
AcDbEntity
8
0
100
AcDbCircle
10
160.55890515206241
20
-7.934854718138018
30
0
40
1.499999953958334
0
CIRCLE
5
146
100
AcDbEntity
8
0
100
AcDbCircle
10
48.545887138810436
20
-216.44871972963998
30
0
40
1.499999953958334
0
CIRCLE
5
147
100
AcDbEntity
8
0
100
AcDbCircle
10
17.545552528118076
20
-216.44871972963998
30
0
40
1.499999953958334
0
CIRCLE
5
148
100
AcDbEntity
8
0
100
AcDbCircle
10
48.545887138810436
20
-185.44806507894964
30
0
40
1.499999953958334
0
CIRCLE
5
149
100
AcDbEntity
8
0
100
AcDbCircle
10
17.545552528118076
20
-185.44806507894964
30
0
40
1.499999953958334
0
LINE
5
150
100
AcDbEntity
8
0
100
AcDbLine
10
21.521800018822084
20
-171.09553505148625
30
0
11
6.5232324042297973
21
-187.378985470548
31
0
0
LINE
5
151
100
AcDbEntity
8
0
100
AcDbLine
10
6.5232324042297973
20
-187.378985470548
30
0
11
6.5232324042297982
21
-214.51806950231764
31
0
0
LINE
5
152
100
AcDbEntity
8
0
100
AcDbLine
10
6.5232324042297982
20
-214.51806950231764
30
0
11
21.521800018822084
21
-230.80151992137939
31
0
0
LINE
5
153
100
AcDbEntity
8
0
100
AcDbLine
10
21.521800018822084
20
-230.80151992137939
30
0
11
121.5546943588943
21
-230.80151992137942
31
0
0
LINE
5
154
100
AcDbEntity
8
0
100
AcDbLine
10
121.5546943588943
20
-230.80151992137942
30
0
11
121.552997649378
21
-227.00179494241502
31
0
0
LINE
5
155
100
AcDbEntity
8
0
100
AcDbLine
10
121.552997649378
20
-227.00179494241502
30
0
11
89.655272154294323
21
-227.00179494241502
31
0
0
LINE
5
156
100
AcDbEntity
8
0
100
AcDbLine
10
89.655272154294323
20
-227.00179494241502
30
0
11
89.655272154294323
21
-219.00145645075048
31
0
0
LINE
5
157
100
AcDbEntity
8
0
100
AcDbLine
10
89.655272154294323
20
-219.00145645075048
30
0
11
121.55024157300632
21
-219.00145645075045
31
0
0
LINE
5
158
100
AcDbEntity
8
0
100
AcDbLine
10
121.55024157300632
20
-219.00145645075045
30
0
11
121.54798503547703
21
-213.73424138221654
31
0
0
LINE
5
159
100
AcDbEntity
8
0
100
AcDbLine
10
121.54798503547703
20
-213.73424138221654
30
0
11
33.04871909554187
21
-213.56060857080178
31
0
0
SPLINE
5
160
100
AcDbEntity
8
0
100
AcDbSpline
70
1064
71
3
72
8
73
4
74
0
42
0.000000001
43
0.0000000001
44
0.0000000001
40
0
40
0
40
0
40
0
40
1
40
1
40
1
40
1
10
33.048719095541863
20
-213.56060857080178
30
0
10
26.145867440551008
20
-213.56060857080178
30
0
10
20.549912750048293
20
-208.48550063811146
30
0
10
20.549912750048293
20
-200.99124667019362
30
0
0
SPLINE
5
161
100
AcDbEntity
8
0
100
AcDbSpline
70
1064
71
3
72
8
73
4
74
0
42
0.000000001
43
0.0000000001
44
0.0000000001
40
0
40
0
40
0
40
0
40
1
40
1
40
1
40
1
10
20.549912750048293
20
-200.99124667019362
30
0
10
20.549912750048293
20
-193.49700131501442
30
0
10
26.145867440551008
20
-188.42188476958546
30
0
10
33.048719095541863
20
-188.42188476958546
30
0
0
LINE
5
162
100
AcDbEntity
8
0
100
AcDbLine
10
33.048719095541863
20
-188.42188476958546
30
0
11
121.54137045218503
21
-188.58890299770826
31
0
0
LINE
5
163
100
AcDbEntity
8
0
100
AcDbLine
10
121.54137045218503
20
-188.58890299770826
30
0
11
121.54797642273836
21
-188.61866862252225
31
0
0
LINE
5
164
100
AcDbEntity
8
0
100
AcDbLine
10
121.54797642273836
20
-188.61866862252225
30
0
11
121.55023296026766
21
-182.94500980381594
31
0
0
LINE
5
165
100
AcDbEntity
8
0
100
AcDbLine
10
121.55023296026766
20
-182.94500980381594
30
0
11
89.655263541555655
21
-182.94500980381594
31
0
0
LINE
5
166
100
AcDbEntity
8
0
100
AcDbLine
10
89.655263541555655
20
-182.94500980381594
30
0
11
89.655263541555655
21
-174.9452225274257
31
0
0
LINE
5
167
100
AcDbEntity
8
0
100
AcDbLine
10
89.655263541555655
20
-174.9452225274257
30
0
11
121.55298903663933
21
-174.9452225274257
31
0
0
LINE
5
168
100
AcDbEntity
8
0
100
AcDbLine
10
121.55298903663933
20
-174.9452225274257
30
0
11
121.55468574615563
21
-171.09553505148625
31
0
0
LINE
5
169
100
AcDbEntity
8
0
100
AcDbLine
10
121.55468574615563
20
-171.09553505148625
30
0
11
21.521800018822084
21
-171.09553505148625
31
0
0
CIRCLE
5
170
100
AcDbEntity
8
0
100
AcDbCircle
10
117.92811183850488
20
-216.21160703118861
30
0
40
1.499999953958334
0
CIRCLE
5
171
100
AcDbEntity
8
0
100
AcDbCircle
10
117.92811183850488
20
-185.68544977753263
30
0
40
1.499999953958334
0
CIRCLE
5
172
100
AcDbEntity
8
0
100
AcDbCircle
10
48.45598383937233
20
-133.72655904665345
30
0
40
1.499999953958334
0
CIRCLE
5
173
100
AcDbEntity
8
0
100
AcDbCircle
10
17.45564922867997
20
-133.72655904665345
30
0
40
1.499999953958334
0
CIRCLE
5
174
100
AcDbEntity
8
0
100
AcDbCircle
10
48.45598383937233
20
-102.72590439596311
30
0
40
1.499999953958334
0
CIRCLE
5
175
100
AcDbEntity
8
0
100
AcDbCircle
10
17.45564922867997
20
-102.72590439596311
30
0
40
1.499999953958334
0
LINE
5
176
100
AcDbEntity
8
0
100
AcDbLine
10
21.431896719383982
20
-88.373374368499753
30
0
11
6.4333291047916941
21
-104.65682478756152
31
0
0
LINE
5
177
100
AcDbEntity
8
0
100
AcDbLine
10
6.4333291047916941
20
-104.65682478756152
30
0
11
6.4333291047916941
21
-131.79590881933115
31
0
0
LINE
5
178
100
AcDbEntity
8
0
100
AcDbLine
10
6.4333291047916941
20
-131.79590881933115
30
0
11
21.431896719383982
21
-148.07935923839293
31
0
0
LINE
5
179
100
AcDbEntity
8
0
100
AcDbLine
10
21.431896719383982
20
-148.07935923839293
30
0
11
121.46479105945618
21
-148.07935923839293
31
0
0
LINE
5
180
100
AcDbEntity
8
0
100
AcDbLine
10
121.46479105945618
20
-148.07935923839293
30
0
11
121.46309434993989
21
-144.27963425942852
31
0
0
LINE
5
181
100
AcDbEntity
8
0
100
AcDbLine
10
121.46309434993989
20
-144.27963425942852
30
0
11
89.565368854856217
21
-144.27963425942852
31
0
0
LINE
5
182
100
AcDbEntity
8
0
100
AcDbLine
10
89.565368854856217
20
-144.27963425942852
30
0
11
89.565368854856217
21
-136.27929576776398
31
0
0
LINE
5
183
100
AcDbEntity
8
0
100
AcDbLine
10
89.565368854856217
20
-136.27929576776398
30
0
11
121.46033827356823
21
-136.27929576776398
31
0
0
LINE
5
184
100
AcDbEntity
8
0
100
AcDbLine
10
121.46033827356823
20
-136.27929576776398
30
0
11
121.45808173603893
21
-131.01208069923007
31
0
0
LINE
5
185
100
AcDbEntity
8
0
100
AcDbLine
10
121.45808173603893
20
-131.01208069923007
30
0
11
32.958815796103771
21
-130.83844788781528
31
0
0
SPLINE
5
186
100
AcDbEntity
8
0
100
AcDbSpline
70
1064
71
3
72
8
73
4
74
0
42
0.000000001
43
0.0000000001
44
0.0000000001
40
0
40
0
40
0
40
0
40
1
40
1
40
1
40
1
10
32.958815796103757
20
-130.83844788781528
30
0
10
26.055964141112899
20
-130.83844788781528
30
0
10
20.460009450610187
20
-125.76333995512498
30
0
10
20.460009450610187
20
-118.26908598720712
30
0
0
SPLINE
5
187
100
AcDbEntity
8
0
100
AcDbSpline
70
1064
71
3
72
8
73
4
74
0
42
0.000000001
43
0.0000000001
44
0.0000000001
40
0
40
0
40
0
40
0
40
1
40
1
40
1
40
1
10
20.460009450610187
20
-118.26908598720712
30
0
10
20.460009450610187
20
-110.77484063202792
30
0
10
26.055964141112899
20
-105.69972408659895
30
0
10
32.958815796103757
20
-105.69972408659895
30
0
0
LINE
5
188
100
AcDbEntity
8
0
100
AcDbLine
10
32.958815796103757
20
-105.69972408659895
30
0
11
121.45146715274691
21
-105.86674231472175
31
0
0
LINE
5
189
100
AcDbEntity
8
0
100
AcDbLine
10
121.45146715274691
20
-105.86674231472175
30
0
11
121.45807312330027
21
-105.89650793953574
31
0
0
LINE
5
190
100
AcDbEntity
8
0
100
AcDbLine
10
121.45807312330027
20
-105.89650793953574
30
0
11
121.46032966082956
21
-100.22284912082941
31
0
0
LINE
5
191
100
AcDbEntity
8
0
100
AcDbLine
10
121.46032966082956
20
-100.22284912082941
30
0
11
89.565360242117563
21
-100.22284912082944
31
0
0
LINE
5
192
100
AcDbEntity
8
0
100
AcDbLine
10
89.565360242117563
20
-100.22284912082944
30
0
11
89.565360242117563
21
-92.223061844439215
31
0
0
LINE
5
193
100
AcDbEntity
8
0
100
AcDbLine
10
89.565360242117563
20
-92.223061844439215
30
0
11
121.46308573720123
21
-92.223061844439215
31
0
0
LINE
5
194
100
AcDbEntity
8
0
100
AcDbLine
10
121.46308573720123
20
-92.223061844439215
30
0
11
121.46478244671752
21
-88.373374368499768
31
0
0
LINE
5
195
100
AcDbEntity
8
0
100
AcDbLine
10
121.46478244671752
20
-88.373374368499768
30
0
11
21.431896719383982
21
-88.373374368499753
31
0
0
CIRCLE
5
196
100
AcDbEntity
8
0
100
AcDbCircle
10
117.83820853906677
20
-133.48944634820211
30
0
40
1.499999953958334
0
CIRCLE
5
197
100
AcDbEntity
8
0
100
AcDbCircle
10
117.83820853906677
20
-102.96328909454614
30
0
40
1.499999953958334
0
CIRCLE
5
198
100
AcDbEntity
8
0
100
AcDbCircle
10
398.1617386514892
20
-49.035918611303302
30
0
40
1.499999953958334
0
CIRCLE
5
199
100
AcDbEntity
8
0
100
AcDbCircle
10
429.16207043995939
20
-49.035918611303302
30
0
40
1.499999953958334
0
CIRCLE
5
200
100
AcDbEntity
8
0
100
AcDbCircle
10
398.1617386514892
20
-18.035275249501737
30
0
40
1.499999953958334
0
CIRCLE
5
201
100
AcDbEntity
8
0
100
AcDbCircle
10
429.16207043995939
20
-18.035275249501737
30
0
40
1.499999953958334
0
LWPOLYLINE
5
202
100
AcDbEntity
8
0
100
AcDbPolyline
90
6
70
1
43
0.0
10
425.18584045695485
20
-3.6826127128699007
10
325.18271174169661
20
-3.6826127128698971
10
325.18271174169672
20
-63.388577665804902
10
425.18584045695491
20
-63.388577665804902
10
440.18430041231392
20
-47.105133706297124
10
440.18430041231392
20
-19.966056672377675
0
CIRCLE
5
203
100
AcDbEntity
8
0
100
AcDbCircle
10
328.77951201285896
20
-48.798674146119403
30
0
40
1.499999953958334
0
CIRCLE
5
204
100
AcDbEntity
8
0
100
AcDbCircle
10
328.77951201285896
20
-18.272516892463436
30
0
40
1.499999953958334
0
CIRCLE
5
205
100
AcDbEntity
8
0
100
AcDbCircle
10
250.0735792303735
20
-48.855089239100131
30
0
40
1.499999953958334
0
CIRCLE
5
206
100
AcDbEntity
8
0
100
AcDbCircle
10
219.07324744190333
20
-48.855089239100131
30
0
40
1.499999953958334
0
CIRCLE
5
207
100
AcDbEntity
8
0
100
AcDbCircle
10
250.0735792303735
20
-17.854445877298566
30
0
40
1.499999953958334
0
CIRCLE
5
208
100
AcDbEntity
8
0
100
AcDbCircle
10
219.07324744190333
20
-17.854445877298566
30
0
40
1.499999953958334
0
ELLIPSE
5
209
100
AcDbEntity
8
0
100
AcDbEllipse
10
234.57342123836059
20
-33.354739335977278
30
0
11
0
21
11.197007987796482
31
0.0
40
0.9999999243845622
41
0
42
6.2831853071795862
0
LWPOLYLINE
5
210
100
AcDbEntity
8
0
100
AcDbPolyline
90
6
70
1
43
0.0
10
223.04947742490782
20
-3.5017833406667558
10
323.05260614016606
20
-3.5017833406667531
10
323.05260614016606
20
-63.20774829360176
10
223.04947742490782
20
-63.20774829360176
10
208.05101746954878
20
-46.924304334093989
10
208.05101746954878
20
-19.78522730017453
0
CIRCLE
5
211
100
AcDbEntity
8
0
100
AcDbCircle
10
319.45580586900371
20
-48.617844773916261
30
0
40
1.499999953958334
0
CIRCLE
5
212
100
AcDbEntity
8
0
100
AcDbCircle
10
319.45580586900371
20
-18.091687520260294
30
0
40
1.499999953958334
0
LWPOLYLINE
5
213
100
AcDbEntity
8
0
100
AcDbPolyline
90
4
70
1
43
0.0
10
312.22888844856948
20
-5.8537192411920405
10
264.30679341474922
20
-5.8537192411920369
10
264.30679341474922
20
-60.85581869742893
10
312.22888844856942
20
-60.85581869742893
0
CIRCLE
5
214
100
AcDbEntity
8
0
100
AcDbCircle
10
249.44658587873664
20
-110.57296276447458
30
0
40
1.499999953958334
0
CIRCLE
5
215
100
AcDbEntity
8
0
100
AcDbCircle
10
218.44625409026648
20
-110.57296276447458
30
0
40
1.499999953958334
0
CIRCLE
5
216
100
AcDbEntity
8
0
100
AcDbCircle
10
249.44658587873664
20
-79.572319402673017
30
0
40
1.499999953958334
0
CIRCLE
5
217
100
AcDbEntity
8
0
100
AcDbCircle
10
218.44625409026648
20
-79.572319402673017
30
0
40
1.499999953958334
0
ELLIPSE
5
218
100
AcDbEntity
8
0
100
AcDbEllipse
10
233.94642788672374
20
-95.072612861351729
30
0
11
0
21
11.197007987796482
31
0.0
40
0.9999999243845622
41
0
42
6.2831853071795862
0
LWPOLYLINE
5
219
100
AcDbEntity
8
0
100
AcDbPolyline
90
6
70
1
43
0.0
10
222.42248407327097
20
-65.219656866041177
10
322.42561278852918
20
-65.219656866041177
10
322.42561278852918
20
-124.92562181897618
10
222.42248407327097
20
-124.92562181897618
10
207.42402411791193
20
-108.64217785946838
10
207.42402411791193
20
-81.503100825548955
0
CIRCLE
5
220
100
AcDbEntity
8
0
100
AcDbCircle
10
318.82881251736683
20
-110.33571829929068
30
0
40
1.499999953958334
0
CIRCLE
5
221
100
AcDbEntity
8
0
100
AcDbCircle
10
318.82881251736683
20
-79.809561045634723
30
0
40
1.499999953958334
0
LWPOLYLINE
5
222
100
AcDbEntity
8
0
100
AcDbPolyline
90
4
70
1
43
0.0
10
311.60189509693259
20
-67.571592766566454
10
263.6798000631124
20
-67.571592766566454
10
263.67980006311245
20
-122.57369222280334
10
311.60189509693259
20
-122.57369222280334
0
CIRCLE
5
223
100
AcDbEntity
8
0
100
AcDbCircle
10
249.83122372077713
20
-172.34180280064152
30
0
40
1.499999953958334
0
CIRCLE
5
224
100
AcDbEntity
8
0
100
AcDbCircle
10
218.830891932307
20
-172.34180280064152
30
0
40
1.499999953958334
0
CIRCLE
5
225
100
AcDbEntity
8
0
100
AcDbCircle
10
249.83122372077713
20
-141.34115943883995
30
0
40
1.499999953958334
0
CIRCLE
5
226
100
AcDbEntity
8
0
100
AcDbCircle
10
218.830891932307
20
-141.34115943883995
30
0
40
1.499999953958334
0
ELLIPSE
5
227
100
AcDbEntity
8
0
100
AcDbEllipse
10
234.33106572876423
20
-156.84145289751865
30
0
11
0
21
11.197007987796482
31
0.0
40
0.9999999243845622
41
0
42
6.2831853071795862
0
LWPOLYLINE
5
228
100
AcDbEntity
8
0
100
AcDbPolyline
90
6
70
1
43
0.0
10
222.80712191531143
20
-126.98849690220813
10
322.81025063056967
20
-126.98849690220813
10
322.81025063056967
20
-186.69446185514315
10
222.80712191531148
20
-186.69446185514312
10
207.80866195995245
20
-170.41101789563533
10
207.80866195995242
20
-143.2719408617159
0
CIRCLE
5
229
100
AcDbEntity
8
0
100
AcDbCircle
10
319.21345035940743
20
-172.10455833545765
30
0
40
1.499999953958334
0
CIRCLE
5
230
100
AcDbEntity
8
0
100
AcDbCircle
10
319.21345035940743
20
-141.5784010818017
30
0
40
1.499999953958334
0
LWPOLYLINE
5
231
100
AcDbEntity
8
0
100
AcDbPolyline
90
4
70
1
43
0.0
10
307.34376574576822
20
-129.33513266943325
10
269.25778396158336
20
-129.33513266943325
10
269.25778396158336
20
-184.34784650338156
10
307.34376574576822
20
-184.34784650338156
0
CIRCLE
5
232
100
AcDbEntity
8
0
100
AcDbCircle
10
248.90941821542728
20
-234.39531502836263
30
0
40
1.499999953958334
0
CIRCLE
5
233
100
AcDbEntity
8
0
100
AcDbCircle
10
217.90908642695712
20
-234.39531502836263
30
0
40
1.499999953958334
0
CIRCLE
5
234
100
AcDbEntity
8
0
100
AcDbCircle
10
248.90941821542728
20
-203.39467166656109
30
0
40
1.499999953958334
0
CIRCLE
5
235
100
AcDbEntity
8
0
100
AcDbCircle
10
217.90908642695712
20
-203.39467166656109
30
0
40
1.499999953958334
0
ELLIPSE
5
236
100
AcDbEntity
8
0
100
AcDbEllipse
10
233.40926022341435
20
-218.89496512523979
30
0
11
0
21
11.197007987796482
31
0.0
40
0.9999999243845622
41
0
42
6.2831853071795862
0
LWPOLYLINE
5
237
100
AcDbEntity
8
0
100
AcDbPolyline
90
6
70
1
43
0.0
10
221.8853164099616
20
-189.04200912992928
10
321.88844512521985
20
-189.04200912992928
10
321.88844512521985
20
-248.74797408286426
10
221.8853164099616
20
-248.74797408286426
10
206.88685645460257
20
-232.4645301233565
10
206.88685645460254
20
-205.32545308943702
0
CIRCLE
5
238
100
AcDbEntity
8
0
100
AcDbCircle
10
318.29164485405749
20
-234.15807056317874
30
0
40
1.499999953958334
0
CIRCLE
5
239
100
AcDbEntity
8
0
100
AcDbCircle
10
318.29164485405749
20
-203.63191330952279
30
0
40
1.499999953958334
0
LWPOLYLINE
5
240
100
AcDbEntity
8
0
100
AcDbPolyline
90
4
70
1
43
0.0
10
306.42196024041834
20
-191.38864489715434
10
268.33597845623353
20
-191.38864489715434
10
268.33597845623353
20
-246.4013587311027
10
306.42196024041834
20
-246.40135873110268
0
CIRCLE
5
241
100
AcDbEntity
8
0
100
AcDbCircle
10
175.2608785912862
20
-272.23228622077045
30
0
40
7.5494240772605448
0
LWPOLYLINE
5
242
100
AcDbEntity
8
0
100
AcDbPolyline
90
10
70
1
43
0.0
10
165.68037812981015
20
-259.20818943214067
10
165.75150212567638
20
-282.38478494972185
10
189.55685340375931
20
-282.26611863644439
10
189.59251014181768
20
-279.41649069744034
10
185.71321207036019
20
-272.29599083010538
10
189.46979584136938
20
-259.0940835639845
10
208.66466198659242
20
-259.18036597989487
10
208.66452418277385
20
-253.24621918674239
10
160.7496024716084
20
-253.23575040289941
10
160.74791437483074
20
-259.18719157528409
0
CIRCLE
5
243
100
AcDbEntity
8
0
100
AcDbCircle
10
185.13498741846189
20
-278.86279531266314
30
0
40
1.5121951712154471
0
CIRCLE
5
244
100
AcDbEntity
8
0
100
AcDbCircle
10
25.02506479914889
20
-271.65996213545861
30
0
40
7.5494240772605448
0
LWPOLYLINE
5
245
100
AcDbEntity
8
0
100
AcDbPolyline
90
10
70
1
43
0.0
10
15.444564337672855
20
-258.63586534682884
10
15.515688333539096
20
-281.81246086441001
10
39.32103961162197
20
-281.69379455113256
10
39.356696349680369
20
-278.8441666121285
10
35.47739827822285
20
-271.72366674479355
10
39.233982049232054
20
-258.52175947867261
10
58.428848194455121
20
-258.60804189458304
10
58.428710390636532
20
-252.6738951014305
10
10.513788679471103
20
-252.66342631758755
10
10.51210058269346
20
-258.6148674899722
0
CIRCLE
5
246
100
AcDbEntity
8
0
100
AcDbCircle
10
34.89917362632459
20
-278.29047122735125
30
0
40
1.5121951712154471
0
CIRCLE
5
247
100
AcDbEntity
8
0
100
AcDbCircle
10
124.60631733232164
20
-272.02945593314928
30
0
40
7.5494240772605448
0
LWPOLYLINE
5
248
100
AcDbEntity
8
0
100
AcDbPolyline
90
10
70
1
43
0.0
10
115.02581687084559
20
-259.00535914451945
10
115.09694086671183
20
-282.18195466210068
10
138.90229214479473
20
-282.06328834882322
10
138.93794888285311
20
-279.21366040981917
10
135.05865081139558
20
-272.09316054248416
10
138.8152345824048
20
-258.89125327636327
10
158.01010072762787
20
-258.9775356922737
10
158.0099629238093
20
-253.0433888991212
10
110.09504121264386
20
-253.03292011527822
10
110.09335311586622
20
-258.98436128766286
0
CIRCLE
5
249
100
AcDbEntity
8
0
100
AcDbCircle
10
134.48042615949734
20
-278.65996502504191
30
0
40
1.5121951712154471
0
CIRCLE
5
250
100
AcDbEntity
8
0
100
AcDbCircle
10
75.005793131213792
20
-271.96175646690568
30
0
40
7.5494240772605448
0
LWPOLYLINE
5
251
100
AcDbEntity
8
0
100
AcDbPolyline
90
10
70
1
43
0.0
10
65.425292669737757
20
-258.93765967827591
10
65.496416665604002
20
-282.11425519585708
10
89.301767943686883
20
-281.99558888257963
10
89.337424681745276
20
-279.14596094357557
10
85.458126610287749
20
-272.02546107624062
10
89.214710381296968
20
-258.82355381011973
10
108.40957652652001
20
-258.90983622603011
10
108.40943872270145
20
-252.97568943287763
10
60.494517011536011
20
-252.96522064903468
10
60.49282891475837
20
-258.91666182141932
0
CIRCLE
5
252
100
AcDbEntity
8
0
100
AcDbCircle
10
84.879901958389496
20
-278.59226555879837
30
0
40
1.5121951712154471
0
CIRCLE
5
253
100
AcDbEntity
8
0
100
AcDbCircle
10
418.19483451961571
20
-242.48465307335982
30
0
40
7.5494240772605448
0
LWPOLYLINE
5
254
100
AcDbEntity
8
0
100
AcDbPolyline
90
10
70
1
43
0.0
10
408.61433405813966
20
-229.46055628473005
10
408.68545805400595
20
-252.63715180231122
10
432.49080933208882
20
-252.51848548903379
10
432.52646607014719
20
-249.66885755002974
10
428.64716799868972
20
-242.54835768269476
10
432.40375176969894
20
-229.34645041657382
10
451.59861791492187
20
-229.43273283248428
10
451.59848011110341
20
-223.49858603933174
10
403.68355839993797
20
-223.48811725548876
10
403.68187030316028
20
-229.43955842787344
0
CIRCLE
5
255
100
AcDbEntity
8
0
100
AcDbCircle
10
428.06894334679134
20
-249.11516216525251
30
0
40
1.5121951712154471
0
CIRCLE
5
256
100
AcDbEntity
8
0
100
AcDbCircle
10
590.9421638399449
20
-235.30921802931744
30
0
40
7.5494240772605448
0
LWPOLYLINE
5
257
100
AcDbEntity
8
0
100
AcDbPolyline
90
10
70
1
43
0.0
10
577.91806705131512
20
-244.88971849079348
10
601.09466256889641
20
-244.81859449492725
10
600.97599625561895
20
-221.01324321684433
10
598.12636831661484
20
-220.97758647878592
10
591.00586844927989
20
-224.85688455024345
10
577.80396118315889
20
-221.10030077923426
10
577.89024359906932
20
-201.90543463401121
10
571.9560968059169
20
-201.90557243782976
10
571.94562802207383
20
-249.82049414899521
10
577.8970691944586
20
-249.82218224577284
0
CIRCLE
5
258
100
AcDbEntity
8
0
100
AcDbCircle
10
597.57267293183747
20
-225.43510920214172
30
0
40
1.5121951712154471
0
CIRCLE
5
259
100
AcDbEntity
8
0
100
AcDbCircle
10
255.07599038355289
20
-279.05144957815071
30
0
40
7.5494240772605448
0
LWPOLYLINE
5
260
100
AcDbEntity
8
0
100
AcDbPolyline
90
10
70
1
43
0.0
10
264.65649084502894
20
-292.07554636678049
10
264.58536684916271
20
-268.89895084919931
10
240.78001557107979
20
-269.01761716247677
10
240.74435883302141
20
-271.86724510148082
10
244.62365690447893
20
-278.98774496881578
10
240.86707313346975
20
-292.18965223493672
10
221.67220698824664
20
-292.10336981902628
10
221.67234479206527
20
-298.03751661217882
10
269.58726650323069
20
-298.04798539602177
10
269.58895460000832
20
-292.09654422363712
0
CIRCLE
5
261
100
AcDbEntity
8
0
100
AcDbCircle
10
245.2018815563772
20
-272.42094048625808
30
0
40
1.5121951712154471
0
CIRCLE
5
262
100
AcDbEntity
8
0
100
AcDbCircle
10
204.31741810079399
20
-278.75010398003405
30
0
40
7.5494240772605448
0
LWPOLYLINE
5
263
100
AcDbEntity
8
0
100
AcDbPolyline
90
10
70
1
43
0.0
10
213.89791856226998
20
-291.77420076866389
10
213.82679456640375
20
-268.59760525108265
10
190.02144328832088
20
-268.71627156436011
10
189.98578655026247
20
-271.56589950336422
10
193.86508462172
20
-278.68639937069918
10
190.10850085071081
20
-291.88830663682006
10
170.91363470548771
20
-291.80202422090969
10
170.91377250930634
20
-297.73617101406217
10
218.82869422047176
20
-297.74663979790512
10
218.83038231724939
20
-291.79519862552047
0
CIRCLE
5
264
100
AcDbEntity
8
0
100
AcDbCircle
10
194.44330927361824
20
-272.11959488814148
30
0
40
1.5121951712154471
0
CIRCLE
5
265
100
AcDbEntity
8
0
100
AcDbCircle
10
153.30425879740397
20
-279.22464935484595
30
0
40
7.5494240772605448
0
LWPOLYLINE
5
266
100
AcDbEntity
8
0
100
AcDbPolyline
90
10
70
1
43
0.0
10
162.88475925888002
20
-292.24874614347578
10
162.81363526301377
20
-269.07215062589455
10
139.00828398493087
20
-269.19081693917201
10
138.97262724687249
20
-272.04044487817606
10
142.85192531833002
20
-279.16094474551107
10
139.0953415473208
20
-292.36285201163196
10
119.90047540209774
20
-292.27656959572153
10
119.9006132059163
20
-298.21071638887406
10
167.81553491708178
20
-298.22118517271701
10
167.8172230138594
20
-292.26974400033237
0
CIRCLE
5
267
100
AcDbEntity
8
0
100
AcDbCircle
10
143.43014997022826
20
-272.59414026295332
30
0
40
1.5121951712154471
0
CIRCLE
5
268
100
AcDbEntity
8
0
100
AcDbCircle
10
339.71883696564618
20
-148.70571441503375
30
0
40
7.5494240772605448
0
LWPOLYLINE
5
269
100
AcDbEntity
8
0
100
AcDbPolyline
90
10
70
1
43
0.0
10
330.13833650417013
20
-135.68161762640398
10
330.20946050003636
20
-158.85821314398515
10
354.01481177811922
20
-158.73954683070772
10
354.05046851617772
20
-155.88991889170364
10
350.17117044472013
20
-148.76941902436869
10
353.92775421572935
20
-135.5675117582478
10
373.12262036095234
20
-135.65379417415818
10
373.12248255713382
20
-129.7196473810057
10
325.20756084596837
20
-129.70917859716272
10
325.20587274919075
20
-135.66061976954734
0
CIRCLE
5
270
100
AcDbEntity
8
0
100
AcDbCircle
10
349.59294579282192
20
-155.33622350692642
30
0
40
1.5121951712154471
0
CIRCLE
5
271
100
AcDbEntity
8
0
100
AcDbCircle
10
339.71883696564618
20
-179.40020311208212
30
0
40
7.5494240772605448
0
LWPOLYLINE
5
272
100
AcDbEntity
8
0
100
AcDbPolyline
90
10
70
1
43
0.0
10
330.13833650417013
20
-166.37610632345229
10
330.20946050003636
20
-189.55270184103347
10
354.01481177811922
20
-189.43403552775607
10
354.05046851617772
20
-186.58440758875199
10
350.17117044472013
20
-179.463907721417
10
353.92775421572935
20
-166.26200045529612
10
373.12262036095234
20
-166.34828287120652
10
373.12248255713382
20
-160.41413607805401
10
325.20756084596837
20
-160.40366729421106
10
325.20587274919075
20
-166.35510846659571
0
CIRCLE
5
273
100
AcDbEntity
8
0
100
AcDbCircle
10
349.59294579282192
20
-186.03071220397476
30
0
40
1.5121951712154471
0
CIRCLE
5
274
100
AcDbEntity
8
0
100
AcDbCircle
10
340.28328140656288
20
-210.24537589707757
30
0
40
7.5494240772605448
0
LWPOLYLINE
5
275
100
AcDbEntity
8
0
100
AcDbPolyline
90
10
70
1
43
0.0
10
330.70278094508683
20
-197.22127910844773
10
330.77390494095306
20
-220.39787462602891
10
354.57925621903593
20
-220.27920831275151
10
354.61491295709436
20
-217.4295803737474
10
350.73561488563683
20
-210.30908050641244
10
354.492198656646
20
-197.10717324029156
10
373.68706480186904
20
-197.19345565620193
10
373.68692699805052
20
-191.25930886304945
10
325.77200528688508
20
-191.2488400792065
10
325.77031719010739
20
-197.20028125159115
0
CIRCLE
5
276
100
AcDbEntity
8
0
100
AcDbCircle
10
350.15739023373851
20
-216.87588498897017
30
0
40
1.5121951712154471
0
CIRCLE
5
277
100
AcDbEntity
8
0
100
AcDbCircle
10
103.52029579744261
20
-279.19357668837353
30
0
40
7.5494240772605448
0
LWPOLYLINE
5
278
100
AcDbEntity
8
0
100
AcDbPolyline
90
10
70
1
43
0.0
10
113.10079625891866
20
-292.2176734770033
10
113.02967226305242
20
-269.04107795942213
10
89.224320984969538
20
-269.15974427269958
10
89.188664246911159
20
-272.00937221170364
10
93.067962318368672
20
-279.12987207903859
10
89.311378547359453
20
-292.33177934515953
10
70.116512402136394
20
-292.2454969292491
10
70.116650205954983
20
-298.17964372240164
10
118.0315719171204
20
-298.19011250624459
10
118.03326001389806
20
-292.23867133385994
0
CIRCLE
5
279
100
AcDbEntity
8
0
100
AcDbCircle
10
93.646186970266925
20
-272.56306759648089
30
0
40
1.5121951712154471
0
CIRCLE
5
280
100
AcDbEntity
8
0
100
AcDbCircle
10
52.98166775775347
20
-279.19354846615141
30
0
40
7.5494240772605448
0
LWPOLYLINE
5
281
100
AcDbEntity
8
0
100
AcDbPolyline
90
10
70
1
43
0.0
10
62.562168219229505
20
-292.21764525478125
10
62.491044223363268
20
-269.04104973720001
10
38.685692945280394
20
-269.15971605047747
10
38.650036207222001
20
-272.00934398948152
10
42.529334278679514
20
-279.12984385681648
10
38.772750507670317
20
-292.33175112293742
10
19.57788436244725
20
-292.24546870702699
10
19.578022166265832
20
-298.17961550017952
10
67.492943877431259
20
-298.19008428402248
10
67.494631974208914
20
-292.23864311163783
0
CIRCLE
5
282
100
AcDbEntity
8
0
100
AcDbCircle
10
43.107558930577774
20
-272.56303937425878
30
0
40
1.5121951712154471
0
CIRCLE
5
283
100
AcDbEntity
8
0
100
AcDbCircle
10
341.92775924072942
20
-242.22541220831343
30
0
40
7.5494240772605448
0
LWPOLYLINE
5
284
100
AcDbEntity
8
0
100
AcDbPolyline
90
10
70
1
43
0.0
10
332.34725877925337
20
-229.20131541968362
10
332.4183827751196
20
-252.37791093726483
10
356.22373405320246
20
-252.25924462398737
10
356.25939079126084
20
-249.40961668498329
10
352.38009271980332
20
-242.28911681764831
10
356.13667649081253
20
-229.08720955152742
10
375.33154263603558
20
-229.17349196743785
10
375.331404832217
20
-223.23934517428535
10
327.41648312105161
20
-223.22887639044237
10
327.41479502427399
20
-229.18031756282701
0
CIRCLE
5
285
100
AcDbEntity
8
0
100
AcDbCircle
10
351.80186806790505
20
-248.85592130020603
30
0
40
1.5121951712154471
0
ELLIPSE
5
286
100
AcDbEntity
8
0
100
AcDbEllipse
10
276.36609724826747
20
-272.45451245627044
30
0
11
-4.4721127787159629
21
0
31
0.0
40
0.99999993689286593
41
0
42
6.2831853071795862
0
LWPOLYLINE
5
287
100
AcDbEntity
8
0
100
AcDbPolyline
90
10
70
1
43
0.0
10
266.78559960901362
20
-259.43042413430726
10
266.8567236048799
20
-282.60701965188849
10
290.66207488296277
20
-282.48835333861103
10
290.69773162102115
20
-279.63872539960698
10
286.81843354956368
20
-272.51822553227203
10
290.57501732057284
20
-259.31631826615109
10
309.76988346579594
20
-259.40260068206152
10
309.76974566197731
20
-253.46845388890901
10
261.85482395081186
20
-253.45798510506603
10
261.85313585403424
20
-259.40942627745068
0
CIRCLE
5
288
100
AcDbEntity
8
0
100
AcDbCircle
10
286.24020889766535
20
-279.08503001482973
30
0
40
1.5121951712154471
0
CIRCLE
5
289
100
AcDbEntity
8
0
100
AcDbCircle
10
526.25783562199967
20
-272.9875354604946
30
0
40
7.5494240772605448
0
LWPOLYLINE
5
290
100
AcDbEntity
8
0
100
AcDbPolyline
90
10
70
1
43
0.0
10
516.67733516052363
20
-259.96343867186482
10
516.74845915638991
20
-283.140034189446
10
540.55381043447278
20
-283.02136787616854
10
540.58946717253116
20
-280.17173993716449
10
536.71016910107369
20
-273.05124006982953
10
540.46675287208291
20
-259.84933280370859
10
559.66161901730584
20
-259.93561521961902
10
559.66148121348738
20
-254.00146842646652
10
511.74655950232193
20
-253.99099964262354
10
511.74487140554425
20
-259.94244081500818
0
CIRCLE
5
291
100
AcDbEntity
8
0
100
AcDbCircle
10
536.13194444917531
20
-279.61804455238729
30
0
40
1.5121951712154471
0
CIRCLE
5
292
100
AcDbEntity
8
0
100
AcDbCircle
10
476.43102282230615
20
-272.83685137254747
30
0
40
7.5494240772605448
0
LWPOLYLINE
5
293
100
AcDbEntity
8
0
100
AcDbPolyline
90
10
70
1
43
0.0
10
466.8505223608301
20
-259.81275458391769
10
466.92164635669633
20
-282.98935010149887
10
490.72699763477931
20
-282.87068378822141
10
490.76265437283769
20
-280.02105584921736
10
486.8833563013801
20
-272.90055598188241
10
490.63994007238932
20
-259.69864871576146
10
509.83480621761237
20
-259.7849311316719
10
509.83466841379379
20
-253.85078433851942
10
461.91974670262834
20
-253.84031555467644
10
461.91805860585072
20
-259.79175672706111
0
CIRCLE
5
294
100
AcDbEntity
8
0
100
AcDbCircle
10
486.30513164948184
20
-279.46736046444011
30
0
40
1.5121951712154471
0
CIRCLE
5
295
100
AcDbEntity
8
0
100
AcDbCircle
10
326.19519689461345
20
-272.26452728723564
30
0
40
7.5494240772605448
0
LWPOLYLINE
5
296
100
AcDbEntity
8
0
100
AcDbPolyline
90
10
70
1
43
0.0
10
316.6146964331374
20
-259.2404304986058
10
316.68582042900363
20
-282.41702601618704
10
340.49117170708655
20
-282.29835970290958
10
340.52682844514493
20
-279.44873176390553
10
336.6475303736874
20
-272.32823189657051
10
340.40411414469656
20
-259.12632463044963
10
359.59898028991967
20
-259.21260704636006
10
359.59884248610109
20
-253.27846025320753
10
311.68392077493564
20
-253.26799146936455
10
311.68223267815802
20
-259.21943264174922
0
CIRCLE
5
297
100
AcDbEntity
8
0
100
AcDbCircle
10
336.06930572178908
20
-278.89503637912827
30
0
40
1.5121951712154471
0
CIRCLE
5
298
100
AcDbEntity
8
0
100
AcDbCircle
10
425.77644942778613
20
-272.6340210849263
30
0
40
7.5494240772605448
0
LWPOLYLINE
5
299
100
AcDbEntity
8
0
100
AcDbPolyline
90
10
70
1
43
0.0
10
416.19594896631008
20
-259.60992429629653
10
416.26707296217631
20
-282.7865198138777
10
440.07242424025924
20
-282.66785350060024
10
440.10808097831762
20
-279.81822556159619
10
436.22878290686009
20
-272.69772569426124
10
439.98536667786931
20
-259.4958184281403
10
459.18023282309235
20
-259.58210084405073
10
459.18009501927378
20
-253.64795405089822
10
411.26517330810833
20
-253.63748526705524
10
411.2634852113307
20
-259.58892643943989
0
CIRCLE
5
300
100
AcDbEntity
8
0
100
AcDbCircle
10
435.65055825496188
20
-279.26453017681894
30
0
40
1.5121951712154471
0
CIRCLE
5
301
100
AcDbEntity
8
0
100
AcDbCircle
10
376.17592522667826
20
-272.56632161868276
30
0
40
7.5494240772605448
0
LWPOLYLINE
5
302
100
AcDbEntity
8
0
100
AcDbPolyline
90
10
70
1
43
0.0
10
366.59542476520221
20
-259.54222483005293
10
366.6665487610685
20
-282.71882034763411
10
390.47190003915142
20
-282.60015403435671
10
390.5075567772098
20
-279.7505260953526
10
386.62825870575227
20
-272.63002622801764
10
390.38484247676143
20
-259.42811896189676
10
409.57970862198454
20
-259.51440137780713
10
409.57957081816596
20
-253.58025458465465
10
361.66464910700051
20
-253.5697858008117
10
361.66296101022283
20
-259.52122697319635
0
CIRCLE
5
303
100
AcDbEntity
8
0
100
AcDbCircle
10
386.05003405385401
20
-279.1968307105754
30
0
40
1.5121951712154471
0
CIRCLE
5
304
100
AcDbEntity
8
0
100
AcDbCircle
10
556.24610272346195
20
-279.65602601881653
30
0
40
7.5494240772605448
0
LWPOLYLINE
5
305
100
AcDbEntity
8
0
100
AcDbPolyline
90
10
70
1
43
0.0
10
565.82660318493799
20
-292.68012280744637
10
565.75547918907171
20
-269.50352728986513
10
541.95012791098884
20
-269.62219360314259
10
541.91447117293046
20
-272.47182154214664
10
545.79376924438793
20
-279.59232140948166
10
542.03718547337883
20
-292.79422867560254
10
522.84231932815578
20
-292.70794625969211
10
522.84245713197424
20
-298.64209305284464
10
570.75737884313969
20
-298.6525618366876
10
570.75906693991737
20
-292.70112066430295
0
CIRCLE
5
306
100
AcDbEntity
8
0
100
AcDbCircle
10
546.3719938962862
20
-273.0255169269239
30
0
40
1.5121951712154471
0
CIRCLE
5
307
100
AcDbEntity
8
0
100
AcDbCircle
10
505.48753044070304
20
-279.35466913181114
30
0
40
7.5494240772605448
0
LWPOLYLINE
5
308
100
AcDbEntity
8
0
100
AcDbPolyline
90
10
70
1
43
0.0
10
515.06803090217909
20
-292.37876592044091
10
514.9969069063128
20
-269.20217040285974
10
491.19155562822993
20
-269.32083671613719
10
491.15589889017156
20
-272.17046465514125
10
495.03519696162914
20
-279.29096452247626
10
491.27861319061992
20
-292.49287178859714
10
472.08374704539688
20
-292.40658937268671
10
472.08388484921545
20
-298.34073616583919
10
519.99880656038079
20
-298.3512049496822
10
520.00049465715847
20
-292.39976377729755
0
CIRCLE
5
309
100
AcDbEntity
8
0
100
AcDbCircle
10
495.61342161352735
20
-272.7241600399185
30
0
40
1.5121951712154471
0
CIRCLE
5
310
100
AcDbEntity
8
0
100
AcDbCircle
10
454.47437113731303
20
-279.82922579551177
30
0
40
7.5494240772605448
0
LWPOLYLINE
5
311
100
AcDbEntity
8
0
100
AcDbPolyline
90
10
70
1
43
0.0
10
464.05487159878908
20
-292.85332258414161
10
463.98374760292285
20
-269.67672706656043
10
440.17839632483998
20
-269.79539337983783
10
440.14273958678154
20
-272.64502131884194
10
444.02203765823907
20
-279.7655211861769
10
440.26545388722985
20
-292.96742845229778
10
421.07058774200686
20
-292.88114603638741
10
421.07072554582538
20
-298.81529282953989
10
468.98564725699083
20
-298.82576161338284
10
468.98733535376846
20
-292.87432044099819
0
CIRCLE
5
312
100
AcDbEntity
8
0
100
AcDbCircle
10
444.60026231013734
20
-273.19871670361914
30
0
40
1.5121951712154471
0
CIRCLE
5
313
100
AcDbEntity
8
0
100
AcDbCircle
10
404.69042789290711
20
-279.79815312903941
30
0
40
7.5494240772605448
0
LWPOLYLINE
5
314
100
AcDbEntity
8
0
100
AcDbPolyline
90
10
70
1
43
0.0
10
414.27092835438316
20
-292.82224991766918
10
414.19980435851693
20
-269.64565440008801
10
390.394453080434
20
-269.76432071336541
10
390.35879634237563
20
-272.61394865236946
10
394.2380944138331
20
-279.73444851970447
10
390.48151064282393
20
-292.93635578582541
10
371.28664449760089
20
-292.85007336991492
10
371.28678230141941
20
-298.78422016306746
10
419.20170401258486
20
-298.79468894691047
10
419.20339210936254
20
-292.84324777452576
0
CIRCLE
5
315
100
AcDbEntity
8
0
100
AcDbCircle
10
394.81631906573136
20
-273.16764403714672
30
0
40
1.5121951712154471
0
CIRCLE
5
316
100
AcDbEntity
8
0
100
AcDbCircle
10
354.15179420877359
20
-279.79812490681729
30
0
40
7.5494240772605448
0
LWPOLYLINE
5
317
100
AcDbEntity
8
0
100
AcDbPolyline
90
10
70
1
43
0.0
10
363.73229467024964
20
-292.82222169544707
10
363.66117067438336
20
-269.64562617786589
10
339.85581939630049
20
-269.76429249114335
10
339.82016265824205
20
-272.61392043014735
10
343.69946072969958
20
-279.73442029748236
10
339.94287695869042
20
-292.9363275636033
10
320.74801081346743
20
-292.85004514769287
10
320.74814861728589
20
-298.78419194084535
10
368.66307032845134
20
-298.79466072468836
10
368.66475842522902
20
-292.84321955230371
0
CIRCLE
5
318
100
AcDbEntity
8
0
100
AcDbCircle
10
344.27768538159791
20
-273.1676158149246
30
0
40
1.5121951712154471
0
ELLIPSE
5
319
100
AcDbEntity
8
0
100
AcDbEllipse
10
304.4974172102244
20
-279.65041662640715
30
0
11
4.4721127787159629
21
0
31
0.0
40
0.99999993689286593
41
0
42
6.2831853071795862
0
LWPOLYLINE
5
320
100
AcDbEntity
8
0
100
AcDbPolyline
90
10
70
1
43
0.0
10
314.0779148494783
20
-292.67450494837033
10
314.00679085361207
20
-269.49790943078915
10
290.20143957552921
20
-269.61657574406661
10
290.16578283747083
20
-272.46620368307066
10
294.0450809089283
20
-279.58670355040562
10
290.28849713791914
20
-292.78861081652656
10
271.09363099269603
20
-292.70232840061612
10
271.09376879651461
20
-298.6364751937686
10
319.00869050768006
20
-298.64694397761161
10
319.01037860445774
20
-292.69550280522697
0
CIRCLE
5
321
100
AcDbEntity
8
0
100
AcDbCircle
10
294.62330556082662
20
-273.01989906784792
30
0
40
1.5121951712154471
0
CIRCLE
5
322
100
AcDbEntity
8
0
100
AcDbCircle
10
394.38080220178671
20
-101.73492275304562
30
0
40
1.5121951712154471
0
LWPOLYLINE
5
323
100
AcDbEntity
8
0
100
AcDbPolyline
90
6
70
1
43
0.0
10
380.54031916150154
20
-102.09295612372459
10
376.86056101935242
20
-108.3654328233454
10
380.54031916150154
20
-114.6379095229662
10
387.89983544579968
20
-114.63790952296621
10
391.57959358794875
20
-108.3654328233454
10
387.89983544579968
20
-102.09295612372459
0
CIRCLE
5
324
100
AcDbEntity
8
0
100
AcDbCircle
10
403.29277935497572
20
-108.36543184493829
30
0
40
7.5494240772605448
0
LWPOLYLINE
5
325
100
AcDbEntity
8
0
100
AcDbPolyline
90
8
70
1
43
0.0
10
412.87331127210268
20
-121.38952794661603
10
412.80217866349773
20
-98.212934582219518
10
374.87924819576335
20
-98.212960420435508
10
374.84765667035327
20
-121.38500195244944
10
369.88902741532036
20
-121.41735355204651
10
369.88916521913893
20
-127.3514981920143
10
417.80407831756571
20
-127.36196912904197
10
417.80577502708195
20
-121.41052580347265
0
ELLIPSE
5
326
100
AcDbEntity
8
0
100
AcDbEllipse
10
403.16441848022242
20
-78.011658745760457
30
0
11
4.4721127787159629
21
0
31
0.0
40
0.99999993689286593
41
0
42
6.2831853071795862
0
ELLIPSE
5
327
100
AcDbEntity
8
0
100
AcDbEllipse
10
384.09171382164908
20
-78.011658745760457
30
0
11
4.4721127787159629
21
0
31
0.0
40
0.99999993689286593
41
0
42
6.2831853071795862
0
LWPOLYLINE
5
328
100
AcDbEntity
8
0
100
AcDbPolyline
90
8
70
1
43
0.0
10
412.65396698276169
20
-91.03574618026704
10
412.58284298689546
20
-67.859150662685849
10
374.65992113189986
20
-67.859185113640507
10
374.62832960648967
20
-91.031220186100427
10
369.66970035145675
20
-91.063569632512838
10
369.66983815527533
20
-96.997716425665303
10
417.58474264096344
20
-97.008185209508298
10
417.58643073774113
20
-91.056744037123636
0
CIRCLE
5
329
100
AcDbEntity
8
0
100
AcDbCircle
10
393.79212051657703
20
-71.381141187201194
30
0
40
1.5121951712154471
0
CIRCLE
5
330
100
AcDbEntity
8
0
100
AcDbCircle
10
389.46665576583348
20
-140.02181571375255
30
0
40
7.5494240772605448
0
LWPOLYLINE
5
331
100
AcDbEntity
8
0
100
AcDbPolyline
90
10
70
1
43
0.0
10
399.04715622730953
20
-153.04591250238232
10
398.9760322314433
20
-129.86931698480115
10
375.17068095336037
20
-129.98798329807857
10
375.135024215302
20
-132.83761123708263
10
379.01432228675952
20
-139.95811110441761
10
375.2577385157503
20
-153.16001837053852
10
356.06287237052726
20
-153.07373595462815
10
356.06301017434583
20
-159.0078827477806
10
403.97793188551128
20
-159.01835153162358
10
403.97961998228891
20
-153.06691035923893
0
CIRCLE
5
332
100
AcDbEntity
8
0
100
AcDbCircle
10
379.59254693865779
20
-133.39130662185988
30
0
40
1.5121951712154471
0
CIRCLE
5
333
100
AcDbEntity
8
0
100
AcDbCircle
10
425.47044998525422
20
-206.46303087627274
30
0
40
7.5494240772605448
0
LWPOLYLINE
5
334
100
AcDbEntity
8
0
100
AcDbPolyline
90
10
70
1
43
0.0
10
412.44635319662444
20
-216.04353133774879
10
435.62294871420562
20
-215.97240734188256
10
435.5042824009281
20
-192.16705606379963
10
432.65465446192411
20
-192.13139932574126
10
425.5341545945891
20
-196.01069739719878
10
412.33224732846821
20
-192.25411362618959
10
412.41852974437859
20
-173.05924748096652
10
406.48438295122617
20
-173.05938528478515
10
406.47391416738316
20
-220.97430699595054
10
412.42535533976786
20
-220.97599509272817
0
CIRCLE
5
335
100
AcDbEntity
8
0
100
AcDbCircle
10
432.10095907714685
20
-196.58892204909705
30
0
40
1.5121951712154471
0
CIRCLE
5
336
100
AcDbEntity
8
0
100
AcDbCircle
10
389.38740776632875
20
-170.3968542572419
30
0
40
7.5494240772605448
0
LWPOLYLINE
5
337
100
AcDbEntity
8
0
100
AcDbPolyline
90
10
70
1
43
0.0
10
398.9679082278048
20
-183.4209510458717
10
398.89678423193857
20
-160.2443555282905
10
375.0914329538557
20
-160.36302184156796
10
375.05577621579732
20
-163.21264978057201
10
378.93507428725479
20
-170.33314964790696
10
375.17849051624557
20
-183.5350569140279
10
355.98362437102259
20
-183.44877449811747
10
355.9837621748411
20
-189.38292129127001
10
403.89868388600655
20
-189.39339007511296
10
403.90037198278424
20
-183.44194890272831
0
CIRCLE
5
338
100
AcDbEntity
8
0
100
AcDbCircle
10
379.51329893915317
20
-163.76634516534924
30
0
40
1.5121951712154471
0
CIRCLE
5
339
100
AcDbEntity
8
0
100
AcDbCircle
10
390.39406620448165
20
-201.42689388552637
30
0
40
7.5494240772605448
0
LWPOLYLINE
5
340
100
AcDbEntity
8
0
100
AcDbPolyline
90
10
70
1
43
0.0
10
399.9745666659577
20
-214.45099067415615
10
399.90344267009141
20
-191.27439515657497
10
376.09809139200854
20
-191.3930614698524
10
376.06243465395011
20
-194.24268940885645
10
379.94173272540763
20
-201.36318927619143
10
376.18514895439841
20
-214.56509654231238
10
356.99028280917548
20
-214.47881412640191
10
356.99042061299394
20
-220.41296091955445
10
404.90534232415939
20
-220.42342970339743
10
404.90703042093708
20
-214.47198853101276
0
CIRCLE
5
341
100
AcDbEntity
8
0
100
AcDbCircle
10
380.51995737730584
20
-194.79638479363373
30
0
40
1.5121951712154471
0
CIRCLE
5
342
100
AcDbEntity
8
0
100
AcDbCircle
10
392.52961352446778
20
-233.61426475102201
30
0
40
7.5494240772605448
0
LWPOLYLINE
5
343
100
AcDbEntity
8
0
100
AcDbPolyline
90
10
70
1
43
0.0
10
402.11011398594383
20
-246.63836153965178
10
402.03898999007754
20
-223.46176602207061
10
378.23363871199462
20
-223.58043233534804
10
378.19798197393624
20
-226.43006027435209
10
382.07728004539376
20
-233.55056014168707
10
378.32069627438455
20
-246.75246740780796
10
359.1258301291615
20
-246.66618499189755
10
359.12596793298007
20
-252.60033178505006
10
407.04088964414552
20
-252.61080056889301
10
407.04257774092321
20
-246.65935939650839
0
CIRCLE
5
344
100
AcDbEntity
8
0
100
AcDbCircle
10
382.65550469729197
20
-226.98375565912932
30
0
40
1.5121951712154471
0
CIRCLE
5
345
100
AcDbEntity
8
0
100
AcDbCircle
10
580.03719884143425
20
-181.8373853079608
30
0
40
7.5494240772605448
0
LWPOLYLINE
5
346
100
AcDbEntity
8
0
100
AcDbPolyline
90
10
70
1
43
0.0
10
593.06129563006402
20
-172.25688484648475
10
569.88470011248285
20
-172.32800884235101
10
570.0033664257603
20
-196.13336012043391
10
572.8529943647643
20
-196.16901685849231
10
579.97349423209937
20
-192.28971878703479
10
593.17540149822025
20
-196.04630255804398
10
593.08911908230994
20
-215.24116870326705
10
599.02326587546224
20
-215.24103089944845
10
599.03373465930531
20
-167.32610918828303
10
593.08229348692055
20
-167.3244210915054
0
CIRCLE
5
347
100
AcDbEntity
8
0
100
AcDbCircle
10
573.40668974954156
20
-191.71149413513655
30
0
40
1.5121951712154471
0
CIRCLE
5
348
100
AcDbEntity
8
0
100
AcDbCircle
10
101.93970742954352
20
-236.39148444944215
30
0
40
1.499999953958334
0
CIRCLE
5
349
100
AcDbEntity
8
0
100
AcDbCircle
10
132.94004204023588
20
-236.39148444944215
30
0
40
1.499999953958334
0
CIRCLE
5
350
100
AcDbEntity
8
0
100
AcDbCircle
10
101.93970742954352
20
-205.39082979875178
30
0
40
1.499999953958334
0
CIRCLE
5
351
100
AcDbEntity
8
0
100
AcDbCircle
10
132.94004204023588
20
-205.39082979875178
30
0
40
1.499999953958334
0
LINE
5
352
100
AcDbEntity
8
0
100
AcDbLine
10
128.96379454953188
20
-191.03829977128842
30
0
11
143.96236216412416
21
-207.3217501903502
31
0
0
LINE
5
353
100
AcDbEntity
8
0
100
AcDbLine
10
143.96236216412416
20
-207.3217501903502
30
0
11
143.96236216412416
21
-234.46083422211984
31
0
0
LINE
5
354
100
AcDbEntity
8
0
100
AcDbLine
10
143.96236216412416
20
-234.46083422211984
30
0
11
128.96379454953188
21
-250.74428464118159
31
0
0
LINE
5
355
100
AcDbEntity
8
0
100
AcDbLine
10
128.96379454953188
20
-250.74428464118159
30
0
11
28.930900209459676
21
-250.74428464118159
31
0
0
LINE
5
356
100
AcDbEntity
8
0
100
AcDbLine
10
28.930900209459676
20
-250.74428464118159
30
0
11
28.932596918975975
21
-246.94455966221722
31
0
0
LINE
5
357
100
AcDbEntity
8
0
100
AcDbLine
10
28.932596918975975
20
-246.94455966221722
30
0
11
60.830322414059637
21
-246.94455966221722
31
0
0
LINE
5
358
100
AcDbEntity
8
0
100
AcDbLine
10
60.830322414059637
20
-246.94455966221722
30
0
11
60.830322414059637
21
-238.94422117055268
31
0
0
LINE
5
359
100
AcDbEntity
8
0
100
AcDbLine
10
60.830322414059637
20
-238.94422117055268
30
0
11
28.935352995347635
21
-238.94422117055262
31
0
0
LINE
5
360
100
AcDbEntity
8
0
100
AcDbLine
10
28.935352995347635
20
-238.94422117055262
30
0
11
28.937609532876934
21
-233.67700610201871
31
0
0
LINE
5
361
100
AcDbEntity
8
0
100
AcDbLine
10
28.937609532876934
20
-233.67700610201871
30
0
11
117.43687547281209
21
-233.50337329060395
31
0
0
SPLINE
5
362
100
AcDbEntity
8
0
100
AcDbSpline
70
1064
71
3
72
8
73
4
74
0
42
0.000000001
43
0.0000000001
44
0.0000000001
40
0
40
0
40
0
40
0
40
1
40
1
40
1
40
1
10
117.4368754728121
20
-233.50337329060395
30
0
10
124.33972712780296
20
-233.50337329060395
30
0
10
129.93568181830565
20
-228.42826535791369
30
0
10
129.93568181830565
20
-220.93401138999582
30
0
0
SPLINE
5
363
100
AcDbEntity
8
0
100
AcDbSpline
70
1064
71
3
72
8
73
4
74
0
42
0.000000001
43
0.0000000001
44
0.0000000001
40
0
40
0
40
0
40
0
40
1
40
1
40
1
40
1
10
129.93568181830565
20
-220.93401138999582
30
0
10
129.93568181830565
20
-213.43976603481661
30
0
10
124.33972712780296
20
-208.36464948938766
30
0
10
117.4368754728121
20
-208.36464948938766
30
0
0
LINE
5
364
100
AcDbEntity
8
0
100
AcDbLine
10
117.4368754728121
20
-208.36464948938766
30
0
11
28.94422411616894
21
-208.53166771751046
31
0
0
LINE
5
365
100
AcDbEntity
8
0
100
AcDbLine
10
28.94422411616894
20
-208.53166771751046
30
0
11
28.937618145615602
21
-208.56143334232442
31
0
0
LINE
5
366
100
AcDbEntity
8
0
100
AcDbLine
10
28.937618145615602
20
-208.56143334232442
30
0
11
28.9353616080863
21
-202.88777452361813
31
0
0
LINE
5
367
100
AcDbEntity
8
0
100
AcDbLine
10
28.9353616080863
20
-202.88777452361813
30
0
11
60.830331026798305
21
-202.88777452361811
31
0
0
LINE
5
368
100
AcDbEntity
8
0
100
AcDbLine
10
60.830331026798305
20
-202.88777452361811
30
0
11
60.830331026798305
21
-194.88798724722787
31
0
0
LINE
5
369
100
AcDbEntity
8
0
100
AcDbLine
10
60.830331026798305
20
-194.88798724722787
30
0
11
28.932605531714639
21
-194.88798724722787
31
0
0
LINE
5
370
100
AcDbEntity
8
0
100
AcDbLine
10
28.932605531714639
20
-194.88798724722787
30
0
11
28.930908822198333
21
-191.03829977128842
31
0
0
LINE
5
371
100
AcDbEntity
8
0
100
AcDbLine
10
28.930908822198333
20
-191.03829977128842
30
0
11
128.96379454953188
21
-191.03829977128842
31
0
0
CIRCLE
5
372
100
AcDbEntity
8
0
100
AcDbCircle
10
32.557482729849085
20
-236.15437175099078
30
0
40
1.499999953958334
0
CIRCLE
5
373
100
AcDbEntity
8
0
100
AcDbCircle
10
32.557482729849085
20
-205.62821449733485
30
0
40
1.499999953958334
0
CIRCLE
5
374
100
AcDbEntity
8
0
100
AcDbCircle
10
190.90113254020125
20
-195.46791252943672
30
0
40
1.499999953958334
0
CIRCLE
5
375
100
AcDbEntity
8
0
100
AcDbCircle
10
190.90113254020125
20
-226.46824431790679
30
0
40
1.499999953958334
0
CIRCLE
5
376
100
AcDbEntity
8
0
100
AcDbCircle
10
159.90048917839968
20
-195.46791252943672
30
0
40
1.499999953958334
0
CIRCLE
5
377
100
AcDbEntity
8
0
100
AcDbCircle
10
159.90048917839968
20
-226.46824431790679
30
0
40
1.499999953958334
0
ELLIPSE
5
378
100
AcDbEntity
8
0
100
AcDbEllipse
10
175.40078263707841
20
-210.96807052144956
30
0
11
-11.197007987796482
21
0
31
0.0
40
0.9999999243845622
41
0
42
6.2831853071795862
0
LWPOLYLINE
5
379
100
AcDbEntity
8
0
100
AcDbPolyline
90
6
70
1
43
0.0
10
145.5478266417679
20
-222.49201433490236
10
145.5478266417679
20
-122.48888561964412
10
205.2537915947029
20
-122.48888561964412
10
205.25379159470288
20
-222.49201433490236
10
188.97034763519514
20
-237.49047429026137
10
161.83127060127566
20
-237.49047429026137
0
CIRCLE
5
380
100
AcDbEntity
8
0
100
AcDbCircle
10
190.66388807501738
20
-126.08568589080642
30
0
40
1.499999953958334
0
CIRCLE
5
381
100
AcDbEntity
8
0
100
AcDbCircle
10
160.13773082136143
20
-126.08568589080642
30
0
40
1.499999953958334
0
CIRCLE
5
382
100
AcDbEntity
8
0
100
AcDbCircle
10
101.4547367659079
20
-154.3967007396873
30
0
40
1.499999953958334
0
CIRCLE
5
383
100
AcDbEntity
8
0
100
AcDbCircle
10
132.45507137660024
20
-154.3967007396873
30
0
40
1.499999953958334
0
CIRCLE
5
384
100
AcDbEntity
8
0
100
AcDbCircle
10
101.4547367659079
20
-123.39604608899697
30
0
40
1.499999953958334
0
CIRCLE
5
385
100
AcDbEntity
8
0
100
AcDbCircle
10
132.45507137660024
20
-123.39604608899697
30
0
40
1.499999953958334
0
LINE
5
386
100
AcDbEntity
8
0
100
AcDbLine
10
128.47882388589625
20
-109.04351606153361
30
0
11
143.47739150048855
21
-125.32696648059539
31
0
0
LINE
5
387
100
AcDbEntity
8
0
100
AcDbLine
10
143.47739150048855
20
-125.32696648059539
30
0
11
143.47739150048855
21
-152.466050512365
31
0
0
LINE
5
388
100
AcDbEntity
8
0
100
AcDbLine
10
143.47739150048855
20
-152.466050512365
30
0
11
128.47882388589625
21
-168.74950093142675
31
0
0
LINE
5
389
100
AcDbEntity
8
0
100
AcDbLine
10
128.47882388589625
20
-168.74950093142675
30
0
11
28.445929545824047
21
-168.74950093142675
31
0
0
LINE
5
390
100
AcDbEntity
8
0
100
AcDbLine
10
28.445929545824047
20
-168.74950093142675
30
0
11
28.447626255340346
21
-164.94977595246237
31
0
0
LINE
5
391
100
AcDbEntity
8
0
100
AcDbLine
10
28.447626255340346
20
-164.94977595246237
30
0
11
60.345351750424015
21
-164.94977595246237
31
0
0
LINE
5
392
100
AcDbEntity
8
0
100
AcDbLine
10
60.345351750424015
20
-164.94977595246237
30
0
11
60.345351750424008
21
-156.94943746079781
31
0
0
LINE
5
393
100
AcDbEntity
8
0
100
AcDbLine
10
60.345351750424008
20
-156.94943746079781
30
0
11
28.450382331712007
21
-156.94943746079781
31
0
0
LINE
5
394
100
AcDbEntity
8
0
100
AcDbLine
10
28.450382331712007
20
-156.94943746079781
30
0
11
28.452638869241312
21
-151.68222239226392
31
0
0
LINE
5
395
100
AcDbEntity
8
0
100
AcDbLine
10
28.452638869241312
20
-151.68222239226392
30
0
11
116.95190480917647
21
-151.50858958084913
31
0
0
SPLINE
5
396
100
AcDbEntity
8
0
100
AcDbSpline
70
1064
71
3
72
8
73
4
74
0
42
0.000000001
43
0.0000000001
44
0.0000000001
40
0
40
0
40
0
40
0
40
1
40
1
40
1
40
1
10
116.95190480917647
20
-151.50858958084913
30
0
10
123.85475646416734
20
-151.50858958084913
30
0
10
129.45071115467005
20
-146.43348164815882
30
0
10
129.45071115467005
20
-138.93922768024098
30
0
0
SPLINE
5
397
100
AcDbEntity
8
0
100
AcDbSpline
70
1064
71
3
72
8
73
4
74
0
42
0.000000001
43
0.0000000001
44
0.0000000001
40
0
40
0
40
0
40
0
40
1
40
1
40
1
40
1
10
129.45071115467005
20
-138.93922768024098
30
0
10
129.45071115467005
20
-131.44498232506177
30
0
10
123.85475646416734
20
-126.36986577963282
30
0
10
116.95190480917647
20
-126.36986577963282
30
0
0
LINE
5
398
100
AcDbEntity
8
0
100
AcDbLine
10
116.95190480917647
20
-126.36986577963282
30
0
11
28.459253452533311
21
-126.53688400775562
31
0
0
LINE
5
399
100
AcDbEntity
8
0
100
AcDbLine
10
28.459253452533311
20
-126.53688400775562
30
0
11
28.452647481979977
21
-126.56664963256958
31
0
0
LINE
5
400
100
AcDbEntity
8
0
100
AcDbLine
10
28.452647481979977
20
-126.56664963256958
30
0
11
28.450390944450675
21
-120.89299081386328
31
0
0
LINE
5
401
100
AcDbEntity
8
0
100
AcDbLine
10
28.450390944450675
20
-120.89299081386328
30
0
11
60.345360363162683
21
-120.89299081386328
31
0
0
LINE
5
402
100
AcDbEntity
8
0
100
AcDbLine
10
60.345360363162683
20
-120.89299081386328
30
0
11
60.345360363162676
21
-112.89320353747306
31
0
0
LINE
5
403
100
AcDbEntity
8
0
100
AcDbLine
10
60.345360363162676
20
-112.89320353747306
30
0
11
28.44763486807901
21
-112.89320353747306
31
0
0
LINE
5
404
100
AcDbEntity
8
0
100
AcDbLine
10
28.44763486807901
20
-112.89320353747306
30
0
11
28.445938158562708
21
-109.04351606153361
31
0
0
LINE
5
405
100
AcDbEntity
8
0
100
AcDbLine
10
28.445938158562708
20
-109.04351606153361
30
0
11
128.47882388589625
21
-109.04351606153361
31
0
0
CIRCLE
5
406
100
AcDbEntity
8
0
100
AcDbCircle
10
32.072512066213456
20
-154.15958804123593
30
0
40
1.499999953958334
0
CIRCLE
5
407
100
AcDbEntity
8
0
100
AcDbCircle
10
32.072512066213456
20
-123.63343078757995
30
0
40
1.499999953958334
0
CIRCLE
5
408
100
AcDbEntity
8
0
100
AcDbCircle
10
101.93191809625887
20
-50.267250857163013
30
0
40
1.499999953958334
0
CIRCLE
5
409
100
AcDbEntity
8
0
100
AcDbCircle
10
132.93225270695123
20
-50.267250857163013
30
0
40
1.499999953958334
0
CIRCLE
5
410
100
AcDbEntity
8
0
100
AcDbCircle
10
101.93191809625887
20
-19.266596206472663
30
0
40
1.499999953958334
0
CIRCLE
5
411
100
AcDbEntity
8
0
100
AcDbCircle
10
132.93225270695123
20
-19.266596206472663
30
0
40
1.499999953958334
0
LINE
5
412
100
AcDbEntity
8
0
100
AcDbLine
10
128.95600521624721
20
-4.914066179009307
30
0
11
143.95457283083951
21
-21.197516598071076
31
0
0
LINE
5
413
100
AcDbEntity
8
0
100
AcDbLine
10
143.95457283083951
20
-21.197516598071076
30
0
11
143.95457283083951
21
-48.336600629840696
31
0
0
LINE
5
414
100
AcDbEntity
8
0
100
AcDbLine
10
143.95457283083951
20
-48.336600629840696
30
0
11
128.95600521624721
21
-64.620051048902468
31
0
0
LINE
5
415
100
AcDbEntity
8
0
100
AcDbLine
10
128.95600521624721
20
-64.620051048902468
30
0
11
28.92311087617502
21
-64.620051048902468
31
0
0
LINE
5
416
100
AcDbEntity
8
0
100
AcDbLine
10
28.92311087617502
20
-64.620051048902468
30
0
11
28.924807585691319
21
-60.820326069938069
31
0
0
LINE
5
417
100
AcDbEntity
8
0
100
AcDbLine
10
28.924807585691319
20
-60.820326069938069
30
0
11
60.822533080774988
21
-60.820326069938069
31
0
0
LINE
5
418
100
AcDbEntity
8
0
100
AcDbLine
10
60.822533080774988
20
-60.820326069938069
30
0
11
60.822533080774981
21
-52.819987578273519
31
0
0
LINE
5
419
100
AcDbEntity
8
0
100
AcDbLine
10
60.822533080774981
20
-52.819987578273519
30
0
11
28.92756366206298
21
-52.819987578273519
31
0
0
LINE
5
420
100
AcDbEntity
8
0
100
AcDbLine
10
28.92756366206298
20
-52.819987578273519
30
0
11
28.929820199592285
21
-47.552772509739619
31
0
0
LINE
5
421
100
AcDbEntity
8
0
100
AcDbLine
10
28.929820199592285
20
-47.552772509739619
30
0
11
117.42908613952744
21
-47.379139698324828
31
0
0
SPLINE
5
422
100
AcDbEntity
8
0
100
AcDbSpline
70
1064
71
3
72
8
73
4
74
0
42
0.000000001
43
0.0000000001
44
0.0000000001
40
0
40
0
40
0
40
0
40
1
40
1
40
1
40
1
10
117.42908613952744
20
-47.379139698324828
30
0
10
124.3319377945183
20
-47.379139698324828
30
0
10
129.927892485021
20
-42.304031765634527
30
0
10
129.927892485021
20
-34.80977779771667
30
0
0
SPLINE
5
423
100
AcDbEntity
8
0
100
AcDbSpline
70
1064
71
3
72
8
73
4
74
0
42
0.000000001
43
0.0000000001
44
0.0000000001
40
0
40
0
40
0
40
0
40
1
40
1
40
1
40
1
10
129.927892485021
20
-34.80977779771667
30
0
10
129.927892485021
20
-27.315532442537474
30
0
10
124.3319377945183
20
-22.240415897108512
30
0
10
117.42908613952744
20
-22.240415897108512
30
0
0
LINE
5
424
100
AcDbEntity
8
0
100
AcDbLine
10
117.42908613952744
20
-22.24041589710852
30
0
11
28.936434782884284
21
-22.407434125231319
31
0
0
LINE
5
425
100
AcDbEntity
8
0
100
AcDbLine
10
28.936434782884284
20
-22.407434125231319
30
0
11
28.92982881233095
21
-22.437199750045277
31
0
0
LINE
5
426
100
AcDbEntity
8
0
100
AcDbLine
10
28.92982881233095
20
-22.437199750045277
30
0
11
28.927572274801648
21
-16.76354093133898
31
0
0
LINE
5
427
100
AcDbEntity
8
0
100
AcDbLine
10
28.927572274801648
20
-16.76354093133898
30
0
11
60.822541693513649
21
-16.76354093133898
31
0
0
LINE
5
428
100
AcDbEntity
8
0
100
AcDbLine
10
60.822541693513649
20
-16.76354093133898
30
0
11
60.822541693513649
21
-8.7637536549487614
31
0
0
LINE
5
429
100
AcDbEntity
8
0
100
AcDbLine
10
60.822541693513649
20
-8.7637536549487614
30
0
11
28.924816198429983
21
-8.7637536549487614
31
0
0
LINE
5
430
100
AcDbEntity
8
0
100
AcDbLine
10
28.924816198429983
20
-8.7637536549487614
30
0
11
28.923119488913681
21
-4.914066179009307
31
0
0
LINE
5
431
100
AcDbEntity
8
0
100
AcDbLine
10
28.923119488913681
20
-4.914066179009307
30
0
11
128.95600521624721
21
-4.914066179009307
31
0
0
CIRCLE
5
432
100
AcDbEntity
8
0
100
AcDbCircle
10
32.549693396564429
20
-50.030138158711637
30
0
40
1.499999953958334
0
CIRCLE
5
433
100
AcDbEntity
8
0
100
AcDbCircle
10
32.549693396564429
20
-19.503980905055677
30
0
40
1.499999953958334
0
CIRCLE
5
434
100
AcDbEntity
8
0
100
AcDbCircle
10
515.44017014072119
20
-49.186078612586989
30
0
40
1.499999953958334
0
CIRCLE
5
435
100
AcDbEntity
8
0
100
AcDbCircle
10
546.44050192919144
20
-49.186078612586989
30
0
40
1.499999953958334
0
CIRCLE
5
436
100
AcDbEntity
8
0
100
AcDbCircle
10
515.44017014072119
20
-18.185435250785424
30
0
40
1.499999953958334
0
CIRCLE
5
437
100
AcDbEntity
8
0
100
AcDbCircle
10
546.44050192919144
20
-18.185435250785424
30
0
40
1.499999953958334
0
LWPOLYLINE
5
438
100
AcDbEntity
8
0
100
AcDbPolyline
90
6
70
1
43
0.0
10
542.46427194618695
20
-3.8327727141536228
10
442.46114323092866
20
-3.8327727141536183
10
442.46114323092866
20
-63.538737667088625
10
542.46427194618695
20
-63.538737667088625
10
557.46273190154602
20
-47.255293707580854
10
557.46273190154591
20
-20.116216673661395
0
CIRCLE
5
439
100
AcDbEntity
8
0
100
AcDbCircle
10
446.05794350209101
20
-48.948834147403126
30
0
40
1.499999953958334
0
CIRCLE
5
440
100
AcDbEntity
8
0
100
AcDbCircle
10
446.05794350209101
20
-18.422676893747159
30
0
40
1.499999953958334
0
CIRCLE
5
441
100
AcDbEntity
8
0
100
AcDbCircle
10
493.72696616531761
20
-112.93483517437954
30
0
40
1.499999953958334
0
CIRCLE
5
442
100
AcDbEntity
8
0
100
AcDbCircle
10
524.7272979537878
20
-112.93483517437954
30
0
40
1.499999953958334
0
CIRCLE
5
443
100
AcDbEntity
8
0
100
AcDbCircle
10
493.72696616531761
20
-81.934191812577964
30
0
40
1.499999953958334
0
CIRCLE
5
444
100
AcDbEntity
8
0
100
AcDbCircle
10
524.7272979537878
20
-81.934191812577964
30
0
40
1.499999953958334
0
LWPOLYLINE
5
445
100
AcDbEntity
8
0
100
AcDbPolyline
90
6
70
1
43
0.0
10
520.75106797078331
20
-67.581529275946139
10
420.74793925552507
20
-67.581529275946139
10
420.74793925552507
20
-127.28749422888114
10
520.75106797078331
20
-127.28749422888114
10
535.74952792614238
20
-111.00405026937335
10
535.74952792614226
20
-83.864973235453917
0
CIRCLE
5
446
100
AcDbEntity
8
0
100
AcDbCircle
10
424.34473952668736
20
-112.69759070919564
30
0
40
1.499999953958334
0
CIRCLE
5
447
100
AcDbEntity
8
0
100
AcDbCircle
10
424.34473952668736
20
-82.17143345553967
30
0
40
1.499999953958334
0
LWPOLYLINE
5
448
100
AcDbEntity
8
0
100
AcDbPolyline
90
4
70
1
43
0.0
10
431.5716569471216
20
-69.933465176471415
10
479.49375198094185
20
-69.933465176471415
10
479.49375198094185
20
-124.93556463270832
10
431.5716569471216
20
-124.93556463270832
0
CIRCLE
5
449
100
AcDbEntity
8
0
100
AcDbCircle
10
493.7895066093713
20
-174.65271454175391
30
0
40
1.499999953958334
0
CIRCLE
5
450
100
AcDbEntity
8
0
100
AcDbCircle
10
524.78983839784144
20
-174.65271454175391
30
0
40
1.499999953958334
0
CIRCLE
5
451
100
AcDbEntity
8
0
100
AcDbCircle
10
493.7895066093713
20
-143.65207117995232
30
0
40
1.499999953958334
0
CIRCLE
5
452
100
AcDbEntity
8
0
100
AcDbCircle
10
524.78983839784144
20
-143.65207117995232
30
0
40
1.499999953958334
0
LWPOLYLINE
5
453
100
AcDbEntity
8
0
100
AcDbPolyline
90
6
70
1
43
0.0
10
520.81360841483695
20
-129.2994086433205
10
420.81047969957871
20
-129.2994086433205
10
420.81047969957871
20
-189.00537359625554
10
520.81360841483695
20
-189.00537359625548
10
535.8120683701959
20
-172.72192963674772
10
535.8120683701959
20
-145.5828526028283
0
CIRCLE
5
454
100
AcDbEntity
8
0
100
AcDbCircle
10
424.40727997074106
20
-174.41547007656999
30
0
40
1.499999953958334
0
CIRCLE
5
455
100
AcDbEntity
8
0
100
AcDbCircle
10
424.40727997074106
20
-143.88931282291404
30
0
40
1.499999953958334
0
LWPOLYLINE
5
456
100
AcDbEntity
8
0
100
AcDbPolyline
90
4
70
1
43
0.0
10
431.63419739117529
20
-131.65134454384577
10
479.55629242499555
20
-131.65134454384577
10
479.55629242499555
20
-186.65344400008269
10
431.63419739117529
20
-186.65344400008269
0
CIRCLE
5
457
100
AcDbEntity
8
0
100
AcDbCircle
10
526.52729264920447
20
-236.98599309217084
30
0
40
1.499999953958334
0
CIRCLE
5
458
100
AcDbEntity
8
0
100
AcDbCircle
10
557.5276244376746
20
-236.98599309217084
30
0
40
1.499999953958334
0
CIRCLE
5
459
100
AcDbEntity
8
0
100
AcDbCircle
10
526.52729264920447
20
-205.98534973036931
30
0
40
1.499999953958334
0
CIRCLE
5
460
100
AcDbEntity
8
0
100
AcDbCircle
10
557.5276244376746
20
-205.98534973036931
30
0
40
1.499999953958334
0
LWPOLYLINE
5
461
100
AcDbEntity
8
0
100
AcDbPolyline
90
6
70
1
43
0.0
10
553.55139445467012
20
-191.6326871937375
10
453.54826573941187
20
-191.6326871937375
10
453.54826573941193
20
-251.3386521466725
10
553.55139445467012
20
-251.3386521466725
10
568.54985441002918
20
-235.05520818716474
10
568.54985441002918
20
-207.91613115324526
0
CIRCLE
5
462
100
AcDbEntity
8
0
100
AcDbCircle
10
457.14506601057423
20
-236.74874862698698
30
0
40
1.499999953958334
0
CIRCLE
5
463
100
AcDbEntity
8
0
100
AcDbCircle
10
457.14506601057423
20
-206.22259137333103
30
0
40
1.499999953958334
0
LWPOLYLINE
5
464
100
AcDbEntity
8
0
100
AcDbPolyline
90
4
70
1
43
0.0
10
469.01475062421349
20
-193.97932296096258
10
507.10073240839824
20
-193.97932296096258
10
507.10073240839819
20
-248.99203679491094
10
469.01475062421343
20
-248.99203679491092
0
CIRCLE
5
465
100
AcDbEntity
8
0
100
AcDbCircle
10
590.24180117765547
20
-92.742778402579859
30
0
40
1.499999953958334
0
CIRCLE
5
466
100
AcDbEntity
8
0
100
AcDbCircle
10
590.24180117765547
20
-61.74244661410971
30
0
40
1.499999953958334
0
CIRCLE
5
467
100
AcDbEntity
8
0
100
AcDbCircle
10
559.24115781585385
20
-92.742778402579859
30
0
40
1.499999953958334
0
CIRCLE
5
468
100
AcDbEntity
8
0
100
AcDbCircle
10
559.24115781585385
20
-61.74244661410971
30
0
40
1.499999953958334
0
LWPOLYLINE
5
469
100
AcDbEntity
8
0
100
AcDbPolyline
90
6
70
1
43
0.0
10
544.88849527922207
20
-65.718676597114182
10
544.88849527922207
20
-165.72180531237245
10
604.59446023215719
20
-165.72180531237245
10
604.59446023215719
20
-65.718676597114182
10
588.31101627264945
20
-50.720216641755165
10
561.17193923872992
20
-50.720216641755158
0
CIRCLE
5
470
100
AcDbEntity
8
0
100
AcDbCircle
10
590.00455671247164
20
-162.1250050412101
30
0
40
1.499999953958334
0
CIRCLE
5
471
100
AcDbEntity
8
0
100
AcDbCircle
10
559.4783994588156
20
-162.1250050412101
30
0
40
1.499999953958334
0
LWPOLYLINE
5
472
100
AcDbEntity
8
0
100
AcDbPolyline
90
4
70
1
43
0.0
10
547.23513104644712
20
-150.25532042757095
10
547.23513104644712
20
-112.16933864338611
10
602.24784488039552
20
-112.16933864338611
10
602.24784488039552
20
-150.25532042757095
0
CIRCLE
5
473
100
AcDbEntity
8
0
100
AcDbCircle
10
413.66191385905751
20
-33.53558197262484
30
0
40
1.5121951712154471
0
CIRCLE
5
474
100
AcDbEntity
8
0
100
AcDbCircle
10
530.94034534828961
20
-33.685742820575221
30
0
40
1.5121951712154471
0
CIRCLE
5
475
100
AcDbEntity
8
0
100
AcDbCircle
10
509.22712726177497
20
-97.434502402145483
30
0
40
1.5121951712154471
0
CIRCLE
5
476
100
AcDbEntity
8
0
100
AcDbCircle
10
509.28966770582855
20
-159.1523787497421
30
0
40
1.5121951712154471
0
CIRCLE
5
477
100
AcDbEntity
8
0
100
AcDbCircle
10
542.02744527899517
20
-221.48566322682572
30
0
40
1.5121951712154471
0
CIRCLE
5
478
100
AcDbEntity
8
0
100
AcDbCircle
10
574.74145974119926
20
-77.24262012834474
30
0
40
1.5121951712154471
0
ENDSEC
0
SECTION
2
OBJECTS
0
DICTIONARY
5
C
100
AcDbDictionary
3
ACAD_GROUP
350
D
3
ACAD_MLINESTYLE
350
17
0
DICTIONARY
5
D
100
AcDbDictionary
0
DICTIONARY
5
1A
330
C
100
AcDbDictionary
0
DICTIONARY
5
17
100
AcDbDictionary
0
ENDSEC
0
EOF
