999
dxfrw 0.6.3
  0
SECTION
  2
HEADER
  9
$ACADVER
  1
AC1021
  9
$DWGCODEPAGE
  3
ANSI_1252
  9
$INSBASE
 10
0
 20
0
 30
0
  9
$EXTMIN
 10
-29.2288440487404
 20
0
 30
0
  9
$EXTMAX
 10
297
 20
210
 30
0
  9
$LIMMIN
 10
0
 20
0
  9
$LIMMAX
 10
297
 20
210
  9
$ORTHOMODE
 70
    0
  9
$REGENMODE
 70
    1
  9
$FILLMODE
 70
    1
  9
$QTEXTMODE
 70
    0
  9
$MIRRTEXT
 70
    0
  9
$LTSCALE
 40
0.75
  9
$ATTMODE
 70
    1
  9
$TEXTSIZE
 40
3.5
  9
$TRACEWID
 40
1
  9
$TEXTSTYLE
  7
Standard
  9
$CLAYER
  8
Dimensions
  9
$CELTYPE
  6
ByLayer
  9
$CECOLOR
 62
  256
  9
$CELTSCALE
 40
1
  9
$DISPSILH
 70
    0
  9
$DIMSCALE
 40
1
  9
$DIMASZ
 40
3.5
  9
$DIMEXO
 40
2
  9
$DIMDLI
 40
9.899495
  9
$DIMRND
 40
0
  9
$DIMDLE
 40
0
  9
$DIMEXE
 40
2
  9
$DIMTP
 40
0.1
  9
$DIMTM
 40
0.1
  9
$DIMTXT
 40
3.5
  9
$DIMCEN
 40
0
  9
$DIMTSZ
 40
0
  9
$DIMTOL
 70
    0
  9
$DIMLIM
 70
    0
  9
$DIMTIH
 70
    0
  9
$DIMTOH
 70
    0
  9
$DIMSE1
 70
    0
  9
$DIMSE2
 70
    0
  9
$DIMTAD
 70
    1
  9
$DIMZIN
 70
   12
  9
$DIMBLK
  1

  9
$DIMASO
 70
    1
  9
$DIMSHO
 70
    1
  9
$DIMPOST
  1

  9
$DIMAPOST
  1
in
  9
$DIMALT
 70
    0
  9
$DIMALTD
 70
    4
  9
$DIMALTF
 40
0.03937
  9
$DIMLFAC
 40
1
  9
$DIMTOFL
 70
    1
  9
$DIMTVP
 40
0
  9
$DIMTIX
 70
    0
  9
$DIMSOXD
 70
    0
  9
$DIMSAH
 70
    0
  9
$DIMBLK1
  1

  9
$DIMBLK2
  1

  9
$DIMSTYLE
  2
ISO-25
  9
$DIMCLRD
 70
  256
  9
$DIMCLRE
 70
  256
  9
$DIMCLRT
 70
  256
  9
$DIMTFAC
 40
0.714
  9
$DIMGAP
 40
1.5
  9
$DIMJUST
 70
    0
  9
$DIMSD1
 70
    0
  9
$DIMSD2
 70
    0
  9
$DIMTOLJ
 70
    0
  9
$DIMTZIN
 70
   12
  9
$DIMALTZ
 70
   12
  9
$DIMALTTZ
 70
   12
  9
$DIMUPT
 70
    0
  9
$DIMDEC
 70
    2
  9
$DIMTDEC
 70
    2
  9
$DIMALTU
 70
    2
  9
$DIMALTTD
 70
    4
  9
$DIMTXSTY
  7
Standard
  9
$DIMAUNIT
 70
    0
  9
$DIMADEC
 70
    2
  9
$DIMALTRND
 40
0
  9
$DIMAZIN
 70
    3
  9
$DIMDSEP
 70
   46
  9
$DIMATFIT
 70
    3
  9
$DIMFRAC
 70
    0
  9
$DIMLDRBLK
  1

  9
$DIMLUNIT
 70
    2
  9
$DIMLWD
 70
   -2
  9
$DIMLWE
 70
   -2
  9
$DIMTMOVE
 70
    0
  9
$DIMFXL
 40
1
  9
$DIMFXLON
 70
    0
  9
$DIMJOGANG
 40
0.785398
  9
$DIMTFILL
 70
    0
  9
$DIMTFILLCLR
 70
    0
  9
$DIMARCSYM
 70
    0
  9
$DIMLTYPE
  6

  9
$DIMLTEX1
  6

  9
$DIMLTEX2
  6

  9
$LUNITS
 70
    2
  9
$LUPREC
 70
    4
  9
$SKETCHINC
 40
1
  9
$FILLETRAD
 40
0
  9
$AUNITS
 70
    0
  9
$AUPREC
 70
    0
  9
$MENU
  1
.
  9
$ELEVATION
 40
0
  9
$PELEVATION
 40
0
  9
$THICKNESS
 40
0
  9
$LIMCHECK
 70
    0
  9
$CHAMFERA
 40
0
  9
$CHAMFERB
 40
0
  9
$CHAMFERC
 40
0
  9
$CHAMFERD
 40
0
  9
$SKPOLY
 70
    0
  9
$USRTIMER
 70
    1
  9
$ANGBASE
 50
0
  9
$ANGDIR
 70
    0
  9
$PDMODE
 70
    0
  9
$PDSIZE
 40
0
  9
$PLINEWID
 40
0
  9
$SPLFRAME
 70
    0
  9
$SPLINETYPE
 70
    6
  9
$SPLINESEGS
 70
    8
  9
$HANDSEED
  5
20000
  9
$SURFTAB1
 70
    6
  9
$SURFTAB2
 70
    6
  9
$SURFTYPE
 70
    6
  9
$SURFU
 70
    6
  9
$SURFV
 70
    6
  9
$UCSBASE
  2

  9
$UCSNAME
  2

  9
$UCSORG
 10
0
 20
0
 30
0
  9
$UCSXDIR
 10
1
 20
0
 30
0
  9
$UCSYDIR
 10
0
 20
1
 30
0
  9
$UCSORTHOREF
  2

  9
$UCSORTHOVIEW
 70
    0
  9
$UCSORGTOP
 10
0
 20
0
 30
0
  9
$UCSORGBOTTOM
 10
0
 20
0
 30
0
  9
$UCSORGLEFT
 10
0
 20
0
 30
0
  9
$UCSORGRIGHT
 10
0
 20
0
 30
0
  9
$UCSORGFRONT
 10
0
 20
0
 30
0
  9
$UCSORGBACK
 10
0
 20
0
 30
0
  9
$PUCSBASE
  2

  9
$PUCSNAME
  2

  9
$PUCSORG
 10
0
 20
0
 30
0
  9
$PUCSXDIR
 10
1
 20
0
 30
0
  9
$PUCSYDIR
 10
0
 20
1
 30
0
  9
$PUCSORTHOREF
  2

  9
$PUCSORTHOVIEW
 70
    0
  9
$PUCSORGTOP
 10
0
 20
0
 30
0
  9
$PUCSORGBOTTOM
 10
0
 20
0
 30
0
  9
$PUCSORGLEFT
 10
0
 20
0
 30
0
  9
$PUCSORGRIGHT
 10
0
 20
0
 30
0
  9
$PUCSORGFRONT
 10
0
 20
0
 30
0
  9
$PUCSORGBACK
 10
0
 20
0
 30
0
  9
$USERI1
 70
    0
  9
$USERI2
 70
    0
  9
$USERI3
 70
    0
  9
$USERI4
 70
    0
  9
$USERI5
 70
    0
  9
$USERR1
 40
0
  9
$USERR2
 40
0
  9
$USERR3
 40
0
  9
$USERR4
 40
0
  9
$USERR5
 40
0
  9
$WORLDVIEW
 70
    1
  9
$SHADEDGE
 70
    3
  9
$SHADEDIF
 70
   70
  9
$TILEMODE
 70
    1
  9
$MAXACTVP
 70
   64
  9
$PINSBASE
 10
0
 20
0
 30
0
  9
$PLIMCHECK
 70
    0
  9
$PEXTMIN
 10
1e+020
 20
1e+020
 30
1e+020
  9
$PEXTMAX
 10
-1e+020
 20
-1e+020
 30
-1e+020
  9
$GRIDMODE
 70
    0
  9
$SNAPSTYLE
 70
    0
  9
$PLIMMIN
 10
0
 20
0
  9
$PLIMMAX
 10
12
 20
9
  9
$UNITMODE
 70
    0
  9
$VISRETAIN
 70
    1
  9
$PLINEGEN
 70
    0
  9
$PSLTSCALE
 70
    1
  9
$TREEDEPTH
 70
 3020
  9
$CMLSTYLE
  2
Standard
  9
$CMLJUST
 70
    0
  9
$CMLSCALE
 40
20
  9
$PROXYGRAPHICS
 70
    1
  9
$MEASUREMENT
 70
    1
  9
$CELWEIGHT
370
   -1
  9
$ENDCAPS
280
    0
  9
$JOINSTYLE
280
    0
  9
$LWDISPLAY
290
    0
  9
$INSUNITS
 70
    4
  9
$HYPERLINKBASE
  1

  9
$STYLESHEET
  1

  9
$XEDIT
290
    1
  9
$CEPSNTYPE
380
    0
  9
$PSTYLEMODE
290
    1
  9
$EXTNAMES
290
    1
  9
$PSVPSCALE
 40
0
  9
$OLESTARTUP
290
    0
  9
$SORTENTS
280
  127
  9
$INDEXCTL
280
    0
  9
$HIDETEXT
280
    1
  9
$XCLIPFRAME
290
    2
  9
$HALOGAP
280
    0
  9
$OBSCOLOR
 70
  257
  9
$OBSLTYPE
280
    0
  9
$INTERSECTIONDISPLAY
280
    0
  9
$INTERSECTIONCOLOR
 70
  257
  9
$DIMASSOC
280
    2
  9
$PROJECTNAME
  1

  9
$CAMERADISPLAY
290
    0
  9
$LENSLENGTH
 40
50
  9
$CAMERAHEIGHT
 40
0
  9
$STEPSPERSEC
 40
2
  9
$STEPSIZE
 40
6
  9
$3DDWFPREC
 40
2
  9
$PSOLWIDTH
 40
5
  9
$PSOLHEIGHT
 40
80
  9
$LOFTANG1
 40
1.570796
  9
$LOFTANG2
 40
1.570796
  9
$LOFTMAG1
 40
0
  9
$LOFTMAG2
 40
0
  9
$LOFTPARAM
 70
    7
  9
$LOFTNORMALS
280
    1
  9
$LATITUDE
 40
37.795
  9
$LONGITUDE
 40
-122.394
  9
$NORTHDIRECTION
 40
0
  9
$TIMEZONE
 70
-8000
  9
$LIGHTGLYPHDISPLAY
280
    1
  9
$TILEMODELIGHTSYNCH
280
    1
  9
$SOLIDHIST
280
    0
  9
$SHOWHIST
280
    1
  9
$DWFFRAME
280
    2
  9
$DGNFRAME
280
    0
  9
$REALWORLDSCALE
290
    1
  9
$INTERFERECOLOR
 62
    1
  9
$CSHADOW
280
    0
  9
$SHADOWPLANELOCATION
 40
0
  0
ENDSEC
  0
SECTION
  2
CLASSES
  0
ENDSEC
  0
SECTION
  2
TABLES
  0
TABLE
  2
VPORT
  5
8
330
0
100
AcDbSymbolTable
 70
    1
  0
VPORT
  5
31
330
2
100
AcDbSymbolTableRecord
100
AcDbViewportTableRecord
  2
*ACTIVE
 70
    0
 10
0
 20
0
 11
1
 21
1
 12
136.0025994245534
 22
121.1934274872131
 13
0
 23
0
 14
10
 24
10
 15
10
 25
10
 16
0
 26
0
 36
1
 17
0
 27
0
 37
0
 40
229.3910510294133
 41
2.060606060606061
 42
50
 43
0
 44
0
 50
0
 51
0
 71
    0
 72
  100
 73
    1
 74
    3
 75
    0
 76
    0
 77
    0
 78
    0
281
    0
 65
    1
110
0
120
0
130
0
111
1
121
0
131
0
112
0
122
1
132
0
 79
    0
146
0
348
10020
 60
    7
 61
    5
292
1
282
    1
141
0
142
0
 63
  250
421
3358443
  0
ENDTAB
  0
TABLE
  2
LTYPE
  5
5
330
0
100
AcDbSymbolTable
 70
    4
  0
LTYPE
  5
14
330
5
100
AcDbSymbolTableRecord
100
AcDbLinetypeTableRecord
  2
ByBlock
 70
    0
  3

 72
   65
 73
    0
 40
0
  0
LTYPE
  5
15
330
5
100
AcDbSymbolTableRecord
100
AcDbLinetypeTableRecord
  2
ByLayer
 70
    0
  3

 72
   65
 73
    0
 40
0
  0
LTYPE
  5
16
330
5
100
AcDbSymbolTableRecord
100
AcDbLinetypeTableRecord
  2
Continuous
 70
    0
  3
Solid line
 72
   65
 73
    0
 40
0
  0
LTYPE
  5
32
330
5
100
AcDbSymbolTableRecord
100
AcDbLinetypeTableRecord
  2
DOT
 70
    0
  3
Dot . . . . . . . . . . . . . . . . . . . . . .
 72
   65
 73
    2
 40
6.35
 49
0
 74
    0
 49
-6.35
 74
    0
  0
LTYPE
  5
33
330
5
100
AcDbSymbolTableRecord
100
AcDbLinetypeTableRecord
  2
DOTTINY
 70
    0
  3
Dot (.15x) .....................................
 72
   65
 73
    2
 40
0.9525
 49
0
 74
    0
 49
-0.9525
 74
    0
  0
LTYPE
  5
34
330
5
100
AcDbSymbolTableRecord
100
AcDbLinetypeTableRecord
  2
DOT2
 70
    0
  3
Dot (.5x) .....................................
 72
   65
 73
    2
 40
3.175
 49
0
 74
    0
 49
-3.175
 74
    0
  0
LTYPE
  5
35
330
5
100
AcDbSymbolTableRecord
100
AcDbLinetypeTableRecord
  2
DOTX2
 70
    0
  3
Dot (2x) .  .  .  .  .  .  .  .  .  .  .  .  .
 72
   65
 73
    2
 40
12.7
 49
0
 74
    0
 49
-12.7
 74
    0
  0
LTYPE
  5
36
330
5
100
AcDbSymbolTableRecord
100
AcDbLinetypeTableRecord
  2
DASHED
 70
    0
  3
Dashed _ _ _ _ _ _ _ _ _ _ _ _ _ _ _ _ _
 72
   65
 73
    2
 40
19.05
 49
12.7
 74
    0
 49
-6.35
 74
    0
  0
LTYPE
  5
37
330
5
100
AcDbSymbolTableRecord
100
AcDbLinetypeTableRecord
  2
DASHEDTINY
 70
    0
  3
Dashed (.15x) _ _ _ _ _ _ _ _ _ _ _ _ _ _ _ _ _
 72
   65
 73
    2
 40
2.8575
 49
1.905
 74
    0
 49
-0.9525
 74
    0
  0
LTYPE
  5
38
330
5
100
AcDbSymbolTableRecord
100
AcDbLinetypeTableRecord
  2
DASHED2
 70
    0
  3
Dashed (.5x) _ _ _ _ _ _ _ _ _ _ _ _ _ _ _ _ _
 72
   65
 73
    2
 40
9.524999999999999
 49
6.35
 74
    0
 49
-3.175
 74
    0
  0
LTYPE
  5
39
330
5
100
AcDbSymbolTableRecord
100
AcDbLinetypeTableRecord
  2
DASHEDX2
 70
    0
  3
Dashed (2x) ____  ____  ____  ____  ____  ___
 72
   65
 73
    2
 40
38.09999999999999
 49
25.4
 74
    0
 49
-12.7
 74
    0
  0
LTYPE
  5
3A
330
5
100
AcDbSymbolTableRecord
100
AcDbLinetypeTableRecord
  2
DASHDOT
 70
    0
  3
Dash dot __ . __ . __ . __ . __ . __ . __ . __
 72
   65
 73
    4
 40
25.4
 49
12.7
 74
    0
 49
-6.35
 74
    0
 49
0
 74
    0
 49
-6.35
 74
    0
  0
LTYPE
  5
3B
330
5
100
AcDbSymbolTableRecord
100
AcDbLinetypeTableRecord
  2
DASHDOTTINY
 70
    0
  3
Dash dot (.15x) _._._._._._._._._._._._._._._.
 72
   65
 73
    4
 40
3.81
 49
1.905
 74
    0
 49
-0.9525
 74
    0
 49
0
 74
    0
 49
-0.9525
 74
    0
  0
LTYPE
  5
3C
330
5
100
AcDbSymbolTableRecord
100
AcDbLinetypeTableRecord
  2
DASHDOT2
 70
    0
  3
Dash dot (.5x) _._._._._._._._._._._._._._._.
 72
   65
 73
    4
 40
12.7
 49
6.35
 74
    0
 49
-3.175
 74
    0
 49
0
 74
    0
 49
-3.175
 74
    0
  0
LTYPE
  5
3D
330
5
100
AcDbSymbolTableRecord
100
AcDbLinetypeTableRecord
  2
DASHDOTX2
 70
    0
  3
Dash dot (2x) ____  .  ____  .  ____  .  ___
 72
   65
 73
    4
 40
50.8
 49
25.4
 74
    0
 49
-12.7
 74
    0
 49
0
 74
    0
 49
-12.7
 74
    0
  0
LTYPE
  5
3E
330
5
100
AcDbSymbolTableRecord
100
AcDbLinetypeTableRecord
  2
DIVIDE
 70
    0
  3
Divide ____ . . ____ . . ____ . . ____ . . ____
 72
   65
 73
    6
 40
31.75
 49
12.7
 74
    0
 49
-6.35
 74
    0
 49
0
 74
    0
 49
-6.35
 74
    0
 49
0
 74
    0
 49
-6.35
 74
    0
  0
LTYPE
  5
3F
330
5
100
AcDbSymbolTableRecord
100
AcDbLinetypeTableRecord
  2
DIVIDETINY
 70
    0
  3
Divide (.15x) __..__..__..__..__..__..__..__.._
 72
   65
 73
    6
 40
4.7625
 49
1.905
 74
    0
 49
-0.9525
 74
    0
 49
0
 74
    0
 49
-0.9525
 74
    0
 49
0
 74
    0
 49
-0.9525
 74
    0
  0
LTYPE
  5
40
330
5
100
AcDbSymbolTableRecord
100
AcDbLinetypeTableRecord
  2
DIVIDE2
 70
    0
  3
Divide (.5x) __..__..__..__..__..__..__..__.._
 72
   65
 73
    6
 40
15.875
 49
6.35
 74
    0
 49
-3.175
 74
    0
 49
0
 74
    0
 49
-3.175
 74
    0
 49
0
 74
    0
 49
-3.175
 74
    0
  0
LTYPE
  5
41
330
5
100
AcDbSymbolTableRecord
100
AcDbLinetypeTableRecord
  2
DIVIDEX2
 70
    0
  3
Divide (2x) ________  .  .  ________  .  .  _
 72
   65
 73
    6
 40
63.5
 49
25.4
 74
    0
 49
-12.7
 74
    0
 49
0
 74
    0
 49
-12.7
 74
    0
 49
0
 74
    0
 49
-12.7
 74
    0
  0
LTYPE
  5
42
330
5
100
AcDbSymbolTableRecord
100
AcDbLinetypeTableRecord
  2
BORDER
 70
    0
  3
Border __ __ . __ __ . __ __ . __ __ . __ __ .
 72
   65
 73
    6
 40
44.45
 49
12.7
 74
    0
 49
-6.35
 74
    0
 49
12.7
 74
    0
 49
-6.35
 74
    0
 49
0
 74
    0
 49
-6.35
 74
    0
  0
LTYPE
  5
43
330
5
100
AcDbSymbolTableRecord
100
AcDbLinetypeTableRecord
  2
BORDERTINY
 70
    0
  3
Border (.15x) __.__.__.__.__.__.__.__.__.__.__.
 72
   65
 73
    6
 40
6.6675
 49
1.905
 74
    0
 49
-0.9525
 74
    0
 49
1.905
 74
    0
 49
-0.9525
 74
    0
 49
0
 74
    0
 49
-0.9525
 74
    0
  0
LTYPE
  5
44
330
5
100
AcDbSymbolTableRecord
100
AcDbLinetypeTableRecord
  2
BORDER2
 70
    0
  3
Border (.5x) __.__.__.__.__.__.__.__.__.__.__.
 72
   65
 73
    6
 40
22.225
 49
6.35
 74
    0
 49
-3.175
 74
    0
 49
6.35
 74
    0
 49
-3.175
 74
    0
 49
0
 74
    0
 49
-3.175
 74
    0
  0
LTYPE
  5
45
330
5
100
AcDbSymbolTableRecord
100
AcDbLinetypeTableRecord
  2
BORDERX2
 70
    0
  3
Border (2x) ____  ____  .  ____  ____  .  ___
 72
   65
 73
    6
 40
88.89999999999999
 49
25.4
 74
    0
 49
-12.7
 74
    0
 49
25.4
 74
    0
 49
-12.7
 74
    0
 49
0
 74
    0
 49
-12.7
 74
    0
  0
LTYPE
  5
46
330
5
100
AcDbSymbolTableRecord
100
AcDbLinetypeTableRecord
  2
CENTER
 70
    0
  3
Center ____ _ ____ _ ____ _ ____ _ ____ _ ____
 72
   65
 73
    4
 40
50.8
 49
31.75
 74
    0
 49
-6.35
 74
    0
 49
6.35
 74
    0
 49
-6.35
 74
    0
  0
LTYPE
  5
47
330
5
100
AcDbSymbolTableRecord
100
AcDbLinetypeTableRecord
  2
CENTERTINY
 70
    0
  3
Center (.15x) ___ _ ___ _ ___ _ ___ _ ___ _ ___
 72
   65
 73
    4
 40
7.62
 49
4.7625
 74
    0
 49
-0.9525
 74
    0
 49
0.9525
 74
    0
 49
-0.9525
 74
    0
  0
LTYPE
  5
48
330
5
100
AcDbSymbolTableRecord
100
AcDbLinetypeTableRecord
  2
CENTER2
 70
    0
  3
Center (.5x) ___ _ ___ _ ___ _ ___ _ ___ _ ___
 72
   65
 73
    4
 40
28.575
 49
19.05
 74
    0
 49
-3.175
 74
    0
 49
3.175
 74
    0
 49
-3.175
 74
    0
  0
LTYPE
  5
49
330
5
100
AcDbSymbolTableRecord
100
AcDbLinetypeTableRecord
  2
CENTERX2
 70
    0
  3
Center (2x) ________  __  ________  __  _____
 72
   65
 73
    4
 40
101.6
 49
63.5
 74
    0
 49
-12.7
 74
    0
 49
12.7
 74
    0
 49
-12.7
 74
    0
  0
ENDTAB
  0
TABLE
  2
LAYER
  5
2
330
0
100
AcDbSymbolTable
 70
    1
  0
LAYER
  5
10
330
2
100
AcDbSymbolTableRecord
100
AcDbLayerTableRecord
  2
0
 70
    0
 62
    7
  6
CONTINUOUS
370
   -3
390
F
  0
LAYER
  5
4A
330
2
100
AcDbSymbolTableRecord
100
AcDbLayerTableRecord
  2
Annotations
 70
    0
 62
    7
  6
CONTINUOUS
370
   35
390
F
  0
LAYER
  5
4B
330
2
100
AcDbSymbolTableRecord
100
AcDbLayerTableRecord
  2
Border
 70
    0
 62
    7
  6
CONTINUOUS
370
   25
390
F
  0
LAYER
  5
4C
330
2
100
AcDbSymbolTableRecord
100
AcDbLayerTableRecord
  2
Center Lines
 70
    0
 62
    7
  6
CENTER2
370
   35
390
F
  0
LAYER
  5
4D
330
2
100
AcDbSymbolTableRecord
100
AcDbLayerTableRecord
  2
Defpoints
 70
    0
 62
    7
  6
CONTINUOUS
290
0
370
   -3
390
F
  0
LAYER
  5
4E
330
2
100
AcDbSymbolTableRecord
100
AcDbLayerTableRecord
  2
Dimensions
 70
    0
 62
    7
  6
CONTINUOUS
370
   35
390
F
  0
LAYER
  5
4F
330
2
100
AcDbSymbolTableRecord
100
AcDbLayerTableRecord
  2
Hidden
 70
    0
 62
    7
  6
DASHEDTINY
370
   35
390
F
  0
LAYER
  5
50
330
2
100
AcDbSymbolTableRecord
100
AcDbLayerTableRecord
  2
Visible
 70
    0
 62
    7
  6
CONTINUOUS
370
   70
390
F
  0
ENDTAB
  0
TABLE
  2
STYLE
  5
3
330
0
100
AcDbSymbolTable
 70
    3
  0
STYLE
  5
51
330
2
100
AcDbSymbolTableRecord
100
AcDbTextStyleTableRecord
  2
Standard
 70
    0
 40
0
 41
1
 50
0
 71
    0
 42
1
  3
Standard
  4

  0
STYLE
  5
52
330
2
100
AcDbSymbolTableRecord
100
AcDbTextStyleTableRecord
  2
standard
 70
    0
 40
0
 41
1
 50
0
 71
    0
 42
1
  3
standard
  4

  0
ENDTAB
  0
TABLE
  2
VIEW
  5
6
330
0
100
AcDbSymbolTable
 70
    0
  0
ENDTAB
  0
TABLE
  2
UCS
  5
7
330
0
100
AcDbSymbolTable
 70
    0
  0
ENDTAB
  0
TABLE
  2
APPID
  5
9
330
0
100
AcDbSymbolTable
 70
    1
  0
APPID
  5
12
330
9
100
AcDbSymbolTableRecord
100
AcDbRegAppTableRecord
  2
ACAD
 70
    0
  0
APPID
  5
53
330
9
100
AcDbSymbolTableRecord
100
AcDbRegAppTableRecord
  2
LibreCad
 70
    0
  0
ENDTAB
  0
TABLE
  2
DIMSTYLE
  5
A
330
0
100
AcDbSymbolTable
 70
    1
100
AcDbDimStyleTable
 71
    1
  0
DIMSTYLE
105
54
330
A
100
AcDbSymbolTableRecord
100
AcDbDimStyleTableRecord
  2
Standard
 70
    0
 40
1
 41
3.5
 42
2
 43
0.38
 44
2
 45
0
 46
0
 47
0
 48
0
 49
1
140
3.5
141
0.09
142
0
143
25.4
144
1
145
0
146
1
147
1.5
148
0
 71
    0
 72
    0
 73
    0
 74
    1
 75
    0
 76
    0
 77
    0
 78
   12
 79
    3
170
    0
171
    2
172
    0
173
    0
174
    0
175
    0
176
  256
177
  256
178
  256
179
    2
271
    2
272
    4
273
    2
274
    2
275
    0
276
    0
277
    2
278
   46
279
    0
280
    0
281
    0
282
    0
283
    1
284
    0
285
    0
286
    0
288
    0
289
    3
340
Standard
341

371
   -2
372
   -2
  0
ENDTAB
  0
TABLE
  2
BLOCK_RECORD
  5
1
330
0
100
AcDbSymbolTable
 70
    2
  0
BLOCK_RECORD
  5
1F
330
1
100
AcDbSymbolTableRecord
100
AcDbBlockTableRecord
  2
*Model_Space
 70
    0
280
    1
281
    0
  0
BLOCK_RECORD
  5
1E
330
1
100
AcDbSymbolTableRecord
100
AcDbBlockTableRecord
  2
*Paper_Space
 70
    0
280
    1
281
    0
  0
BLOCK_RECORD
  5
55
330
1
100
AcDbSymbolTableRecord
100
AcDbBlockTableRecord
  2
*U5
 70
    0
280
    1
281
    0
  0
BLOCK_RECORD
  5
58
330
1
100
AcDbSymbolTableRecord
100
AcDbBlockTableRecord
  2
*U6
 70
    0
280
    1
281
    0
  0
BLOCK_RECORD
  5
5B
330
1
100
AcDbSymbolTableRecord
100
AcDbBlockTableRecord
  2
*U7
 70
    0
280
    1
281
    0
  0
BLOCK_RECORD
  5
5E
330
1
100
AcDbSymbolTableRecord
100
AcDbBlockTableRecord
  2
*U8
 70
    0
280
    1
281
    0
  0
BLOCK_RECORD
  5
61
330
1
100
AcDbSymbolTableRecord
100
AcDbBlockTableRecord
  2
*U9
 70
    0
280
    1
281
    0
  0
BLOCK_RECORD
  5
64
330
1
100
AcDbSymbolTableRecord
100
AcDbBlockTableRecord
  2
*U10
 70
    0
280
    1
281
    0
  0
BLOCK_RECORD
  5
67
330
1
100
AcDbSymbolTableRecord
100
AcDbBlockTableRecord
  2
*U11
 70
    0
280
    1
281
    0
  0
BLOCK_RECORD
  5
6A
330
1
100
AcDbSymbolTableRecord
100
AcDbBlockTableRecord
  2
*U12
 70
    0
280
    1
281
    0
  0
BLOCK_RECORD
  5
6D
330
1
100
AcDbSymbolTableRecord
100
AcDbBlockTableRecord
  2
*U13
 70
    0
280
    1
281
    0
  0
BLOCK_RECORD
  5
70
330
1
100
AcDbSymbolTableRecord
100
AcDbBlockTableRecord
  2
*U14
 70
    0
280
    1
281
    0
  0
BLOCK_RECORD
  5
73
330
1
100
AcDbSymbolTableRecord
100
AcDbBlockTableRecord
  2
*U15
 70
    0
280
    1
281
    0
  0
BLOCK_RECORD
  5
76
330
1
100
AcDbSymbolTableRecord
100
AcDbBlockTableRecord
  2
*U16
 70
    0
280
    1
281
    0
  0
BLOCK_RECORD
  5
79
330
1
100
AcDbSymbolTableRecord
100
AcDbBlockTableRecord
  2
*U17
 70
    0
280
    1
281
    0
  0
BLOCK_RECORD
  5
7C
330
1
100
AcDbSymbolTableRecord
100
AcDbBlockTableRecord
  2
*U18
 70
    0
280
    1
281
    0
  0
BLOCK_RECORD
  5
7F
330
1
100
AcDbSymbolTableRecord
100
AcDbBlockTableRecord
  2
*U19
 70
    0
280
    1
281
    0
  0
BLOCK_RECORD
  5
82
330
1
100
AcDbSymbolTableRecord
100
AcDbBlockTableRecord
  2
*U20
 70
    0
280
    1
281
    0
  0
BLOCK_RECORD
  5
85
330
1
100
AcDbSymbolTableRecord
100
AcDbBlockTableRecord
  2
ISO_A4(L)_SHEET
 70
    0
280
    1
281
    0
  0
ENDTAB
  0
ENDSEC
  0
SECTION
  2
BLOCKS
  0
BLOCK
  5
20
330
1F
100
AcDbEntity
  8
0
100
AcDbBlockBegin
  2
*Model_Space
 70
    0
 10
0
 20
0
 30
0
  3
*Model_Space
  1

  0
ENDBLK
  5
21
330
1F
100
AcDbEntity
  8
0
100
AcDbBlockEnd
  0
BLOCK
  5
1C
330
1B
100
AcDbEntity
  8
0
100
AcDbBlockBegin
  2
*Paper_Space
 70
    0
 10
0
 20
0
 30
0
  3
*Paper_Space
  1

  0
ENDBLK
  5
1D
330
1F
100
AcDbEntity
  8
0
100
AcDbBlockEnd
  0
BLOCK
  5
56
330
55
100
AcDbEntity
  8
0
100
AcDbBlockBegin
  2
*U5
 70
    0
 10
0
 20
0
  3
*U5
  1

  0
LINE
  5
88
100
AcDbEntity
  8
Center Lines
  6
CONTINUOUS
 62
    0
370
   -1
100
AcDbLine
 10
-0.892969
 20
0
 11
0.892969
 21
0
  0
LINE
  5
89
100
AcDbEntity
  8
Center Lines
  6
CONTINUOUS
 62
    0
370
   -1
100
AcDbLine
 10
0
 20
-0.892969
 11
0
 21
0.892969
  0
LINE
  5
8A
100
AcDbEntity
  8
Center Lines
  6
ByLayer
 62
    0
370
   -1
100
AcDbLine
 10
-47.25
 20
0
 11
-2.678906
 21
0
  0
LINE
  5
8B
100
AcDbEntity
  8
Center Lines
  6
ByLayer
 62
    0
370
   -1
100
AcDbLine
 10
2.678906
 20
0
 11
47.25
 21
0
  0
LINE
  5
8C
100
AcDbEntity
  8
Center Lines
  6
ByLayer
 62
    0
370
   -1
100
AcDbLine
 10
0
 20
-47.25
 11
0
 21
-2.678906
  0
LINE
  5
8D
100
AcDbEntity
  8
Center Lines
  6
ByLayer
 62
    0
370
   -1
100
AcDbLine
 10
0
 20
2.678906
 11
0
 21
47.25
  0
ENDBLK
  5
57
330
55
100
AcDbEntity
  8
0
100
AcDbBlockEnd
  0
BLOCK
  5
59
330
58
100
AcDbEntity
  8
0
100
AcDbBlockBegin
  2
*U6
 70
    0
 10
0
 20
0
  3
*U6
  1

  0
LINE
  5
8E
100
AcDbEntity
  8
Center Lines
  6
CONTINUOUS
 62
    0
370
   -1
100
AcDbLine
 10
-0.892969
 20
0
 11
0.892969
 21
0
  0
LINE
  5
8F
100
AcDbEntity
  8
Center Lines
  6
CONTINUOUS
 62
    0
370
   -1
100
AcDbLine
 10
0
 20
-0.892969
 11
0
 21
0.892969
  0
LINE
  5
90
100
AcDbEntity
  8
Center Lines
  6
ByLayer
 62
    0
370
   -1
100
AcDbLine
 10
-5.075
 20
0
 11
-2.678906
 21
0
  0
LINE
  5
91
100
AcDbEntity
  8
Center Lines
  6
ByLayer
 62
    0
370
   -1
100
AcDbLine
 10
2.678906
 20
0
 11
5.075
 21
0
  0
LINE
  5
92
100
AcDbEntity
  8
Center Lines
  6
ByLayer
 62
    0
370
   -1
100
AcDbLine
 10
0
 20
-5.075
 11
0
 21
-2.678906
  0
LINE
  5
93
100
AcDbEntity
  8
Center Lines
  6
ByLayer
 62
    0
370
   -1
100
AcDbLine
 10
0
 20
2.678906
 11
0
 21
5.075
  0
ENDBLK
  5
5A
330
58
100
AcDbEntity
  8
0
100
AcDbBlockEnd
  0
BLOCK
  5
5C
330
5B
100
AcDbEntity
  8
0
100
AcDbBlockBegin
  2
*U7
 70
    0
 10
0
 20
0
  3
*U7
  1

  0
LINE
  5
94
100
AcDbEntity
  8
Center Lines
  6
CONTINUOUS
 62
    0
370
   -1
100
AcDbLine
 10
-0.892969
 20
0
 11
0.892969
 21
0
  0
LINE
  5
95
100
AcDbEntity
  8
Center Lines
  6
CONTINUOUS
 62
    0
370
   -1
100
AcDbLine
 10
0
 20
-0.892969
 11
0
 21
0.892969
  0
LINE
  5
96
100
AcDbEntity
  8
Center Lines
  6
ByLayer
 62
    0
370
   -1
100
AcDbLine
 10
-5.075
 20
0
 11
-2.678906
 21
0
  0
LINE
  5
97
100
AcDbEntity
  8
Center Lines
  6
ByLayer
 62
    0
370
   -1
100
AcDbLine
 10
2.678906
 20
0
 11
5.075
 21
0
  0
LINE
  5
98
100
AcDbEntity
  8
Center Lines
  6
ByLayer
 62
    0
370
   -1
100
AcDbLine
 10
0
 20
-5.075
 11
0
 21
-2.678906
  0
LINE
  5
99
100
AcDbEntity
  8
Center Lines
  6
ByLayer
 62
    0
370
   -1
100
AcDbLine
 10
0
 20
2.678906
 11
0
 21
5.075
  0
ENDBLK
  5
5D
330
5B
100
AcDbEntity
  8
0
100
AcDbBlockEnd
  0
BLOCK
  5
5F
330
5E
100
AcDbEntity
  8
0
100
AcDbBlockBegin
  2
*U8
 70
    0
 10
0
 20
0
  3
*U8
  1

  0
LINE
  5
9A
100
AcDbEntity
  8
Center Lines
  6
CONTINUOUS
 62
    0
370
   -1
100
AcDbLine
 10
-0.892969
 20
0
 11
0.892969
 21
0
  0
LINE
  5
9B
100
AcDbEntity
  8
Center Lines
  6
CONTINUOUS
 62
    0
370
   -1
100
AcDbLine
 10
0
 20
-0.892969
 11
0
 21
0.892969
  0
LINE
  5
9C
100
AcDbEntity
  8
Center Lines
  6
ByLayer
 62
    0
370
   -1
100
AcDbLine
 10
-5.075
 20
0
 11
-2.678906
 21
0
  0
LINE
  5
9D
100
AcDbEntity
  8
Center Lines
  6
ByLayer
 62
    0
370
   -1
100
AcDbLine
 10
2.678906
 20
0
 11
5.075
 21
0
  0
LINE
  5
9E
100
AcDbEntity
  8
Center Lines
  6
ByLayer
 62
    0
370
   -1
100
AcDbLine
 10
0
 20
-5.075
 11
0
 21
-2.678906
  0
LINE
  5
9F
100
AcDbEntity
  8
Center Lines
  6
ByLayer
 62
    0
370
   -1
100
AcDbLine
 10
0
 20
2.678906
 11
0
 21
5.075
  0
ENDBLK
  5
60
330
5E
100
AcDbEntity
  8
0
100
AcDbBlockEnd
  0
BLOCK
  5
62
330
61
100
AcDbEntity
  8
0
100
AcDbBlockBegin
  2
*U9
 70
    0
 10
0
 20
0
  3
*U9
  1

  0
LINE
  5
A0
100
AcDbEntity
  8
Center Lines
  6
CONTINUOUS
 62
    0
370
   -1
100
AcDbLine
 10
-0.892969
 20
0
 11
0.892969
 21
0
  0
LINE
  5
A1
100
AcDbEntity
  8
Center Lines
  6
CONTINUOUS
 62
    0
370
   -1
100
AcDbLine
 10
0
 20
-0.892969
 11
0
 21
0.892969
  0
LINE
  5
A2
100
AcDbEntity
  8
Center Lines
  6
ByLayer
 62
    0
370
   -1
100
AcDbLine
 10
-5.075
 20
0
 11
-2.678906
 21
0
  0
LINE
  5
A3
100
AcDbEntity
  8
Center Lines
  6
ByLayer
 62
    0
370
   -1
100
AcDbLine
 10
2.678906
 20
0
 11
5.075
 21
0
  0
LINE
  5
A4
100
AcDbEntity
  8
Center Lines
  6
ByLayer
 62
    0
370
   -1
100
AcDbLine
 10
0
 20
-5.075
 11
0
 21
-2.678906
  0
LINE
  5
A5
100
AcDbEntity
  8
Center Lines
  6
ByLayer
 62
    0
370
   -1
100
AcDbLine
 10
0
 20
2.678906
 11
0
 21
5.075
  0
ENDBLK
  5
63
330
61
100
AcDbEntity
  8
0
100
AcDbBlockEnd
  0
BLOCK
  5
65
330
64
100
AcDbEntity
  8
0
100
AcDbBlockBegin
  2
*U10
 70
    0
 10
0
 20
0
  3
*U10
  1

  0
LINE
  5
A6
100
AcDbEntity
  8
Center Lines
  6
CONTINUOUS
 62
    0
370
   -1
100
AcDbLine
 10
-0.892969
 20
0
 11
0.892969
 21
0
  0
LINE
  5
A7
100
AcDbEntity
  8
Center Lines
  6
CONTINUOUS
 62
    0
370
   -1
100
AcDbLine
 10
0
 20
-0.892969
 11
0
 21
0.892969
  0
LINE
  5
A8
100
AcDbEntity
  8
Center Lines
  6
ByLayer
 62
    0
370
   -1
100
AcDbLine
 10
-5.075
 20
0
 11
-2.678906
 21
0
  0
LINE
  5
A9
100
AcDbEntity
  8
Center Lines
  6
ByLayer
 62
    0
370
   -1
100
AcDbLine
 10
2.678906
 20
0
 11
5.075
 21
0
  0
LINE
  5
AA
100
AcDbEntity
  8
Center Lines
  6
ByLayer
 62
    0
370
   -1
100
AcDbLine
 10
0
 20
-5.075
 11
0
 21
-2.678906
  0
LINE
  5
AB
100
AcDbEntity
  8
Center Lines
  6
ByLayer
 62
    0
370
   -1
100
AcDbLine
 10
0
 20
2.678906
 11
0
 21
5.075
  0
ENDBLK
  5
66
330
64
100
AcDbEntity
  8
0
100
AcDbBlockEnd
  0
BLOCK
  5
68
330
67
100
AcDbEntity
  8
0
100
AcDbBlockBegin
  2
*U11
 70
    0
 10
0
 20
0
  3
*U11
  1

  0
LINE
  5
AC
100
AcDbEntity
  8
Center Lines
  6
CONTINUOUS
 62
    0
370
   -1
100
AcDbLine
 10
-0.892969
 20
0
 11
0.892969
 21
0
  0
LINE
  5
AD
100
AcDbEntity
  8
Center Lines
  6
CONTINUOUS
 62
    0
370
   -1
100
AcDbLine
 10
0
 20
-0.892969
 11
0
 21
0.892969
  0
LINE
  5
AE
100
AcDbEntity
  8
Center Lines
  6
ByLayer
 62
    0
370
   -1
100
AcDbLine
 10
-5.075
 20
0
 11
-2.678906
 21
0
  0
LINE
  5
AF
100
AcDbEntity
  8
Center Lines
  6
ByLayer
 62
    0
370
   -1
100
AcDbLine
 10
2.678906
 20
0
 11
5.075
 21
0
  0
LINE
  5
B0
100
AcDbEntity
  8
Center Lines
  6
ByLayer
 62
    0
370
   -1
100
AcDbLine
 10
0
 20
-5.075
 11
0
 21
-2.678906
  0
LINE
  5
B1
100
AcDbEntity
  8
Center Lines
  6
ByLayer
 62
    0
370
   -1
100
AcDbLine
 10
0
 20
2.678906
 11
0
 21
5.075
  0
ENDBLK
  5
69
330
67
100
AcDbEntity
  8
0
100
AcDbBlockEnd
  0
BLOCK
  5
6B
330
6A
100
AcDbEntity
  8
0
100
AcDbBlockBegin
  2
*U12
 70
    0
 10
0
 20
0
  3
*U12
  1

  0
ARC
  5
B2
100
AcDbEntity
  8
Center Lines
  6
CONTINUOUS
 62
    0
370
   -1
100
AcDbCircle
 10
0
 20
0
 40
46.875
100
AcDbArc
 50
88.90849900000001
 51
91.09150099999999
  0
LINE
  5
B3
100
AcDbEntity
  8
Center Lines
  6
CONTINUOUS
 62
    0
370
   -1
100
AcDbLine
 10
0
 20
45.982031
 11
0
 21
47.767969
  0
ARC
  5
B4
100
AcDbEntity
  8
Center Lines
  6
ByLayer
 62
    0
370
   -1
100
AcDbCircle
 10
0
 20
0
 40
0
100
AcDbArc
 50
0
 51
0
  0
ARC
  5
B5
100
AcDbEntity
  8
Center Lines
  6
ByLayer
 62
    0
370
   -1
100
AcDbCircle
 10
0
 20
0
 40
0
100
AcDbArc
 50
0
 51
0
  0
LINE
  5
B6
100
AcDbEntity
  8
Center Lines
  6
ByLayer
 62
    0
370
   -1
100
AcDbLine
 10
0
 20
41.8
 11
0
 21
44.196094
  0
LINE
  5
B7
100
AcDbEntity
  8
Center Lines
  6
ByLayer
 62
    0
370
   -1
100
AcDbLine
 10
0
 20
49.553906
 11
0
 21
51.95
  0
ENDBLK
  5
6C
330
6A
100
AcDbEntity
  8
0
100
AcDbBlockEnd
  0
BLOCK
  5
6E
330
6D
100
AcDbEntity
  8
0
100
AcDbBlockBegin
  2
*U13
 70
    0
 10
0
 20
0
  3
*U13
  1

  0
ARC
  5
B8
100
AcDbEntity
  8
Center Lines
  6
CONTINUOUS
 62
    0
370
   -1
100
AcDbCircle
 10
0
 20
0
 40
46.87499999999976
100
AcDbArc
 50
28.908499
 51
31.09150099999998
  0
LINE
  5
B9
100
AcDbEntity
  8
Center Lines
  6
CONTINUOUS
 62
    0
370
   -1
100
AcDbLine
 10
39.821607
 20
22.991016
 11
41.368274
 21
23.883984
  0
ARC
  5
BA
100
AcDbEntity
  8
Center Lines
  6
ByLayer
 62
    0
370
   -1
100
AcDbCircle
 10
0
 20
0
 40
0
100
AcDbArc
 50
0
 51
0
  0
ARC
  5
BB
100
AcDbEntity
  8
Center Lines
  6
ByLayer
 62
    0
370
   -1
100
AcDbCircle
 10
0
 20
0
 40
0
100
AcDbArc
 50
0
 51
0
  0
LINE
  5
BC
100
AcDbEntity
  8
Center Lines
  6
ByLayer
 62
    0
370
   -1
100
AcDbLine
 10
36.199862
 20
20.9
 11
38.27494
 21
22.098047
  0
LINE
  5
BD
100
AcDbEntity
  8
Center Lines
  6
ByLayer
 62
    0
370
   -1
100
AcDbLine
 10
42.914942
 20
24.776953
 11
44.99002
 21
25.975
  0
ENDBLK
  5
6F
330
6D
100
AcDbEntity
  8
0
100
AcDbBlockEnd
  0
BLOCK
  5
71
330
70
100
AcDbEntity
  8
0
100
AcDbBlockBegin
  2
*U14
 70
    0
 10
0
 20
0
  3
*U14
  1

  0
ARC
  5
BE
100
AcDbEntity
  8
Center Lines
  6
CONTINUOUS
 62
    0
370
   -1
100
AcDbCircle
 10
0
 20
0
 40
46.87499999999976
100
AcDbArc
 50
-31.09150100000001
 51
-28.908499
  0
LINE
  5
BF
100
AcDbEntity
  8
Center Lines
  6
CONTINUOUS
 62
    0
370
   -1
100
AcDbLine
 10
39.821607
 20
-22.991016
 11
41.368274
 21
-23.883984
  0
ARC
  5
C0
100
AcDbEntity
  8
Center Lines
  6
ByLayer
 62
    0
370
   -1
100
AcDbCircle
 10
0
 20
0
 40
0
100
AcDbArc
 50
0
 51
0
  0
ARC
  5
C1
100
AcDbEntity
  8
Center Lines
  6
ByLayer
 62
    0
370
   -1
100
AcDbCircle
 10
0
 20
0
 40
0
100
AcDbArc
 50
0
 51
0
  0
LINE
  5
C2
100
AcDbEntity
  8
Center Lines
  6
ByLayer
 62
    0
370
   -1
100
AcDbLine
 10
36.199862
 20
-20.9
 11
38.27494
 21
-22.098047
  0
LINE
  5
C3
100
AcDbEntity
  8
Center Lines
  6
ByLayer
 62
    0
370
   -1
100
AcDbLine
 10
42.914942
 20
-24.776953
 11
44.99002
 21
-25.975
  0
ENDBLK
  5
72
330
70
100
AcDbEntity
  8
0
100
AcDbBlockEnd
  0
BLOCK
  5
74
330
73
100
AcDbEntity
  8
0
100
AcDbBlockBegin
  2
*U15
 70
    0
 10
0
 20
0
  3
*U15
  1

  0
ARC
  5
C4
100
AcDbEntity
  8
Center Lines
  6
CONTINUOUS
 62
    0
370
   -1
100
AcDbCircle
 10
0
 20
0
 40
46.875
100
AcDbArc
 50
-91.09150099999999
 51
-88.90849900000001
  0
LINE
  5
C5
100
AcDbEntity
  8
Center Lines
  6
CONTINUOUS
 62
    0
370
   -1
100
AcDbLine
 10
0
 20
-45.982031
 11
0
 21
-47.767969
  0
ARC
  5
C6
100
AcDbEntity
  8
Center Lines
  6
ByLayer
 62
    0
370
   -1
100
AcDbCircle
 10
0
 20
0
 40
0
100
AcDbArc
 50
0
 51
0
  0
ARC
  5
C7
100
AcDbEntity
  8
Center Lines
  6
ByLayer
 62
    0
370
   -1
100
AcDbCircle
 10
0
 20
0
 40
0
100
AcDbArc
 50
0
 51
0
  0
LINE
  5
C8
100
AcDbEntity
  8
Center Lines
  6
ByLayer
 62
    0
370
   -1
100
AcDbLine
 10
0
 20
-41.8
 11
0
 21
-44.196094
  0
LINE
  5
C9
100
AcDbEntity
  8
Center Lines
  6
ByLayer
 62
    0
370
   -1
100
AcDbLine
 10
0
 20
-49.553906
 11
0
 21
-51.95
  0
ENDBLK
  5
75
330
73
100
AcDbEntity
  8
0
100
AcDbBlockEnd
  0
BLOCK
  5
77
330
76
100
AcDbEntity
  8
0
100
AcDbBlockBegin
  2
*U16
 70
    0
 10
0
 20
0
  3
*U16
  1

  0
ARC
  5
CA
100
AcDbEntity
  8
Center Lines
  6
CONTINUOUS
 62
    0
370
   -1
100
AcDbCircle
 10
0
 20
0
 40
46.87499999999976
100
AcDbArc
 50
-151.091501
 51
-148.908499
  0
LINE
  5
CB
100
AcDbEntity
  8
Center Lines
  6
CONTINUOUS
 62
    0
370
   -1
100
AcDbLine
 10
-39.821607
 20
-22.991016
 11
-41.368274
 21
-23.883984
  0
ARC
  5
CC
100
AcDbEntity
  8
Center Lines
  6
ByLayer
 62
    0
370
   -1
100
AcDbCircle
 10
0
 20
0
 40
0
100
AcDbArc
 50
0
 51
0
  0
ARC
  5
CD
100
AcDbEntity
  8
Center Lines
  6
ByLayer
 62
    0
370
   -1
100
AcDbCircle
 10
0
 20
0
 40
0
100
AcDbArc
 50
0
 51
0
  0
LINE
  5
CE
100
AcDbEntity
  8
Center Lines
  6
ByLayer
 62
    0
370
   -1
100
AcDbLine
 10
-36.199862
 20
-20.9
 11
-38.27494
 21
-22.098047
  0
LINE
  5
CF
100
AcDbEntity
  8
Center Lines
  6
ByLayer
 62
    0
370
   -1
100
AcDbLine
 10
-42.914942
 20
-24.776953
 11
-44.99002
 21
-25.975
  0
ENDBLK
  5
78
330
76
100
AcDbEntity
  8
0
100
AcDbBlockEnd
  0
BLOCK
  5
7A
330
79
100
AcDbEntity
  8
0
100
AcDbBlockBegin
  2
*U17
 70
    0
 10
0
 20
0
  3
*U17
  1

  0
ARC
  5
D0
100
AcDbEntity
  8
Center Lines
  6
CONTINUOUS
 62
    0
370
   -1
100
AcDbCircle
 10
0
 20
0
 40
46.87499999999976
100
AcDbArc
 50
148.908499
 51
151.091501
  0
LINE
  5
D1
100
AcDbEntity
  8
Center Lines
  6
CONTINUOUS
 62
    0
370
   -1
100
AcDbLine
 10
-39.821607
 20
22.991016
 11
-41.368274
 21
23.883984
  0
ARC
  5
D2
100
AcDbEntity
  8
Center Lines
  6
ByLayer
 62
    0
370
   -1
100
AcDbCircle
 10
0
 20
0
 40
0
100
AcDbArc
 50
0
 51
0
  0
ARC
  5
D3
100
AcDbEntity
  8
Center Lines
  6
ByLayer
 62
    0
370
   -1
100
AcDbCircle
 10
0
 20
0
 40
0
100
AcDbArc
 50
0
 51
0
  0
LINE
  5
D4
100
AcDbEntity
  8
Center Lines
  6
ByLayer
 62
    0
370
   -1
100
AcDbLine
 10
-36.199862
 20
20.9
 11
-38.27494
 21
22.098047
  0
LINE
  5
D5
100
AcDbEntity
  8
Center Lines
  6
ByLayer
 62
    0
370
   -1
100
AcDbLine
 10
-42.914942
 20
24.776953
 11
-44.99002
 21
25.975
  0
ENDBLK
  5
7B
330
79
100
AcDbEntity
  8
0
100
AcDbBlockEnd
  0
BLOCK
  5
7D
330
7C
100
AcDbEntity
  8
0
100
AcDbBlockBegin
  2
*U18
 70
    0
 10
0
 20
0
  3
*U18
  1

  0
INSERT
  5
D6
100
AcDbEntity
  8
Center Lines
  6
ByLayer
 62
    0
370
   -1
100
AcDbBlockReference
  2
*U12
 10
0
 20
0
 30
0
 41
1
 42
1
 43
0
 50
0
 70
    1
 71
    1
 44
0
 45
0
  0
INSERT
  5
D7
100
AcDbEntity
  8
Center Lines
  6
ByLayer
 62
    0
370
   -1
100
AcDbBlockReference
  2
*U13
 10
0
 20
0
 30
0
 41
1
 42
1
 43
0
 50
0
 70
    1
 71
    1
 44
0
 45
0
  0
INSERT
  5
D8
100
AcDbEntity
  8
Center Lines
  6
ByLayer
 62
    0
370
   -1
100
AcDbBlockReference
  2
*U14
 10
0
 20
0
 30
0
 41
1
 42
1
 43
0
 50
0
 70
    1
 71
    1
 44
0
 45
0
  0
INSERT
  5
D9
100
AcDbEntity
  8
Center Lines
  6
ByLayer
 62
    0
370
   -1
100
AcDbBlockReference
  2
*U15
 10
0
 20
0
 30
0
 41
1
 42
1
 43
0
 50
0
 70
    1
 71
    1
 44
0
 45
0
  0
INSERT
  5
DA
100
AcDbEntity
  8
Center Lines
  6
ByLayer
 62
    0
370
   -1
100
AcDbBlockReference
  2
*U16
 10
0
 20
0
 30
0
 41
1
 42
1
 43
0
 50
0
 70
    1
 71
    1
 44
0
 45
0
  0
INSERT
  5
DB
100
AcDbEntity
  8
Center Lines
  6
ByLayer
 62
    0
370
   -1
100
AcDbBlockReference
  2
*U17
 10
0
 20
0
 30
0
 41
1
 42
1
 43
0
 50
0
 70
    1
 71
    1
 44
0
 45
0
  0
ARC
  5
DC
100
AcDbEntity
  8
Center Lines
  6
ByLayer
 62
    0
370
   -1
100
AcDbCircle
 10
0
 20
0
 40
46.87499999999976
100
AcDbArc
 50
-86.72510000000001
 51
-33.2749
  0
ARC
  5
DD
100
AcDbEntity
  8
Center Lines
  6
ByLayer
 62
    0
370
   -1
100
AcDbCircle
 10
0
 20
0
 40
46.875
100
AcDbArc
 50
-146.7251
 51
-93.27489999999999
  0
ARC
  5
DE
100
AcDbEntity
  8
Center Lines
  6
ByLayer
 62
    0
370
   -1
100
AcDbCircle
 10
0
 20
0
 40
46.87499999999976
100
AcDbArc
 50
153.2749
 51
-153.2749
  0
ARC
  5
DF
100
AcDbEntity
  8
Center Lines
  6
ByLayer
 62
    0
370
   -1
100
AcDbCircle
 10
0
 20
0
 40
46.87499999999976
100
AcDbArc
 50
93.2749
 51
146.7251
  0
ARC
  5
E0
100
AcDbEntity
  8
Center Lines
  6
ByLayer
 62
    0
370
   -1
100
AcDbCircle
 10
0
 20
0
 40
46.875
100
AcDbArc
 50
33.2749
 51
86.7251
  0
ARC
  5
E1
100
AcDbEntity
  8
Center Lines
  6
ByLayer
 62
    0
370
   -1
100
AcDbCircle
 10
0
 20
0
 40
46.87499999999976
100
AcDbArc
 50
-26.7251
 51
26.7251
  0
ARC
  5
E2
100
AcDbEntity
  8
Center Lines
  6
ByLayer
 62
    0
370
   -1
100
AcDbCircle
 10
0
 20
0
 40
46.87499999999984
100
AcDbArc
 50
-29.99994299999999
 51
-29.99999999999999
  0
ENDBLK
  5
7E
330
7C
100
AcDbEntity
  8
0
100
AcDbBlockEnd
  0
BLOCK
  5
80
330
7F
100
AcDbEntity
  8
0
100
AcDbBlockBegin
  2
*U19
 70
    0
 10
0
 20
0
  3
*U19
  1

  0
LINE
  5
E3
100
AcDbEntity
  8
Center Lines
  6
ByLayer
 62
    0
370
   -1
100
AcDbLine
 10
-40.26849
 20
23.249023
 11
40.26849
 21
-23.249023
  0
ENDBLK
  5
81
330
7F
100
AcDbEntity
  8
0
100
AcDbBlockEnd
  0
BLOCK
  5
83
330
82
100
AcDbEntity
  8
0
100
AcDbBlockBegin
  2
*U20
 70
    0
 10
0
 20
0
  3
*U20
  1

  0
LINE
  5
E4
100
AcDbEntity
  8
Center Lines
  6
ByLayer
 62
    0
370
   -1
100
AcDbLine
 10
40.26849
 20
23.249023
 11
-40.26849
 21
-23.249023
  0
ENDBLK
  5
84
330
82
100
AcDbEntity
  8
0
100
AcDbBlockEnd
  0
BLOCK
  5
86
330
85
100
AcDbEntity
  8
0
100
AcDbBlockBegin
  2
ISO_A4(L)_SHEET
 70
    0
 10
0
 20
0
  3
ISO_A4(L)_SHEET
  1

  0
LINE
  5
E5
100
AcDbEntity
  8
Border
  6
ByLayer
 62
  256
370
   -1
100
AcDbLine
 10
0
 20
210
 11
0
 21
195
  0
LINE
  5
E6
100
AcDbEntity
  8
Border
  6
ByLayer
 62
  256
370
   -1
100
AcDbLine
 10
0
 20
15
 11
0
 21
0
  0
LINE
  5
E7
100
AcDbEntity
  8
Border
  6
ByLayer
 62
  256
370
   -1
100
AcDbLine
 10
0
 20
0
 11
15
 21
0
  0
LINE
  5
E8
100
AcDbEntity
  8
Border
  6
ByLayer
 62
  256
370
   -1
100
AcDbLine
 10
282
 20
0
 11
297
 21
0
  0
LINE
  5
E9
100
AcDbEntity
  8
Border
  6
ByLayer
 62
  256
370
   -1
100
AcDbLine
 10
297
 20
0
 11
297
 21
15
  0
LINE
  5
EA
100
AcDbEntity
  8
Border
  6
ByLayer
 62
  256
370
   -1
100
AcDbLine
 10
297
 20
195
 11
297
 21
210
  0
LINE
  5
EB
100
AcDbEntity
  8
Border
  6
ByLayer
 62
  256
370
   -1
100
AcDbLine
 10
287
 20
10
 11
287
 21
200
  0
LINE
  5
EC
100
AcDbEntity
  8
Border
  6
ByLayer
 62
  256
370
   -1
100
AcDbLine
 10
297
 20
210
 11
282
 21
210
  0
LINE
  5
ED
100
AcDbEntity
  8
Border
  6
ByLayer
 62
  256
370
   -1
100
AcDbLine
 10
15
 20
210
 11
0
 21
210
  0
LINE
  5
EE
100
AcDbEntity
  8
Border
  6
ByLayer
 62
  256
370
   -1
100
AcDbLine
 10
287
 20
10
 11
20
 21
10
  0
LINE
  5
EF
100
AcDbEntity
  8
Border
  6
ByLayer
 62
  256
370
   -1
100
AcDbLine
 10
15
 20
100
 11
25
 21
100
  0
LINE
  5
F0
100
AcDbEntity
  8
Border
  6
ByLayer
 62
  256
370
   -1
100
AcDbLine
 10
292
 20
100
 11
282
 21
100
  0
LINE
  5
F1
100
AcDbEntity
  8
Border
  6
ByLayer
 62
  256
370
   -1
100
AcDbLine
 10
148.5
 20
205
 11
148.5
 21
195
  0
LINE
  5
F2
100
AcDbEntity
  8
Border
  6
ByLayer
 62
  256
370
   -1
100
AcDbLine
 10
148.5
 20
5
 11
148.5
 21
15
  0
LINE
  5
F3
100
AcDbEntity
  8
Border
  6
ByLayer
 62
  256
370
   -1
100
AcDbLine
 10
287
 20
200
 11
20
 21
200
  0
LINE
  5
F4
100
AcDbEntity
  8
Border
  6
ByLayer
 62
  256
370
   -1
100
AcDbLine
 10
20
 20
200
 11
20
 21
10
  0
ENDBLK
  5
87
330
85
100
AcDbEntity
  8
0
100
AcDbBlockEnd
  0
ENDSEC
  0
SECTION
  2
ENTITIES
  0
INSERT
  5
F5
100
AcDbEntity
  8
Border
  6
ByLayer
 62
  256
370
   -1
100
AcDbBlockReference
  2
ISO_A4(L)_SHEET
 10
0
 20
0
 30
0
 41
1
 42
1
 43
0
 50
0
 70
    1
 71
    1
 44
0
 45
0
  0
CIRCLE
  5
F6
100
AcDbEntity
  8
Visible
  6
ByLayer
 62
  256
370
   -1
100
AcDbCircle
 10
121.601217
 20
155.198549
 40
1.575
  0
CIRCLE
  5
F7
100
AcDbEntity
  8
Visible
  6
ByLayer
 62
  256
370
   -1
100
AcDbCircle
 10
121.601217
 20
108.323549
 40
43.75
  0
CIRCLE
  5
F8
100
AcDbEntity
  8
Visible
  6
ByLayer
 62
  256
370
   -1
100
AcDbCircle
 10
121.601217
 20
108.323549
 40
50
  0
CIRCLE
  5
F9
100
AcDbEntity
  8
Visible
  6
ByLayer
 62
  256
370
   -1
100
AcDbCircle
 10
162.196158
 20
131.761049
 40
1.574999999999999
  0
CIRCLE
  5
FA
100
AcDbEntity
  8
Visible
  6
ByLayer
 62
  256
370
   -1
100
AcDbCircle
 10
162.196158
 20
84.886049
 40
1.574999999999999
  0
CIRCLE
  5
FB
100
AcDbEntity
  8
Visible
  6
ByLayer
 62
  256
370
   -1
100
AcDbCircle
 10
121.601217
 20
61.448549
 40
1.575
  0
CIRCLE
  5
FC
100
AcDbEntity
  8
Visible
  6
ByLayer
 62
  256
370
   -1
100
AcDbCircle
 10
81.006276
 20
84.886049
 40
1.575
  0
CIRCLE
  5
FD
100
AcDbEntity
  8
Visible
  6
ByLayer
 62
  256
370
   -1
100
AcDbCircle
 10
81.006276
 20
131.761049
 40
1.575
  0
LINE
  5
FE
100
AcDbEntity
  8
Hidden
  6
ByLayer
 62
  256
370
   -1
100
AcDbLine
 10
233.53384
 20
153.623549
 11
231.65884
 21
153.623549
  0
LINE
  5
FF
100
AcDbEntity
  8
Hidden
  6
ByLayer
 62
  256
370
   -1
100
AcDbLine
 10
233.53384
 20
156.773549
 11
231.65884
 21
156.773549
  0
LINE
  5
100
100
AcDbEntity
  8
Hidden
  6
ByLayer
 62
  256
370
   -1
100
AcDbLine
 10
233.53384
 20
64.573549
 11
231.65884
 21
64.573549
  0
LINE
  5
101
100
AcDbEntity
  8
Hidden
  6
ByLayer
 62
  256
370
   -1
100
AcDbLine
 10
233.53384
 20
152.073549
 11
231.65884
 21
152.073549
  0
LINE
  5
102
100
AcDbEntity
  8
Visible
  6
ByLayer
 62
  256
370
   -1
100
AcDbLine
 10
231.65884
 20
158.323549
 11
233.53384
 21
158.323549
  0
LINE
  5
103
100
AcDbEntity
  8
Visible
  6
ByLayer
 62
  256
370
   -1
100
AcDbLine
 10
231.65884
 20
58.323549
 11
233.53384
 21
58.323549
  0
LINE
  5
104
100
AcDbEntity
  8
Hidden
  6
ByLayer
 62
  256
370
   -1
100
AcDbLine
 10
233.53384
 20
130.186049
 11
231.65884
 21
130.186049
  0
LINE
  5
105
100
AcDbEntity
  8
Hidden
  6
ByLayer
 62
  256
370
   -1
100
AcDbLine
 10
233.53384
 20
133.336049
 11
231.65884
 21
133.336049
  0
LINE
  5
106
100
AcDbEntity
  8
Hidden
  6
ByLayer
 62
  256
370
   -1
100
AcDbLine
 10
233.53384
 20
83.311049
 11
231.65884
 21
83.311049
  0
LINE
  5
107
100
AcDbEntity
  8
Hidden
  6
ByLayer
 62
  256
370
   -1
100
AcDbLine
 10
233.53384
 20
86.461049
 11
231.65884
 21
86.461049
  0
LINE
  5
108
100
AcDbEntity
  8
Hidden
  6
ByLayer
 62
  256
370
   -1
100
AcDbLine
 10
233.53384
 20
59.873549
 11
231.65884
 21
59.873549
  0
LINE
  5
109
100
AcDbEntity
  8
Hidden
  6
ByLayer
 62
  256
370
   -1
100
AcDbLine
 10
233.53384
 20
63.023549
 11
231.65884
 21
63.023549
  0
LINE
  5
10A
100
AcDbEntity
  8
Dimensions
  6
ByLayer
 62
  256
370
   -1
100
AcDbLine
 10
89.908118
 20
69.651241
 11
153.294317
 21
146.995858
  0
SOLID
  5
10B
100
AcDbEntity
  8
Dimensions
  6
ByLayer
 62
  256
370
   -1
100
AcDbTrace
 10
89.908118
 20
69.651241
 30
0
 11
91.67587168091728
 21
72.72771642482394
 31
0
 12
92.57739824851826
 22
71.98888876448731
 32
0
 13
92.57739824851826
 23
71.98888876448731
 33
0
  0
SOLID
  5
10C
100
AcDbEntity
  8
Dimensions
  6
ByLayer
 62
  256
370
   -1
100
AcDbTrace
 10
153.294317
 20
146.995858
 30
0
 11
151.5265633190827
 21
143.9193825751761
 31
0
 12
150.6250367514818
 22
144.6582102355127
 32
0
 13
150.6250367514818
 23
144.6582102355127
 33
0
  0
LINE
  5
10D
100
AcDbEntity
  8
Dimensions
  6
ByLayer
 62
  256
370
   -1
100
AcDbLine
 10
103.136327
 20
68.66109400000001
 11
140.066107
 21
147.986004
  0
SOLID
  5
10E
100
AcDbEntity
  8
Dimensions
  6
ByLayer
 62
  256
370
   -1
100
AcDbTrace
 10
103.136327
 20
68.66109400000001
 30
0
 11
104.0851703119684
 21
72.08006321385307
 31
0
 12
105.1418660885416
 22
71.58811758724249
 32
0
 13
105.1418660885416
 23
71.58811758724249
 33
0
  0
SOLID
  5
10F
100
AcDbEntity
  8
Dimensions
  6
ByLayer
 62
  256
370
   -1
100
AcDbTrace
 10
140.066107
 20
147.986004
 30
0
 11
139.1172636880316
 21
144.567034786147
 31
0
 12
138.0605679114584
 22
145.0589804127575
 32
0
 13
138.0605679114584
 23
145.0589804127575
 33
0
  0
LINE
  5
110
100
AcDbEntity
  8
Center Lines
  6
ByLayer
 62
  256
370
   -1
100
AcDbLine
 10
120.708248
 20
108.323549
 11
122.494186
 21
108.323549
  0
LINE
  5
111
100
AcDbEntity
  8
Center Lines
  6
ByLayer
 62
  256
370
   -1
100
AcDbLine
 10
121.601217
 20
107.43058
 11
121.601217
 21
109.216518
  0
LINE
  5
112
100
AcDbEntity
  8
Center Lines
  6
ByLayer
 62
  256
370
   -1
100
AcDbLine
 10
74.35121700000001
 20
108.323549
 11
118.922311
 21
108.323549
  0
LINE
  5
113
100
AcDbEntity
  8
Center Lines
  6
ByLayer
 62
  256
370
   -1
100
AcDbLine
 10
124.280123
 20
108.323549
 11
168.851217
 21
108.323549
  0
LINE
  5
114
100
AcDbEntity
  8
Center Lines
  6
ByLayer
 62
  256
370
   -1
100
AcDbLine
 10
121.601217
 20
61.073549
 11
121.601217
 21
105.644643
  0
LINE
  5
115
100
AcDbEntity
  8
Center Lines
  6
ByLayer
 62
  256
370
   -1
100
AcDbLine
 10
121.601217
 20
111.002455
 11
121.601217
 21
155.573549
  0
LINE
  5
116
100
AcDbEntity
  8
Center Lines
  6
ByLayer
 62
  256
370
   -1
100
AcDbLine
 10
120.708248
 20
155.198549
 11
122.494186
 21
155.198549
  0
LINE
  5
117
100
AcDbEntity
  8
Center Lines
  6
ByLayer
 62
  256
370
   -1
100
AcDbLine
 10
121.601217
 20
154.30558
 11
121.601217
 21
156.091518
  0
LINE
  5
118
100
AcDbEntity
  8
Center Lines
  6
ByLayer
 62
  256
370
   -1
100
AcDbLine
 10
116.526217
 20
155.198549
 11
118.922311
 21
155.198549
  0
LINE
  5
119
100
AcDbEntity
  8
Center Lines
  6
ByLayer
 62
  256
370
   -1
100
AcDbLine
 10
124.280123
 20
155.198549
 11
126.676217
 21
155.198549
  0
LINE
  5
11A
100
AcDbEntity
  8
Center Lines
  6
ByLayer
 62
  256
370
   -1
100
AcDbLine
 10
121.601217
 20
150.123549
 11
121.601217
 21
152.519643
  0
LINE
  5
11B
100
AcDbEntity
  8
Center Lines
  6
ByLayer
 62
  256
370
   -1
100
AcDbLine
 10
121.601217
 20
157.877455
 11
121.601217
 21
160.273549
  0
LINE
  5
11C
100
AcDbEntity
  8
Center Lines
  6
ByLayer
 62
  256
370
   -1
100
AcDbLine
 10
80.11330700000001
 20
131.761049
 11
81.89924499999999
 21
131.761049
  0
LINE
  5
11D
100
AcDbEntity
  8
Center Lines
  6
ByLayer
 62
  256
370
   -1
100
AcDbLine
 10
81.006276
 20
130.86808
 11
81.006276
 21
132.654018
  0
LINE
  5
11E
100
AcDbEntity
  8
Center Lines
  6
ByLayer
 62
  256
370
   -1
100
AcDbLine
 10
75.931276
 20
131.761049
 11
78.32737
 21
131.761049
  0
LINE
  5
11F
100
AcDbEntity
  8
Center Lines
  6
ByLayer
 62
  256
370
   -1
100
AcDbLine
 10
83.685182
 20
131.761049
 11
86.081276
 21
131.761049
  0
LINE
  5
120
100
AcDbEntity
  8
Center Lines
  6
ByLayer
 62
  256
370
   -1
100
AcDbLine
 10
81.006276
 20
126.686049
 11
81.006276
 21
129.082143
  0
LINE
  5
121
100
AcDbEntity
  8
Center Lines
  6
ByLayer
 62
  256
370
   -1
100
AcDbLine
 10
81.006276
 20
134.439955
 11
81.006276
 21
136.836049
  0
LINE
  5
122
100
AcDbEntity
  8
Center Lines
  6
ByLayer
 62
  256
370
   -1
100
AcDbLine
 10
80.11330700000001
 20
84.886049
 11
81.89924499999999
 21
84.886049
  0
LINE
  5
123
100
AcDbEntity
  8
Center Lines
  6
ByLayer
 62
  256
370
   -1
100
AcDbLine
 10
81.006276
 20
83.99308000000001
 11
81.006276
 21
85.77901799999999
  0
LINE
  5
124
100
AcDbEntity
  8
Center Lines
  6
ByLayer
 62
  256
370
   -1
100
AcDbLine
 10
75.931276
 20
84.886049
 11
78.32737
 21
84.886049
  0
LINE
  5
125
100
AcDbEntity
  8
Center Lines
  6
ByLayer
 62
  256
370
   -1
100
AcDbLine
 10
83.685182
 20
84.886049
 11
86.081276
 21
84.886049
  0
LINE
  5
126
100
AcDbEntity
  8
Center Lines
  6
ByLayer
 62
  256
370
   -1
100
AcDbLine
 10
81.006276
 20
79.811049
 11
81.006276
 21
82.207143
  0
LINE
  5
127
100
AcDbEntity
  8
Center Lines
  6
ByLayer
 62
  256
370
   -1
100
AcDbLine
 10
81.006276
 20
87.564955
 11
81.006276
 21
89.961049
  0
LINE
  5
128
100
AcDbEntity
  8
Center Lines
  6
ByLayer
 62
  256
370
   -1
100
AcDbLine
 10
120.708248
 20
61.448549
 11
122.494186
 21
61.448549
  0
LINE
  5
129
100
AcDbEntity
  8
Center Lines
  6
ByLayer
 62
  256
370
   -1
100
AcDbLine
 10
121.601217
 20
60.55558
 11
121.601217
 21
62.341518
  0
LINE
  5
12A
100
AcDbEntity
  8
Center Lines
  6
ByLayer
 62
  256
370
   -1
100
AcDbLine
 10
116.526217
 20
61.448549
 11
118.922311
 21
61.448549
  0
LINE
  5
12B
100
AcDbEntity
  8
Center Lines
  6
ByLayer
 62
  256
370
   -1
100
AcDbLine
 10
124.280123
 20
61.448549
 11
126.676217
 21
61.448549
  0
LINE
  5
12C
100
AcDbEntity
  8
Center Lines
  6
ByLayer
 62
  256
370
   -1
100
AcDbLine
 10
121.601217
 20
56.373549
 11
121.601217
 21
58.769643
  0
LINE
  5
12D
100
AcDbEntity
  8
Center Lines
  6
ByLayer
 62
  256
370
   -1
100
AcDbLine
 10
121.601217
 20
64.127455
 11
121.601217
 21
66.523549
  0
LINE
  5
12E
100
AcDbEntity
  8
Center Lines
  6
ByLayer
 62
  256
370
   -1
100
AcDbLine
 10
161.303189
 20
84.886049
 11
163.089127
 21
84.886049
  0
LINE
  5
12F
100
AcDbEntity
  8
Center Lines
  6
ByLayer
 62
  256
370
   -1
100
AcDbLine
 10
162.196158
 20
83.99308000000001
 11
162.196158
 21
85.77901799999999
  0
LINE
  5
130
100
AcDbEntity
  8
Center Lines
  6
ByLayer
 62
  256
370
   -1
100
AcDbLine
 10
157.121158
 20
84.886049
 11
159.517252
 21
84.886049
  0
LINE
  5
131
100
AcDbEntity
  8
Center Lines
  6
ByLayer
 62
  256
370
   -1
100
AcDbLine
 10
164.875064
 20
84.886049
 11
167.271158
 21
84.886049
  0
LINE
  5
132
100
AcDbEntity
  8
Center Lines
  6
ByLayer
 62
  256
370
   -1
100
AcDbLine
 10
162.196158
 20
79.811049
 11
162.196158
 21
82.207143
  0
LINE
  5
133
100
AcDbEntity
  8
Center Lines
  6
ByLayer
 62
  256
370
   -1
100
AcDbLine
 10
162.196158
 20
87.564955
 11
162.196158
 21
89.961049
  0
LINE
  5
134
100
AcDbEntity
  8
Center Lines
  6
ByLayer
 62
  256
370
   -1
100
AcDbLine
 10
161.303189
 20
131.761049
 11
163.089127
 21
131.761049
  0
LINE
  5
135
100
AcDbEntity
  8
Center Lines
  6
ByLayer
 62
  256
370
   -1
100
AcDbLine
 10
162.196158
 20
130.86808
 11
162.196158
 21
132.654018
  0
LINE
  5
136
100
AcDbEntity
  8
Center Lines
  6
ByLayer
 62
  256
370
   -1
100
AcDbLine
 10
157.121158
 20
131.761049
 11
159.517252
 21
131.761049
  0
LINE
  5
137
100
AcDbEntity
  8
Center Lines
  6
ByLayer
 62
  256
370
   -1
100
AcDbLine
 10
164.875064
 20
131.761049
 11
167.271158
 21
131.761049
  0
LINE
  5
138
100
AcDbEntity
  8
Center Lines
  6
ByLayer
 62
  256
370
   -1
100
AcDbLine
 10
162.196158
 20
126.686049
 11
162.196158
 21
129.082143
  0
LINE
  5
139
100
AcDbEntity
  8
Center Lines
  6
ByLayer
 62
  256
370
   -1
100
AcDbLine
 10
162.196158
 20
134.439955
 11
162.196158
 21
136.836049
  0
INSERT
  5
13A
100
AcDbEntity
  8
Center Lines
  6
ByLayer
 62
  256
370
   -1
100
AcDbBlockReference
  2
*U12
 10
121.601217
 20
108.323549
 30
0
 41
1
 42
1
 43
0
 50
0
 70
    1
 71
    1
 44
0
 45
0
  0
INSERT
  5
13B
100
AcDbEntity
  8
Center Lines
  6
ByLayer
 62
  256
370
   -1
100
AcDbBlockReference
  2
*U13
 10
121.601217
 20
108.323549
 30
0
 41
1
 42
1
 43
0
 50
0
 70
    1
 71
    1
 44
0
 45
0
  0
INSERT
  5
13C
100
AcDbEntity
  8
Center Lines
  6
ByLayer
 62
  256
370
   -1
100
AcDbBlockReference
  2
*U14
 10
121.601217
 20
108.323549
 30
0
 41
1
 42
1
 43
0
 50
0
 70
    1
 71
    1
 44
0
 45
0
  0
INSERT
  5
13D
100
AcDbEntity
  8
Center Lines
  6
ByLayer
 62
  256
370
   -1
100
AcDbBlockReference
  2
*U15
 10
121.601217
 20
108.323549
 30
0
 41
1
 42
1
 43
0
 50
0
 70
    1
 71
    1
 44
0
 45
0
  0
INSERT
  5
13E
100
AcDbEntity
  8
Center Lines
  6
ByLayer
 62
  256
370
   -1
100
AcDbBlockReference
  2
*U16
 10
121.601217
 20
108.323549
 30
0
 41
1
 42
1
 43
0
 50
0
 70
    1
 71
    1
 44
0
 45
0
  0
INSERT
  5
13F
100
AcDbEntity
  8
Center Lines
  6
ByLayer
 62
  256
370
   -1
100
AcDbBlockReference
  2
*U17
 10
121.601217
 20
108.323549
 30
0
 41
1
 42
1
 43
0
 50
0
 70
    1
 71
    1
 44
0
 45
0
  0
ARC
  5
140
100
AcDbEntity
  8
Center Lines
  6
ByLayer
 62
  256
370
   -1
100
AcDbCircle
 10
121.601217
 20
108.323549
 40
46.87499999999976
100
AcDbArc
 50
273.2749
 51
326.7251
  0
ARC
  5
141
100
AcDbEntity
  8
Center Lines
  6
ByLayer
 62
  256
370
   -1
100
AcDbCircle
 10
121.601217
 20
108.323549
 40
46.875
100
AcDbArc
 50
213.2749
 51
266.7251
  0
ARC
  5
142
100
AcDbEntity
  8
Center Lines
  6
ByLayer
 62
  256
370
   -1
100
AcDbCircle
 10
121.601217
 20
108.323549
 40
46.87499999999976
100
AcDbArc
 50
153.2749
 51
206.7251
  0
ARC
  5
143
100
AcDbEntity
  8
Center Lines
  6
ByLayer
 62
  256
370
   -1
100
AcDbCircle
 10
121.601217
 20
108.323549
 40
46.87499999999976
100
AcDbArc
 50
93.2749
 51
146.7251
  0
ARC
  5
144
100
AcDbEntity
  8
Center Lines
  6
ByLayer
 62
  256
370
   -1
100
AcDbCircle
 10
121.601217
 20
108.323549
 40
46.875
100
AcDbArc
 50
33.2749
 51
86.7251
  0
ARC
  5
145
100
AcDbEntity
  8
Center Lines
  6
ByLayer
 62
  256
370
   -1
100
AcDbCircle
 10
121.601217
 20
108.323549
 40
46.87499999999976
100
AcDbArc
 50
333.2749
 51
26.7251
  0
ARC
  5
146
100
AcDbEntity
  8
Center Lines
  6
ByLayer
 62
  256
370
   -1
100
AcDbCircle
 10
121.601217
 20
108.323549
 40
46.87499999999984
100
AcDbArc
 50
330.000057
 51
330.0000000000001
  0
LINE
  5
147
100
AcDbEntity
  8
Center Lines
  6
ByLayer
 62
  256
370
   -1
100
AcDbLine
 10
81.33272700000001
 20
131.572572
 11
161.869707
 21
85.07452599999999
  0
LINE
  5
148
100
AcDbEntity
  8
Center Lines
  6
ByLayer
 62
  256
370
   -1
100
AcDbLine
 10
161.869707
 20
131.572572
 11
81.33272700000001
 21
85.07452599999999
  0
LINE
  5
149
100
AcDbEntity
  8
Dimensions
  6
ByLayer
 62
  256
370
   -1
100
AcDbLine
 10
79.60067618234831
 20
132.5725719825361
 11
67.38275100890105
 21
139.6265942061097
  0
LINE
  5
14A
100
AcDbEntity
  8
Dimensions
  6
ByLayer
 62
  256
370
   -1
100
AcDbLine
 10
121.601217
 20
157.573549
 11
121.601217
 21
170.9296405055692
  0
ARC
  5
14B
100
AcDbEntity
  8
Dimensions
  6
ByLayer
 62
  256
370
   -1
100
AcDbCircle
 10
121.601217
 20
108.323549
 40
60.60609150556915
100
AcDbArc
 50
90
 51
150.0000005777028
  0
SOLID
  5
14C
100
AcDbEntity
  8
Dimensions
  6
ByLayer
 62
  256
370
   -1
100
AcDbTrace
 10
69.11480182655275
 20
138.6265942235737
 30
0
 11
70.45548783533292
 21
141.9117449266318
 31
0
 12
71.44767774278735
 22
141.300045939127
 32
0
 13
71.44767774278735
 23
141.300045939127
 33
0
  0
SOLID
  5
14D
100
AcDbEntity
  8
Dimensions
  6
ByLayer
 62
  256
370
   -1
100
AcDbTrace
 10
121.601217
 20
168.9296405055692
 30
0
 11
118.1195019473151
 21
168.2460365209043
 31
0
 12
118.0858500266463
 22
169.4111476795514
 32
0
 13
118.0858500266463
 23
169.4111476795514
 33
0
  0
MTEXT
  5
14E
100
AcDbEntity
  8
Dimensions
  6
ByLayer
 62
  256
370
   -1
100
AcDbMText
 10
90.54817097606096
 20
162.1090018170327
 30
0
 40
3.5
 41
6.611111111111328
 71
    8
 72
    1
  1
60%%D
  7
Standard
210
0
220
0
230
1
 50
390.0000002888514
 73
    2
 44
1
  0
LINE
  5
14F
100
AcDbEntity
  8
Dimensions
  6
ByLayer
 62
  256
370
   -1
100
AcDbLine
 10
79.60067618234831
 20
84.07452601746395
 11
67.57511462326651
 21
77.13156497584038
  0
LINE
  5
150
100
AcDbEntity
  8
Dimensions
  6
ByLayer
 62
  256
370
   -1
100
AcDbLine
 10
79.60067618234831
 20
132.5725719825361
 11
67.57511462326653
 21
139.5155330241596
  0
ARC
  5
151
100
AcDbEntity
  8
Dimensions
  6
ByLayer
 62
  256
370
   -1
100
AcDbCircle
 10
121.601217
 20
108.323549
 40
60.38396913778984
100
AcDbArc
 50
150.0000005777028
 51
209.9999994222972
  0
SOLID
  5
152
100
AcDbEntity
  8
Dimensions
  6
ByLayer
 62
  256
370
   -1
100
AcDbTrace
 10
69.30716544091821
 20
78.13156495837643
 30
0
 11
67.13278234349727
 21
80.9354394672645
 31
0
 12
68.15868294680484
 22
81.48874265350329
 32
0
 13
68.15868294680484
 23
81.48874265350329
 33
0
  0
SOLID
  5
153
100
AcDbEntity
  8
Dimensions
  6
ByLayer
 62
  256
370
   -1
100
AcDbTrace
 10
69.30716544091821
 20
138.5155330416236
 30
0
 11
68.15868294680486
 21
135.1583553464967
 31
0
 12
67.13278234349727
 22
135.7116585327355
 32
0
 13
67.13278234349727
 23
135.7116585327355
 33
0
  0
MTEXT
  5
154
100
AcDbEntity
  8
Dimensions
  6
ByLayer
 62
  256
370
   -1
100
AcDbMText
 10
59.71724786221015
 20
108.323549
 30
0
 40
3.5
 41
6.611111111111328
 71
    8
 72
    1
  1
60%%D
  7
Standard
210
0
220
0
230
1
 50
450
 73
    2
 44
1
  0
LINE
  5
155
100
AcDbEntity
  8
Dimensions
  6
ByLayer
 62
  256
370
   -1
100
AcDbLine
 10
121.601217
 20
59.073549
 11
121.601217
 21
45.39421618013951
  0
LINE
  5
156
100
AcDbEntity
  8
Dimensions
  6
ByLayer
 62
  256
370
   -1
100
AcDbLine
 10
79.60067618234831
 20
84.07452601746395
 11
67.10281581754252
 21
76.85888313956717
  0
ARC
  5
157
100
AcDbEntity
  8
Dimensions
  6
ByLayer
 62
  256
370
   -1
100
AcDbCircle
 10
121.601217
 20
108.323549
 40
60.92933281986049
100
AcDbArc
 50
209.9999994222972
 51
270
  0
SOLID
  5
158
100
AcDbEntity
  8
Dimensions
  6
ByLayer
 62
  256
370
   -1
100
AcDbTrace
 10
121.601217
 20
47.39421618013951
 30
0
 11
118.085923828583
 21
46.91217050291423
 31
0
 12
118.1193972688506
 22
48.07728680293133
 32
0
 13
118.1193972688506
 23
48.07728680293133
 33
0
  0
SOLID
  5
159
100
AcDbEntity
  8
Dimensions
  6
ByLayer
 62
  256
370
   -1
100
AcDbTrace
 10
68.83486663519422
 20
77.85888312210321
 30
0
 11
71.16733298572595
 21
75.18507407140804
 31
0
 12
70.17504938551549
 22
74.57352708178071
 32
0
 13
70.17504938551549
 23
74.57352708178071
 33
0
  0
MTEXT
  5
15A
100
AcDbEntity
  8
Dimensions
  6
ByLayer
 62
  256
370
   -1
100
AcDbMText
 10
91.88655033060202
 20
56.85623719784431
 30
0
 40
3.5
 41
6.611111111111328
 71
    8
 72
    1
  1
60%%D
  7
Standard
210
0
220
0
230
1
 50
-30.00000028885143
 73
    2
 44
1
  0
LINE
  5
15B
100
AcDbEntity
  8
Dimensions
  6
ByLayer
 62
  256
370
   -1
100
AcDbLine
 10
163.6017578176517
 20
84.07452601746394
 11
176.3846444587828
 21
76.69432314603641
  0
LINE
  5
15C
100
AcDbEntity
  8
Dimensions
  6
ByLayer
 62
  256
370
   -1
100
AcDbLine
 10
121.601217
 20
59.073549
 11
121.601217
 21
45.0650961873303
  0
ARC
  5
15D
100
AcDbEntity
  8
Dimensions
  6
ByLayer
 62
  256
370
   -1
100
AcDbCircle
 10
121.601217
 20
108.323549
 40
61.25845281266968
100
AcDbArc
 50
270
 51
330.0000005777028
  0
SOLID
  5
15E
100
AcDbEntity
  8
Dimensions
  6
ByLayer
 62
  256
370
   -1
100
AcDbTrace
 10
174.6525936411311
 20
77.69432312857245
 30
0
 11
173.3129178768206
 21
74.40876032100643
 31
0
 12
172.3205399193494
 22
75.02015418202738
 32
0
 13
172.3205399193494
 23
75.02015418202738
 33
0
  0
SOLID
  5
15F
100
AcDbEntity
  8
Dimensions
  6
ByLayer
 62
  256
370
   -1
100
AcDbTrace
 10
121.601217
 20
47.0650961873303
 30
0
 11
125.0831420957285
 21
47.74762951521845
 31
0
 12
125.1164357441026
 22
46.58250806371787
 32
0
 13
125.1164357441026
 23
46.58250806371787
 33
0
  0
MTEXT
  5
160
100
AcDbEntity
  8
Dimensions
  6
ByLayer
 62
  256
370
   -1
100
AcDbMText
 10
151.4804436672395
 20
56.57121092400779
 30
0
 40
3.5
 41
6.611111111111328
 71
    8
 72
    1
  1
60%%D
  7
Standard
210
0
220
0
230
1
 50
30.00000028885143
 73
    2
 44
1
  0
LINE
  5
161
100
AcDbEntity
  8
Dimensions
  6
ByLayer
 62
  256
370
   -1
100
AcDbLine
 10
163.6017578176517
 20
132.5725719825361
 11
175.9765970881313
 21
139.7171886001615
  0
LINE
  5
162
100
AcDbEntity
  8
Dimensions
  6
ByLayer
 62
  256
370
   -1
100
AcDbLine
 10
163.6017578176517
 20
84.07452601746394
 11
175.9765970881313
 21
76.92990939983851
  0
ARC
  5
163
100
AcDbEntity
  8
Dimensions
  6
ByLayer
 62
  256
370
   -1
100
AcDbCircle
 10
121.601217
 20
108.323549
 40
60.78728029683698
100
AcDbArc
 50
330.0000005777028
 51
29.99999942229714
  0
SOLID
  5
164
100
AcDbEntity
  8
Dimensions
  6
ByLayer
 62
  256
370
   -1
100
AcDbTrace
 10
174.2445462704796
 20
138.7171886176255
 30
0
 11
176.4194684688619
 21
135.9137322603896
 31
0
 12
175.3936742760575
 22
135.3602318197594
 32
0
 13
175.3936742760575
 23
135.3602318197594
 33
0
  0
SOLID
  5
165
100
AcDbEntity
  8
Dimensions
  6
ByLayer
 62
  256
370
   -1
100
AcDbTrace
 10
174.2445462704796
 20
77.92990938237455
 30
0
 11
175.3936742760575
 21
81.28686618024055
 31
0
 12
176.4194684688619
 22
80.73336573961043
 32
0
 13
176.4194684688619
 23
80.73336573961043
 33
0
  0
MTEXT
  5
166
100
AcDbEntity
  8
Dimensions
  6
ByLayer
 62
  256
370
   -1
100
AcDbMText
 10
180.888497296837
 20
108.323549
 30
0
 40
3.5
 41
6.611111111111328
 71
    8
 72
    1
  1
60%%D
  7
Standard
210
0
220
0
230
1
 50
90
 73
    2
 44
1
  0
LINE
  5
167
100
AcDbEntity
  8
Dimensions
  6
ByLayer
 62
  256
370
   -1
100
AcDbLine
 10
121.601217
 20
157.573549
 11
121.601217
 21
170.6722185511367
  0
LINE
  5
168
100
AcDbEntity
  8
Dimensions
  6
ByLayer
 62
  256
370
   -1
100
AcDbLine
 10
163.6017578176517
 20
132.5725719825361
 11
175.5967490377708
 21
139.4978832311413
  0
ARC
  5
169
100
AcDbEntity
  8
Dimensions
  6
ByLayer
 62
  256
370
   -1
100
AcDbCircle
 10
121.601217
 20
108.323549
 40
60.34866955113671
100
AcDbArc
 50
29.99999942229714
 51
90
  0
SOLID
  5
16A
100
AcDbEntity
  8
Dimensions
  6
ByLayer
 62
  256
370
   -1
100
AcDbTrace
 10
121.601217
 20
168.6722185511367
 30
0
 11
125.1166432532053
 21
169.1532927389884
 31
0
 12
125.0828478277977
 22
167.9881857340355
 32
0
 13
125.0828478277977
 23
167.9881857340355
 33
0
  0
SOLID
  5
16B
100
AcDbEntity
  8
Dimensions
  6
ByLayer
 62
  256
370
   -1
100
AcDbTrace
 10
173.8646982201192
 20
138.4978832486053
 30
0
 11
171.5314930365415
 21
141.1710476070517
 31
0
 12
172.5236075944229
 22
141.7828687964596
 32
0
 13
172.5236075944229
 23
141.7828687964596
 33
0
  0
MTEXT
  5
16C
100
AcDbEntity
  8
Dimensions
  6
ByLayer
 62
  256
370
   -1
100
AcDbMText
 10
152.5255520455989
 20
161.8860678656513
 30
0
 40
3.5
 41
6.611111111111328
 71
    8
 72
    1
  1
60%%D
  7
Standard
210
0
220
0
230
1
 50
329.9999997111486
 73
    2
 44
1
  0
LINE
  5
16D
100
AcDbEntity
  8
Dimensions
  6
ByLayer
 62
  256
370
   -1
100
AcDbLine
 10
38.507641
 20
145.073549
 11
38.507641
 21
165.323549
  0
SOLID
  5
16E
100
AcDbEntity
  8
Dimensions
  6
ByLayer
 62
  256
370
   -1
100
AcDbTrace
 10
38.507641
 20
152.073549
 30
0
 11
39.09043952088198
 21
148.573549
 31
0
 12
37.92484247911802
 22
148.573549
 32
0
 13
37.92484247911802
 23
148.573549
 33
0
  0
SOLID
  5
16F
100
AcDbEntity
  8
Dimensions
  6
ByLayer
 62
  256
370
   -1
100
AcDbTrace
 10
38.507641
 20
158.323549
 30
0
 11
37.92484247911803
 21
161.823549
 31
0
 12
39.09043952088198
 22
161.823549
 32
0
 13
39.09043952088198
 23
161.823549
 33
0
  0
LINE
  5
170
100
AcDbEntity
  8
Dimensions
  6
ByLayer
 62
  256
370
   -1
100
AcDbLine
 10
119.601217
 20
152.073549
 11
36.507641
 21
152.073549
  0
LINE
  5
171
100
AcDbEntity
  8
Dimensions
  6
ByLayer
 62
  256
370
   -1
100
AcDbLine
 10
119.601217
 20
158.323549
 11
36.507641
 21
158.323549
  0
LINE
  5
172
100
AcDbEntity
  8
Dimensions
  6
ByLayer
 62
  256
370
   -1
100
AcDbLine
 10
50.5111
 20
165.323549
 11
50.5111
 21
148.198549
  0
SOLID
  5
173
100
AcDbEntity
  8
Dimensions
  6
ByLayer
 62
  256
370
   -1
100
AcDbTrace
 10
50.5111
 20
158.323549
 30
0
 11
49.92830147911803
 21
161.823549
 31
0
 12
51.09389852088198
 22
161.823549
 32
0
 13
51.09389852088198
 23
161.823549
 33
0
  0
SOLID
  5
174
100
AcDbEntity
  8
Dimensions
  6
ByLayer
 62
  256
370
   -1
100
AcDbTrace
 10
50.5111
 20
155.198549
 30
0
 11
51.09389852088198
 21
151.698549
 31
0
 12
49.92830147911802
 22
151.698549
 32
0
 13
49.92830147911802
 23
151.698549
 33
0
  0
LINE
  5
175
100
AcDbEntity
  8
Dimensions
  6
ByLayer
 62
  256
370
   -1
100
AcDbLine
 10
119.601217
 20
158.323549
 11
48.5111
 21
158.323549
  0
LINE
  5
176
100
AcDbEntity
  8
Dimensions
  6
ByLayer
 62
  256
370
   -1
100
AcDbLine
 10
119.601217
 20
155.198549
 11
48.5111
 21
155.198549
  0
LINE
  5
177
100
AcDbEntity
  8
Dimensions
  6
ByLayer
 62
  256
370
   -1
100
AcDbLine
 10
253.33283
 20
158.323549
 11
253.33283
 21
58.323549
  0
SOLID
  5
178
100
AcDbEntity
  8
Dimensions
  6
ByLayer
 62
  256
370
   -1
100
AcDbTrace
 10
253.33283
 20
158.323549
 30
0
 11
253.915628520882
 21
154.823549
 31
0
 12
252.750031479118
 22
154.823549
 32
0
 13
252.750031479118
 23
154.823549
 33
0
  0
SOLID
  5
179
100
AcDbEntity
  8
Dimensions
  6
ByLayer
 62
  256
370
   -1
100
AcDbTrace
 10
253.33283
 20
58.323549
 30
0
 11
252.750031479118
 21
61.823549
 31
0
 12
253.915628520882
 22
61.823549
 32
0
 13
253.915628520882
 23
61.823549
 33
0
  0
MTEXT
  5
17A
100
AcDbEntity
  8
Dimensions
  6
ByLayer
 62
  256
370
   -1
100
AcDbMText
 10
250.06033
 20
108.323549
 30
0
 40
3.5
 41
6.222222222222222
 71
    5
 72
    1
  1
100
  7
Standard
210
0
220
0
230
1
 50
90
 73
    2
 44
1
  0
LINE
  5
17B
100
AcDbEntity
  8
Dimensions
  6
ByLayer
 62
  256
370
   -1
100
AcDbLine
 10
233.65884
 20
158.323549
 11
255.33283
 21
158.323549
  0
LINE
  5
17C
100
AcDbEntity
  8
Dimensions
  6
ByLayer
 62
  256
370
   -1
100
AcDbLine
 10
235.53384
 20
58.323549
 11
255.33283
 21
58.323549
  0
LINE
  5
17D
100
AcDbEntity
  8
Annotations
  6
ByLayer
 62
  256
370
   -1
100
AcDbLine
 10
163.2184066666667
 20
29.602319
 11
163.2184066666667
 21
33.602319
  0
LINE
  5
17E
100
AcDbEntity
  8
Annotations
  6
ByLayer
 62
  256
370
   -1
100
AcDbLine
 10
164.55174
 20
29.602319
 11
164.55174
 21
33.602319
  0
LINE
  5
17F
100
AcDbEntity
  8
Annotations
  6
ByLayer
 62
  256
370
   -1
100
AcDbLine
 10
162.55174
 20
32.26898566666667
 11
165.2184066666667
 21
32.26898566666667
  0
LINE
  5
180
100
AcDbEntity
  8
Annotations
  6
ByLayer
 62
  256
370
   -1
100
AcDbLine
 10
162.55174
 20
30.93565233333333
 11
165.2184066666667
 21
30.93565233333333
  0
LINE
  5
181
100
AcDbEntity
  8
Annotations
  6
ByLayer
 62
  256
370
   -1
100
AcDbLine
 10
168.3295177777778
 20
30.49120788888889
 11
168.3295177777778
 21
30.93565233333333
  0
ARC
  5
182
100
AcDbEntity
  8
Annotations
  6
ByLayer
 62
  256
370
   -1
100
AcDbCircle
 10
167.4406288888889
 20
30.93565233333333
 40
0.8888888888888888
100
AcDbArc
 50
0
 51
180
  0
LINE
  5
183
100
AcDbEntity
  8
Annotations
  6
ByLayer
 62
  256
370
   -1
100
AcDbLine
 10
166.55174
 20
30.93565233333333
 11
166.55174
 21
30.49120788888889
  0
ARC
  5
184
100
AcDbEntity
  8
Annotations
  6
ByLayer
 62
  256
370
   -1
100
AcDbCircle
 10
167.4406288888889
 20
30.49120788888889
 40
0.8888888888888888
100
AcDbArc
 50
180
 51
0
  0
ARC
  5
185
100
AcDbEntity
  8
Annotations
  6
ByLayer
 62
  256
370
   -1
100
AcDbCircle
 10
167.4406288888889
 20
32.71343011111112
 40
0.8888888888888888
100
AcDbArc
 50
270
 51
90
  0
ARC
  5
186
100
AcDbEntity
  8
Annotations
  6
ByLayer
 62
  256
370
   -1
100
AcDbCircle
 10
167.4406288888889
 20
32.71343011111112
 40
0.8888888888888888
100
AcDbArc
 50
90
 51
270
  0
LINE
  5
187
100
AcDbEntity
  8
Annotations
  6
ByLayer
 62
  256
370
   -1
100
AcDbLine
 10
237.8300217777778
 20
16.063986
 11
236.052244
 21
16.063986
  0
LINE
  5
188
100
AcDbEntity
  8
Annotations
  6
ByLayer
 62
  256
370
   -1
100
AcDbLine
 10
236.052244
 20
16.063986
 11
236.052244
 21
20.063986
  0
LINE
  5
189
100
AcDbEntity
  8
Annotations
  6
ByLayer
 62
  256
370
   -1
100
AcDbLine
 10
236.052244
 20
20.063986
 11
237.8300217777778
 21
20.063986
  0
LINE
  5
18A
100
AcDbEntity
  8
Annotations
  6
ByLayer
 62
  256
370
   -1
100
AcDbLine
 10
236.052244
 20
18.28620822222222
 11
237.3855773333333
 21
18.28620822222222
  0
ARC
  5
18B
100
AcDbEntity
  8
Annotations
  6
ByLayer
 62
  256
370
   -1
100
AcDbCircle
 10
240.4966869728381
 20
18.28620380740321
 40
2.222217807403696
100
AcDbArc
 50
233.1300644115061
 51
270.0000379426498
  0
ARC
  5
18C
100
AcDbEntity
  8
Annotations
  6
ByLayer
 62
  256
370
   -1
100
AcDbCircle
 10
240.4966881041158
 20
16.95287438120883
 40
0.8888883812088965
100
AcDbArc
 50
270.0000219368293
 51
62.98101938430567
  0
LINE
  5
18D
100
AcDbEntity
  8
Annotations
  6
ByLayer
 62
  256
370
   -1
100
AcDbLine
 10
240.9004973333333
 20
17.744746
 11
239.6484351111111
 21
18.383226
  0
ARC
  5
18E
100
AcDbEntity
  8
Annotations
  6
ByLayer
 62
  256
370
   -1
100
AcDbCircle
 10
240.0522443403286
 20
19.17509761879117
 40
0.8888883812088966
100
AcDbArc
 50
90.00002193682934
 51
242.9810193843057
  0
ARC
  5
18F
100
AcDbEntity
  8
Annotations
  6
ByLayer
 62
  256
370
   -1
100
AcDbCircle
 10
240.0522439222265
 20
17.1750967222434
 40
2.888889277756598
100
AcDbArc
 50
67.38013659445404
 51
89.99999845750555
  0
LINE
  5
190
100
AcDbEntity
  8
Annotations
  6
ByLayer
 62
  256
370
   -1
100
AcDbLine
 10
244.4966875964358
 20
16.063986
 11
243.6077987075469
 21
16.063986
  0
ARC
  5
191
100
AcDbEntity
  8
Annotations
  6
ByLayer
 62
  256
370
   -1
100
AcDbCircle
 10
243.6077980434801
 20
16.95287422482206
 40
0.8888882248223071
100
AcDbArc
 50
179.999957195713
 51
270.000042804287
  0
LINE
  5
192
100
AcDbEntity
  8
Annotations
  6
ByLayer
 62
  256
370
   -1
100
AcDbLine
 10
242.7189098186581
 20
16.95287488888889
 11
242.7189098186581
 21
19.17509711111111
  0
ARC
  5
193
100
AcDbEntity
  8
Annotations
  6
ByLayer
 62
  256
370
   -1
100
AcDbCircle
 10
243.6077980434801
 20
19.17509777517794
 40
0.8888882248223071
100
AcDbArc
 50
89.99995719571304
 51
180.000042804287
  0
LINE
  5
194
100
AcDbEntity
  8
Annotations
  6
ByLayer
 62
  256
370
   -1
100
AcDbLine
 10
243.6077987075469
 20
20.063986
 11
244.4966875964358
 21
20.063986
  0
LINE
  5
195
100
AcDbEntity
  8
Annotations
  6
ByLayer
 62
  256
370
   -1
100
AcDbLine
 10
245.8300209297692
 20
16.28620822222222
 11
245.8300209297692
 21
16.50843044444444
  0
LINE
  5
196
100
AcDbEntity
  8
Annotations
  6
ByLayer
 62
  256
370
   -1
100
AcDbLine
 10
245.8300209297692
 20
18.063986
 11
245.8300209297692
 21
18.28620822222222
  0
LINE
  5
197
100
AcDbEntity
  8
Annotations
  6
ByLayer
 62
  256
370
   -1
100
AcDbLine
 10
250.1633542631025
 20
19.17509711111111
 11
251.0522431519914
 21
20.063986
  0
LINE
  5
198
100
AcDbEntity
  8
Annotations
  6
ByLayer
 62
  256
370
   -1
100
AcDbLine
 10
251.0522431519914
 20
20.063986
 11
251.0522431519914
 21
16.063986
  0
LINE
  5
199
100
AcDbEntity
  8
Annotations
  6
ByLayer
 62
  256
370
   -1
100
AcDbLine
 10
252.3855764853247
 20
16.28620822222222
 11
252.3855764853247
 21
16.50843044444444
  0
LINE
  5
19A
100
AcDbEntity
  8
Annotations
  6
ByLayer
 62
  256
370
   -1
100
AcDbLine
 10
252.3855764853247
 20
18.063986
 11
252.3855764853247
 21
18.28620822222222
  0
LINE
  5
19B
100
AcDbEntity
  8
Annotations
  6
ByLayer
 62
  256
370
   -1
100
AcDbLine
 10
253.7189098186581
 20
19.39731933333333
 11
253.8379987075469
 21
19.61954155555556
  0
ARC
  5
19C
100
AcDbEntity
  8
Annotations
  6
ByLayer
 62
  256
370
   -1
100
AcDbCircle
 10
254.6077987075469
 20
19.17509711111111
 40
0.8888885780555011
100
AcDbArc
 50
329.9999884324239
 51
149.9999884324239
  0
LINE
  5
19D
100
AcDbEntity
  8
Annotations
  6
ByLayer
 62
  256
370
   -1
100
AcDbLine
 10
255.377598707547
 20
18.73065266666667
 11
253.7189098186581
 21
16.063986
  0
LINE
  5
19E
100
AcDbEntity
  8
Annotations
  6
ByLayer
 62
  256
370
   -1
100
AcDbLine
 10
253.7189098186581
 20
16.063986
 11
255.4966875964358
 21
16.063986
  0
ARC
  5
19F
100
AcDbEntity
  8
Annotations
  6
ByLayer
 62
  256
370
   -1
100
AcDbCircle
 10
257.7189098186581
 20
19.50843044444444
 40
0.5555555555555556
100
AcDbArc
 50
36.86989764584401
 51
143.130102354156
  0
ARC
  5
1A0
100
AcDbEntity
  8
Annotations
  6
ByLayer
 62
  256
370
   -1
100
AcDbCircle
 10
260.607798707547
 20
18.063986
 40
3.777777777777778
100
AcDbArc
 50
151.927513064147
 51
208.0724869358529
  0
ARC
  5
1A1
100
AcDbEntity
  8
Annotations
  6
ByLayer
 62
  256
370
   -1
100
AcDbCircle
 10
257.7189098186581
 20
16.61954155555556
 40
0.5555555555555556
100
AcDbArc
 50
216.869897645844
 51
323.130102354156
  0
ARC
  5
1A2
100
AcDbEntity
  8
Annotations
  6
ByLayer
 62
  256
370
   -1
100
AcDbCircle
 10
254.8300209297692
 20
18.063986
 40
3.777777777777778
100
AcDbArc
 50
331.927513064147
 51
28.07248693585295
  0
MTEXT
  5
1A3
100
AcDbEntity
  8
Dimensions
  6
ByLayer
 62
  256
370
   -1
100
AcDbMText
 10
33.8861595657289
 20
154.7677165164537
 30
0
 40
3.5
 41
7.388888888889106
 71
    5
 72
    1
  1
12.5
  7

210
0
220
0
230
1
 50
90
 73
    2
 44
1
  0
MTEXT
  5
1A4
100
AcDbEntity
  8
Dimensions
  6
ByLayer
 62
  256
370
   -1
100
AcDbMText
 10
47.63045183836317
 20
146.2706787375392
 30
0
 40
3.5
 41
8.166666666667101
 71
    5
 72
    1
  1
6.25
  7

210
0
220
0
230
1
 50
90
 73
    2
 44
1
  0
MTEXT
  5
1A5
100
AcDbEntity
  8
Dimensions
  6
ByLayer
 62
  256
370
   -1
100
AcDbMText
 10
144.5404495365729
 20
130.5086120624041
 30
0
 40
3.5
 41
10.88888888888889
 71
    5
 72
    1
  1
Ø200
  7

210
0
220
0
230
1
 50
50.66440000000001
 73
    2
 44
1
  0
MTEXT
  5
1A6
100
AcDbEntity
  8
Dimensions
  6
ByLayer
 62
  256
370
   -1
100
AcDbMText
 10
127.6390476680307
 20
130.2938571539642
 30
0
 40
3.5
 41
10.11111111111133
 71
    5
 72
    1
  1
Ø175
  7

210
0
220
0
230
1
 50
65.0356
 73
    2
 44
1
  0
LINE
  5
1A7
100
AcDbEntity
  8
Visible
  6
ByLayer
 62
  256
370
   -1
100
AcDbLine
 10
231.65884
 20
158.323549
 11
231.65884
 21
58.323549
  0
LINE
  5
1A8
100
AcDbEntity
  8
Visible
  6
ByLayer
 62
  256
370
   -1
100
AcDbLine
 10
233.53384
 20
58.323549
 11
233.65884
 21
158.323549
  0
LINE
  5
1A9
100
AcDbEntity
  8
Visible
  6
ByLayer
 62
  256
370
   -1
100
AcDbLine
 10
224.65884
 20
165.8820682901283
 11
240.65884
 21
165.8820682901283
  0
SOLID
  5
1AA
100
AcDbEntity
  8
Visible
  6
ByLayer
 62
  256
370
   -1
100
AcDbTrace
 10
231.65884
 20
165.8820682901283
 30
0
 11
228.15884
 21
165.2992697692463
 31
0
 12
228.15884
 22
166.4648668110103
 32
0
 13
228.15884
 23
166.4648668110103
 33
0
  0
SOLID
  5
1AB
100
AcDbEntity
  8
Visible
  6
ByLayer
 62
  256
370
   -1
100
AcDbTrace
 10
233.65884
 20
165.8820682901283
 30
0
 11
237.15884
 21
166.4648668110103
 31
0
 12
237.15884
 22
165.2992697692463
 32
0
 13
237.15884
 23
165.2992697692463
 33
0
  0
LINE
  5
1AC
100
AcDbEntity
  8
Visible
  6
ByLayer
 62
  256
370
   -1
100
AcDbLine
 10
231.65884
 20
160.323549
 11
231.65884
 21
167.8820682901283
  0
LINE
  5
1AD
100
AcDbEntity
  8
Visible
  6
ByLayer
 62
  256
370
   -1
100
AcDbLine
 10
233.65884
 20
160.323549
 11
233.65884
 21
167.8820682901283
  0
MTEXT
  5
1AE
100
AcDbEntity
  8
Visible
  6
ByLayer
 62
  256
370
   -1
100
AcDbMText
 10
232.5319978180425
 20
171.0318399624188
 30
0
 40
3.5
 41
1.555555555555773
 71
    5
 72
    1
  1
3
  7
standard
210
0
220
0
230
1
 50
0
 73
    2
 44
1
  0
LINE
  5
1AF
100
AcDbEntity
  8
Visible
  6
ByLayer
 62
  256
370
   -1
100
AcDbLine
 10
153.6211600487404
 20
131.7669765537487
 11
170.7711559512596
 21
131.7551214462513
  0
SOLID
  5
1B0
100
AcDbEntity
  8
Visible
  6
ByLayer
 62
  256
370
   -1
100
AcDbTrace
 10
160.6211583762993
 20
131.762137734362
 30
0
 11
157.1207563472653
 21
131.1817587624157
 31
0
 12
157.1215620777743
 22
132.3473555256951
 32
0
 13
157.1215620777743
 23
132.3473555256951
 33
0
  0
SOLID
  5
1B1
100
AcDbEntity
  8
Visible
  6
ByLayer
 62
  256
370
   -1
100
AcDbTrace
 10
163.7711576237007
 20
131.759960265638
 30
0
 11
167.2715596527347
 21
132.3403392375843
 31
0
 12
167.2707539222257
 22
131.174742474305
 32
0
 13
167.2707539222257
 23
131.174742474305
 33
0
  0
LINE
  5
1B2
100
AcDbEntity
  8
Dimensions
  6
ByLayer
 62
  256
370
   -1
100
AcDbLine
 10
170.7711559512596
 20
131.7551214462513
 11
-29.2288440487404
 21
131.7551214462513
  0
LINE
  5
1B3
100
AcDbEntity
  8
Dimensions
  6
ByLayer
 62
  256
370
   -1
100
AcDbLine
 10
170.7711559512596
 20
131.7551214462513
 11
-29.2288440487404
 21
131.7551214462513
  0
MTEXT
  5
1B4
100
AcDbEntity
  8
Visible
  6
ByLayer
 62
  256
370
   -1
100
AcDbMText
 10
184.8516744235244
 20
134.6212190876615
 30
0
 40
3.5
 41
9.333333333333769
 71
    5
 72
    1
  1
Ø6.3
  7

210
0
220
0
230
1
 50
359.96
 73
    2
 44
1
  0
ENDSEC
  0
SECTION
  2
OBJECTS
  0
DICTIONARY
  5
C
330
0
100
AcDbDictionary
281
    1
  3
ACAD_GROUP
350
D
  0
DICTIONARY
  5
D
330
C
100
AcDbDictionary
281
    1
  0
ENDSEC
  0
EOF
