  0
SECTION
  2
HEADER
  9
$ACADVER
  1
AC1014
  9
$HANDSEED
  5
FFFF
  9
$MEASUREMENT
 70
     1
  0
ENDSEC
  0
SECTION
  2
TABLES
  0
TABLE
  2
VPORT
  5
8
330
0
100
AcDbSymbolTable
 70
     4
  0
VPORT
  5
2E
330
8
100
AcDbSymbolTableRecord
100
AcDbViewportTableRecord
  2
*ACTIVE
 70
     0
 10
0.0
 20
0.0
 11
1.0
 21
1.0
 12
210.0
 22
148.5
 13
0.0
 23
0.0
 14
10.0
 24
10.0
 15
10.0
 25
10.0
 16
0.0
 26
0.0
 36
1.0
 17
0.0
 27
0.0
 37
0.0
 40
341.0
 41
1.24
 42
50.0
 43
0.0
 44
0.0
 50
0.0
 51
0.0
 71
     0
 72
   100
 73
     1
 74
     3
 75
     0
 76
     0
 77
     0
 78
     0
  0
ENDTAB
  0
TABLE
  2
LTYPE
  5
5
330
0
100
AcDbSymbolTable
 70
     1
  0
LTYPE
  5
14
330
5
100
AcDbSymbolTableRecord
100
AcDbLinetypeTableRecord
  2
BYBLOCK
 70
     0
  3

 72
    65
 73
     0
 40
0.0
  0
LTYPE
  5
15
330
5
100
AcDbSymbolTableRecord
100
AcDbLinetypeTableRecord
  2
BYLAYER
 70
     0
  3

 72
    65
 73
     0
 40
0.0
  0
LTYPE
  5
16
330
5
100
AcDbSymbolTableRecord
100
AcDbLinetypeTableRecord
  2
CONTINUOUS
 70
     0
  3
Solid line
 72
    65
 73
     0
 40
0.0
  0
ENDTAB
  0
TABLE
  2
LAYER
  5
2
100
AcDbSymbolTable
 70
2
  0
LAYER
  5
50
100
AcDbSymbolTableRecord
100
AcDbLayerTableRecord
  2
0
 70
0
  6
CONTINUOUS
  0
LAYER
  5
51
100
AcDbSymbolTableRecord
100
AcDbLayerTableRecord
  2
Layer_1
 70
0
  6
CONTINUOUS
  0
ENDTAB
  0
TABLE
  2
STYLE
  5
3
330
0
100
AcDbSymbolTable
 70
     1
  0
STYLE
  5
11
330
3
100
AcDbSymbolTableRecord
100
AcDbTextStyleTableRecord
  2
STANDARD
 70
     0
 40
0.0
 41
1.0
 50
0.0
 71
     0
 42
2.5
  3
txt
  4

  0
ENDTAB
  0
TABLE
  2
VIEW
  5
6
330
0
100
AcDbSymbolTable
 70
     0
  0
ENDTAB
  0
TABLE
  2
UCS
  5
7
330
0
100
AcDbSymbolTable
 70
     0
  0
ENDTAB
  0
TABLE
  2
APPID
  5
9
330
0
100
AcDbSymbolTable
 70
     2
  0
APPID
  5
12
330
9
100
AcDbSymbolTableRecord
100
AcDbRegAppTableRecord
  2
ACAD
 70
     0
  0
ENDTAB
  0
TABLE
  2
DIMSTYLE
  5
A
330
0
100
AcDbSymbolTable
 70
     1
  0
DIMSTYLE
105
27
330
A
100
AcDbSymbolTableRecord
100
AcDbDimStyleTableRecord
  2
ISO-25
 70
     0
  3

  4

  5

  6

  7

 40
1.0
 41
2.5
 42
0.625
 43
3.75
 44
1.25
 45
0.0
 46
0.0
 47
0.0
 48
0.0
140
2.5
141
2.5
142
0.0
143
0.03937007874016
144
1.0
145
0.0
146
1.0
147
0.625
 71
     0
 72
     0
 73
     0
 74
     0
 75
     0
 76
     0
 77
     1
 78
     8
170
     0
171
     3
172
     1
173
     0
174
     0
175
     0
176
     0
177
     0
178
     0
270
     2
271
     2
272
     2
273
     2
274
     3
340
11
275
     0
280
     0
281
     0
282
     0
283
     0
284
     8
285
     0
286
     0
287
     3
288
     0
  0
ENDTAB
  0
TABLE
  2
BLOCK_RECORD
  5
1
330
0
100
AcDbSymbolTable
 70
     1
  0
BLOCK_RECORD
  5
1F
330
1
100
AcDbSymbolTableRecord
100
AcDbBlockTableRecord
  2
*MODEL_SPACE
  0
BLOCK_RECORD
  5
1B
330
1
100
AcDbSymbolTableRecord
100
AcDbBlockTableRecord
  2
*PAPER_SPACE
  0
ENDTAB
  0
ENDSEC
  0
SECTION
  2
BLOCKS
  0
BLOCK
  5
20
330
1F
100
AcDbEntity
  8
0
100
AcDbBlockBegin
  2
*MODEL_SPACE
 70
     0
 10
0.0
 20
0.0
 30
0.0
  3
*MODEL_SPACE
  1

  0
ENDBLK
  5
21
330
1F
100
AcDbEntity
  8
0
100
AcDbBlockEnd
  0
BLOCK
  5
1C
330
1B
100
AcDbEntity
 67
     1
  8
0
100
AcDbBlockBegin
  2
*PAPER_SPACE
  1

  0
ENDBLK
  5
1D
330
1B
100
AcDbEntity
 67
     1
  8
0
100
AcDbBlockEnd
  0
ENDSEC
  0
SECTION
  2
ENTITIES
  0
LINE
  5
100
100
AcDbEntity
  8
Layer_1
 62
1
100
AcDbLine
 10
0.000661
 20
0.250000
 30
0.0
 11
0.250331
 21
0.249339
 31
0.0
  0
LINE
  5
101
100
AcDbEntity
  8
Layer_1
 62
1
100
AcDbLine
 10
0.250331
 20
0.249339
 30
0.0
 11
0.251653
 21
0.000661
 31
0.0
  0
LINE
  5
102
100
AcDbEntity
  8
Layer_1
 62
1
100
AcDbLine
 10
0.251653
 20
0.000661
 30
0.0
 11
0.000331
 21
-0.000000
 31
0.0
  0
LINE
  5
103
100
AcDbEntity
  8
Layer_1
 62
1
100
AcDbLine
 10
0.000331
 20
-0.000000
 30
0.0
 11
0.000661
 21
0.250000
 31
0.0
  0
LINE
  5
104
100
AcDbEntity
  8
Layer_1
 62
1
100
AcDbLine
 10
0.072598
 20
0.133508
 30
0.0
 11
0.072598
 21
0.135261
 31
0.0
  0
LINE
  5
105
100
AcDbEntity
  8
Layer_1
 62
1
100
AcDbLine
 10
0.072598
 20
0.135261
 30
0.0
 11
0.075053
 21
0.135261
 31
0.0
  0
LINE
  5
106
100
AcDbEntity
  8
Layer_1
 62
1
100
AcDbLine
 10
0.075053
 20
0.135261
 30
0.0
 11
0.074585
 21
0.158294
 31
0.0
  0
LINE
  5
107
100
AcDbEntity
  8
Layer_1
 62
1
100
AcDbLine
 10
0.074585
 20
0.158294
 30
0.0
 11
0.072949
 21
0.158411
 31
0.0
  0
LINE
  5
108
100
AcDbEntity
  8
Layer_1
 62
1
100
AcDbLine
 10
0.072949
 20
0.158411
 30
0.0
 11
0.073182
 21
0.160398
 31
0.0
  0
LINE
  5
109
100
AcDbEntity
  8
Layer_1
 62
1
100
AcDbLine
 10
0.081016
 20
0.160047
 30
0.0
 11
0.081133
 21
0.158177
 31
0.0
  0
LINE
  5
10a
100
AcDbEntity
  8
Layer_1
 62
1
100
AcDbLine
 10
0.081133
 20
0.158177
 30
0.0
 11
0.079613
 21
0.158060
 31
0.0
  0
LINE
  5
10b
100
AcDbEntity
  8
Layer_1
 62
1
100
AcDbLine
 10
0.079613
 20
0.158060
 30
0.0
 11
0.085225
 21
0.143679
 31
0.0
  0
LINE
  5
10c
100
AcDbEntity
  8
Layer_1
 62
1
100
AcDbLine
 10
0.085225
 20
0.143679
 30
0.0
 11
0.091071
 21
0.158177
 31
0.0
  0
LINE
  5
10d
100
AcDbEntity
  8
Layer_1
 62
1
100
AcDbLine
 10
0.091071
 20
0.158177
 30
0.0
 11
0.089784
 21
0.158411
 31
0.0
  0
LINE
  5
10e
100
AcDbEntity
  8
Layer_1
 62
1
100
AcDbLine
 10
0.089784
 20
0.158411
 30
0.0
 11
0.089784
 21
0.160281
 31
0.0
  0
LINE
  5
10f
100
AcDbEntity
  8
Layer_1
 62
1
100
AcDbLine
 10
0.089784
 20
0.160281
 30
0.0
 11
0.097384
 21
0.160281
 31
0.0
  0
LINE
  5
110
100
AcDbEntity
  8
Layer_1
 62
1
100
AcDbLine
 10
0.097384
 20
0.160281
 30
0.0
 11
0.097735
 21
0.157709
 31
0.0
  0
LINE
  5
111
100
AcDbEntity
  8
Layer_1
 62
1
100
AcDbLine
 10
0.097735
 20
0.157709
 30
0.0
 11
0.096799
 21
0.157826
 31
0.0
  0
LINE
  5
112
100
AcDbEntity
  8
Layer_1
 62
1
100
AcDbLine
 10
0.096799
 20
0.157826
 30
0.0
 11
0.096799
 21
0.135027
 31
0.0
  0
LINE
  5
113
100
AcDbEntity
  8
Layer_1
 62
1
100
AcDbLine
 10
0.096799
 20
0.135027
 30
0.0
 11
0.099021
 21
0.135144
 31
0.0
  0
LINE
  5
114
100
AcDbEntity
  8
Layer_1
 62
1
100
AcDbLine
 10
0.099021
 20
0.135144
 30
0.0
 11
0.098670
 21
0.133040
 31
0.0
  0
LINE
  5
115
100
AcDbEntity
  8
Layer_1
 62
1
100
AcDbLine
 10
0.098670
 20
0.133040
 30
0.0
 11
0.089317
 21
0.132923
 31
0.0
  0
LINE
  5
116
100
AcDbEntity
  8
Layer_1
 62
1
100
AcDbLine
 10
0.089317
 20
0.132923
 30
0.0
 11
0.089317
 21
0.135261
 31
0.0
  0
LINE
  5
117
100
AcDbEntity
  8
Layer_1
 62
1
100
AcDbLine
 10
0.089317
 20
0.135261
 30
0.0
 11
0.091421
 21
0.135261
 31
0.0
  0
LINE
  5
118
100
AcDbEntity
  8
Layer_1
 62
1
100
AcDbLine
 10
0.091421
 20
0.135261
 30
0.0
 11
0.091538
 21
0.150928
 31
0.0
  0
LINE
  5
119
100
AcDbEntity
  8
Layer_1
 62
1
100
AcDbLine
 10
0.091538
 20
0.150928
 30
0.0
 11
0.085108
 21
0.133391
 31
0.0
  0
LINE
  5
11a
100
AcDbEntity
  8
Layer_1
 62
1
100
AcDbLine
 10
0.085108
 20
0.133391
 30
0.0
 11
0.083939
 21
0.133274
 31
0.0
  0
LINE
  5
11b
100
AcDbEntity
  8
Layer_1
 62
1
100
AcDbLine
 10
0.083939
 20
0.133274
 30
0.0
 11
0.077391
 21
0.150811
 31
0.0
  0
LINE
  5
11c
100
AcDbEntity
  8
Layer_1
 62
1
100
AcDbLine
 10
0.077391
 20
0.150811
 30
0.0
 11
0.077508
 21
0.134911
 31
0.0
  0
LINE
  5
11d
100
AcDbEntity
  8
Layer_1
 62
1
100
AcDbLine
 10
0.077508
 20
0.134911
 30
0.0
 11
0.079496
 21
0.134794
 31
0.0
  0
LINE
  5
11e
100
AcDbEntity
  8
Layer_1
 62
1
100
AcDbLine
 10
0.079496
 20
0.134794
 30
0.0
 11
0.079613
 21
0.132923
 31
0.0
  0
SPLINE
  5
11f
100
AcDbEntity
  8
Layer_1
 62
1
100
AcDbSpline
 70
0
 71
3
 72
10
 73
6
 74
4
 40
0.000000
 40
0.000000
 40
0.000000
 40
0.000000
 40
0.002804
 40
0.005593
 40
0.007847
 40
0.007847
 40
0.007847
 40
0.007847
 10
0.073182
 20
0.160398
 30
0.0
 10
0.074116
 20
0.160375
 30
0.0
 10
0.075980
 20
0.160329
 30
0.0
 10
0.078600
 20
0.160356
 30
0.0
 10
0.080270
 20
0.160143
 30
0.0
 10
0.081016
 20
0.160047
 30
0.0
 11
0.073182
 21
0.160398
 31
0.0
 11
0.075985
 21
0.160345
 31
0.0
 11
0.078774
 21
0.160288
 31
0.0
 11
0.081016
 21
0.160047
 31
0.0
  0
LINE
  5
120
100
AcDbEntity
  8
Layer_1
 62
1
100
AcDbLine
 10
0.072598
 20
0.133508
 30
0.0
 11
0.072598
 21
0.133508
 31
0.0
  0
LINE
  5
121
100
AcDbEntity
  8
Layer_1
 62
1
100
AcDbLine
 10
0.102528
 20
0.159930
 30
0.0
 11
0.102294
 21
0.157709
 31
0.0
  0
LINE
  5
122
100
AcDbEntity
  8
Layer_1
 62
1
100
AcDbLine
 10
0.102294
 20
0.157709
 30
0.0
 11
0.104165
 21
0.157943
 31
0.0
  0
LINE
  5
123
100
AcDbEntity
  8
Layer_1
 62
1
100
AcDbLine
 10
0.104165
 20
0.157943
 30
0.0
 11
0.103697
 21
0.135378
 31
0.0
  0
LINE
  5
124
100
AcDbEntity
  8
Layer_1
 62
1
100
AcDbLine
 10
0.103697
 20
0.135378
 30
0.0
 11
0.102411
 21
0.134911
 31
0.0
  0
LINE
  5
125
100
AcDbEntity
  8
Layer_1
 62
1
100
AcDbLine
 10
0.102411
 20
0.134911
 30
0.0
 11
0.102411
 21
0.133157
 31
0.0
  0
LINE
  5
126
100
AcDbEntity
  8
Layer_1
 62
1
100
AcDbLine
 10
0.102411
 20
0.133157
 30
0.0
 11
0.119949
 21
0.132923
 31
0.0
  0
LINE
  5
127
100
AcDbEntity
  8
Layer_1
 62
1
100
AcDbLine
 10
0.119949
 20
0.132923
 30
0.0
 11
0.119715
 21
0.142861
 31
0.0
  0
SPLINE
  5
128
100
AcDbEntity
  8
Layer_1
 62
1
100
AcDbSpline
 70
0
 71
3
 72
10
 73
6
 74
4
 40
0.000000
 40
0.000000
 40
0.000000
 40
0.000000
 40
0.002867
 40
0.005623
 40
0.007120
 40
0.007120
 40
0.007120
 40
0.007120
 10
0.079613
 20
0.132923
 30
0.0
 10
0.078663
 20
0.132948
 30
0.0
 10
0.076800
 20
0.132997
 30
0.0
 10
0.074355
 20
0.132676
 30
0.0
 10
0.073055
 20
0.133291
 30
0.0
 10
0.072598
 20
0.133508
 30
0.0
 11
0.079613
 21
0.132923
 31
0.0
 11
0.076745
 21
0.132919
 31
0.0
 11
0.073990
 21
0.132958
 31
0.0
 11
0.072598
 21
0.133508
 31
0.0
  0
LINE
  5
129
100
AcDbEntity
  8
Layer_1
 62
1
100
AcDbLine
 10
0.109192
 20
0.135144
 30
0.0
 11
0.109309
 21
0.157592
 31
0.0
  0
LINE
  5
12a
100
AcDbEntity
  8
Layer_1
 62
1
100
AcDbLine
 10
0.109309
 20
0.157592
 30
0.0
 11
0.114337
 21
0.157475
 31
0.0
  0
SPLINE
  5
12b
100
AcDbEntity
  8
Layer_1
 62
1
100
AcDbSpline
 70
0
 71
3
 72
16
 73
12
 74
10
 40
0.000000
 40
0.000000
 40
0.000000
 40
0.000000
 40
0.000930
 40
0.002299
 40
0.004462
 40
0.005822
 40
0.007996
 40
0.010822
 40
0.011636
 40
0.012790
 40
0.014223
 40
0.014223
 40
0.014223
 40
0.014223
 10
0.119715
 20
0.142861
 30
0.0
 10
0.119460
 20
0.142673
 30
0.0
 10
0.118831
 20
0.142208
 30
0.0
 10
0.118375
 20
0.140723
 30
0.0
 10
0.117465
 20
0.139390
 30
0.0
 10
0.116668
 20
0.137618
 30
0.0
 10
0.114837
 20
0.136448
 30
0.0
 10
0.113270
 20
0.135185
 30
0.0
 10
0.111661
 20
0.135009
 30
0.0
 10
0.110529
 20
0.135038
 30
0.0
 10
0.109669
 20
0.135106
 30
0.0
 10
0.109192
 20
0.135144
 30
0.0
 11
0.119715
 21
0.142861
 31
0.0
 11
0.119015
 21
0.142247
 31
0.0
 11
0.118411
 21
0.141019
 31
0.0
 11
0.117377
 21
0.139119
 31
0.0
 11
0.116705
 21
0.137938
 31
0.0
 11
0.115042
 21
0.136537
 31
0.0
 11
0.112583
 21
0.135144
 31
0.0
 11
0.111776
 21
0.135037
 31
0.0
 11
0.110622
 21
0.135045
 31
0.0
 11
0.109192
 21
0.135144
 31
0.0
  0
LINE
  5
12c
100
AcDbEntity
  8
Layer_1
 62
1
100
AcDbLine
 10
0.119364
 20
0.150811
 30
0.0
 11
0.119481
 21
0.159930
 31
0.0
  0
LINE
  5
12d
100
AcDbEntity
  8
Layer_1
 62
1
100
AcDbLine
 10
0.119481
 20
0.159930
 30
0.0
 11
0.102528
 21
0.159930
 31
0.0
  0
SPLINE
  5
12e
100
AcDbEntity
  8
Layer_1
 62
1
100
AcDbSpline
 70
0
 71
3
 72
10
 73
6
 74
4
 40
0.000000
 40
0.000000
 40
0.000000
 40
0.000000
 40
0.002629
 40
0.005472
 40
0.008529
 40
0.008529
 40
0.008529
 40
0.008529
 10
0.114337
 20
0.157475
 30
0.0
 10
0.115096
 20
0.157012
 30
0.0
 10
0.116676
 20
0.156046
 30
0.0
 10
0.118126
 20
0.153512
 30
0.0
 10
0.118942
 20
0.151733
 30
0.0
 10
0.119364
 20
0.150811
 30
0.0
 11
0.114337
 21
0.157475
 31
0.0
 11
0.116464
 21
0.155932
 31
0.0
 11
0.118046
 21
0.153569
 31
0.0
 11
0.119364
 21
0.150811
 31
0.0
  0
LINE
  5
12f
100
AcDbEntity
  8
Layer_1
 62
1
100
AcDbLine
 10
0.114103
 20
0.151045
 30
0.0
 11
0.112817
 21
0.151746
 31
0.0
  0
LINE
  5
130
100
AcDbEntity
  8
Layer_1
 62
1
100
AcDbLine
 10
0.112817
 20
0.151746
 30
0.0
 11
0.115038
 21
0.151863
 31
0.0
  0
SPLINE
  5
131
100
AcDbEntity
  8
Layer_1
 62
1
100
AcDbSpline
 70
0
 71
3
 72
13
 73
9
 74
7
 40
0.000000
 40
0.000000
 40
0.000000
 40
0.000000
 40
0.001066
 40
0.002101
 40
0.002981
 40
0.003893
 40
0.004713
 40
0.005560
 40
0.005560
 40
0.005560
 40
0.005560
 10
0.110946
 20
0.148005
 30
0.0
 10
0.111299
 20
0.148066
 30
0.0
 10
0.111994
 20
0.148185
 30
0.0
 10
0.112926
 20
0.148427
 30
0.0
 10
0.113993
 20
0.148431
 30
0.0
 10
0.114302
 20
0.149394
 30
0.0
 10
0.114380
 20
0.150238
 30
0.0
 10
0.114196
 20
0.150773
 30
0.0
 10
0.114103
 20
0.151045
 30
0.0
 11
0.110946
 21
0.148005
 31
0.0
 11
0.111994
 21
0.148200
 31
0.0
 11
0.113011
 21
0.148395
 31
0.0
 11
0.113869
 21
0.148590
 31
0.0
 11
0.114271
 21
0.149408
 31
0.0
 11
0.114323
 21
0.150226
 31
0.0
 11
0.114103
 21
0.151045
 31
0.0
  0
LINE
  5
132
100
AcDbEntity
  8
Layer_1
 62
1
100
AcDbLine
 10
0.114921
 20
0.142276
 30
0.0
 11
0.112115
 21
0.142042
 31
0.0
  0
LINE
  5
133
100
AcDbEntity
  8
Layer_1
 62
1
100
AcDbLine
 10
0.112115
 20
0.142042
 30
0.0
 11
0.114103
 21
0.144264
 31
0.0
  0
SPLINE
  5
134
100
AcDbEntity
  8
Layer_1
 62
1
100
AcDbSpline
 70
0
 71
3
 72
19
 73
15
 74
13
 40
0.000000
 40
0.000000
 40
0.000000
 40
0.000000
 40
0.000680
 40
0.001584
 40
0.003022
 40
0.004128
 40
0.005060
 40
0.005972
 40
0.007000
 40
0.008049
 40
0.009183
 40
0.009843
 40
0.010584
 40
0.012082
 40
0.012082
 40
0.012082
 40
0.012082
 10
0.115038
 20
0.151863
 30
0.0
 10
0.115257
 20
0.151788
 30
0.0
 10
0.115766
 20
0.151613
 30
0.0
 10
0.116404
 20
0.150805
 30
0.0
 10
0.117075
 20
0.149782
 30
0.0
 10
0.116765
 20
0.148573
 30
0.0
 10
0.116311
 20
0.147752
 30
0.0
 10
0.115291
 20
0.147071
 30
0.0
 10
0.116258
 20
0.146166
 30
0.0
 10
0.116560
 20
0.145233
 30
0.0
 10
0.117071
 20
0.144286
 30
0.0
 10
0.116652
 20
0.143507
 30
0.0
 10
0.116220
 20
0.142611
 30
0.0
 10
0.115442
 20
0.142410
 30
0.0
 10
0.114921
 20
0.142276
 30
0.0
 11
0.115038
 21
0.151863
 31
0.0
 11
0.115662
 21
0.151592
 31
0.0
 11
0.116285
 21
0.150938
 31
0.0
 11
0.116909
 21
0.149642
 31
0.0
 11
0.116710
 21
0.148554
 31
0.0
 11
0.116213
 21
0.147766
 31
0.0
 11
0.115623
 21
0.147070
 31
0.0
 11
0.116134
 21
0.146178
 31
0.0
 11
0.116595
 21
0.145236
 31
0.0
 11
0.116909
 21
0.144147
 31
0.0
 11
0.116670
 21
0.143531
 31
0.0
 11
0.116284
 21
0.142898
 31
0.0
 11
0.114921
 21
0.142276
 31
0.0
  0
LINE
  5
135
100
AcDbEntity
  8
Layer_1
 62
1
100
AcDbLine
 10
0.113752
 20
0.145667
 30
0.0
 11
0.111180
 21
0.145901
 31
0.0
  0
LINE
  5
136
100
AcDbEntity
  8
Layer_1
 62
1
100
AcDbLine
 10
0.111180
 20
0.145901
 30
0.0
 11
0.110946
 21
0.148005
 31
0.0
  0
LINE
  5
137
100
AcDbEntity
  8
Layer_1
 62
1
100
AcDbLine
 10
0.122170
 20
0.134677
 30
0.0
 11
0.122170
 21
0.133040
 31
0.0
  0
LINE
  5
138
100
AcDbEntity
  8
Layer_1
 62
1
100
AcDbLine
 10
0.122170
 20
0.133040
 30
0.0
 11
0.131874
 21
0.132923
 31
0.0
  0
LINE
  5
139
100
AcDbEntity
  8
Layer_1
 62
1
100
AcDbLine
 10
0.131874
 20
0.132923
 30
0.0
 11
0.131640
 21
0.135144
 31
0.0
  0
LINE
  5
13a
100
AcDbEntity
  8
Layer_1
 62
1
100
AcDbLine
 10
0.131640
 20
0.135144
 30
0.0
 11
0.129419
 21
0.135378
 31
0.0
  0
LINE
  5
13b
100
AcDbEntity
  8
Layer_1
 62
1
100
AcDbLine
 10
0.129419
 20
0.135378
 30
0.0
 11
0.129185
 21
0.159930
 31
0.0
  0
LINE
  5
13c
100
AcDbEntity
  8
Layer_1
 62
1
100
AcDbLine
 10
0.129185
 20
0.159930
 30
0.0
 11
0.122989
 21
0.160047
 31
0.0
  0
LINE
  5
13d
100
AcDbEntity
  8
Layer_1
 62
1
100
AcDbLine
 10
0.122989
 20
0.160047
 30
0.0
 11
0.122404
 21
0.158294
 31
0.0
  0
LINE
  5
13e
100
AcDbEntity
  8
Layer_1
 62
1
100
AcDbLine
 10
0.122404
 20
0.158294
 30
0.0
 11
0.124041
 21
0.158060
 31
0.0
  0
LINE
  5
13f
100
AcDbEntity
  8
Layer_1
 62
1
100
AcDbLine
 10
0.124041
 20
0.158060
 30
0.0
 11
0.123924
 21
0.135027
 31
0.0
  0
LINE
  5
140
100
AcDbEntity
  8
Layer_1
 62
1
100
AcDbLine
 10
0.123924
 20
0.135027
 30
0.0
 11
0.122170
 21
0.134677
 31
0.0
  0
LINE
  5
141
100
AcDbEntity
  8
Layer_1
 62
1
100
AcDbLine
 10
0.130939
 20
0.159229
 30
0.0
 11
0.130939
 21
0.156891
 31
0.0
  0
SPLINE
  5
142
100
AcDbEntity
  8
Layer_1
 62
1
100
AcDbSpline
 70
0
 71
3
 72
10
 73
6
 74
4
 40
0.000000
 40
0.000000
 40
0.000000
 40
0.000000
 40
0.000330
 40
0.000928
 40
0.001635
 40
0.001635
 40
0.001635
 40
0.001635
 10
0.114103
 20
0.144264
 30
0.0
 10
0.114203
 20
0.144338
 30
0.0
 10
0.114483
 20
0.144546
 30
0.0
 10
0.114026
 20
0.145101
 30
0.0
 10
0.113848
 20
0.145468
 30
0.0
 10
0.113752
 20
0.145667
 30
0.0
 11
0.114103
 21
0.144264
 31
0.0
 11
0.114334
 21
0.144500
 31
0.0
 11
0.114096
 21
0.145048
 31
0.0
 11
0.113752
 21
0.145667
 31
0.0
  0
LINE
  5
143
100
AcDbEntity
  8
Layer_1
 62
1
100
AcDbLine
 10
0.133745
 20
0.147420
 30
0.0
 11
0.130705
 21
0.147420
 31
0.0
  0
LINE
  5
144
100
AcDbEntity
  8
Layer_1
 62
1
100
AcDbLine
 10
0.130705
 20
0.147420
 30
0.0
 11
0.130822
 21
0.144498
 31
0.0
  0
LINE
  5
145
100
AcDbEntity
  8
Layer_1
 62
1
100
AcDbLine
 10
0.130822
 20
0.144498
 30
0.0
 11
0.131640
 21
0.144731
 31
0.0
  0
LINE
  5
146
100
AcDbEntity
  8
Layer_1
 62
1
100
AcDbLine
 10
0.131640
 20
0.144731
 30
0.0
 11
0.133160
 21
0.137600
 31
0.0
  0
SPLINE
  5
147
100
AcDbEntity
  8
Layer_1
 62
1
100
AcDbSpline
 70
0
 71
3
 72
16
 73
12
 74
10
 40
0.000000
 40
0.000000
 40
0.000000
 40
0.000000
 40
0.001481
 40
0.002862
 40
0.004223
 40
0.005120
 40
0.006484
 40
0.009664
 40
0.010561
 40
0.011513
 40
0.013006
 40
0.013006
 40
0.013006
 40
0.013006
 10
0.130939
 20
0.156891
 30
0.0
 10
0.131427
 20
0.156864
 30
0.0
 10
0.132372
 20
0.156813
 30
0.0
 10
0.133833
 20
0.156663
 30
0.0
 10
0.134696
 20
0.155653
 30
0.0
 10
0.135001
 20
0.154485
 30
0.0
 10
0.135329
 20
0.152694
 30
0.0
 10
0.135202
 20
0.150868
 30
0.0
 10
0.135320
 20
0.149197
 30
0.0
 10
0.134952
 20
0.148071
 30
0.0
 10
0.134203
 20
0.147667
 30
0.0
 10
0.133745
 20
0.147420
 30
0.0
 11
0.130939
 21
0.156891
 31
0.0
 11
0.132417
 21
0.156798
 31
0.0
 11
0.133764
 21
0.156494
 31
0.0
 11
0.134680
 21
0.155488
 31
0.0
 11
0.134953
 21
0.154633
 31
0.0
 11
0.135185
 21
0.153289
 31
0.0
 11
0.135265
 21
0.150110
 31
0.0
 11
0.135260
 21
0.149213
 31
0.0
 11
0.134939
 21
0.148317
 31
0.0
 11
0.133745
 21
0.147420
 31
0.0
  0
LINE
  5
148
100
AcDbEntity
  8
Layer_1
 62
1
100
AcDbLine
 10
0.142397
 20
0.139353
 30
0.0
 11
0.141929
 21
0.141224
 31
0.0
  0
LINE
  5
149
100
AcDbEntity
  8
Layer_1
 62
1
100
AcDbLine
 10
0.141929
 20
0.141224
 30
0.0
 11
0.140526
 21
0.141107
 31
0.0
  0
LINE
  5
14a
100
AcDbEntity
  8
Layer_1
 62
1
100
AcDbLine
 10
0.140526
 20
0.141107
 30
0.0
 11
0.140175
 21
0.138652
 31
0.0
  0
SPLINE
  5
14b
100
AcDbEntity
  8
Layer_1
 62
1
100
AcDbSpline
 70
0
 71
3
 72
16
 73
12
 74
10
 40
0.000000
 40
0.000000
 40
0.000000
 40
0.000000
 40
0.002327
 40
0.004097
 40
0.005348
 40
0.006792
 40
0.008236
 40
0.009680
 40
0.011908
 40
0.014124
 40
0.016665
 40
0.016665
 40
0.016665
 40
0.016665
 10
0.133160
 20
0.137600
 30
0.0
 10
0.133376
 20
0.136864
 30
0.0
 10
0.133756
 20
0.135568
 30
0.0
 10
0.134472
 20
0.133833
 30
0.0
 10
0.135900
 20
0.133145
 30
0.0
 10
0.137302
 20
0.133214
 30
0.0
 10
0.138705
 20
0.133177
 30
0.0
 10
0.140562
 20
0.132714
 30
0.0
 10
0.141638
 20
0.134827
 30
0.0
 10
0.142653
 20
0.136852
 30
0.0
 10
0.142486
 20
0.138483
 30
0.0
 10
0.142397
 20
0.139353
 30
0.0
 11
0.133160
 21
0.137600
 31
0.0
 11
0.133862
 21
0.135381
 31
0.0
 11
0.134734
 21
0.133841
 31
0.0
 11
0.135849
 21
0.133274
 31
0.0
 11
0.137291
 21
0.133196
 31
0.0
 11
0.138733
 21
0.133118
 31
0.0
 11
0.140175
 21
0.133040
 31
0.0
 11
0.141599
 21
0.134754
 31
0.0
 11
0.142419
 21
0.136813
 31
0.0
 11
0.142397
 21
0.139353
 31
0.0
  0
LINE
  5
14c
100
AcDbEntity
  8
Layer_1
 62
1
100
AcDbLine
 10
0.138071
 20
0.139470
 30
0.0
 11
0.135148
 21
0.144848
 31
0.0
  0
LINE
  5
14d
100
AcDbEntity
  8
Layer_1
 62
1
100
AcDbLine
 10
0.135148
 20
0.144848
 30
0.0
 11
0.139006
 21
0.146018
 31
0.0
  0
SPLINE
  5
14e
100
AcDbEntity
  8
Layer_1
 62
1
100
AcDbSpline
 70
0
 71
3
 72
10
 73
6
 74
4
 40
0.000000
 40
0.000000
 40
0.000000
 40
0.000000
 40
0.000868
 40
0.001659
 40
0.002592
 40
0.002592
 40
0.002592
 40
0.002592
 10
0.140175
 20
0.138652
 30
0.0
 10
0.139900
 20
0.138487
 30
0.0
 10
0.139374
 20
0.138173
 30
0.0
 10
0.138611
 20
0.138799
 30
0.0
 10
0.138261
 20
0.139234
 30
0.0
 10
0.138071
 20
0.139470
 30
0.0
 11
0.140175
 21
0.138652
 31
0.0
 11
0.139360
 21
0.138354
 31
0.0
 11
0.138686
 21
0.138768
 31
0.0
 11
0.138071
 21
0.139470
 31
0.0
  0
LINE
  5
14f
100
AcDbEntity
  8
Layer_1
 62
1
100
AcDbLine
 10
0.130939
 20
0.159229
 30
0.0
 11
0.130939
 21
0.159229
 31
0.0
  0
LINE
  5
150
100
AcDbEntity
  8
Layer_1
 62
1
100
AcDbLine
 10
0.143916
 20
0.134911
 30
0.0
 11
0.143683
 21
0.132923
 31
0.0
  0
LINE
  5
151
100
AcDbEntity
  8
Layer_1
 62
1
100
AcDbLine
 10
0.143683
 20
0.132923
 30
0.0
 11
0.153620
 21
0.132689
 31
0.0
  0
LINE
  5
152
100
AcDbEntity
  8
Layer_1
 62
1
100
AcDbLine
 10
0.153620
 20
0.132689
 30
0.0
 11
0.153737
 21
0.135144
 31
0.0
  0
LINE
  5
153
100
AcDbEntity
  8
Layer_1
 62
1
100
AcDbLine
 10
0.153737
 20
0.135144
 30
0.0
 11
0.151048
 21
0.135378
 31
0.0
  0
LINE
  5
154
100
AcDbEntity
  8
Layer_1
 62
1
100
AcDbLine
 10
0.151048
 20
0.135378
 30
0.0
 11
0.151048
 21
0.159580
 31
0.0
  0
LINE
  5
155
100
AcDbEntity
  8
Layer_1
 62
1
100
AcDbLine
 10
0.151048
 20
0.159580
 30
0.0
 11
0.144501
 21
0.160164
 31
0.0
  0
LINE
  5
156
100
AcDbEntity
  8
Layer_1
 62
1
100
AcDbLine
 10
0.144501
 20
0.160164
 30
0.0
 11
0.144501
 21
0.158294
 31
0.0
  0
LINE
  5
157
100
AcDbEntity
  8
Layer_1
 62
1
100
AcDbLine
 10
0.144501
 20
0.158294
 30
0.0
 11
0.145787
 21
0.158177
 31
0.0
  0
LINE
  5
158
100
AcDbEntity
  8
Layer_1
 62
1
100
AcDbLine
 10
0.145787
 20
0.158177
 30
0.0
 11
0.145787
 21
0.135144
 31
0.0
  0
LINE
  5
159
100
AcDbEntity
  8
Layer_1
 62
1
100
AcDbLine
 10
0.145787
 20
0.135144
 30
0.0
 11
0.143916
 21
0.134911
 31
0.0
  0
SPLINE
  5
15a
100
AcDbEntity
  8
Layer_1
 62
1
100
AcDbSpline
 70
0
 71
3
 72
19
 73
15
 74
13
 40
0.000000
 40
0.000000
 40
0.000000
 40
0.000000
 40
0.001875
 40
0.003688
 40
0.005804
 40
0.007668
 40
0.009469
 40
0.011270
 40
0.012834
 40
0.014346
 40
0.015827
 40
0.017906
 40
0.019973
 40
0.022045
 40
0.022045
 40
0.022045
 40
0.022045
 10
0.139006
 20
0.146018
 30
0.0
 10
0.139555
 20
0.146341
 30
0.0
 10
0.140635
 20
0.146978
 30
0.0
 10
0.141525
 20
0.148798
 30
0.0
 10
0.141740
 20
0.150722
 30
0.0
 10
0.141674
 20
0.152670
 30
0.0
 10
0.141077
 20
0.154397
 30
0.0
 10
0.140542
 20
0.156058
 30
0.0
 10
0.139487
 20
0.157314
 30
0.0
 10
0.138542
 20
0.158520
 30
0.0
 10
0.136966
 20
0.159297
 30
0.0
 10
0.135067
 20
0.159309
 30
0.0
 10
0.133000
 20
0.159485
 30
0.0
 10
0.131626
 20
0.159315
 30
0.0
 10
0.130939
 20
0.159229
 30
0.0
 11
0.139006
 21
0.146018
 31
0.0
 11
0.140520
 21
0.147123
 31
0.0
 11
0.141382
 21
0.148719
 31
0.0
 11
0.141695
 21
0.150811
 31
0.0
 11
0.141580
 21
0.152672
 31
0.0
 11
0.141082
 21
0.154402
 31
0.0
 11
0.140409
 21
0.156072
 31
0.0
 11
0.139483
 21
0.157333
 31
0.0
 11
0.138456
 21
0.158443
 31
0.0
 11
0.137135
 21
0.159112
 31
0.0
 11
0.135068
 21
0.159337
 31
0.0
 11
0.133002
 21
0.159413
 31
0.0
 11
0.130939
 21
0.159229
 31
0.0
  0
LINE
  5
15b
100
AcDbEntity
  8
Layer_1
 62
1
100
AcDbLine
 10
0.157535
 20
0.134112
 30
0.0
 11
0.154379
 21
0.144050
 31
0.0
  0
LINE
  5
15c
100
AcDbEntity
  8
Layer_1
 62
1
100
AcDbLine
 10
0.154379
 20
0.144050
 30
0.0
 11
0.153677
 21
0.144284
 31
0.0
  0
LINE
  5
15d
100
AcDbEntity
  8
Layer_1
 62
1
100
AcDbLine
 10
0.153677
 20
0.144284
 30
0.0
 11
0.153560
 21
0.147324
 31
0.0
  0
SPLINE
  5
15e
100
AcDbEntity
  8
Layer_1
 62
1
100
AcDbSpline
 70
0
 71
3
 72
16
 73
12
 74
10
 40
0.000000
 40
0.000000
 40
0.000000
 40
0.000000
 40
0.002563
 40
0.005649
 40
0.008006
 40
0.008904
 40
0.010310
 40
0.012047
 40
0.012752
 40
0.013555
 40
0.014878
 40
0.014878
 40
0.014878
 40
0.014878
 10
0.165252
 20
0.140659
 30
0.0
 10
0.165431
 20
0.139805
 30
0.0
 10
0.165826
 20
0.137922
 30
0.0
 10
0.164778
 20
0.135379
 30
0.0
 10
0.164052
 20
0.133360
 30
0.0
 10
0.162781
 20
0.132325
 30
0.0
 10
0.161368
 20
0.132454
 30
0.0
 10
0.160075
 20
0.132315
 30
0.0
 10
0.159059
 20
0.132716
 30
0.0
 10
0.158200
 20
0.133142
 30
0.0
 10
0.157790
 20
0.133740
 30
0.0
 10
0.157535
 20
0.134112
 30
0.0
 11
0.165252
 21
0.140659
 31
0.0
 11
0.165556
 21
0.138115
 31
0.0
 11
0.164711
 21
0.135146
 31
0.0
 11
0.163615
 21
0.133060
 31
0.0
 11
0.162893
 21
0.132527
 31
0.0
 11
0.161492
 21
0.132401
 31
0.0
 11
0.159757
 21
0.132475
 31
0.0
 11
0.159093
 21
0.132713
 31
0.0
 11
0.158392
 21
0.133104
 31
0.0
 11
0.157535
 21
0.134112
 31
0.0
  0
LINE
  5
15f
100
AcDbEntity
  8
Layer_1
 62
1
100
AcDbLine
 10
0.157652
 20
0.144401
 30
0.0
 11
0.161511
 21
0.138438
 31
0.0
  0
SPLINE
  5
160
100
AcDbEntity
  8
Layer_1
 62
1
100
AcDbSpline
 70
0
 71
3
 72
37
 73
33
 74
31
 40
0.000000
 40
0.000000
 40
0.000000
 40
0.000000
 40
0.001442
 40
0.002902
 40
0.004465
 40
0.006627
 40
0.008819
 40
0.011188
 40
0.012280
 40
0.013827
 40
0.015883
 40
0.016914
 40
0.017912
 40
0.019077
 40
0.020810
 40
0.022586
 40
0.024540
 40
0.026068
 40
0.027438
 40
0.028880
 40
0.030864
 40
0.032770
 40
0.034507
 40
0.036840
 40
0.038172
 40
0.039303
 40
0.040306
 40
0.041177
 40
0.042004
 40
0.043275
 40
0.044521
 40
0.045729
 40
0.045729
 40
0.045729
 40
0.045729
 10
0.153560
 20
0.147324
 30
0.0
 10
0.154045
 20
0.147302
 30
0.0
 10
0.155019
 20
0.147259
 30
0.0
 10
0.156451
 20
0.147518
 30
0.0
 10
0.158310
 20
0.148006
 30
0.0
 10
0.158546
 20
0.150299
 30
0.0
 10
0.158494
 20
0.152462
 30
0.0
 10
0.157970
 20
0.154291
 30
0.0
 10
0.157252
 20
0.155865
 30
0.0
 10
0.155729
 20
0.156507
 30
0.0
 10
0.153897
 20
0.156349
 30
0.0
 10
0.153389
 20
0.157845
 30
0.0
 10
0.153678
 20
0.158824
 30
0.0
 10
0.152702
 20
0.160449
 30
0.0
 10
0.155177
 20
0.159790
 30
0.0
 10
0.156719
 20
0.159927
 30
0.0
 10
0.158481
 20
0.159315
 30
0.0
 10
0.159946
 20
0.158679
 30
0.0
 10
0.161173
 20
0.157884
 30
0.0
 10
0.162268
 20
0.156690
 30
0.0
 10
0.163056
 20
0.155093
 30
0.0
 10
0.164027
 20
0.153460
 30
0.0
 10
0.164269
 20
0.151445
 30
0.0
 10
0.164160
 20
0.149647
 30
0.0
 10
0.163717
 20
0.148079
 30
0.0
 10
0.163008
 20
0.147154
 30
0.0
 10
0.162639
 20
0.146203
 30
0.0
 10
0.161977
 20
0.145572
 30
0.0
 10
0.161179
 20
0.144968
 30
0.0
 10
0.160067
 20
0.144740
 30
0.0
 10
0.158885
 20
0.144324
 30
0.0
 10
0.158059
 20
0.144375
 30
0.0
 10
0.157652
 20
0.144401
 30
0.0
 11
0.153560
 21
0.147324
 31
0.0
 11
0.155002
 21
0.147311
 31
0.0
 11
0.156444
 21
0.147538
 31
0.0
 11
0.157886
 21
0.148142
 31
0.0
 11
0.158493
 21
0.150217
 31
0.0
 11
0.158405
 21
0.152407
 31
0.0
 11
0.157769
 21
0.154689
 31
0.0
 11
0.157235
 21
0.155642
 31
0.0
 11
0.155847
 21
0.156324
 31
0.0
 11
0.153863
 21
0.156862
 31
0.0
 11
0.153497
 21
0.157826
 31
0.0
 11
0.153506
 21
0.158824
 31
0.0
 11
0.153210
 21
0.159951
 31
0.0
 11
0.154943
 21
0.159938
 31
0.0
 11
0.156714
 21
0.159803
 31
0.0
 11
0.158588
 21
0.159249
 31
0.0
 11
0.159978
 21
0.158616
 31
0.0
 11
0.161116
 21
0.157853
 31
0.0
 11
0.162095
 21
0.156794
 31
0.0
 11
0.163093
 21
0.155079
 31
0.0
 11
0.163925
 21
0.153364
 31
0.0
 11
0.164200
 21
0.151650
 31
0.0
 11
0.164032
 21
0.149323
 31
0.0
 11
0.163617
 21
0.148057
 31
0.0
 11
0.163030
 21
0.147090
 31
0.0
 11
0.162557
 21
0.146206
 31
0.0
 11
0.161956
 21
0.145576
 31
0.0
 11
0.161277
 21
0.145102
 31
0.0
 11
0.160069
 21
0.144710
 31
0.0
 11
0.158860
 21
0.144404
 31
0.0
 11
0.157652
 21
0.144401
 31
0.0
  0
LINE
  5
161
100
AcDbEntity
  8
Layer_1
 62
1
100
AcDbLine
 10
0.163147
 20
0.138789
 30
0.0
 11
0.163381
 21
0.141244
 31
0.0
  0
LINE
  5
162
100
AcDbEntity
  8
Layer_1
 62
1
100
AcDbLine
 10
0.163381
 20
0.141244
 30
0.0
 11
0.165252
 21
0.140659
 31
0.0
  0
LINE
  5
163
100
AcDbEntity
  8
Layer_1
 62
1
100
AcDbLine
 10
0.170573
 20
0.135378
 30
0.0
 11
0.168352
 21
0.135027
 31
0.0
  0
LINE
  5
164
100
AcDbEntity
  8
Layer_1
 62
1
100
AcDbLine
 10
0.168352
 20
0.135027
 30
0.0
 11
0.168352
 21
0.133040
 31
0.0
  0
LINE
  5
165
100
AcDbEntity
  8
Layer_1
 62
1
100
AcDbLine
 10
0.168352
 20
0.133040
 30
0.0
 11
0.177939
 21
0.133040
 31
0.0
  0
LINE
  5
166
100
AcDbEntity
  8
Layer_1
 62
1
100
AcDbLine
 10
0.177939
 20
0.133040
 30
0.0
 11
0.177705
 21
0.135378
 31
0.0
  0
LINE
  5
167
100
AcDbEntity
  8
Layer_1
 62
1
100
AcDbLine
 10
0.177705
 20
0.135378
 30
0.0
 11
0.175951
 21
0.135378
 31
0.0
  0
LINE
  5
168
100
AcDbEntity
  8
Layer_1
 62
1
100
AcDbLine
 10
0.175951
 20
0.135378
 30
0.0
 11
0.175718
 21
0.146485
 31
0.0
  0
LINE
  5
169
100
AcDbEntity
  8
Layer_1
 62
1
100
AcDbLine
 10
0.175718
 20
0.146485
 30
0.0
 11
0.182382
 21
0.158177
 31
0.0
  0
LINE
  5
16a
100
AcDbEntity
  8
Layer_1
 62
1
100
AcDbLine
 10
0.182382
 20
0.158177
 30
0.0
 11
0.184720
 21
0.158177
 31
0.0
  0
LINE
  5
16b
100
AcDbEntity
  8
Layer_1
 62
1
100
AcDbLine
 10
0.184720
 20
0.158177
 30
0.0
 11
0.184486
 21
0.160164
 31
0.0
  0
LINE
  5
16c
100
AcDbEntity
  8
Layer_1
 62
1
100
AcDbLine
 10
0.184486
 20
0.160164
 30
0.0
 11
0.178640
 21
0.159814
 31
0.0
  0
LINE
  5
16d
100
AcDbEntity
  8
Layer_1
 62
1
100
AcDbLine
 10
0.178640
 20
0.159814
 30
0.0
 11
0.178524
 21
0.158527
 31
0.0
  0
LINE
  5
16e
100
AcDbEntity
  8
Layer_1
 62
1
100
AcDbLine
 10
0.178524
 20
0.158527
 30
0.0
 11
0.180277
 21
0.158177
 31
0.0
  0
LINE
  5
16f
100
AcDbEntity
  8
Layer_1
 62
1
100
AcDbLine
 10
0.180277
 20
0.158177
 30
0.0
 11
0.174548
 21
0.148940
 31
0.0
  0
LINE
  5
170
100
AcDbEntity
  8
Layer_1
 62
1
100
AcDbLine
 10
0.174548
 20
0.148940
 30
0.0
 11
0.169404
 21
0.157709
 31
0.0
  0
LINE
  5
171
100
AcDbEntity
  8
Layer_1
 62
1
100
AcDbLine
 10
0.169404
 20
0.157709
 30
0.0
 11
0.170339
 21
0.157826
 31
0.0
  0
LINE
  5
172
100
AcDbEntity
  8
Layer_1
 62
1
100
AcDbLine
 10
0.170339
 20
0.157826
 30
0.0
 11
0.169755
 21
0.160983
 31
0.0
  0
LINE
  5
173
100
AcDbEntity
  8
Layer_1
 62
1
100
AcDbLine
 10
0.169755
 20
0.160983
 30
0.0
 11
0.162155
 21
0.160515
 31
0.0
  0
LINE
  5
174
100
AcDbEntity
  8
Layer_1
 62
1
100
AcDbLine
 10
0.162155
 20
0.160515
 30
0.0
 11
0.162506
 21
0.157826
 31
0.0
  0
LINE
  5
175
100
AcDbEntity
  8
Layer_1
 62
1
100
AcDbLine
 10
0.162506
 20
0.157826
 30
0.0
 11
0.164143
 21
0.157826
 31
0.0
  0
LINE
  5
176
100
AcDbEntity
  8
Layer_1
 62
1
100
AcDbLine
 10
0.164143
 20
0.157826
 30
0.0
 11
0.170456
 21
0.146368
 31
0.0
  0
LINE
  5
177
100
AcDbEntity
  8
Layer_1
 62
1
100
AcDbLine
 10
0.170456
 20
0.146368
 30
0.0
 11
0.170573
 21
0.135378
 31
0.0
  0
LINE
  5
178
100
AcDbEntity
  8
Layer_1
 62
1
100
AcDbLine
 10
0.057165
 20
0.118192
 30
0.0
 11
0.055645
 21
0.118192
 31
0.0
  0
SPLINE
  5
179
100
AcDbEntity
  8
Layer_1
 62
1
100
AcDbSpline
 70
0
 71
3
 72
10
 73
6
 74
4
 40
0.000000
 40
0.000000
 40
0.000000
 40
0.000000
 40
0.000889
 40
0.001439
 40
0.002118
 40
0.002118
 40
0.002118
 40
0.002118
 10
0.161511
 20
0.138438
 30
0.0
 10
0.161754
 20
0.138214
 30
0.0
 10
0.162149
 20
0.137850
 30
0.0
 10
0.162880
 20
0.138200
 30
0.0
 10
0.163052
 20
0.138579
 30
0.0
 10
0.163147
 20
0.138789
 30
0.0
 11
0.161511
 21
0.138438
 31
0.0
 11
0.162281
 21
0.137994
 31
0.0
 11
0.162785
 21
0.138214
 31
0.0
 11
0.163147
 21
0.138789
 31
0.0
  0
LINE
  5
17a
100
AcDbEntity
  8
Layer_1
 62
1
100
AcDbLine
 10
0.055645
 20
0.110592
 30
0.0
 11
0.057633
 21
0.110943
 31
0.0
  0
LINE
  5
17b
100
AcDbEntity
  8
Layer_1
 62
1
100
AcDbLine
 10
0.057633
 20
0.110943
 30
0.0
 11
0.057983
 21
0.106734
 31
0.0
  0
SPLINE
  5
17c
100
AcDbEntity
  8
Layer_1
 62
1
100
AcDbSpline
 70
0
 71
3
 72
22
 73
18
 74
16
 40
0.000000
 40
0.000000
 40
0.000000
 40
0.000000
 40
0.002213
 40
0.004568
 40
0.007071
 40
0.008608
 40
0.010375
 40
0.012352
 40
0.021772
 40
0.028443
 40
0.031049
 40
0.033259
 40
0.035273
 40
0.037438
 40
0.039722
 40
0.041718
 40
0.043676
 40
0.043676
 40
0.043676
 40
0.043676
 10
0.055645
 20
0.118192
 30
0.0
 10
0.055505
 20
0.118929
 30
0.0
 10
0.055217
 20
0.120450
 30
0.0
 10
0.053779
 20
0.122327
 30
0.0
 10
0.052664
 20
0.124294
 30
0.0
 10
0.050749
 20
0.124881
 30
0.0
 10
0.048983
 20
0.125184
 30
0.0
 10
0.044737
 20
0.123281
 30
0.0
 10
0.043608
 20
0.116134
 30
0.0
 10
0.044497
 20
0.109956
 30
0.0
 10
0.046707
 20
0.106779
 30
0.0
 10
0.048471
 20
0.105202
 30
0.0
 10
0.050604
 20
0.104860
 30
0.0
 10
0.052909
 20
0.104918
 30
0.0
 10
0.054322
 20
0.106792
 30
0.0
 10
0.055107
 20
0.108688
 30
0.0
 10
0.055467
 20
0.109962
 30
0.0
 10
0.055645
 20
0.110592
 30
0.0
 11
0.055645
 21
0.118192
 31
0.0
 11
0.055076
 21
0.120330
 31
0.0
 11
0.053842
 21
0.122336
 31
0.0
 11
0.052254
 21
0.124271
 31
0.0
 11
0.050821
 21
0.124827
 31
0.0
 11
0.049064
 21
0.125004
 31
0.0
 11
0.047227
 21
0.124271
 31
0.0
 11
0.044043
 21
0.115406
 31
0.0
 11
0.045385
 21
0.108872
 31
0.0
 11
0.046876
 21
0.106734
 31
0.0
 11
0.048609
 21
0.105362
 31
0.0
 11
0.050576
 21
0.104929
 31
0.0
 11
0.052722
 21
0.105214
 31
0.0
 11
0.054272
 21
0.106892
 31
0.0
 11
0.055077
 21
0.108718
 31
0.0
 11
0.055645
 21
0.110592
 31
0.0
  0
LINE
  5
17d
100
AcDbEntity
  8
Layer_1
 62
1
100
AcDbLine
 10
0.054008
 20
0.126259
 30
0.0
 11
0.055411
 21
0.126726
 31
0.0
  0
LINE
  5
17e
100
AcDbEntity
  8
Layer_1
 62
1
100
AcDbLine
 10
0.055411
 20
0.126726
 30
0.0
 11
0.057399
 21
0.126609
 31
0.0
  0
LINE
  5
17f
100
AcDbEntity
  8
Layer_1
 62
1
100
AcDbLine
 10
0.057399
 20
0.126609
 30
0.0
 11
0.057165
 21
0.118192
 31
0.0
  0
LINE
  5
180
100
AcDbEntity
  8
Layer_1
 62
1
100
AcDbLine
 10
0.061491
 20
0.124739
 30
0.0
 11
0.061257
 21
0.104746
 31
0.0
  0
LINE
  5
181
100
AcDbEntity
  8
Layer_1
 62
1
100
AcDbLine
 10
0.061257
 20
0.104746
 30
0.0
 11
0.059503
 21
0.104863
 31
0.0
  0
LINE
  5
182
100
AcDbEntity
  8
Layer_1
 62
1
100
AcDbLine
 10
0.059503
 20
0.104863
 30
0.0
 11
0.059386
 21
0.102642
 31
0.0
  0
LINE
  5
183
100
AcDbEntity
  8
Layer_1
 62
1
100
AcDbLine
 10
0.059386
 20
0.102642
 30
0.0
 11
0.068740
 21
0.102525
 31
0.0
  0
LINE
  5
184
100
AcDbEntity
  8
Layer_1
 62
1
100
AcDbLine
 10
0.068740
 20
0.102525
 30
0.0
 11
0.068857
 21
0.104980
 31
0.0
  0
LINE
  5
185
100
AcDbEntity
  8
Layer_1
 62
1
100
AcDbLine
 10
0.068857
 20
0.104980
 30
0.0
 11
0.066752
 21
0.104980
 31
0.0
  0
LINE
  5
186
100
AcDbEntity
  8
Layer_1
 62
1
100
AcDbLine
 10
0.066752
 20
0.104980
 30
0.0
 11
0.066752
 21
0.113281
 31
0.0
  0
SPLINE
  5
187
100
AcDbEntity
  8
Layer_1
 62
1
100
AcDbSpline
 70
0
 71
3
 72
25
 73
21
 74
19
 40
0.000000
 40
0.000000
 40
0.000000
 40
0.000000
 40
0.002213
 40
0.004311
 40
0.006424
 40
0.007815
 40
0.010778
 40
0.014131
 40
0.017772
 40
0.021027
 40
0.024059
 40
0.027755
 40
0.031352
 40
0.034915
 40
0.037878
 40
0.040999
 40
0.044788
 40
0.047412
 40
0.049836
 40
0.051654
 40
0.051654
 40
0.051654
 40
0.051654
 10
0.057983
 20
0.106734
 30
0.0
 10
0.057615
 20
0.106076
 30
0.0
 10
0.056899
 20
0.104794
 30
0.0
 10
0.054996
 20
0.103726
 30
0.0
 10
0.053468
 20
0.102582
 30
0.0
 10
0.051291
 20
0.102314
 30
0.0
 10
0.048774
 20
0.101913
 30
0.0
 10
0.045336
 20
0.102494
 30
0.0
 10
0.042784
 20
0.104888
 30
0.0
 10
0.040473
 20
0.107305
 30
0.0
 10
0.039432
 20
0.110565
 30
0.0
 10
0.039309
 20
0.114013
 30
0.0
 10
0.039474
 20
0.117630
 30
0.0
 10
0.040113
 20
0.120970
 30
0.0
 10
0.041608
 20
0.123890
 30
0.0
 10
0.043965
 20
0.126178
 30
0.0
 10
0.046928
 20
0.127896
 30
0.0
 10
0.049888
 20
0.127274
 30
0.0
 10
0.052219
 20
0.127261
 30
0.0
 10
0.053472
 20
0.126560
 30
0.0
 10
0.054008
 20
0.126259
 30
0.0
 11
0.057983
 21
0.106734
 31
0.0
 11
0.056732
 21
0.104908
 31
0.0
 11
0.055025
 21
0.103689
 31
0.0
 11
0.053190
 21
0.102642
 31
0.0
 11
0.051825
 21
0.102374
 31
0.0
 11
0.048876
 21
0.102087
 31
0.0
 11
0.045590
 21
0.102759
 31
0.0
 11
0.042719
 21
0.104997
 31
0.0
 11
0.040638
 21
0.107499
 31
0.0
 11
0.039628
 21
0.110358
 31
0.0
 11
0.039358
 21
0.114044
 31
0.0
 11
0.039561
 21
0.117636
 31
0.0
 11
0.040329
 21
0.121114
 31
0.0
 11
0.041704
 21
0.123739
 31
0.0
 11
0.043907
 21
0.125950
 31
0.0
 11
0.047344
 21
0.127545
 31
0.0
 11
0.049961
 21
0.127353
 31
0.0
 11
0.052364
 21
0.127034
 31
0.0
 11
0.054008
 21
0.126259
 31
0.0
  0
LINE
  5
188
100
AcDbEntity
  8
Layer_1
 62
1
100
AcDbLine
 10
0.071779
 20
0.113515
 30
0.0
 11
0.072130
 21
0.104980
 31
0.0
  0
LINE
  5
189
100
AcDbEntity
  8
Layer_1
 62
1
100
AcDbLine
 10
0.072130
 20
0.104980
 30
0.0
 11
0.070493
 21
0.104629
 31
0.0
  0
LINE
  5
18a
100
AcDbEntity
  8
Layer_1
 62
1
100
AcDbLine
 10
0.070493
 20
0.104629
 30
0.0
 11
0.070260
 21
0.102759
 31
0.0
  0
LINE
  5
18b
100
AcDbEntity
  8
Layer_1
 62
1
100
AcDbLine
 10
0.070260
 20
0.102759
 30
0.0
 11
0.079847
 21
0.102408
 31
0.0
  0
LINE
  5
18c
100
AcDbEntity
  8
Layer_1
 62
1
100
AcDbLine
 10
0.079847
 20
0.102408
 30
0.0
 11
0.079730
 21
0.105097
 31
0.0
  0
LINE
  5
18d
100
AcDbEntity
  8
Layer_1
 62
1
100
AcDbLine
 10
0.079730
 20
0.105097
 30
0.0
 11
0.077625
 21
0.105097
 31
0.0
  0
LINE
  5
18e
100
AcDbEntity
  8
Layer_1
 62
1
100
AcDbLine
 10
0.077625
 20
0.105097
 30
0.0
 11
0.077508
 21
0.124739
 31
0.0
  0
LINE
  5
18f
100
AcDbEntity
  8
Layer_1
 62
1
100
AcDbLine
 10
0.077508
 20
0.124739
 30
0.0
 11
0.079613
 21
0.124856
 31
0.0
  0
LINE
  5
190
100
AcDbEntity
  8
Layer_1
 62
1
100
AcDbLine
 10
0.079613
 20
0.124856
 30
0.0
 11
0.079496
 21
0.127779
 31
0.0
  0
LINE
  5
191
100
AcDbEntity
  8
Layer_1
 62
1
100
AcDbLine
 10
0.079496
 20
0.127779
 30
0.0
 11
0.070376
 21
0.127311
 31
0.0
  0
LINE
  5
192
100
AcDbEntity
  8
Layer_1
 62
1
100
AcDbLine
 10
0.070376
 20
0.127311
 30
0.0
 11
0.070260
 21
0.124973
 31
0.0
  0
LINE
  5
193
100
AcDbEntity
  8
Layer_1
 62
1
100
AcDbLine
 10
0.070260
 20
0.124973
 30
0.0
 11
0.072364
 21
0.124856
 31
0.0
  0
LINE
  5
194
100
AcDbEntity
  8
Layer_1
 62
1
100
AcDbLine
 10
0.072364
 20
0.124856
 30
0.0
 11
0.072130
 21
0.115736
 31
0.0
  0
LINE
  5
195
100
AcDbEntity
  8
Layer_1
 62
1
100
AcDbLine
 10
0.072130
 20
0.115736
 30
0.0
 11
0.066869
 21
0.115619
 31
0.0
  0
LINE
  5
196
100
AcDbEntity
  8
Layer_1
 62
1
100
AcDbLine
 10
0.066869
 20
0.115619
 30
0.0
 11
0.066635
 21
0.125090
 31
0.0
  0
LINE
  5
197
100
AcDbEntity
  8
Layer_1
 62
1
100
AcDbLine
 10
0.066635
 20
0.125090
 30
0.0
 11
0.068272
 21
0.125323
 31
0.0
  0
LINE
  5
198
100
AcDbEntity
  8
Layer_1
 62
1
100
AcDbLine
 10
0.068272
 20
0.125323
 30
0.0
 11
0.068155
 21
0.127428
 31
0.0
  0
LINE
  5
199
100
AcDbEntity
  8
Layer_1
 62
1
100
AcDbLine
 10
0.068155
 20
0.127428
 30
0.0
 11
0.060088
 21
0.127428
 31
0.0
  0
LINE
  5
19a
100
AcDbEntity
  8
Layer_1
 62
1
100
AcDbLine
 10
0.060088
 20
0.127428
 30
0.0
 11
0.059737
 21
0.124973
 31
0.0
  0
LINE
  5
19b
100
AcDbEntity
  8
Layer_1
 62
1
100
AcDbLine
 10
0.059737
 20
0.124973
 30
0.0
 11
0.061491
 21
0.124739
 31
0.0
  0
LINE
  5
19c
100
AcDbEntity
  8
Layer_1
 62
1
100
AcDbLine
 10
0.081834
 20
0.127077
 30
0.0
 11
0.081951
 21
0.124856
 31
0.0
  0
LINE
  5
19d
100
AcDbEntity
  8
Layer_1
 62
1
100
AcDbLine
 10
0.081951
 20
0.124856
 30
0.0
 11
0.083705
 21
0.124622
 31
0.0
  0
LINE
  5
19e
100
AcDbEntity
  8
Layer_1
 62
1
100
AcDbLine
 10
0.083705
 20
0.124622
 30
0.0
 11
0.083705
 21
0.104746
 31
0.0
  0
LINE
  5
19f
100
AcDbEntity
  8
Layer_1
 62
1
100
AcDbLine
 10
0.083705
 20
0.104746
 30
0.0
 11
0.081834
 21
0.104512
 31
0.0
  0
LINE
  5
1a0
100
AcDbEntity
  8
Layer_1
 62
1
100
AcDbLine
 10
0.081834
 20
0.104512
 30
0.0
 11
0.081834
 21
0.102408
 31
0.0
  0
LINE
  5
1a1
100
AcDbEntity
  8
Layer_1
 62
1
100
AcDbLine
 10
0.081834
 20
0.102408
 30
0.0
 11
0.091071
 21
0.102291
 31
0.0
  0
LINE
  5
1a2
100
AcDbEntity
  8
Layer_1
 62
1
100
AcDbLine
 10
0.091071
 20
0.102291
 30
0.0
 11
0.091538
 21
0.104863
 31
0.0
  0
LINE
  5
1a3
100
AcDbEntity
  8
Layer_1
 62
1
100
AcDbLine
 10
0.091538
 20
0.104863
 30
0.0
 11
0.089083
 21
0.104746
 31
0.0
  0
LINE
  5
1a4
100
AcDbEntity
  8
Layer_1
 62
1
100
AcDbLine
 10
0.089083
 20
0.104746
 30
0.0
 11
0.089083
 21
0.127311
 31
0.0
  0
LINE
  5
1a5
100
AcDbEntity
  8
Layer_1
 62
1
100
AcDbLine
 10
0.089083
 20
0.127311
 30
0.0
 11
0.081834
 21
0.127077
 31
0.0
  0
LINE
  5
1a6
100
AcDbEntity
  8
Layer_1
 62
1
100
AcDbLine
 10
0.097735
 20
0.107903
 30
0.0
 11
0.098319
 21
0.110475
 31
0.0
  0
LINE
  5
1a7
100
AcDbEntity
  8
Layer_1
 62
1
100
AcDbLine
 10
0.098319
 20
0.110475
 30
0.0
 11
0.100541
 21
0.110475
 31
0.0
  0
LINE
  5
1a8
100
AcDbEntity
  8
Layer_1
 62
1
100
AcDbLine
 10
0.100541
 20
0.110475
 30
0.0
 11
0.099956
 21
0.103928
 31
0.0
  0
SPLINE
  5
1a9
100
AcDbEntity
  8
Layer_1
 62
1
100
AcDbSpline
 70
0
 71
3
 72
13
 73
9
 74
7
 40
0.000000
 40
0.000000
 40
0.000000
 40
0.000000
 40
0.000794
 40
0.001723
 40
0.002709
 40
0.003779
 40
0.004361
 40
0.005091
 40
0.005091
 40
0.005091
 40
0.005091
 10
0.066752
 20
0.113281
 30
0.0
 10
0.067012
 20
0.113340
 30
0.0
 10
0.067576
 20
0.113469
 30
0.0
 10
0.068488
 20
0.113303
 30
0.0
 10
0.069462
 20
0.113601
 30
0.0
 10
0.070359
 20
0.113432
 30
0.0
 10
0.071119
 20
0.113798
 30
0.0
 10
0.071543
 20
0.113616
 30
0.0
 10
0.071779
 20
0.113515
 30
0.0
 11
0.066752
 21
0.113281
 31
0.0
 11
0.067535
 21
0.113409
 31
0.0
 11
0.068464
 21
0.113379
 31
0.0
 11
0.069441
 21
0.113515
 31
0.0
 11
0.070510
 21
0.113551
 31
0.0
 11
0.071073
 21
0.113700
 31
0.0
 11
0.071779
 21
0.113515
 31
0.0
  0
LINE
  5
1aa
100
AcDbEntity
  8
Layer_1
 62
1
100
AcDbLine
 10
0.090252
 20
0.111761
 30
0.0
 11
0.090252
 21
0.116204
 31
0.0
  0
SPLINE
  5
1ab
100
AcDbEntity
  8
Layer_1
 62
1
100
AcDbSpline
 70
0
 71
3
 72
16
 73
12
 74
10
 40
0.000000
 40
0.000000
 40
0.000000
 40
0.000000
 40
0.001014
 40
0.002155
 40
0.003590
 40
0.005109
 40
0.006076
 40
0.006962
 40
0.009572
 40
0.012471
 40
0.016117
 40
0.016117
 40
0.016117
 40
0.016117
 10
0.099956
 20
0.103928
 30
0.0
 10
0.099785
 20
0.103627
 30
0.0
 10
0.099420
 20
0.102987
 30
0.0
 10
0.098240
 20
0.102520
 30
0.0
 10
0.096903
 20
0.102396
 30
0.0
 10
0.095544
 20
0.102332
 30
0.0
 10
0.094546
 20
0.102875
 30
0.0
 10
0.093191
 20
0.103566
 30
0.0
 10
0.092548
 20
0.105813
 30
0.0
 10
0.091089
 20
0.108434
 30
0.0
 10
0.090552
 20
0.110571
 30
0.0
 10
0.090252
 20
0.111761
 30
0.0
 11
0.099956
 21
0.103928
 31
0.0
 11
0.099366
 21
0.103104
 31
0.0
 11
0.098338
 21
0.102608
 31
0.0
 11
0.096916
 21
0.102408
 31
0.0
 11
0.095399
 21
0.102487
 31
0.0
 11
0.094518
 21
0.102884
 31
0.0
 11
0.093760
 21
0.103343
 31
0.0
 11
0.092504
 21
0.105631
 31
0.0
 11
0.091307
 21
0.108272
 31
0.0
 11
0.090252
 21
0.111761
 31
0.0
  0
LINE
  5
1ac
100
AcDbEntity
  8
Layer_1
 62
1
100
AcDbLine
 10
0.090954
 20
0.124271
 30
0.0
 11
0.090954
 21
0.126609
 31
0.0
  0
LINE
  5
1ad
100
AcDbEntity
  8
Layer_1
 62
1
100
AcDbLine
 10
0.090954
 20
0.126609
 30
0.0
 11
0.094812
 21
0.126493
 31
0.0
  0
SPLINE
  5
1ae
100
AcDbEntity
  8
Layer_1
 62
1
100
AcDbSpline
 70
0
 71
3
 72
16
 73
12
 74
10
 40
0.000000
 40
0.000000
 40
0.000000
 40
0.000000
 40
0.000997
 40
0.001972
 40
0.003104
 40
0.004954
 40
0.006701
 40
0.008446
 40
0.010017
 40
0.011321
 40
0.012738
 40
0.012738
 40
0.012738
 40
0.012738
 10
0.090252
 20
0.116204
 30
0.0
 10
0.090574
 20
0.116124
 30
0.0
 10
0.091210
 20
0.115967
 30
0.0
 10
0.092267
 20
0.115875
 30
0.0
 10
0.093504
 20
0.116624
 30
0.0
 10
0.093834
 20
0.118255
 30
0.0
 10
0.094374
 20
0.119976
 30
0.0
 10
0.093888
 20
0.121651
 30
0.0
 10
0.093472
 20
0.123132
 30
0.0
 10
0.092382
 20
0.124237
 30
0.0
 10
0.091443
 20
0.124260
 30
0.0
 10
0.090954
 20
0.124271
 30
0.0
 11
0.090252
 21
0.116204
 31
0.0
 11
0.091226
 21
0.115991
 31
0.0
 11
0.092201
 21
0.115979
 31
0.0
 11
0.093175
 21
0.116555
 31
0.0
 11
0.093871
 21
0.118269
 31
0.0
 11
0.094202
 21
0.119984
 31
0.0
 11
0.093877
 21
0.121699
 31
0.0
 11
0.093307
 21
0.123164
 31
0.0
 11
0.092354
 21
0.124052
 31
0.0
 11
0.090954
 21
0.124271
 31
0.0
  0
LINE
  5
1af
100
AcDbEntity
  8
Layer_1
 62
1
100
AcDbLine
 10
0.094110
 20
0.112930
 30
0.0
 11
0.097735
 21
0.107903
 31
0.0
  0
LINE
  5
1b0
100
AcDbEntity
  8
Layer_1
 62
1
100
AcDbLine
 10
0.102061
 20
0.127194
 30
0.0
 11
0.102178
 21
0.124739
 31
0.0
  0
LINE
  5
1b1
100
AcDbEntity
  8
Layer_1
 62
1
100
AcDbLine
 10
0.102178
 20
0.124739
 30
0.0
 11
0.103697
 21
0.124739
 31
0.0
  0
LINE
  5
1b2
100
AcDbEntity
  8
Layer_1
 62
1
100
AcDbLine
 10
0.103697
 20
0.124739
 30
0.0
 11
0.103347
 21
0.104863
 31
0.0
  0
LINE
  5
1b3
100
AcDbEntity
  8
Layer_1
 62
1
100
AcDbLine
 10
0.103347
 20
0.104863
 30
0.0
 11
0.101827
 21
0.104980
 31
0.0
  0
LINE
  5
1b4
100
AcDbEntity
  8
Layer_1
 62
1
100
AcDbLine
 10
0.101827
 20
0.104980
 30
0.0
 11
0.101827
 21
0.102642
 31
0.0
  0
LINE
  5
1b5
100
AcDbEntity
  8
Layer_1
 62
1
100
AcDbLine
 10
0.101827
 20
0.102642
 30
0.0
 11
0.110946
 21
0.102525
 31
0.0
  0
LINE
  5
1b6
100
AcDbEntity
  8
Layer_1
 62
1
100
AcDbLine
 10
0.110946
 20
0.102525
 30
0.0
 11
0.111063
 21
0.105097
 31
0.0
  0
LINE
  5
1b7
100
AcDbEntity
  8
Layer_1
 62
1
100
AcDbLine
 10
0.111063
 20
0.105097
 30
0.0
 11
0.108725
 21
0.105214
 31
0.0
  0
LINE
  5
1b8
100
AcDbEntity
  8
Layer_1
 62
1
100
AcDbLine
 10
0.108725
 20
0.105214
 30
0.0
 11
0.109076
 21
0.125090
 31
0.0
  0
LINE
  5
1b9
100
AcDbEntity
  8
Layer_1
 62
1
100
AcDbLine
 10
0.109076
 20
0.125090
 30
0.0
 11
0.110829
 21
0.125090
 31
0.0
  0
LINE
  5
1ba
100
AcDbEntity
  8
Layer_1
 62
1
100
AcDbLine
 10
0.110829
 20
0.125090
 30
0.0
 11
0.110595
 21
0.127662
 31
0.0
  0
LINE
  5
1bb
100
AcDbEntity
  8
Layer_1
 62
1
100
AcDbLine
 10
0.110595
 20
0.127662
 30
0.0
 11
0.102061
 21
0.127194
 31
0.0
  0
LINE
  5
1bc
100
AcDbEntity
  8
Layer_1
 62
1
100
AcDbLine
 10
0.127314
 20
0.118425
 30
0.0
 11
0.125444
 21
0.118659
 31
0.0
  0
SPLINE
  5
1bd
100
AcDbEntity
  8
Layer_1
 62
1
100
AcDbSpline
 70
0
 71
3
 72
19
 73
15
 74
13
 40
0.000000
 40
0.000000
 40
0.000000
 40
0.000000
 40
0.001594
 40
0.003214
 40
0.005014
 40
0.006553
 40
0.008104
 40
0.009792
 40
0.011282
 40
0.012490
 40
0.013576
 40
0.015117
 40
0.016662
 40
0.018266
 40
0.018266
 40
0.018266
 40
0.018266
 10
0.094812
 20
0.126493
 30
0.0
 10
0.095342
 20
0.126362
 30
0.0
 10
0.096411
 20
0.126100
 30
0.0
 10
0.097506
 20
0.124750
 30
0.0
 10
0.098390
 20
0.123340
 30
0.0
 10
0.098671
 20
0.121713
 30
0.0
 10
0.099120
 20
0.120185
 30
0.0
 10
0.099268
 20
0.118609
 30
0.0
 10
0.099310
 20
0.117142
 30
0.0
 10
0.098943
 20
0.115897
 30
0.0
 10
0.098113
 20
0.114910
 30
0.0
 10
0.097124
 20
0.113905
 30
0.0
 10
0.095641
 20
0.113321
 30
0.0
 10
0.094627
 20
0.113062
 30
0.0
 10
0.094110
 20
0.112930
 30
0.0
 11
0.094812
 21
0.126493
 31
0.0
 11
0.096312
 21
0.125953
 31
0.0
 11
0.097436
 21
0.124786
 31
0.0
 11
0.098319
 21
0.123219
 31
0.0
 11
0.098698
 21
0.121727
 31
0.0
 11
0.099061
 21
0.120219
 31
0.0
 11
0.099255
 21
0.118542
 31
0.0
 11
0.099225
 21
0.117052
 31
0.0
 11
0.098855
 21
0.115902
 31
0.0
 11
0.098202
 21
0.115035
 31
0.0
 11
0.097064
 21
0.113996
 31
0.0
 11
0.095655
 21
0.113360
 31
0.0
 11
0.094110
 21
0.112930
 31
0.0
  0
LINE
  5
1be
100
AcDbEntity
  8
Layer_1
 62
1
100
AcDbLine
 10
0.116441
 20
0.121933
 30
0.0
 11
0.117260
 21
0.120062
 31
0.0
  0
LINE
  5
1bf
100
AcDbEntity
  8
Layer_1
 62
1
100
AcDbLine
 10
0.117260
 20
0.120062
 30
0.0
 11
0.125678
 21
0.115970
 31
0.0
  0
SPLINE
  5
1c0
100
AcDbEntity
  8
Layer_1
 62
1
100
AcDbSpline
 70
0
 71
3
 72
16
 73
12
 74
10
 40
0.000000
 40
0.000000
 40
0.000000
 40
0.000000
 40
0.001768
 40
0.003724
 40
0.006117
 40
0.007377
 40
0.008657
 40
0.010194
 40
0.011268
 40
0.012480
 40
0.014452
 40
0.014452
 40
0.014452
 40
0.014452
 10
0.125444
 20
0.118659
 30
0.0
 10
0.125328
 20
0.119238
 30
0.0
 10
0.125085
 20
0.120458
 30
0.0
 10
0.124085
 20
0.122298
 30
0.0
 10
0.122632
 20
0.123484
 30
0.0
 10
0.121560
 20
0.124778
 30
0.0
 10
0.120250
 20
0.125245
 30
0.0
 10
0.118890
 20
0.125383
 30
0.0
 10
0.117771
 20
0.124704
 30
0.0
 10
0.116712
 20
0.123695
 30
0.0
 10
0.116545
 20
0.122607
 30
0.0
 10
0.116441
 20
0.121933
 30
0.0
 11
0.125444
 21
0.118659
 31
0.0
 11
0.125015
 21
0.120374
 31
0.0
 11
0.124072
 21
0.122089
 31
0.0
 11
0.122404
 21
0.123804
 31
0.0
 11
0.121499
 21
0.124680
 31
0.0
 11
0.120316
 21
0.125169
 31
0.0
 11
0.118780
 21
0.125207
 31
0.0
 11
0.117834
 21
0.124698
 31
0.0
 11
0.116991
 21
0.123827
 31
0.0
 11
0.116441
 21
0.121933
 31
0.0
  0
LINE
  5
1c1
100
AcDbEntity
  8
Layer_1
 62
1
100
AcDbLine
 10
0.115623
 20
0.103928
 30
0.0
 11
0.115389
 21
0.102291
 31
0.0
  0
LINE
  5
1c2
100
AcDbEntity
  8
Layer_1
 62
1
100
AcDbLine
 10
0.115389
 20
0.102291
 30
0.0
 11
0.113168
 21
0.102642
 31
0.0
  0
LINE
  5
1c3
100
AcDbEntity
  8
Layer_1
 62
1
100
AcDbLine
 10
0.113168
 20
0.102642
 30
0.0
 11
0.113051
 21
0.111644
 31
0.0
  0
LINE
  5
1c4
100
AcDbEntity
  8
Layer_1
 62
1
100
AcDbLine
 10
0.113051
 20
0.111644
 30
0.0
 11
0.114921
 21
0.111644
 31
0.0
  0
LINE
  5
1c5
100
AcDbEntity
  8
Layer_1
 62
1
100
AcDbLine
 10
0.114921
 20
0.111644
 30
0.0
 11
0.118780
 21
0.105565
 31
0.0
  0
SPLINE
  5
1c6
100
AcDbEntity
  8
Layer_1
 62
1
100
AcDbSpline
 70
0
 71
3
 72
22
 73
18
 74
16
 40
0.000000
 40
0.000000
 40
0.000000
 40
0.000000
 40
0.001630
 40
0.003201
 40
0.004614
 40
0.007622
 40
0.009306
 40
0.010816
 40
0.012065
 40
0.013371
 40
0.014866
 40
0.016595
 40
0.018345
 40
0.020162
 40
0.022369
 40
0.024269
 40
0.026122
 40
0.026122
 40
0.026122
 40
0.026122
 10
0.125678
 20
0.115970
 30
0.0
 10
0.126090
 20
0.115620
 30
0.0
 10
0.126901
 20
0.114931
 30
0.0
 10
0.128104
 20
0.113932
 30
0.0
 10
0.128984
 20
0.112109
 30
0.0
 10
0.129442
 20
0.110049
 30
0.0
 10
0.129006
 20
0.108015
 30
0.0
 10
0.128696
 20
0.106557
 30
0.0
 10
0.128033
 20
0.105367
 30
0.0
 10
0.127240
 20
0.104247
 30
0.0
 10
0.125934
 20
0.103463
 30
0.0
 10
0.124695
 20
0.102289
 30
0.0
 10
0.122887
 20
0.102040
 30
0.0
 10
0.121000
 20
0.101707
 30
0.0
 10
0.118992
 20
0.102041
 30
0.0
 10
0.117230
 20
0.102976
 30
0.0
 10
0.116154
 20
0.103613
 30
0.0
 10
0.115623
 20
0.103928
 30
0.0
 11
0.125678
 21
0.115970
 31
0.0
 11
0.126922
 21
0.114917
 31
0.0
 11
0.128051
 21
0.113825
 31
0.0
 11
0.128717
 21
0.112580
 31
0.0
 11
0.129261
 21
0.109620
 31
0.0
 11
0.128995
 21
0.107958
 31
0.0
 11
0.128600
 21
0.106500
 31
0.0
 11
0.128022
 21
0.105394
 31
0.0
 11
0.127220
 21
0.104362
 31
0.0
 11
0.126028
 21
0.103460
 31
0.0
 11
0.124621
 21
0.102456
 31
0.0
 11
0.122922
 21
0.102034
 31
0.0
 11
0.121118
 21
0.101823
 31
0.0
 11
0.118939
 21
0.102178
 31
0.0
 11
0.117224
 21
0.102996
 31
0.0
 11
0.115623
 21
0.103928
 31
0.0
  0
LINE
  5
1c7
100
AcDbEntity
  8
Layer_1
 62
1
100
AcDbLine
 10
0.125210
 20
0.126142
 30
0.0
 11
0.125327
 21
0.127311
 31
0.0
  0
LINE
  5
1c8
100
AcDbEntity
  8
Layer_1
 62
1
100
AcDbLine
 10
0.125327
 20
0.127311
 30
0.0
 11
0.127198
 21
0.127311
 31
0.0
  0
LINE
  5
1c9
100
AcDbEntity
  8
Layer_1
 62
1
100
AcDbLine
 10
0.127198
 20
0.127311
 30
0.0
 11
0.127314
 21
0.118425
 31
0.0
  0
LINE
  5
1ca
100
AcDbEntity
  8
Layer_1
 62
1
100
AcDbLine
 10
0.130471
 20
0.126726
 30
0.0
 11
0.130705
 21
0.118075
 31
0.0
  0
LINE
  5
1cb
100
AcDbEntity
  8
Layer_1
 62
1
100
AcDbLine
 10
0.130705
 20
0.118075
 30
0.0
 11
0.132809
 21
0.117958
 31
0.0
  0
SPLINE
  5
1cc
100
AcDbEntity
  8
Layer_1
 62
1
100
AcDbSpline
 70
0
 71
3
 72
31
 73
27
 74
25
 40
0.000000
 40
0.000000
 40
0.000000
 40
0.000000
 40
0.001881
 40
0.003639
 40
0.005481
 40
0.006873
 40
0.008196
 40
0.009746
 40
0.011551
 40
0.013506
 40
0.015542
 40
0.017923
 40
0.020367
 40
0.022864
 40
0.025686
 40
0.028259
 40
0.030792
 40
0.032615
 40
0.034335
 40
0.036177
 40
0.038309
 40
0.040210
 40
0.041928
 40
0.043263
 40
0.044199
 40
0.044790
 40
0.044790
 40
0.044790
 40
0.044790
 10
0.118780
 20
0.105565
 30
0.0
 10
0.119352
 20
0.105300
 30
0.0
 10
0.120458
 20
0.104787
 30
0.0
 10
0.122335
 20
0.104657
 30
0.0
 10
0.123932
 20
0.105167
 30
0.0
 10
0.125237
 20
0.106145
 30
0.0
 10
0.125442
 20
0.107597
 30
0.0
 10
0.125445
 20
0.109300
 30
0.0
 10
0.123705
 20
0.110231
 30
0.0
 10
0.122110
 20
0.111207
 30
0.0
 10
0.120225
 20
0.112234
 30
0.0
 10
0.117989
 20
0.112855
 30
0.0
 10
0.116054
 20
0.114327
 30
0.0
 10
0.113587
 20
0.115557
 30
0.0
 10
0.113068
 20
0.118361
 30
0.0
 10
0.112773
 20
0.120985
 30
0.0
 10
0.113502
 20
0.123198
 30
0.0
 10
0.113902
 20
0.125256
 30
0.0
 10
0.115322
 20
0.126459
 30
0.0
 10
0.116939
 20
0.127528
 30
0.0
 10
0.118968
 20
0.127514
 30
0.0
 10
0.120865
 20
0.127550
 30
0.0
 10
0.122529
 20
0.127396
 30
0.0
 10
0.123784
 20
0.126971
 30
0.0
 10
0.124700
 20
0.126640
 30
0.0
 10
0.125068
 20
0.126281
 30
0.0
 10
0.125210
 20
0.126142
 30
0.0
 11
0.118780
 21
0.105565
 31
0.0
 11
0.120533
 21
0.104884
 31
0.0
 11
0.122287
 21
0.104767
 31
0.0
 11
0.124041
 21
0.105331
 31
0.0
 11
0.125087
 21
0.106250
 31
0.0
 11
0.125402
 21
0.107534
 31
0.0
 11
0.125210
 21
0.109072
 31
0.0
 11
0.123800
 21
0.110199
 31
0.0
 11
0.122112
 21
0.111187
 31
0.0
 11
0.120299
 21
0.112112
 31
0.0
 11
0.118081
 21
0.112979
 31
0.0
 11
0.116003
 21
0.114265
 31
0.0
 11
0.113986
 21
0.115736
 31
0.0
 11
0.113094
 21
0.118414
 31
0.0
 11
0.112956
 21
0.120983
 31
0.0
 11
0.113518
 21
0.123453
 31
0.0
 11
0.114094
 21
0.125182
 31
0.0
 11
0.115307
 21
0.126402
 31
0.0
 11
0.116909
 21
0.127311
 31
0.0
 11
0.119031
 21
0.127523
 31
0.0
 11
0.120931
 21
0.127514
 31
0.0
 11
0.122638
 21
0.127311
 31
0.0
 11
0.123914
 21
0.126921
 31
0.0
 11
0.124765
 21
0.126532
 31
0.0
 11
0.125210
 21
0.126142
 31
0.0
  0
LINE
  5
1cd
100
AcDbEntity
  8
Layer_1
 62
1
100
AcDbLine
 10
0.137252
 20
0.124388
 30
0.0
 11
0.137369
 21
0.104746
 31
0.0
  0
LINE
  5
1ce
100
AcDbEntity
  8
Layer_1
 62
1
100
AcDbLine
 10
0.137369
 20
0.104746
 30
0.0
 11
0.135615
 21
0.104980
 31
0.0
  0
LINE
  5
1cf
100
AcDbEntity
  8
Layer_1
 62
1
100
AcDbLine
 10
0.135615
 20
0.104980
 30
0.0
 11
0.135615
 21
0.102525
 31
0.0
  0
LINE
  5
1d0
100
AcDbEntity
  8
Layer_1
 62
1
100
AcDbLine
 10
0.135615
 20
0.102525
 30
0.0
 11
0.144384
 21
0.102525
 31
0.0
  0
LINE
  5
1d1
100
AcDbEntity
  8
Layer_1
 62
1
100
AcDbLine
 10
0.144384
 20
0.102525
 30
0.0
 11
0.144501
 21
0.105331
 31
0.0
  0
LINE
  5
1d2
100
AcDbEntity
  8
Layer_1
 62
1
100
AcDbLine
 10
0.144501
 20
0.105331
 30
0.0
 11
0.142280
 21
0.105448
 31
0.0
  0
LINE
  5
1d3
100
AcDbEntity
  8
Layer_1
 62
1
100
AcDbLine
 10
0.142280
 20
0.105448
 30
0.0
 11
0.142630
 21
0.124973
 31
0.0
  0
SPLINE
  5
1d4
100
AcDbEntity
  8
Layer_1
 62
1
100
AcDbSpline
 70
0
 71
3
 72
10
 73
6
 74
4
 40
0.000000
 40
0.000000
 40
0.000000
 40
0.000000
 40
0.002824
 40
0.005528
 40
0.008047
 40
0.008047
 40
0.008047
 40
0.008047
 10
0.132809
 20
0.117958
 30
0.0
 10
0.133177
 20
0.118815
 30
0.0
 10
0.133895
 20
0.120494
 30
0.0
 10
0.134928
 20
0.123099
 30
0.0
 10
0.136496
 20
0.123969
 30
0.0
 10
0.137252
 20
0.124388
 30
0.0
 11
0.132809
 21
0.117958
 31
0.0
 11
0.133908
 21
0.120560
 31
0.0
 11
0.135192
 21
0.122939
 31
0.0
 11
0.137252
 21
0.124388
 31
0.0
  0
LINE
  5
1d5
100
AcDbEntity
  8
Layer_1
 62
1
100
AcDbLine
 10
0.146722
 20
0.118542
 30
0.0
 11
0.149061
 21
0.118192
 31
0.0
  0
LINE
  5
1d6
100
AcDbEntity
  8
Layer_1
 62
1
100
AcDbLine
 10
0.149061
 20
0.118192
 30
0.0
 11
0.149295
 21
0.127194
 31
0.0
  0
LINE
  5
1d7
100
AcDbEntity
  8
Layer_1
 62
1
100
AcDbLine
 10
0.149295
 20
0.127194
 30
0.0
 11
0.146372
 21
0.127545
 31
0.0
  0
LINE
  5
1d8
100
AcDbEntity
  8
Layer_1
 62
1
100
AcDbLine
 10
0.146372
 20
0.127545
 30
0.0
 11
0.146255
 21
0.126025
 31
0.0
  0
SPLINE
  5
1d9
100
AcDbEntity
  8
Layer_1
 62
1
100
AcDbSpline
 70
0
 71
3
 72
10
 73
6
 74
4
 40
0.000000
 40
0.000000
 40
0.000000
 40
0.000000
 40
0.003135
 40
0.005711
 40
0.008077
 40
0.008077
 40
0.008077
 40
0.008077
 10
0.142630
 20
0.124973
 30
0.0
 10
0.143479
 20
0.124374
 30
0.0
 10
0.145025
 20
0.123283
 30
0.0
 10
0.146808
 20
0.121048
 30
0.0
 10
0.146750
 20
0.119354
 30
0.0
 10
0.146722
 20
0.118542
 30
0.0
 11
0.142630
 21
0.124973
 31
0.0
 11
0.145090
 21
0.123028
 31
0.0
 11
0.146542
 21
0.120901
 31
0.0
 11
0.146722
 21
0.118542
 31
0.0
  0
LINE
  5
1da
100
AcDbEntity
  8
Layer_1
 62
1
100
AcDbLine
 10
0.133394
 20
0.126142
 30
0.0
 11
0.133511
 21
0.126960
 31
0.0
  0
LINE
  5
1db
100
AcDbEntity
  8
Layer_1
 62
1
100
AcDbLine
 10
0.133511
 20
0.126960
 30
0.0
 11
0.130471
 21
0.126726
 31
0.0
  0
LINE
  5
1dc
100
AcDbEntity
  8
Layer_1
 62
1
100
AcDbLine
 10
0.151750
 20
0.127077
 30
0.0
 11
0.151516
 21
0.124856
 31
0.0
  0
LINE
  5
1dd
100
AcDbEntity
  8
Layer_1
 62
1
100
AcDbLine
 10
0.151516
 20
0.124856
 30
0.0
 11
0.152685
 21
0.124856
 31
0.0
  0
LINE
  5
1de
100
AcDbEntity
  8
Layer_1
 62
1
100
AcDbLine
 10
0.152685
 20
0.124856
 30
0.0
 11
0.152685
 21
0.105097
 31
0.0
  0
LINE
  5
1df
100
AcDbEntity
  8
Layer_1
 62
1
100
AcDbLine
 10
0.152685
 20
0.105097
 30
0.0
 11
0.150698
 21
0.104863
 31
0.0
  0
LINE
  5
1e0
100
AcDbEntity
  8
Layer_1
 62
1
100
AcDbLine
 10
0.150698
 20
0.104863
 30
0.0
 11
0.150815
 21
0.103109
 31
0.0
  0
LINE
  5
1e1
100
AcDbEntity
  8
Layer_1
 62
1
100
AcDbLine
 10
0.150815
 20
0.103109
 30
0.0
 11
0.157596
 21
0.102525
 31
0.0
  0
LINE
  5
1e2
100
AcDbEntity
  8
Layer_1
 62
1
100
AcDbLine
 10
0.157596
 20
0.102525
 30
0.0
 11
0.157362
 21
0.105097
 31
0.0
  0
LINE
  5
1e3
100
AcDbEntity
  8
Layer_1
 62
1
100
AcDbLine
 10
0.157362
 20
0.105097
 30
0.0
 11
0.155608
 21
0.105097
 31
0.0
  0
LINE
  5
1e4
100
AcDbEntity
  8
Layer_1
 62
1
100
AcDbLine
 10
0.155608
 20
0.105097
 30
0.0
 11
0.155608
 21
0.116672
 31
0.0
  0
LINE
  5
1e5
100
AcDbEntity
  8
Layer_1
 62
1
100
AcDbLine
 10
0.155608
 20
0.116672
 30
0.0
 11
0.160752
 21
0.102876
 31
0.0
  0
LINE
  5
1e6
100
AcDbEntity
  8
Layer_1
 62
1
100
AcDbLine
 10
0.160752
 20
0.102876
 30
0.0
 11
0.162272
 21
0.102876
 31
0.0
  0
SPLINE
  5
1e7
100
AcDbEntity
  8
Layer_1
 62
1
100
AcDbSpline
 70
0
 71
3
 72
13
 73
9
 74
7
 40
0.000000
 40
0.000000
 40
0.000000
 40
0.000000
 40
0.001242
 40
0.003095
 40
0.005348
 40
0.008455
 40
0.011166
 40
0.013341
 40
0.013341
 40
0.013341
 40
0.013341
 10
0.146255
 20
0.126025
 30
0.0
 10
0.145934
 20
0.126297
 30
0.0
 10
0.145133
 20
0.126976
 30
0.0
 10
0.143308
 20
0.127221
 30
0.0
 10
0.140956
 20
0.127726
 30
0.0
 10
0.138261
 20
0.127257
 30
0.0
 10
0.135608
 20
0.126971
 30
0.0
 10
0.134076
 20
0.126397
 30
0.0
 10
0.133394
 20
0.126142
 30
0.0
 11
0.146255
 21
0.126025
 31
0.0
 11
0.145250
 21
0.126755
 31
0.0
 11
0.143457
 21
0.127223
 31
0.0
 11
0.141227
 21
0.127545
 31
0.0
 11
0.138133
 21
0.127271
 31
0.0
 11
0.135457
 21
0.126829
 31
0.0
 11
0.133394
 21
0.126142
 31
0.0
  0
LINE
  5
1e8
100
AcDbEntity
  8
Layer_1
 62
1
100
AcDbLine
 10
0.167533
 20
0.105214
 30
0.0
 11
0.165897
 21
0.104629
 31
0.0
  0
LINE
  5
1e9
100
AcDbEntity
  8
Layer_1
 62
1
100
AcDbLine
 10
0.165897
 20
0.104629
 30
0.0
 11
0.166014
 21
0.103109
 31
0.0
  0
LINE
  5
1ea
100
AcDbEntity
  8
Layer_1
 62
1
100
AcDbLine
 10
0.166014
 20
0.103109
 30
0.0
 11
0.174548
 21
0.102759
 31
0.0
  0
LINE
  5
1eb
100
AcDbEntity
  8
Layer_1
 62
1
100
AcDbLine
 10
0.174548
 20
0.102759
 30
0.0
 11
0.174431
 21
0.104863
 31
0.0
  0
LINE
  5
1ec
100
AcDbEntity
  8
Layer_1
 62
1
100
AcDbLine
 10
0.174431
 20
0.104863
 30
0.0
 11
0.172561
 21
0.104863
 31
0.0
  0
LINE
  5
1ed
100
AcDbEntity
  8
Layer_1
 62
1
100
AcDbLine
 10
0.172561
 20
0.104863
 30
0.0
 11
0.172678
 21
0.125090
 31
0.0
  0
LINE
  5
1ee
100
AcDbEntity
  8
Layer_1
 62
1
100
AcDbLine
 10
0.172678
 20
0.125090
 30
0.0
 11
0.173496
 21
0.125207
 31
0.0
  0
LINE
  5
1ef
100
AcDbEntity
  8
Layer_1
 62
1
100
AcDbLine
 10
0.173496
 20
0.125207
 30
0.0
 11
0.173145
 21
0.127428
 31
0.0
  0
LINE
  5
1f0
100
AcDbEntity
  8
Layer_1
 62
1
100
AcDbLine
 10
0.173145
 20
0.127428
 30
0.0
 11
0.166247
 21
0.127428
 31
0.0
  0
LINE
  5
1f1
100
AcDbEntity
  8
Layer_1
 62
1
100
AcDbLine
 10
0.166247
 20
0.127428
 30
0.0
 11
0.166364
 21
0.124388
 31
0.0
  0
LINE
  5
1f2
100
AcDbEntity
  8
Layer_1
 62
1
100
AcDbLine
 10
0.166364
 20
0.124388
 30
0.0
 11
0.167066
 21
0.124505
 31
0.0
  0
LINE
  5
1f3
100
AcDbEntity
  8
Layer_1
 62
1
100
AcDbLine
 10
0.167066
 20
0.124505
 30
0.0
 11
0.162740
 21
0.113047
 31
0.0
  0
LINE
  5
1f4
100
AcDbEntity
  8
Layer_1
 62
1
100
AcDbLine
 10
0.162740
 20
0.113047
 30
0.0
 11
0.157713
 21
0.124856
 31
0.0
  0
LINE
  5
1f5
100
AcDbEntity
  8
Layer_1
 62
1
100
AcDbLine
 10
0.157713
 20
0.124856
 30
0.0
 11
0.158765
 21
0.125090
 31
0.0
  0
LINE
  5
1f6
100
AcDbEntity
  8
Layer_1
 62
1
100
AcDbLine
 10
0.158765
 20
0.125090
 30
0.0
 11
0.159116
 21
0.127194
 31
0.0
  0
LINE
  5
1f7
100
AcDbEntity
  8
Layer_1
 62
1
100
AcDbLine
 10
0.159116
 20
0.127194
 30
0.0
 11
0.151750
 21
0.127077
 31
0.0
  0
LINE
  5
1f8
100
AcDbEntity
  8
Layer_1
 62
1
100
AcDbLine
 10
0.178056
 20
0.105097
 30
0.0
 11
0.176068
 21
0.104980
 31
0.0
  0
LINE
  5
1f9
100
AcDbEntity
  8
Layer_1
 62
1
100
AcDbLine
 10
0.176068
 20
0.104980
 30
0.0
 11
0.175834
 21
0.102759
 31
0.0
  0
LINE
  5
1fa
100
AcDbEntity
  8
Layer_1
 62
1
100
AcDbLine
 10
0.175834
 20
0.102759
 30
0.0
 11
0.183668
 21
0.102642
 31
0.0
  0
LINE
  5
1fb
100
AcDbEntity
  8
Layer_1
 62
1
100
AcDbLine
 10
0.183668
 20
0.102642
 30
0.0
 11
0.183434
 21
0.104980
 31
0.0
  0
LINE
  5
1fc
100
AcDbEntity
  8
Layer_1
 62
1
100
AcDbLine
 10
0.183434
 20
0.104980
 30
0.0
 11
0.181330
 21
0.105097
 31
0.0
  0
LINE
  5
1fd
100
AcDbEntity
  8
Layer_1
 62
1
100
AcDbLine
 10
0.181330
 20
0.105097
 30
0.0
 11
0.185655
 21
0.118659
 31
0.0
  0
LINE
  5
1fe
100
AcDbEntity
  8
Layer_1
 62
1
100
AcDbLine
 10
0.185655
 20
0.118659
 30
0.0
 11
0.186591
 21
0.112697
 31
0.0
  0
LINE
  5
1ff
100
AcDbEntity
  8
Layer_1
 62
1
100
AcDbLine
 10
0.186591
 20
0.112697
 30
0.0
 11
0.184720
 21
0.112463
 31
0.0
  0
LINE
  5
200
100
AcDbEntity
  8
Layer_1
 62
1
100
AcDbLine
 10
0.184720
 20
0.112463
 30
0.0
 11
0.184837
 21
0.110592
 31
0.0
  0
LINE
  5
201
100
AcDbEntity
  8
Layer_1
 62
1
100
AcDbLine
 10
0.184837
 20
0.110592
 30
0.0
 11
0.187526
 21
0.110826
 31
0.0
  0
LINE
  5
202
100
AcDbEntity
  8
Layer_1
 62
1
100
AcDbLine
 10
0.187526
 20
0.110826
 30
0.0
 11
0.189397
 21
0.105331
 31
0.0
  0
LINE
  5
203
100
AcDbEntity
  8
Layer_1
 62
1
100
AcDbLine
 10
0.189397
 20
0.105331
 30
0.0
 11
0.187409
 21
0.104980
 31
0.0
  0
LINE
  5
204
100
AcDbEntity
  8
Layer_1
 62
1
100
AcDbLine
 10
0.187409
 20
0.104980
 30
0.0
 11
0.187760
 21
0.102642
 31
0.0
  0
LINE
  5
205
100
AcDbEntity
  8
Layer_1
 62
1
100
AcDbLine
 10
0.187760
 20
0.102642
 30
0.0
 11
0.197230
 21
0.102525
 31
0.0
  0
LINE
  5
206
100
AcDbEntity
  8
Layer_1
 62
1
100
AcDbLine
 10
0.197230
 20
0.102525
 30
0.0
 11
0.196762
 21
0.104746
 31
0.0
  0
LINE
  5
207
100
AcDbEntity
  8
Layer_1
 62
1
100
AcDbLine
 10
0.196762
 20
0.104746
 30
0.0
 11
0.195126
 21
0.104629
 31
0.0
  0
LINE
  5
208
100
AcDbEntity
  8
Layer_1
 62
1
100
AcDbLine
 10
0.195126
 20
0.104629
 30
0.0
 11
0.189280
 21
0.124037
 31
0.0
  0
LINE
  5
209
100
AcDbEntity
  8
Layer_1
 62
1
100
AcDbLine
 10
0.189280
 20
0.124037
 30
0.0
 11
0.190800
 21
0.124037
 31
0.0
  0
LINE
  5
20a
100
AcDbEntity
  8
Layer_1
 62
1
100
AcDbLine
 10
0.190800
 20
0.124037
 30
0.0
 11
0.190332
 21
0.128246
 31
0.0
  0
LINE
  5
20b
100
AcDbEntity
  8
Layer_1
 62
1
100
AcDbLine
 10
0.190332
 20
0.128246
 30
0.0
 11
0.182616
 21
0.128246
 31
0.0
  0
LINE
  5
20c
100
AcDbEntity
  8
Layer_1
 62
1
100
AcDbLine
 10
0.182616
 20
0.128246
 30
0.0
 11
0.182733
 21
0.124856
 31
0.0
  0
LINE
  5
20d
100
AcDbEntity
  8
Layer_1
 62
1
100
AcDbLine
 10
0.182733
 20
0.124856
 30
0.0
 11
0.184019
 21
0.124856
 31
0.0
  0
LINE
  5
20e
100
AcDbEntity
  8
Layer_1
 62
1
100
AcDbLine
 10
0.184019
 20
0.124856
 30
0.0
 11
0.178056
 21
0.105097
 31
0.0
  0
LINE
  5
20f
100
AcDbEntity
  8
Layer_1
 62
1
100
AcDbLine
 10
0.198165
 20
0.111761
 30
0.0
 11
0.198516
 21
0.102759
 31
0.0
  0
LINE
  5
210
100
AcDbEntity
  8
Layer_1
 62
1
100
AcDbLine
 10
0.198516
 20
0.102759
 30
0.0
 11
0.200621
 21
0.102642
 31
0.0
  0
LINE
  5
211
100
AcDbEntity
  8
Layer_1
 62
1
100
AcDbLine
 10
0.200621
 20
0.102642
 30
0.0
 11
0.200621
 21
0.103928
 31
0.0
  0
SPLINE
  5
212
100
AcDbEntity
  8
Layer_1
 62
1
100
AcDbSpline
 70
0
 71
3
 72
13
 73
9
 74
7
 40
0.000000
 40
0.000000
 40
0.000000
 40
0.000000
 40
0.004011
 40
0.011375
 40
0.015094
 40
0.018364
 40
0.023945
 40
0.026903
 40
0.026903
 40
0.026903
 40
0.026903
 10
0.162272
 20
0.102876
 30
0.0
 10
0.162738
 20
0.104182
 30
0.0
 10
0.164057
 20
0.107889
 30
0.0
 10
0.165469
 20
0.111220
 30
0.0
 10
0.167865
 20
0.118898
 30
0.0
 10
0.167379
 20
0.112181
 30
0.0
 10
0.167556
 20
0.109163
 30
0.0
 10
0.167539
 20
0.106230
 30
0.0
 10
0.167533
 20
0.105214
 30
0.0
 11
0.162272
 21
0.102876
 31
0.0
 11
0.163636
 21
0.106647
 31
0.0
 11
0.166169
 21
0.113563
 31
0.0
 11
0.167533
 21
0.117022
 31
0.0
 11
0.167533
 21
0.113753
 31
0.0
 11
0.167533
 21
0.108171
 31
0.0
 11
0.167533
 21
0.105214
 31
0.0
  0
LINE
  5
213
100
AcDbEntity
  8
Layer_1
 62
1
100
AcDbLine
 10
0.211611
 20
0.115152
 30
0.0
 11
0.205297
 21
0.118893
 31
0.0
  0
LINE
  5
214
100
AcDbEntity
  8
Layer_1
 62
1
100
AcDbLine
 10
0.205297
 20
0.118893
 30
0.0
 11
0.201790
 21
0.120998
 31
0.0
  0
SPLINE
  5
215
100
AcDbEntity
  8
Layer_1
 62
1
100
AcDbSpline
 70
0
 71
3
 72
22
 73
18
 74
16
 40
0.000000
 40
0.000000
 40
0.000000
 40
0.000000
 40
0.001730
 40
0.003483
 40
0.005372
 40
0.007012
 40
0.008657
 40
0.010423
 40
0.012368
 40
0.014170
 40
0.016024
 40
0.017713
 40
0.019290
 40
0.020846
 40
0.022313
 40
0.023453
 40
0.024526
 40
0.024526
 40
0.024526
 40
0.024526
 10
0.200621
 20
0.103928
 30
0.0
 10
0.201096
 20
0.103600
 30
0.0
 10
0.202053
 20
0.102940
 30
0.0
 10
0.203688
 20
0.102184
 30
0.0
 10
0.205450
 20
0.101849
 30
0.0
 10
0.207167
 20
0.102068
 30
0.0
 10
0.208863
 20
0.102117
 30
0.0
 10
0.210541
 20
0.102826
 30
0.0
 10
0.211984
 20
0.104034
 30
0.0
 10
0.212881
 20
0.105678
 30
0.0
 10
0.213846
 20
0.107219
 30
0.0
 10
0.213923
 20
0.108968
 30
0.0
 10
0.213847
 20
0.110566
 30
0.0
 10
0.213658
 20
0.112088
 30
0.0
 10
0.213195
 20
0.113438
 30
0.0
 10
0.212327
 20
0.114326
 30
0.0
 10
0.211845
 20
0.114882
 30
0.0
 10
0.211611
 20
0.115152
 30
0.0
 11
0.200621
 21
0.103928
 31
0.0
 11
0.202071
 21
0.102986
 31
0.0
 11
0.203671
 21
0.102268
 31
0.0
 11
0.205531
 21
0.101940
 31
0.0
 11
0.207168
 21
0.102041
 31
0.0
 11
0.208805
 21
0.102214
 31
0.0
 11
0.210442
 21
0.102876
 31
0.0
 11
0.211919
 21
0.104140
 31
0.0
 11
0.212891
 21
0.105658
 31
0.0
 11
0.213715
 21
0.107318
 31
0.0
 11
0.213898
 21
0.108997
 31
0.0
 11
0.213827
 21
0.110573
 31
0.0
 11
0.213598
 21
0.112112
 31
0.0
 11
0.213055
 21
0.113475
 31
0.0
 11
0.212322
 21
0.114347
 31
0.0
 11
0.211611
 21
0.115152
 31
0.0
  0
LINE
  5
216
100
AcDbEntity
  8
Layer_1
 62
1
100
AcDbLine
 10
0.211143
 20
0.118542
 30
0.0
 11
0.212897
 21
0.118192
 31
0.0
  0
LINE
  5
217
100
AcDbEntity
  8
Layer_1
 62
1
100
AcDbLine
 10
0.212897
 20
0.118192
 30
0.0
 11
0.212195
 21
0.127428
 31
0.0
  0
LINE
  5
218
100
AcDbEntity
  8
Layer_1
 62
1
100
AcDbLine
 10
0.212195
 20
0.127428
 30
0.0
 11
0.210208
 21
0.127428
 31
0.0
  0
LINE
  5
219
100
AcDbEntity
  8
Layer_1
 62
1
100
AcDbLine
 10
0.210208
 20
0.127428
 30
0.0
 11
0.209857
 21
0.126493
 31
0.0
  0
SPLINE
  5
21a
100
AcDbEntity
  8
Layer_1
 62
1
100
AcDbSpline
 70
0
 71
3
 72
16
 73
12
 74
10
 40
0.000000
 40
0.000000
 40
0.000000
 40
0.000000
 40
0.001610
 40
0.002846
 40
0.004132
 40
0.005619
 40
0.007111
 40
0.008833
 40
0.011217
 40
0.013236
 40
0.015209
 40
0.015209
 40
0.015209
 40
0.015209
 10
0.201790
 20
0.120998
 30
0.0
 10
0.201653
 20
0.121531
 30
0.0
 10
0.201412
 20
0.122474
 30
0.0
 10
0.201957
 20
0.123823
 30
0.0
 10
0.203098
 20
0.124683
 30
0.0
 10
0.204560
 20
0.124631
 30
0.0
 10
0.206165
 20
0.124587
 30
0.0
 10
0.207681
 20
0.123398
 30
0.0
 10
0.209479
 20
0.122360
 30
0.0
 10
0.210489
 20
0.120410
 30
0.0
 10
0.210927
 20
0.119160
 30
0.0
 10
0.211143
 20
0.118542
 30
0.0
 11
0.201790
 21
0.120998
 31
0.0
 11
0.201578
 21
0.122594
 31
0.0
 11
0.202043
 21
0.123739
 31
0.0
 11
0.203076
 21
0.124505
 31
0.0
 11
0.204557
 21
0.124634
 31
0.0
 11
0.206038
 21
0.124449
 31
0.0
 11
0.207519
 21
0.123570
 31
0.0
 11
0.209412
 21
0.122122
 31
0.0
 11
0.210447
 21
0.120389
 31
0.0
 11
0.211143
 21
0.118542
 31
0.0
  0
LINE
  5
21b
100
AcDbEntity
  8
Layer_1
 62
1
100
AcDbLine
 10
0.198165
 20
0.111761
 30
0.0
 11
0.198165
 21
0.111761
 31
0.0
  0
LINE
  5
21c
100
AcDbEntity
  8
Layer_1
 62
1
100
AcDbLine
 10
0.204365
 20
0.044643
 30
0.0
 11
0.210814
 21
0.061673
 31
0.0
  0
LINE
  5
21d
100
AcDbEntity
  8
Layer_1
 62
1
100
AcDbLine
 10
0.210814
 20
0.061673
 30
0.0
 11
0.200231
 21
0.072586
 31
0.0
  0
LINE
  5
21e
100
AcDbEntity
  8
Layer_1
 62
1
100
AcDbLine
 10
0.200231
 20
0.072586
 30
0.0
 11
0.203538
 21
0.074735
 31
0.0
  0
LINE
  5
21f
100
AcDbEntity
  8
Layer_1
 62
1
100
AcDbLine
 10
0.203538
 20
0.074735
 30
0.0
 11
0.212302
 21
0.065145
 31
0.0
  0
LINE
  5
220
100
AcDbEntity
  8
Layer_1
 62
1
100
AcDbLine
 10
0.212302
 20
0.065145
 30
0.0
 11
0.215939
 21
0.076389
 31
0.0
  0
LINE
  5
221
100
AcDbEntity
  8
Layer_1
 62
1
100
AcDbLine
 10
0.215939
 20
0.076389
 30
0.0
 11
0.219411
 21
0.075066
 31
0.0
  0
LINE
  5
222
100
AcDbEntity
  8
Layer_1
 62
1
100
AcDbLine
 10
0.219411
 20
0.075066
 30
0.0
 11
0.215774
 21
0.063823
 31
0.0
  0
LINE
  5
223
100
AcDbEntity
  8
Layer_1
 62
1
100
AcDbLine
 10
0.215774
 20
0.063823
 30
0.0
 11
0.228175
 21
0.065972
 31
0.0
  0
LINE
  5
224
100
AcDbEntity
  8
Layer_1
 62
1
100
AcDbLine
 10
0.228175
 20
0.065972
 30
0.0
 11
0.229001
 21
0.061673
 31
0.0
  0
LINE
  5
225
100
AcDbEntity
  8
Layer_1
 62
1
100
AcDbLine
 10
0.229001
 20
0.061673
 30
0.0
 11
0.214616
 21
0.059689
 31
0.0
  0
LINE
  5
226
100
AcDbEntity
  8
Layer_1
 62
1
100
AcDbLine
 10
0.214616
 20
0.059689
 30
0.0
 11
0.208333
 21
0.042989
 31
0.0
  0
LINE
  5
227
100
AcDbEntity
  8
Layer_1
 62
1
100
AcDbLine
 10
0.208333
 20
0.042989
 30
0.0
 11
0.227348
 21
0.045470
 31
0.0
  0
LINE
  5
228
100
AcDbEntity
  8
Layer_1
 62
1
100
AcDbLine
 10
0.227348
 20
0.045470
 30
0.0
 11
0.232474
 21
0.059193
 31
0.0
  0
LINE
  5
229
100
AcDbEntity
  8
Layer_1
 62
1
100
AcDbLine
 10
0.232474
 20
0.059193
 30
0.0
 11
0.235946
 21
0.057540
 31
0.0
  0
LINE
  5
22a
100
AcDbEntity
  8
Layer_1
 62
1
100
AcDbLine
 10
0.235946
 20
0.057540
 30
0.0
 11
0.232308
 21
0.046131
 31
0.0
  0
LINE
  5
22b
100
AcDbEntity
  8
Layer_1
 62
1
100
AcDbLine
 10
0.232308
 20
0.046131
 30
0.0
 11
0.244874
 21
0.048280
 31
0.0
  0
LINE
  5
22c
100
AcDbEntity
  8
Layer_1
 62
1
100
AcDbLine
 10
0.244874
 20
0.048280
 30
0.0
 11
0.245370
 21
0.044147
 31
0.0
  0
LINE
  5
22d
100
AcDbEntity
  8
Layer_1
 62
1
100
AcDbLine
 10
0.245370
 20
0.044147
 30
0.0
 11
0.233466
 21
0.042493
 31
0.0
  0
LINE
  5
22e
100
AcDbEntity
  8
Layer_1
 62
1
100
AcDbLine
 10
0.233466
 20
0.042493
 30
0.0
 11
0.241898
 21
0.033069
 31
0.0
  0
LINE
  5
22f
100
AcDbEntity
  8
Layer_1
 62
1
100
AcDbLine
 10
0.241898
 20
0.033069
 30
0.0
 11
0.238591
 21
0.030423
 31
0.0
  0
LINE
  5
230
100
AcDbEntity
  8
Layer_1
 62
1
100
AcDbLine
 10
0.238591
 20
0.030423
 30
0.0
 11
0.227844
 21
0.041997
 31
0.0
  0
LINE
  5
231
100
AcDbEntity
  8
Layer_1
 62
1
100
AcDbLine
 10
0.227844
 20
0.041997
 30
0.0
 11
0.209160
 21
0.039021
 31
0.0
  0
LINE
  5
232
100
AcDbEntity
  8
Layer_1
 62
1
100
AcDbLine
 10
0.209160
 20
0.039021
 30
0.0
 11
0.222553
 21
0.024802
 31
0.0
  0
LINE
  5
233
100
AcDbEntity
  8
Layer_1
 62
1
100
AcDbLine
 10
0.222553
 20
0.024802
 30
0.0
 11
0.237434
 21
0.027282
 31
0.0
  0
LINE
  5
234
100
AcDbEntity
  8
Layer_1
 62
1
100
AcDbLine
 10
0.237434
 20
0.027282
 30
0.0
 11
0.238261
 21
0.022652
 31
0.0
  0
LINE
  5
235
100
AcDbEntity
  8
Layer_1
 62
1
100
AcDbLine
 10
0.238261
 20
0.022652
 30
0.0
 11
0.226025
 21
0.021329
 31
0.0
  0
LINE
  5
236
100
AcDbEntity
  8
Layer_1
 62
1
100
AcDbLine
 10
0.226025
 20
0.021329
 30
0.0
 11
0.234458
 21
0.012566
 31
0.0
  0
LINE
  5
237
100
AcDbEntity
  8
Layer_1
 62
1
100
AcDbLine
 10
0.234458
 20
0.012566
 30
0.0
 11
0.231647
 21
0.009921
 31
0.0
  0
LINE
  5
238
100
AcDbEntity
  8
Layer_1
 62
1
100
AcDbLine
 10
0.231647
 20
0.009921
 30
0.0
 11
0.222553
 21
0.018849
 31
0.0
  0
LINE
  5
239
100
AcDbEntity
  8
Layer_1
 62
1
100
AcDbLine
 10
0.222553
 20
0.018849
 30
0.0
 11
0.218419
 21
0.007606
 31
0.0
  0
LINE
  5
23a
100
AcDbEntity
  8
Layer_1
 62
1
100
AcDbLine
 10
0.218419
 20
0.007606
 30
0.0
 11
0.214286
 21
0.009425
 31
0.0
  0
LINE
  5
23b
100
AcDbEntity
  8
Layer_1
 62
1
100
AcDbLine
 10
0.214286
 20
0.009425
 30
0.0
 11
0.219577
 21
0.022487
 31
0.0
  0
LINE
  5
23c
100
AcDbEntity
  8
Layer_1
 62
1
100
AcDbLine
 10
0.219577
 20
0.022487
 30
0.0
 11
0.206019
 21
0.036706
 31
0.0
  0
LINE
  5
23d
100
AcDbEntity
  8
Layer_1
 62
1
100
AcDbLine
 10
0.206019
 20
0.036706
 30
0.0
 11
0.199901
 21
0.020172
 31
0.0
  0
LINE
  5
23e
100
AcDbEntity
  8
Layer_1
 62
1
100
AcDbLine
 10
0.199901
 20
0.020172
 30
0.0
 11
0.210317
 21
0.008102
 31
0.0
  0
LINE
  5
23f
100
AcDbEntity
  8
Layer_1
 62
1
100
AcDbLine
 10
0.210317
 20
0.008102
 30
0.0
 11
0.207507
 21
0.006448
 31
0.0
  0
LINE
  5
240
100
AcDbEntity
  8
Layer_1
 62
1
100
AcDbLine
 10
0.207507
 20
0.006448
 30
0.0
 11
0.198413
 21
0.016534
 31
0.0
  0
LINE
  5
241
100
AcDbEntity
  8
Layer_1
 62
1
100
AcDbLine
 10
0.198413
 20
0.016534
 30
0.0
 11
0.194444
 21
0.004134
 31
0.0
  0
LINE
  5
242
100
AcDbEntity
  8
Layer_1
 62
1
100
AcDbLine
 10
0.194444
 20
0.004134
 30
0.0
 11
0.190146
 21
0.006118
 31
0.0
  0
LINE
  5
243
100
AcDbEntity
  8
Layer_1
 62
1
100
AcDbLine
 10
0.190146
 20
0.006118
 30
0.0
 11
0.194775
 21
0.016369
 31
0.0
  0
LINE
  5
244
100
AcDbEntity
  8
Layer_1
 62
1
100
AcDbLine
 10
0.194775
 20
0.016369
 30
0.0
 11
0.181548
 21
0.015046
 31
0.0
  0
LINE
  5
245
100
AcDbEntity
  8
Layer_1
 62
1
100
AcDbLine
 10
0.181548
 20
0.015046
 30
0.0
 11
0.181382
 21
0.019180
 31
0.0
  0
LINE
  5
246
100
AcDbEntity
  8
Layer_1
 62
1
100
AcDbLine
 10
0.181382
 20
0.019180
 30
0.0
 11
0.196594
 21
0.021329
 31
0.0
  0
LINE
  5
247
100
AcDbEntity
  8
Layer_1
 62
1
100
AcDbLine
 10
0.196594
 20
0.021329
 30
0.0
 11
0.202050
 21
0.038525
 31
0.0
  0
LINE
  5
248
100
AcDbEntity
  8
Layer_1
 62
1
100
AcDbLine
 10
0.202050
 20
0.038525
 30
0.0
 11
0.183036
 21
0.035714
 31
0.0
  0
LINE
  5
249
100
AcDbEntity
  8
Layer_1
 62
1
100
AcDbLine
 10
0.183036
 20
0.035714
 30
0.0
 11
0.178241
 21
0.022156
 31
0.0
  0
LINE
  5
24a
100
AcDbEntity
  8
Layer_1
 62
1
100
AcDbLine
 10
0.178241
 20
0.022156
 30
0.0
 11
0.174272
 21
0.024306
 31
0.0
  0
LINE
  5
24b
100
AcDbEntity
  8
Layer_1
 62
1
100
AcDbLine
 10
0.174272
 20
0.024306
 30
0.0
 11
0.178406
 21
0.034888
 31
0.0
  0
LINE
  5
24c
100
AcDbEntity
  8
Layer_1
 62
1
100
AcDbLine
 10
0.178406
 20
0.034888
 30
0.0
 11
0.165509
 21
0.032903
 31
0.0
  0
LINE
  5
24d
100
AcDbEntity
  8
Layer_1
 62
1
100
AcDbLine
 10
0.165509
 20
0.032903
 30
0.0
 11
0.164517
 21
0.036872
 31
0.0
  0
LINE
  5
24e
100
AcDbEntity
  8
Layer_1
 62
1
100
AcDbLine
 10
0.164517
 20
0.036872
 30
0.0
 11
0.177083
 21
0.038360
 31
0.0
  0
LINE
  5
24f
100
AcDbEntity
  8
Layer_1
 62
1
100
AcDbLine
 10
0.177083
 20
0.038360
 30
0.0
 11
0.168320
 21
0.048115
 31
0.0
  0
LINE
  5
250
100
AcDbEntity
  8
Layer_1
 62
1
100
AcDbLine
 10
0.168320
 20
0.048115
 30
0.0
 11
0.171958
 21
0.051091
 31
0.0
  0
LINE
  5
251
100
AcDbEntity
  8
Layer_1
 62
1
100
AcDbLine
 10
0.171958
 20
0.051091
 30
0.0
 11
0.182374
 21
0.039187
 31
0.0
  0
LINE
  5
252
100
AcDbEntity
  8
Layer_1
 62
1
100
AcDbLine
 10
0.182374
 20
0.039187
 30
0.0
 11
0.201885
 21
0.042328
 31
0.0
  0
LINE
  5
253
100
AcDbEntity
  8
Layer_1
 62
1
100
AcDbLine
 10
0.201885
 20
0.042328
 30
0.0
 11
0.187500
 21
0.056548
 31
0.0
  0
LINE
  5
254
100
AcDbEntity
  8
Layer_1
 62
1
100
AcDbLine
 10
0.187500
 20
0.056548
 30
0.0
 11
0.172950
 21
0.054563
 31
0.0
  0
LINE
  5
255
100
AcDbEntity
  8
Layer_1
 62
1
100
AcDbLine
 10
0.172950
 20
0.054563
 30
0.0
 11
0.172123
 21
0.058532
 31
0.0
  0
LINE
  5
256
100
AcDbEntity
  8
Layer_1
 62
1
100
AcDbLine
 10
0.172123
 20
0.058532
 30
0.0
 11
0.185185
 21
0.060020
 31
0.0
  0
LINE
  5
257
100
AcDbEntity
  8
Layer_1
 62
1
100
AcDbLine
 10
0.185185
 20
0.060020
 30
0.0
 11
0.176422
 21
0.069114
 31
0.0
  0
LINE
  5
258
100
AcDbEntity
  8
Layer_1
 62
1
100
AcDbLine
 10
0.176422
 20
0.069114
 30
0.0
 11
0.179564
 21
0.071263
 31
0.0
  0
LINE
  5
259
100
AcDbEntity
  8
Layer_1
 62
1
100
AcDbLine
 10
0.179564
 20
0.071263
 30
0.0
 11
0.187996
 21
0.062335
 31
0.0
  0
LINE
  5
25a
100
AcDbEntity
  8
Layer_1
 62
1
100
AcDbLine
 10
0.187996
 20
0.062335
 30
0.0
 11
0.191799
 21
0.073909
 31
0.0
  0
LINE
  5
25b
100
AcDbEntity
  8
Layer_1
 62
1
100
AcDbLine
 10
0.191799
 20
0.073909
 30
0.0
 11
0.196098
 21
0.072090
 31
0.0
  0
LINE
  5
25c
100
AcDbEntity
  8
Layer_1
 62
1
100
AcDbLine
 10
0.196098
 20
0.072090
 30
0.0
 11
0.191138
 21
0.058862
 31
0.0
  0
LINE
  5
25d
100
AcDbEntity
  8
Layer_1
 62
1
100
AcDbLine
 10
0.191138
 20
0.058862
 30
0.0
 11
0.204365
 21
0.044643
 31
0.0
  0
LINE
  5
25e
100
AcDbEntity
  8
Layer_1
 62
1
100
AcDbLine
 10
0.043899
 20
0.210896
 30
0.0
 11
0.050347
 21
0.227927
 31
0.0
  0
LINE
  5
25f
100
AcDbEntity
  8
Layer_1
 62
1
100
AcDbLine
 10
0.050347
 20
0.227927
 30
0.0
 11
0.039765
 21
0.238839
 31
0.0
  0
LINE
  5
260
100
AcDbEntity
  8
Layer_1
 62
1
100
AcDbLine
 10
0.039765
 20
0.238839
 30
0.0
 11
0.043072
 21
0.240989
 31
0.0
  0
LINE
  5
261
100
AcDbEntity
  8
Layer_1
 62
1
100
AcDbLine
 10
0.043072
 20
0.240989
 30
0.0
 11
0.051835
 21
0.231399
 31
0.0
  0
LINE
  5
262
100
AcDbEntity
  8
Layer_1
 62
1
100
AcDbLine
 10
0.051835
 20
0.231399
 30
0.0
 11
0.055473
 21
0.242642
 31
0.0
  0
LINE
  5
263
100
AcDbEntity
  8
Layer_1
 62
1
100
AcDbLine
 10
0.055473
 20
0.242642
 30
0.0
 11
0.058945
 21
0.241319
 31
0.0
  0
LINE
  5
264
100
AcDbEntity
  8
Layer_1
 62
1
100
AcDbLine
 10
0.058945
 20
0.241319
 30
0.0
 11
0.055308
 21
0.230076
 31
0.0
  0
LINE
  5
265
100
AcDbEntity
  8
Layer_1
 62
1
100
AcDbLine
 10
0.055308
 20
0.230076
 30
0.0
 11
0.067708
 21
0.232226
 31
0.0
  0
LINE
  5
266
100
AcDbEntity
  8
Layer_1
 62
1
100
AcDbLine
 10
0.067708
 20
0.232226
 30
0.0
 11
0.068535
 21
0.227927
 31
0.0
  0
LINE
  5
267
100
AcDbEntity
  8
Layer_1
 62
1
100
AcDbLine
 10
0.068535
 20
0.227927
 30
0.0
 11
0.054150
 21
0.225942
 31
0.0
  0
LINE
  5
268
100
AcDbEntity
  8
Layer_1
 62
1
100
AcDbLine
 10
0.054150
 20
0.225942
 30
0.0
 11
0.047867
 21
0.209243
 31
0.0
  0
LINE
  5
269
100
AcDbEntity
  8
Layer_1
 62
1
100
AcDbLine
 10
0.047867
 20
0.209243
 30
0.0
 11
0.066882
 21
0.211723
 31
0.0
  0
LINE
  5
26a
100
AcDbEntity
  8
Layer_1
 62
1
100
AcDbLine
 10
0.066882
 20
0.211723
 30
0.0
 11
0.072007
 21
0.225446
 31
0.0
  0
LINE
  5
26b
100
AcDbEntity
  8
Layer_1
 62
1
100
AcDbLine
 10
0.072007
 20
0.225446
 30
0.0
 11
0.075479
 21
0.223793
 31
0.0
  0
LINE
  5
26c
100
AcDbEntity
  8
Layer_1
 62
1
100
AcDbLine
 10
0.075479
 20
0.223793
 30
0.0
 11
0.071842
 21
0.212384
 31
0.0
  0
LINE
  5
26d
100
AcDbEntity
  8
Layer_1
 62
1
100
AcDbLine
 10
0.071842
 20
0.212384
 30
0.0
 11
0.084408
 21
0.214534
 31
0.0
  0
LINE
  5
26e
100
AcDbEntity
  8
Layer_1
 62
1
100
AcDbLine
 10
0.084408
 20
0.214534
 30
0.0
 11
0.084904
 21
0.210400
 31
0.0
  0
LINE
  5
26f
100
AcDbEntity
  8
Layer_1
 62
1
100
AcDbLine
 10
0.084904
 20
0.210400
 30
0.0
 11
0.072999
 21
0.208747
 31
0.0
  0
LINE
  5
270
100
AcDbEntity
  8
Layer_1
 62
1
100
AcDbLine
 10
0.072999
 20
0.208747
 30
0.0
 11
0.081432
 21
0.199322
 31
0.0
  0
LINE
  5
271
100
AcDbEntity
  8
Layer_1
 62
1
100
AcDbLine
 10
0.081432
 20
0.199322
 30
0.0
 11
0.078125
 21
0.196677
 31
0.0
  0
LINE
  5
272
100
AcDbEntity
  8
Layer_1
 62
1
100
AcDbLine
 10
0.078125
 20
0.196677
 30
0.0
 11
0.067378
 21
0.208251
 31
0.0
  0
LINE
  5
273
100
AcDbEntity
  8
Layer_1
 62
1
100
AcDbLine
 10
0.067378
 20
0.208251
 30
0.0
 11
0.048694
 21
0.205274
 31
0.0
  0
LINE
  5
274
100
AcDbEntity
  8
Layer_1
 62
1
100
AcDbLine
 10
0.048694
 20
0.205274
 30
0.0
 11
0.062087
 21
0.191055
 31
0.0
  0
LINE
  5
275
100
AcDbEntity
  8
Layer_1
 62
1
100
AcDbLine
 10
0.062087
 20
0.191055
 30
0.0
 11
0.076968
 21
0.193535
 31
0.0
  0
LINE
  5
276
100
AcDbEntity
  8
Layer_1
 62
1
100
AcDbLine
 10
0.076968
 20
0.193535
 30
0.0
 11
0.077794
 21
0.188905
 31
0.0
  0
LINE
  5
277
100
AcDbEntity
  8
Layer_1
 62
1
100
AcDbLine
 10
0.077794
 20
0.188905
 30
0.0
 11
0.065559
 21
0.187583
 31
0.0
  0
LINE
  5
278
100
AcDbEntity
  8
Layer_1
 62
1
100
AcDbLine
 10
0.065559
 20
0.187583
 30
0.0
 11
0.073991
 21
0.178819
 31
0.0
  0
LINE
  5
279
100
AcDbEntity
  8
Layer_1
 62
1
100
AcDbLine
 10
0.073991
 20
0.178819
 30
0.0
 11
0.071181
 21
0.176174
 31
0.0
  0
LINE
  5
27a
100
AcDbEntity
  8
Layer_1
 62
1
100
AcDbLine
 10
0.071181
 20
0.176174
 30
0.0
 11
0.062087
 21
0.185103
 31
0.0
  0
LINE
  5
27b
100
AcDbEntity
  8
Layer_1
 62
1
100
AcDbLine
 10
0.062087
 20
0.185103
 30
0.0
 11
0.057953
 21
0.173859
 31
0.0
  0
LINE
  5
27c
100
AcDbEntity
  8
Layer_1
 62
1
100
AcDbLine
 10
0.057953
 20
0.173859
 30
0.0
 11
0.053819
 21
0.175678
 31
0.0
  0
LINE
  5
27d
100
AcDbEntity
  8
Layer_1
 62
1
100
AcDbLine
 10
0.053819
 20
0.175678
 30
0.0
 11
0.059110
 21
0.188740
 31
0.0
  0
LINE
  5
27e
100
AcDbEntity
  8
Layer_1
 62
1
100
AcDbLine
 10
0.059110
 20
0.188740
 30
0.0
 11
0.045552
 21
0.202960
 31
0.0
  0
LINE
  5
27f
100
AcDbEntity
  8
Layer_1
 62
1
100
AcDbLine
 10
0.045552
 20
0.202960
 30
0.0
 11
0.039435
 21
0.186425
 31
0.0
  0
LINE
  5
280
100
AcDbEntity
  8
Layer_1
 62
1
100
AcDbLine
 10
0.039435
 20
0.186425
 30
0.0
 11
0.049851
 21
0.174355
 31
0.0
  0
LINE
  5
281
100
AcDbEntity
  8
Layer_1
 62
1
100
AcDbLine
 10
0.049851
 20
0.174355
 30
0.0
 11
0.047040
 21
0.172702
 31
0.0
  0
LINE
  5
282
100
AcDbEntity
  8
Layer_1
 62
1
100
AcDbLine
 10
0.047040
 20
0.172702
 30
0.0
 11
0.037946
 21
0.182788
 31
0.0
  0
LINE
  5
283
100
AcDbEntity
  8
Layer_1
 62
1
100
AcDbLine
 10
0.037946
 20
0.182788
 30
0.0
 11
0.033978
 21
0.170387
 31
0.0
  0
LINE
  5
284
100
AcDbEntity
  8
Layer_1
 62
1
100
AcDbLine
 10
0.033978
 20
0.170387
 30
0.0
 11
0.029679
 21
0.172371
 31
0.0
  0
LINE
  5
285
100
AcDbEntity
  8
Layer_1
 62
1
100
AcDbLine
 10
0.029679
 20
0.172371
 30
0.0
 11
0.034309
 21
0.182622
 31
0.0
  0
LINE
  5
286
100
AcDbEntity
  8
Layer_1
 62
1
100
AcDbLine
 10
0.034309
 20
0.182622
 30
0.0
 11
0.021081
 21
0.181300
 31
0.0
  0
LINE
  5
287
100
AcDbEntity
  8
Layer_1
 62
1
100
AcDbLine
 10
0.021081
 20
0.181300
 30
0.0
 11
0.020916
 21
0.185433
 31
0.0
  0
LINE
  5
288
100
AcDbEntity
  8
Layer_1
 62
1
100
AcDbLine
 10
0.020916
 20
0.185433
 30
0.0
 11
0.036128
 21
0.187583
 31
0.0
  0
LINE
  5
289
100
AcDbEntity
  8
Layer_1
 62
1
100
AcDbLine
 10
0.036128
 20
0.187583
 30
0.0
 11
0.041584
 21
0.204778
 31
0.0
  0
LINE
  5
28a
100
AcDbEntity
  8
Layer_1
 62
1
100
AcDbLine
 10
0.041584
 20
0.204778
 30
0.0
 11
0.022569
 21
0.201968
 31
0.0
  0
LINE
  5
28b
100
AcDbEntity
  8
Layer_1
 62
1
100
AcDbLine
 10
0.022569
 20
0.201968
 30
0.0
 11
0.017774
 21
0.188409
 31
0.0
  0
LINE
  5
28c
100
AcDbEntity
  8
Layer_1
 62
1
100
AcDbLine
 10
0.017774
 20
0.188409
 30
0.0
 11
0.013806
 21
0.190559
 31
0.0
  0
LINE
  5
28d
100
AcDbEntity
  8
Layer_1
 62
1
100
AcDbLine
 10
0.013806
 20
0.190559
 30
0.0
 11
0.017940
 21
0.201141
 31
0.0
  0
LINE
  5
28e
100
AcDbEntity
  8
Layer_1
 62
1
100
AcDbLine
 10
0.017940
 20
0.201141
 30
0.0
 11
0.005043
 21
0.199157
 31
0.0
  0
LINE
  5
28f
100
AcDbEntity
  8
Layer_1
 62
1
100
AcDbLine
 10
0.005043
 20
0.199157
 30
0.0
 11
0.004051
 21
0.203125
 31
0.0
  0
LINE
  5
290
100
AcDbEntity
  8
Layer_1
 62
1
100
AcDbLine
 10
0.004051
 20
0.203125
 30
0.0
 11
0.016617
 21
0.204613
 31
0.0
  0
LINE
  5
291
100
AcDbEntity
  8
Layer_1
 62
1
100
AcDbLine
 10
0.016617
 20
0.204613
 30
0.0
 11
0.007854
 21
0.214368
 31
0.0
  0
LINE
  5
292
100
AcDbEntity
  8
Layer_1
 62
1
100
AcDbLine
 10
0.007854
 20
0.214368
 30
0.0
 11
0.011491
 21
0.217345
 31
0.0
  0
LINE
  5
293
100
AcDbEntity
  8
Layer_1
 62
1
100
AcDbLine
 10
0.011491
 20
0.217345
 30
0.0
 11
0.021908
 21
0.205440
 31
0.0
  0
LINE
  5
294
100
AcDbEntity
  8
Layer_1
 62
1
100
AcDbLine
 10
0.021908
 20
0.205440
 30
0.0
 11
0.041419
 21
0.208581
 31
0.0
  0
LINE
  5
295
100
AcDbEntity
  8
Layer_1
 62
1
100
AcDbLine
 10
0.041419
 20
0.208581
 30
0.0
 11
0.027034
 21
0.222801
 31
0.0
  0
LINE
  5
296
100
AcDbEntity
  8
Layer_1
 62
1
100
AcDbLine
 10
0.027034
 20
0.222801
 30
0.0
 11
0.012483
 21
0.220817
 31
0.0
  0
LINE
  5
297
100
AcDbEntity
  8
Layer_1
 62
1
100
AcDbLine
 10
0.012483
 20
0.220817
 30
0.0
 11
0.011657
 21
0.224785
 31
0.0
  0
LINE
  5
298
100
AcDbEntity
  8
Layer_1
 62
1
100
AcDbLine
 10
0.011657
 20
0.224785
 30
0.0
 11
0.024719
 21
0.226273
 31
0.0
  0
LINE
  5
299
100
AcDbEntity
  8
Layer_1
 62
1
100
AcDbLine
 10
0.024719
 20
0.226273
 30
0.0
 11
0.015956
 21
0.235367
 31
0.0
  0
LINE
  5
29a
100
AcDbEntity
  8
Layer_1
 62
1
100
AcDbLine
 10
0.015956
 20
0.235367
 30
0.0
 11
0.019097
 21
0.237517
 31
0.0
  0
LINE
  5
29b
100
AcDbEntity
  8
Layer_1
 62
1
100
AcDbLine
 10
0.019097
 20
0.237517
 30
0.0
 11
0.027530
 21
0.228588
 31
0.0
  0
LINE
  5
29c
100
AcDbEntity
  8
Layer_1
 62
1
100
AcDbLine
 10
0.027530
 20
0.228588
 30
0.0
 11
0.031333
 21
0.240162
 31
0.0
  0
LINE
  5
29d
100
AcDbEntity
  8
Layer_1
 62
1
100
AcDbLine
 10
0.031333
 20
0.240162
 30
0.0
 11
0.035632
 21
0.238343
 31
0.0
  0
LINE
  5
29e
100
AcDbEntity
  8
Layer_1
 62
1
100
AcDbLine
 10
0.035632
 20
0.238343
 30
0.0
 11
0.030671
 21
0.225116
 31
0.0
  0
LINE
  5
29f
100
AcDbEntity
  8
Layer_1
 62
1
100
AcDbLine
 10
0.030671
 20
0.225116
 30
0.0
 11
0.043899
 21
0.210896
 31
0.0
  0
SPLINE
  5
2a0
100
AcDbEntity
  8
Layer_1
 62
1
100
AcDbSpline
 70
0
 71
3
 72
40
 73
36
 74
34
 40
0.000000
 40
0.000000
 40
0.000000
 40
0.000000
 40
0.001784
 40
0.003798
 40
0.006111
 40
0.007415
 40
0.008920
 40
0.010158
 40
0.011712
 40
0.013272
 40
0.015888
 40
0.017531
 40
0.019062
 40
0.020680
 40
0.022464
 40
0.024538
 40
0.026703
 40
0.028410
 40
0.030250
 40
0.032743
 40
0.034392
 40
0.035627
 40
0.036726
 40
0.037875
 40
0.038964
 40
0.040208
 40
0.041533
 40
0.042663
 40
0.043788
 40
0.044838
 40
0.045967
 40
0.048127
 40
0.050848
 40
0.052035
 40
0.053174
 40
0.053174
 40
0.053174
 40
0.053174
 10
0.209857
 20
0.126493
 30
0.0
 10
0.209300
 20
0.126711
 30
0.0
 10
0.208115
 20
0.127175
 30
0.0
 10
0.206116
 20
0.127475
 30
0.0
 10
0.204192
 20
0.127893
 30
0.0
 10
0.202603
 20
0.127212
 30
0.0
 10
0.201204
 20
0.127017
 30
0.0
 10
0.200238
 20
0.125900
 30
0.0
 10
0.198995
 20
0.125058
 30
0.0
 10
0.198511
 20
0.123104
 30
0.0
 10
0.198387
 20
0.121203
 30
0.0
 10
0.197960
 20
0.119295
 30
0.0
 10
0.198258
 20
0.117681
 30
0.0
 10
0.199080
 20
0.116238
 30
0.0
 10
0.200340
 20
0.114880
 30
0.0
 10
0.202133
 20
0.113937
 30
0.0
 10
0.203880
 20
0.113009
 30
0.0
 10
0.205541
 20
0.112084
 30
0.0
 10
0.207301
 20
0.111074
 30
0.0
 10
0.208904
 20
0.110002
 30
0.0
 10
0.210435
 20
0.108762
 30
0.0
 10
0.210286
 20
0.107307
 30
0.0
 10
0.209805
 20
0.106289
 30
0.0
 10
0.209624
 20
0.105080
 30
0.0
 10
0.208434
 20
0.104603
 30
0.0
 10
0.207282
 20
0.104363
 30
0.0
 10
0.205980
 20
0.104288
 30
0.0
 10
0.204965
 20
0.104975
 30
0.0
 10
0.204001
 20
0.105509
 30
0.0
 10
0.203219
 20
0.106292
 30
0.0
 10
0.202250
 20
0.107402
 30
0.0
 10
0.201778
 20
0.109307
 30
0.0
 10
0.201097
 20
0.111610
 30
0.0
 10
0.199305
 20
0.111855
 30
0.0
 10
0.198540
 20
0.111792
 30
0.0
 10
0.198165
 20
0.111761
 30
0.0
 11
0.209857
 21
0.126493
 31
0.0
 11
0.208174
 21
0.127086
 31
0.0
 11
0.206200
 21
0.127484
 31
0.0
 11
0.203894
 21
0.127662
 31
0.0
 11
0.202644
 21
0.127290
 31
0.0
 11
0.201212
 21
0.126830
 31
0.0
 11
0.200276
 21
0.126019
 31
0.0
 11
0.199153
 21
0.124945
 31
0.0
 11
0.198637
 21
0.123472
 31
0.0
 11
0.198282
 21
0.120881
 31
0.0
 11
0.198068
 21
0.119252
 31
0.0
 11
0.198330
 21
0.117743
 31
0.0
 11
0.199101
 21
0.116321
 31
0.0
 11
0.200329
 21
0.115027
 31
0.0
 11
0.202102
 21
0.113952
 31
0.0
 11
0.204011
 21
0.112930
 31
0.0
 11
0.205503
 21
0.112101
 31
0.0
 11
0.207093
 21
0.111174
 31
0.0
 11
0.209155
 21
0.109774
 31
0.0
 11
0.210249
 21
0.108540
 31
0.0
 11
0.210215
 21
0.107305
 31
0.0
 11
0.209857
 21
0.106266
 31
0.0
 11
0.209451
 21
0.105191
 31
0.0
 11
0.208501
 21
0.104661
 31
0.0
 11
0.207285
 21
0.104395
 31
0.0
 11
0.205961
 21
0.104436
 31
0.0
 11
0.204959
 21
0.104959
 31
0.0
 11
0.204011
 21
0.105565
 31
0.0
 11
0.203245
 21
0.106282
 31
0.0
 11
0.202536
 21
0.107162
 31
0.0
 11
0.201790
 21
0.109189
 31
0.0
 11
0.200465
 21
0.111565
 31
0.0
 11
0.199304
 21
0.111811
 31
0.0
 11
0.198165
 21
0.111761
 31
0.0
  0
LINE
  5
2a1
100
AcDbEntity
  8
Layer_1
 62
1
100
AcDbLine
 10
0.145075
 20
0.230159
 30
0.0
 11
0.145075
 21
0.230159
 31
0.0
  0
SPLINE
  5
2a2
100
AcDbEntity
  8
Layer_1
 62
1
100
AcDbSpline
 70
0
 71
3
 72
19
 73
15
 74
13
 40
0.000000
 40
0.000000
 40
0.000000
 40
0.000000
 40
0.005667
 40
0.011238
 40
0.017055
 40
0.022871
 40
0.028442
 40
0.034109
 40
0.039776
 40
0.045348
 40
0.051164
 40
0.056980
 40
0.062552
 40
0.068218
 40
0.068218
 40
0.068218
 40
0.068218
 10
0.145075
 20
0.230159
 30
0.0
 10
0.144764
 20
0.228248
 30
0.0
 10
0.144149
 20
0.224458
 30
0.0
 10
0.139688
 20
0.220342
 30
0.0
 10
0.133939
 20
0.218833
 30
0.0
 10
0.128127
 20
0.220342
 30
0.0
 10
0.123850
 20
0.224458
 30
0.0
 10
0.122244
 20
0.230159
 30
0.0
 10
0.123850
 20
0.235859
 30
0.0
 10
0.128127
 20
0.239975
 30
0.0
 10
0.133939
 20
0.241484
 30
0.0
 10
0.139688
 20
0.239975
 30
0.0
 10
0.144149
 20
0.235859
 30
0.0
 10
0.144764
 20
0.232070
 30
0.0
 10
0.145075
 20
0.230159
 30
0.0
 11
0.145075
 21
0.230159
 31
0.0
 11
0.143553
 21
0.224700
 31
0.0
 11
0.139554
 21
0.220820
 31
0.0
 11
0.133929
 21
0.219343
 31
0.0
 11
0.128303
 21
0.220820
 31
0.0
 11
0.124304
 21
0.224700
 31
0.0
 11
0.122783
 21
0.230159
 31
0.0
 11
0.124304
 21
0.235617
 31
0.0
 11
0.128303
 21
0.239497
 31
0.0
 11
0.133929
 21
0.240974
 31
0.0
 11
0.139554
 21
0.239497
 31
0.0
 11
0.143553
 21
0.235617
 31
0.0
 11
0.145075
 21
0.230159
 31
0.0
  0
ENDSEC
  0
SECTION
  2
OBJECTS
  0
DICTIONARY
  5
C
330
0
100
AcDbDictionary
  3
ACAD_GROUP
350
D
  3
ACAD_MLINESTYLE
350
17
  0
DICTIONARY
  5
D
330
C
100
AcDbDictionary
  0
DICTIONARY
  5
1A
330
C
100
AcDbDictionary
  0
DICTIONARY
  5
17
330
C
100
AcDbDictionary
  3
STANDARD
350
18
  0
DICTIONARY
  5
19
330
C
100
AcDbDictionary
  0
ENDSEC
  0
EOF
