  0
SECTION
  2
HEADER
  9
$ACADVER
  1
AC1014
  9
$HANDSEED
  5
FFFF
  9
$MEASUREMENT
 70
     1
  0
ENDSEC
  0
SECTION
  2
TABLES
  0
TABLE
  2
VPORT
  5
8
330
0
100
AcDbSymbolTable
 70
     4
  0
VPORT
  5
2E
330
8
100
AcDbSymbolTableRecord
100
AcDbViewportTableRecord
  2
*ACTIVE
 70
     0
 10
0.0
 20
0.0
 11
1.0
 21
1.0
 12
210.0
 22
148.5
 13
0.0
 23
0.0
 14
10.0
 24
10.0
 15
10.0
 25
10.0
 16
0.0
 26
0.0
 36
1.0
 17
0.0
 27
0.0
 37
0.0
 40
341.0
 41
1.24
 42
50.0
 43
0.0
 44
0.0
 50
0.0
 51
0.0
 71
     0
 72
   100
 73
     1
 74
     3
 75
     0
 76
     0
 77
     0
 78
     0
  0
ENDTAB
  0
TABLE
  2
LTYPE
  5
5
330
0
100
AcDbSymbolTable
 70
     1
  0
LTYPE
  5
14
330
5
100
AcDbSymbolTableRecord
100
AcDbLinetypeTableRecord
  2
BYBLOCK
 70
     0
  3

 72
    65
 73
     0
 40
0.0
  0
LTYPE
  5
15
330
5
100
AcDbSymbolTableRecord
100
AcDbLinetypeTableRecord
  2
BYLAYER
 70
     0
  3

 72
    65
 73
     0
 40
0.0
  0
LTYPE
  5
16
330
5
100
AcDbSymbolTableRecord
100
AcDbLinetypeTableRecord
  2
CONTINUOUS
 70
     0
  3
Solid line
 72
    65
 73
     0
 40
0.0
  0
ENDTAB
  0
TABLE
  2
LAYER
  5
2
100
AcDbSymbolTable
 70
2
  0
LAYER
  5
50
100
AcDbSymbolTableRecord
100
AcDbLayerTableRecord
  2
0
 70
0
  6
CONTINUOUS
  0
LAYER
  5
51
100
AcDbSymbolTableRecord
100
AcDbLayerTableRecord
  2
Layer_1
 70
0
  6
CONTINUOUS
  0
ENDTAB
  0
TABLE
  2
STYLE
  5
3
330
0
100
AcDbSymbolTable
 70
     1
  0
STYLE
  5
11
330
3
100
AcDbSymbolTableRecord
100
AcDbTextStyleTableRecord
  2
STANDARD
 70
     0
 40
0.0
 41
1.0
 50
0.0
 71
     0
 42
2.5
  3
txt
  4

  0
ENDTAB
  0
TABLE
  2
VIEW
  5
6
330
0
100
AcDbSymbolTable
 70
     0
  0
ENDTAB
  0
TABLE
  2
UCS
  5
7
330
0
100
AcDbSymbolTable
 70
     0
  0
ENDTAB
  0
TABLE
  2
APPID
  5
9
330
0
100
AcDbSymbolTable
 70
     2
  0
APPID
  5
12
330
9
100
AcDbSymbolTableRecord
100
AcDbRegAppTableRecord
  2
ACAD
 70
     0
  0
ENDTAB
  0
TABLE
  2
DIMSTYLE
  5
A
330
0
100
AcDbSymbolTable
 70
     1
  0
DIMSTYLE
105
27
330
A
100
AcDbSymbolTableRecord
100
AcDbDimStyleTableRecord
  2
ISO-25
 70
     0
  3

  4

  5

  6

  7

 40
1.0
 41
2.5
 42
0.625
 43
3.75
 44
1.25
 45
0.0
 46
0.0
 47
0.0
 48
0.0
140
2.5
141
2.5
142
0.0
143
0.03937007874016
144
1.0
145
0.0
146
1.0
147
0.625
 71
     0
 72
     0
 73
     0
 74
     0
 75
     0
 76
     0
 77
     1
 78
     8
170
     0
171
     3
172
     1
173
     0
174
     0
175
     0
176
     0
177
     0
178
     0
270
     2
271
     2
272
     2
273
     2
274
     3
340
11
275
     0
280
     0
281
     0
282
     0
283
     0
284
     8
285
     0
286
     0
287
     3
288
     0
  0
ENDTAB
  0
TABLE
  2
BLOCK_RECORD
  5
1
330
0
100
AcDbSymbolTable
 70
     1
  0
BLOCK_RECORD
  5
1F
330
1
100
AcDbSymbolTableRecord
100
AcDbBlockTableRecord
  2
*MODEL_SPACE
  0
BLOCK_RECORD
  5
1B
330
1
100
AcDbSymbolTableRecord
100
AcDbBlockTableRecord
  2
*PAPER_SPACE
  0
ENDTAB
  0
ENDSEC
  0
SECTION
  2
BLOCKS
  0
BLOCK
  5
20
330
1F
100
AcDbEntity
  8
0
100
AcDbBlockBegin
  2
*MODEL_SPACE
 70
     0
 10
0.0
 20
0.0
 30
0.0
  3
*MODEL_SPACE
  1

  0
ENDBLK
  5
21
330
1F
100
AcDbEntity
  8
0
100
AcDbBlockEnd
  0
BLOCK
  5
1C
330
1B
100
AcDbEntity
 67
     1
  8
0
100
AcDbBlockBegin
  2
*PAPER_SPACE
  1

  0
ENDBLK
  5
1D
330
1B
100
AcDbEntity
 67
     1
  8
0
100
AcDbBlockEnd
  0
ENDSEC
  0
SECTION
  2
ENTITIES
  0
LINE
  5
100
100
AcDbEntity
  8
Layer_1
 62
1
100
AcDbLine
 10
161.787240
 20
162.584880
 30
0.0
 11
161.787240
 21
150.423420
 31
0.0
  0
LINE
  5
101
100
AcDbEntity
  8
Layer_1
 62
1
100
AcDbLine
 10
161.787240
 20
150.423420
 30
0.0
 11
149.623580
 21
150.423420
 31
0.0
  0
LINE
  5
102
100
AcDbEntity
  8
Layer_1
 62
1
100
AcDbLine
 10
149.623580
 20
150.423420
 30
0.0
 11
149.623580
 21
147.423710
 31
0.0
  0
LINE
  5
103
100
AcDbEntity
  8
Layer_1
 62
1
100
AcDbLine
 10
149.623580
 20
147.423710
 30
0.0
 11
161.787240
 21
147.423710
 31
0.0
  0
LINE
  5
104
100
AcDbEntity
  8
Layer_1
 62
1
100
AcDbLine
 10
161.787240
 20
147.423710
 30
0.0
 11
161.787240
 21
147.139280
 31
0.0
  0
LINE
  5
105
100
AcDbEntity
  8
Layer_1
 62
1
100
AcDbLine
 10
161.787240
 20
147.139280
 30
0.0
 11
161.787240
 21
135.260590
 31
0.0
  0
LINE
  5
106
100
AcDbEntity
  8
Layer_1
 62
1
100
AcDbLine
 10
161.787240
 20
135.260590
 30
0.0
 11
164.786960
 21
135.260590
 31
0.0
  0
LINE
  5
107
100
AcDbEntity
  8
Layer_1
 62
1
100
AcDbLine
 10
164.786960
 20
135.260590
 30
0.0
 11
164.786960
 21
147.139280
 31
0.0
  0
LINE
  5
108
100
AcDbEntity
  8
Layer_1
 62
1
100
AcDbLine
 10
164.786960
 20
147.139280
 30
0.0
 11
164.786960
 21
147.423710
 31
0.0
  0
LINE
  5
109
100
AcDbEntity
  8
Layer_1
 62
1
100
AcDbLine
 10
164.786960
 20
147.423710
 30
0.0
 11
165.069180
 21
147.423710
 31
0.0
  0
LINE
  5
10a
100
AcDbEntity
  8
Layer_1
 62
1
100
AcDbLine
 10
165.069180
 20
147.423710
 30
0.0
 11
176.947880
 21
147.423710
 31
0.0
  0
LINE
  5
10b
100
AcDbEntity
  8
Layer_1
 62
1
100
AcDbLine
 10
176.947880
 20
147.423710
 30
0.0
 11
176.947880
 21
150.423420
 31
0.0
  0
LINE
  5
10c
100
AcDbEntity
  8
Layer_1
 62
1
100
AcDbLine
 10
176.947880
 20
150.423420
 30
0.0
 11
165.069180
 21
150.423420
 31
0.0
  0
LINE
  5
10d
100
AcDbEntity
  8
Layer_1
 62
1
100
AcDbLine
 10
165.069180
 20
150.423420
 30
0.0
 11
164.786960
 21
150.423420
 31
0.0
  0
LINE
  5
10e
100
AcDbEntity
  8
Layer_1
 62
1
100
AcDbLine
 10
164.786960
 20
150.423420
 30
0.0
 11
164.786960
 21
162.584880
 31
0.0
  0
LINE
  5
10f
100
AcDbEntity
  8
Layer_1
 62
1
100
AcDbLine
 10
164.786960
 20
162.584880
 30
0.0
 11
161.787240
 21
162.584880
 31
0.0
  0
LINE
  5
110
100
AcDbEntity
  8
Layer_1
 62
1
100
AcDbLine
 10
46.716550
 20
173.728690
 30
0.0
 11
55.417210
 21
171.998020
 31
0.0
  0
LINE
  5
111
100
AcDbEntity
  8
Layer_1
 62
1
100
AcDbLine
 10
55.417210
 20
171.998020
 30
0.0
 11
54.831940
 21
169.055670
 31
0.0
  0
LINE
  5
112
100
AcDbEntity
  8
Layer_1
 62
1
100
AcDbLine
 10
54.831940
 20
169.055670
 30
0.0
 11
46.131280
 21
170.786340
 31
0.0
  0
LINE
  5
113
100
AcDbEntity
  8
Layer_1
 62
1
100
AcDbLine
 10
46.131280
 20
170.786340
 30
0.0
 11
46.716550
 21
173.728690
 31
0.0
  0
SPLINE
  5
114
100
AcDbEntity
  8
Layer_1
 62
1
100
AcDbSpline
 70
8
 71
3
 72
8
 73
4
 74
0
 40
0
 40
0
 40
0
 40
0
 40
1
 40
1
 40
1
 40
1
 10
43.039990
 20
172.929450
 30
0.0
 10
42.959792
 20
172.526263
 30
0.0
 10
42.722713
 20
172.171448
 30
0.0
 10
42.380908
 20
171.943060
 30
0.0
  0
SPLINE
  5
115
100
AcDbEntity
  8
Layer_1
 62
1
100
AcDbSpline
 70
8
 71
3
 72
8
 73
4
 74
0
 40
0
 40
0
 40
0
 40
0
 40
1
 40
1
 40
1
 40
1
 10
42.380908
 20
171.943060
 30
0.0
 10
42.039102
 20
171.714673
 30
0.0
 10
41.620570
 20
171.631421
 30
0.0
 10
41.217383
 20
171.711620
 30
0.0
  0
SPLINE
  5
116
100
AcDbEntity
  8
Layer_1
 62
1
100
AcDbSpline
 70
8
 71
3
 72
8
 73
4
 74
0
 40
0
 40
0
 40
0
 40
0
 40
1
 40
1
 40
1
 40
1
 10
41.217383
 20
171.711620
 30
0.0
 10
40.814196
 20
171.791819
 30
0.0
 10
40.459381
 20
172.028899
 30
0.0
 10
40.230994
 20
172.370704
 30
0.0
  0
SPLINE
  5
117
100
AcDbEntity
  8
Layer_1
 62
1
100
AcDbSpline
 70
8
 71
3
 72
8
 73
4
 74
0
 40
0
 40
0
 40
0
 40
0
 40
1
 40
1
 40
1
 40
1
 10
40.230994
 20
172.370704
 30
0.0
 10
40.002607
 20
172.712510
 30
0.0
 10
39.919356
 20
173.131043
 30
0.0
 10
39.999556
 20
173.534230
 30
0.0
  0
SPLINE
  5
118
100
AcDbEntity
  8
Layer_1
 62
1
100
AcDbSpline
 70
8
 71
3
 72
8
 73
4
 74
0
 40
0
 40
0
 40
0
 40
0
 40
1
 40
1
 40
1
 40
1
 10
39.999556
 20
173.534230
 30
0.0
 10
40.166565
 20
174.373820
 30
0.0
 10
40.982573
 20
174.919056
 30
0.0
 10
41.822163
 20
174.752050
 30
0.0
  0
SPLINE
  5
119
100
AcDbEntity
  8
Layer_1
 62
1
100
AcDbSpline
 70
8
 71
3
 72
8
 73
4
 74
0
 40
0
 40
0
 40
0
 40
0
 40
1
 40
1
 40
1
 40
1
 10
41.822163
 20
174.752050
 30
0.0
 10
42.661752
 20
174.585045
 30
0.0
 10
43.206991
 20
173.769040
 30
0.0
 10
43.039990
 20
172.929450
 30
0.0
  0
LINE
  5
11a
100
AcDbEntity
  8
Layer_1
 62
1
100
AcDbLine
 10
43.039990
 20
172.929450
 30
0.0
 11
43.039990
 21
172.929450
 31
0.0
  0
LINE
  5
11b
100
AcDbEntity
  8
Layer_1
 62
1
100
AcDbLine
 10
65.082710
 20
216.449529
 30
0.0
 11
72.458780
 21
211.521001
 31
0.0
  0
LINE
  5
11c
100
AcDbEntity
  8
Layer_1
 62
1
100
AcDbLine
 10
72.458780
 20
211.521001
 30
0.0
 11
70.792070
 21
209.026596
 31
0.0
  0
LINE
  5
11d
100
AcDbEntity
  8
Layer_1
 62
1
100
AcDbLine
 10
70.792070
 20
209.026596
 30
0.0
 11
63.416010
 21
213.955125
 31
0.0
  0
LINE
  5
11e
100
AcDbEntity
  8
Layer_1
 62
1
100
AcDbLine
 10
63.416010
 20
213.955125
 30
0.0
 11
65.082710
 21
216.449529
 31
0.0
  0
SPLINE
  5
11f
100
AcDbEntity
  8
Layer_1
 62
1
100
AcDbSpline
 70
8
 71
3
 72
8
 73
4
 74
0
 40
0
 40
0
 40
0
 40
0
 40
1
 40
1
 40
1
 40
1
 10
61.380154
 20
217.118085
 30
0.0
 10
61.151767
 20
216.776280
 30
0.0
 10
60.796953
 20
216.539200
 30
0.0
 10
60.393766
 20
216.459001
 30
0.0
  0
SPLINE
  5
120
100
AcDbEntity
  8
Layer_1
 62
1
100
AcDbSpline
 70
8
 71
3
 72
8
 73
4
 74
0
 40
0
 40
0
 40
0
 40
0
 40
1
 40
1
 40
1
 40
1
 10
60.393766
 20
216.459001
 30
0.0
 10
59.990579
 20
216.378803
 30
0.0
 10
59.572047
 20
216.462054
 30
0.0
 10
59.230242
 20
216.690441
 30
0.0
  0
SPLINE
  5
121
100
AcDbEntity
  8
Layer_1
 62
1
100
AcDbSpline
 70
8
 71
3
 72
8
 73
4
 74
0
 40
0
 40
0
 40
0
 40
0
 40
1
 40
1
 40
1
 40
1
 10
59.230242
 20
216.690441
 30
0.0
 10
58.888437
 20
216.918828
 30
0.0
 10
58.651357
 20
217.273642
 30
0.0
 10
58.571158
 20
217.676829
 30
0.0
  0
SPLINE
  5
122
100
AcDbEntity
  8
Layer_1
 62
1
100
AcDbSpline
 70
8
 71
3
 72
8
 73
4
 74
0
 40
0
 40
0
 40
0
 40
0
 40
1
 40
1
 40
1
 40
1
 10
58.571158
 20
217.676829
 30
0.0
 10
58.490960
 20
218.080016
 30
0.0
 10
58.574211
 20
218.498548
 30
0.0
 10
58.802598
 20
218.840353
 30
0.0
  0
SPLINE
  5
123
100
AcDbEntity
  8
Layer_1
 62
1
100
AcDbSpline
 70
8
 71
3
 72
8
 73
4
 74
0
 40
0
 40
0
 40
0
 40
0
 40
1
 40
1
 40
1
 40
1
 10
58.802598
 20
218.840353
 30
0.0
 10
59.030985
 20
219.182158
 30
0.0
 10
59.385799
 20
219.419238
 30
0.0
 10
59.788986
 20
219.499437
 30
0.0
  0
SPLINE
  5
124
100
AcDbEntity
  8
Layer_1
 62
1
100
AcDbSpline
 70
8
 71
3
 72
8
 73
4
 74
0
 40
0
 40
0
 40
0
 40
0
 40
1
 40
1
 40
1
 40
1
 10
59.788986
 20
219.499437
 30
0.0
 10
60.192173
 20
219.579635
 30
0.0
 10
60.610705
 20
219.496384
 30
0.0
 10
60.952510
 20
219.267997
 30
0.0
  0
SPLINE
  5
125
100
AcDbEntity
  8
Layer_1
 62
1
100
AcDbSpline
 70
8
 71
3
 72
8
 73
4
 74
0
 40
0
 40
0
 40
0
 40
0
 40
1
 40
1
 40
1
 40
1
 10
60.952510
 20
219.267997
 30
0.0
 10
61.294315
 20
219.039610
 30
0.0
 10
61.531395
 20
218.684796
 30
0.0
 10
61.611594
 20
218.281609
 30
0.0
  0
SPLINE
  5
126
100
AcDbEntity
  8
Layer_1
 62
1
100
AcDbSpline
 70
8
 71
3
 72
8
 73
4
 74
0
 40
0
 40
0
 40
0
 40
0
 40
1
 40
1
 40
1
 40
1
 10
61.611594
 20
218.281609
 30
0.0
 10
61.691792
 20
217.878422
 30
0.0
 10
61.608541
 20
217.459890
 30
0.0
 10
61.380154
 20
217.118085
 30
0.0
  0
LINE
  5
127
100
AcDbEntity
  8
Layer_1
 62
1
100
AcDbLine
 10
61.380154
 20
217.118085
 30
0.0
 11
61.380154
 21
217.118085
 31
0.0
  0
LINE
  5
128
100
AcDbEntity
  8
Layer_1
 62
1
100
AcDbLine
 10
98.399390
 20
248.890010
 30
0.0
 11
103.327920
 21
241.513948
 31
0.0
  0
LINE
  5
129
100
AcDbEntity
  8
Layer_1
 62
1
100
AcDbLine
 10
103.327920
 20
241.513948
 30
0.0
 11
100.833520
 21
239.847242
 31
0.0
  0
LINE
  5
12a
100
AcDbEntity
  8
Layer_1
 62
1
100
AcDbLine
 10
100.833520
 20
239.847242
 30
0.0
 11
95.904990
 21
247.223302
 31
0.0
  0
LINE
  5
12b
100
AcDbEntity
  8
Layer_1
 62
1
100
AcDbLine
 10
95.904990
 20
247.223302
 30
0.0
 11
98.399390
 21
248.890010
 31
0.0
  0
SPLINE
  5
12c
100
AcDbEntity
  8
Layer_1
 62
1
100
AcDbSpline
 70
8
 71
3
 72
8
 73
4
 74
0
 40
0
 40
0
 40
0
 40
0
 40
1
 40
1
 40
1
 40
1
 10
95.234518
 20
250.924575
 30
0.0
 10
94.892713
 20
250.696188
 30
0.0
 10
94.474181
 20
250.612937
 30
0.0
 10
94.070994
 20
250.693135
 30
0.0
  0
SPLINE
  5
12d
100
AcDbEntity
  8
Layer_1
 62
1
100
AcDbSpline
 70
8
 71
3
 72
8
 73
4
 74
0
 40
0
 40
0
 40
0
 40
0
 40
1
 40
1
 40
1
 40
1
 10
94.070994
 20
250.693135
 30
0.0
 10
93.667807
 20
250.773334
 30
0.0
 10
93.312993
 20
251.010414
 30
0.0
 10
93.084606
 20
251.352219
 30
0.0
  0
SPLINE
  5
12e
100
AcDbEntity
  8
Layer_1
 62
1
100
AcDbSpline
 70
8
 71
3
 72
8
 73
4
 74
0
 40
0
 40
0
 40
0
 40
0
 40
1
 40
1
 40
1
 40
1
 10
93.084606
 20
251.352219
 30
0.0
 10
92.856219
 20
251.694024
 30
0.0
 10
92.772968
 20
252.112556
 30
0.0
 10
92.853166
 20
252.515743
 30
0.0
  0
SPLINE
  5
12f
100
AcDbEntity
  8
Layer_1
 62
1
100
AcDbSpline
 70
8
 71
3
 72
8
 73
4
 74
0
 40
0
 40
0
 40
0
 40
0
 40
1
 40
1
 40
1
 40
1
 10
92.853166
 20
252.515743
 30
0.0
 10
92.933365
 20
252.918930
 30
0.0
 10
93.170445
 20
253.273744
 30
0.0
 10
93.512250
 20
253.502131
 30
0.0
  0
SPLINE
  5
130
100
AcDbEntity
  8
Layer_1
 62
1
100
AcDbSpline
 70
8
 71
3
 72
8
 73
4
 74
0
 40
0
 40
0
 40
0
 40
0
 40
1
 40
1
 40
1
 40
1
 10
93.512250
 20
253.502131
 30
0.0
 10
93.854055
 20
253.730518
 30
0.0
 10
94.272587
 20
253.813769
 30
0.0
 10
94.675774
 20
253.733571
 30
0.0
  0
SPLINE
  5
131
100
AcDbEntity
  8
Layer_1
 62
1
100
AcDbSpline
 70
8
 71
3
 72
8
 73
4
 74
0
 40
0
 40
0
 40
0
 40
0
 40
1
 40
1
 40
1
 40
1
 10
94.675774
 20
253.733571
 30
0.0
 10
95.078961
 20
253.653372
 30
0.0
 10
95.433775
 20
253.416292
 30
0.0
 10
95.662162
 20
253.074487
 30
0.0
  0
SPLINE
  5
132
100
AcDbEntity
  8
Layer_1
 62
1
100
AcDbSpline
 70
8
 71
3
 72
8
 73
4
 74
0
 40
0
 40
0
 40
0
 40
0
 40
1
 40
1
 40
1
 40
1
 10
95.662162
 20
253.074487
 30
0.0
 10
95.890549
 20
252.732682
 30
0.0
 10
95.973800
 20
252.314150
 30
0.0
 10
95.893602
 20
251.910963
 30
0.0
  0
SPLINE
  5
133
100
AcDbEntity
  8
Layer_1
 62
1
100
AcDbSpline
 70
8
 71
3
 72
8
 73
4
 74
0
 40
0
 40
0
 40
0
 40
0
 40
1
 40
1
 40
1
 40
1
 10
95.893602
 20
251.910963
 30
0.0
 10
95.813403
 20
251.507776
 30
0.0
 10
95.576323
 20
251.152962
 30
0.0
 10
95.234518
 20
250.924575
 30
0.0
  0
LINE
  5
134
100
AcDbEntity
  8
Layer_1
 62
1
100
AcDbLine
 10
95.234518
 20
250.924575
 30
0.0
 11
95.234518
 21
250.924575
 31
0.0
  0
LINE
  5
135
100
AcDbEntity
  8
Layer_1
 62
1
100
AcDbLine
 10
141.594420
 20
266.111371
 30
0.0
 11
143.325100
 21
257.410712
 31
0.0
  0
LINE
  5
136
100
AcDbEntity
  8
Layer_1
 62
1
100
AcDbLine
 10
143.325100
 20
257.410712
 30
0.0
 11
140.382750
 21
256.825441
 31
0.0
  0
LINE
  5
137
100
AcDbEntity
  8
Layer_1
 62
1
100
AcDbLine
 10
140.382750
 20
256.825441
 30
0.0
 11
138.652080
 21
265.526102
 31
0.0
  0
LINE
  5
138
100
AcDbEntity
  8
Layer_1
 62
1
100
AcDbLine
 10
138.652080
 20
265.526102
 30
0.0
 11
141.594420
 21
266.111371
 31
0.0
  0
SPLINE
  5
139
100
AcDbEntity
  8
Layer_1
 62
1
100
AcDbSpline
 70
8
 71
3
 72
8
 73
4
 74
0
 40
0
 40
0
 40
0
 40
0
 40
1
 40
1
 40
1
 40
1
 10
139.449060
 20
269.202204
 30
0.0
 10
139.045873
 20
269.122004
 30
0.0
 10
138.627340
 20
269.205255
 30
0.0
 10
138.285534
 20
269.433642
 30
0.0
  0
SPLINE
  5
13a
100
AcDbEntity
  8
Layer_1
 62
1
100
AcDbSpline
 70
8
 71
3
 72
8
 73
4
 74
0
 40
0
 40
0
 40
0
 40
0
 40
1
 40
1
 40
1
 40
1
 10
138.285534
 20
269.433642
 30
0.0
 10
137.943728
 20
269.662029
 30
0.0
 10
137.706649
 20
270.016845
 30
0.0
 10
137.626450
 20
270.420032
 30
0.0
  0
SPLINE
  5
13b
100
AcDbEntity
  8
Layer_1
 62
1
100
AcDbSpline
 70
8
 71
3
 72
8
 73
4
 74
0
 40
0
 40
0
 40
0
 40
0
 40
1
 40
1
 40
1
 40
1
 10
137.626450
 20
270.420032
 30
0.0
 10
137.546251
 20
270.823219
 30
0.0
 10
137.629503
 20
271.241751
 30
0.0
 10
137.857891
 20
271.583556
 30
0.0
  0
SPLINE
  5
13c
100
AcDbEntity
  8
Layer_1
 62
1
100
AcDbSpline
 70
8
 71
3
 72
8
 73
4
 74
0
 40
0
 40
0
 40
0
 40
0
 40
1
 40
1
 40
1
 40
1
 10
137.857891
 20
271.583556
 30
0.0
 10
138.086278
 20
271.925361
 30
0.0
 10
138.441093
 20
272.162440
 30
0.0
 10
138.844280
 20
272.242638
 30
0.0
  0
SPLINE
  5
13d
100
AcDbEntity
  8
Layer_1
 62
1
100
AcDbSpline
 70
8
 71
3
 72
8
 73
4
 74
0
 40
0
 40
0
 40
0
 40
0
 40
1
 40
1
 40
1
 40
1
 10
138.844280
 20
272.242638
 30
0.0
 10
139.247467
 20
272.322838
 30
0.0
 10
139.666000
 20
272.239587
 30
0.0
 10
140.007805
 20
272.011200
 30
0.0
  0
SPLINE
  5
13e
100
AcDbEntity
  8
Layer_1
 62
1
100
AcDbSpline
 70
8
 71
3
 72
8
 73
4
 74
0
 40
0
 40
0
 40
0
 40
0
 40
1
 40
1
 40
1
 40
1
 10
140.007805
 20
272.011200
 30
0.0
 10
140.349611
 20
271.782814
 30
0.0
 10
140.586691
 20
271.427999
 30
0.0
 10
140.666890
 20
271.024812
 30
0.0
  0
SPLINE
  5
13f
100
AcDbEntity
  8
Layer_1
 62
1
100
AcDbSpline
 70
8
 71
3
 72
8
 73
4
 74
0
 40
0
 40
0
 40
0
 40
0
 40
1
 40
1
 40
1
 40
1
 10
140.666890
 20
271.024812
 30
0.0
 10
140.747089
 20
270.621625
 30
0.0
 10
140.663838
 20
270.203092
 30
0.0
 10
140.435450
 20
269.861287
 30
0.0
  0
SPLINE
  5
140
100
AcDbEntity
  8
Layer_1
 62
1
100
AcDbSpline
 70
8
 71
3
 72
8
 73
4
 74
0
 40
0
 40
0
 40
0
 40
0
 40
1
 40
1
 40
1
 40
1
 10
140.435450
 20
269.861287
 30
0.0
 10
140.207063
 20
269.519481
 30
0.0
 10
139.852247
 20
269.282402
 30
0.0
 10
139.449060
 20
269.202204
 30
0.0
  0
LINE
  5
141
100
AcDbEntity
  8
Layer_1
 62
1
100
AcDbLine
 10
139.449060
 20
269.202204
 30
0.0
 11
139.449060
 21
269.202204
 31
0.0
  0
LINE
  5
142
100
AcDbEntity
  8
Layer_1
 62
1
100
AcDbLine
 10
188.091740
 20
265.491797
 30
0.0
 11
186.361070
 21
256.791135
 31
0.0
  0
LINE
  5
143
100
AcDbEntity
  8
Layer_1
 62
1
100
AcDbLine
 10
186.361070
 20
256.791135
 30
0.0
 11
183.418720
 21
257.376404
 31
0.0
  0
LINE
  5
144
100
AcDbEntity
  8
Layer_1
 62
1
100
AcDbLine
 10
183.418720
 20
257.376404
 30
0.0
 11
185.149390
 21
266.077065
 31
0.0
  0
LINE
  5
145
100
AcDbEntity
  8
Layer_1
 62
1
100
AcDbLine
 10
185.149390
 20
266.077065
 30
0.0
 11
188.091740
 21
265.491797
 31
0.0
  0
SPLINE
  5
146
100
AcDbEntity
  8
Layer_1
 62
1
100
AcDbSpline
 70
8
 71
3
 72
8
 73
4
 74
0
 40
0
 40
0
 40
0
 40
0
 40
1
 40
1
 40
1
 40
1
 10
187.292490
 20
269.168354
 30
0.0
 10
186.889303
 20
269.248552
 30
0.0
 10
186.534488
 20
269.485631
 30
0.0
 10
186.306100
 20
269.827436
 30
0.0
  0
SPLINE
  5
147
100
AcDbEntity
  8
Layer_1
 62
1
100
AcDbSpline
 70
8
 71
3
 72
8
 73
4
 74
0
 40
0
 40
0
 40
0
 40
0
 40
1
 40
1
 40
1
 40
1
 10
186.306100
 20
269.827436
 30
0.0
 10
186.077713
 20
270.169242
 30
0.0
 10
185.994461
 20
270.587774
 30
0.0
 10
186.074660
 20
270.990961
 30
0.0
  0
SPLINE
  5
148
100
AcDbEntity
  8
Layer_1
 62
1
100
AcDbSpline
 70
8
 71
3
 72
8
 73
4
 74
0
 40
0
 40
0
 40
0
 40
0
 40
1
 40
1
 40
1
 40
1
 10
186.074660
 20
270.990961
 30
0.0
 10
186.154859
 20
271.394148
 30
0.0
 10
186.391939
 20
271.748963
 30
0.0
 10
186.733745
 20
271.977349
 30
0.0
  0
SPLINE
  5
149
100
AcDbEntity
  8
Layer_1
 62
1
100
AcDbSpline
 70
8
 71
3
 72
8
 73
4
 74
0
 40
0
 40
0
 40
0
 40
0
 40
1
 40
1
 40
1
 40
1
 10
186.733745
 20
271.977349
 30
0.0
 10
187.075550
 20
272.205736
 30
0.0
 10
187.494083
 20
272.288987
 30
0.0
 10
187.897270
 20
272.208787
 30
0.0
  0
SPLINE
  5
14a
100
AcDbEntity
  8
Layer_1
 62
1
100
AcDbSpline
 70
8
 71
3
 72
8
 73
4
 74
0
 40
0
 40
0
 40
0
 40
0
 40
1
 40
1
 40
1
 40
1
 10
187.897270
 20
272.208787
 30
0.0
 10
188.300457
 20
272.128589
 30
0.0
 10
188.655272
 20
271.891510
 30
0.0
 10
188.883659
 20
271.549705
 30
0.0
  0
SPLINE
  5
14b
100
AcDbEntity
  8
Layer_1
 62
1
100
AcDbSpline
 70
8
 71
3
 72
8
 73
4
 74
0
 40
0
 40
0
 40
0
 40
0
 40
1
 40
1
 40
1
 40
1
 10
188.883659
 20
271.549705
 30
0.0
 10
189.112047
 20
271.207900
 30
0.0
 10
189.195299
 20
270.789368
 30
0.0
 10
189.115100
 20
270.386181
 30
0.0
  0
SPLINE
  5
14c
100
AcDbEntity
  8
Layer_1
 62
1
100
AcDbSpline
 70
8
 71
3
 72
8
 73
4
 74
0
 40
0
 40
0
 40
0
 40
0
 40
1
 40
1
 40
1
 40
1
 10
189.115100
 20
270.386181
 30
0.0
 10
189.034901
 20
269.982994
 30
0.0
 10
188.797822
 20
269.628179
 30
0.0
 10
188.456016
 20
269.399792
 30
0.0
  0
SPLINE
  5
14d
100
AcDbEntity
  8
Layer_1
 62
1
100
AcDbSpline
 70
8
 71
3
 72
8
 73
4
 74
0
 40
0
 40
0
 40
0
 40
0
 40
1
 40
1
 40
1
 40
1
 10
188.456016
 20
269.399792
 30
0.0
 10
188.114210
 20
269.171405
 30
0.0
 10
187.695677
 20
269.088154
 30
0.0
 10
187.292490
 20
269.168354
 30
0.0
  0
LINE
  5
14e
100
AcDbEntity
  8
Layer_1
 62
1
100
AcDbLine
 10
187.292490
 20
269.168354
 30
0.0
 11
187.292490
 21
269.168354
 31
0.0
  0
LINE
  5
14f
100
AcDbEntity
  8
Layer_1
 62
1
100
AcDbLine
 10
230.812580
 20
247.125636
 30
0.0
 11
225.884050
 21
239.749571
 31
0.0
  0
LINE
  5
150
100
AcDbEntity
  8
Layer_1
 62
1
100
AcDbLine
 10
225.884050
 20
239.749571
 30
0.0
 11
223.389650
 21
241.416277
 31
0.0
  0
LINE
  5
151
100
AcDbEntity
  8
Layer_1
 62
1
100
AcDbLine
 10
223.389650
 20
241.416277
 30
0.0
 11
228.318180
 21
248.792342
 31
0.0
  0
LINE
  5
152
100
AcDbEntity
  8
Layer_1
 62
1
100
AcDbLine
 10
228.318180
 20
248.792342
 30
0.0
 11
230.812580
 21
247.125636
 31
0.0
  0
SPLINE
  5
153
100
AcDbEntity
  8
Layer_1
 62
1
100
AcDbSpline
 70
8
 71
3
 72
8
 73
4
 74
0
 40
0
 40
0
 40
0
 40
0
 40
1
 40
1
 40
1
 40
1
 10
231.481100
 20
250.828196
 30
0.0
 10
231.139294
 20
251.056582
 30
0.0
 10
230.902213
 20
251.411396
 30
0.0
 10
230.822013
 20
251.814583
 30
0.0
  0
SPLINE
  5
154
100
AcDbEntity
  8
Layer_1
 62
1
100
AcDbSpline
 70
8
 71
3
 72
8
 73
4
 74
0
 40
0
 40
0
 40
0
 40
0
 40
1
 40
1
 40
1
 40
1
 10
230.822013
 20
251.814583
 30
0.0
 10
230.741813
 20
252.217769
 30
0.0
 10
230.825063
 20
252.636302
 30
0.0
 10
231.053450
 20
252.978108
 30
0.0
  0
SPLINE
  5
155
100
AcDbEntity
  8
Layer_1
 62
1
100
AcDbSpline
 70
8
 71
3
 72
8
 73
4
 74
0
 40
0
 40
0
 40
0
 40
0
 40
1
 40
1
 40
1
 40
1
 10
231.053450
 20
252.978108
 30
0.0
 10
231.281837
 20
253.319916
 30
0.0
 10
231.636653
 20
253.556997
 30
0.0
 10
232.039842
 20
253.637195
 30
0.0
  0
SPLINE
  5
156
100
AcDbEntity
  8
Layer_1
 62
1
100
AcDbSpline
 70
8
 71
3
 72
8
 73
4
 74
0
 40
0
 40
0
 40
0
 40
0
 40
1
 40
1
 40
1
 40
1
 10
232.039842
 20
253.637195
 30
0.0
 10
232.443030
 20
253.717394
 30
0.0
 10
232.861564
 20
253.634142
 30
0.0
 10
233.203370
 20
253.405752
 30
0.0
  0
SPLINE
  5
157
100
AcDbEntity
  8
Layer_1
 62
1
100
AcDbSpline
 70
8
 71
3
 72
8
 73
4
 74
0
 40
0
 40
0
 40
0
 40
0
 40
1
 40
1
 40
1
 40
1
 10
233.203370
 20
253.405752
 30
0.0
 10
233.545175
 20
253.177365
 30
0.0
 10
233.782253
 20
252.822550
 30
0.0
 10
233.862451
 20
252.419363
 30
0.0
  0
SPLINE
  5
158
100
AcDbEntity
  8
Layer_1
 62
1
100
AcDbSpline
 70
8
 71
3
 72
8
 73
4
 74
0
 40
0
 40
0
 40
0
 40
0
 40
1
 40
1
 40
1
 40
1
 10
233.862451
 20
252.419363
 30
0.0
 10
233.942649
 20
252.016176
 30
0.0
 10
233.859397
 20
251.597645
 30
0.0
 10
233.631010
 20
251.255840
 30
0.0
  0
SPLINE
  5
159
100
AcDbEntity
  8
Layer_1
 62
1
100
AcDbSpline
 70
8
 71
3
 72
8
 73
4
 74
0
 40
0
 40
0
 40
0
 40
0
 40
1
 40
1
 40
1
 40
1
 10
233.631010
 20
251.255840
 30
0.0
 10
233.155419
 20
250.544069
 30
0.0
 10
232.192872
 20
250.352606
 30
0.0
 10
231.481100
 20
250.828196
 30
0.0
  0
LINE
  5
15a
100
AcDbEntity
  8
Layer_1
 62
1
100
AcDbLine
 10
231.481100
 20
250.828196
 30
0.0
 11
231.481100
 21
250.828196
 31
0.0
  0
LINE
  5
15b
100
AcDbEntity
  8
Layer_1
 62
1
100
AcDbLine
 10
263.253060
 20
213.808959
 30
0.0
 11
255.877010
 21
208.880430
 31
0.0
  0
LINE
  5
15c
100
AcDbEntity
  8
Layer_1
 62
1
100
AcDbLine
 10
255.877010
 20
208.880430
 30
0.0
 11
254.210290
 21
211.374834
 31
0.0
  0
LINE
  5
15d
100
AcDbEntity
  8
Layer_1
 62
1
100
AcDbLine
 10
254.210290
 20
211.374834
 30
0.0
 11
261.586370
 21
216.303363
 31
0.0
  0
LINE
  5
15e
100
AcDbEntity
  8
Layer_1
 62
1
100
AcDbLine
 10
261.586370
 20
216.303363
 30
0.0
 11
263.253060
 21
213.808959
 31
0.0
  0
SPLINE
  5
15f
100
AcDbEntity
  8
Layer_1
 62
1
100
AcDbSpline
 70
8
 71
3
 72
8
 73
4
 74
0
 40
0
 40
0
 40
0
 40
0
 40
1
 40
1
 40
1
 40
1
 10
265.287610
 20
216.973826
 30
0.0
 10
265.059223
 20
217.315631
 30
0.0
 10
264.975971
 20
217.734162
 30
0.0
 10
265.056169
 20
218.137349
 30
0.0
  0
SPLINE
  5
160
100
AcDbEntity
  8
Layer_1
 62
1
100
AcDbSpline
 70
8
 71
3
 72
8
 73
4
 74
0
 40
0
 40
0
 40
0
 40
0
 40
1
 40
1
 40
1
 40
1
 10
265.056169
 20
218.137349
 30
0.0
 10
265.136367
 20
218.540536
 30
0.0
 10
265.373445
 20
218.895351
 30
0.0
 10
265.715250
 20
219.123738
 30
0.0
  0
SPLINE
  5
161
100
AcDbEntity
  8
Layer_1
 62
1
100
AcDbSpline
 70
8
 71
3
 72
8
 73
4
 74
0
 40
0
 40
0
 40
0
 40
0
 40
1
 40
1
 40
1
 40
1
 10
265.715250
 20
219.123738
 30
0.0
 10
266.427022
 20
219.599328
 30
0.0
 10
267.389569
 20
219.407865
 30
0.0
 10
267.865160
 20
218.696094
 30
0.0
  0
SPLINE
  5
162
100
AcDbEntity
  8
Layer_1
 62
1
100
AcDbSpline
 70
8
 71
3
 72
8
 73
4
 74
0
 40
0
 40
0
 40
0
 40
0
 40
1
 40
1
 40
1
 40
1
 10
267.865160
 20
218.696094
 30
0.0
 10
268.093547
 20
218.354289
 30
0.0
 10
268.176799
 20
217.935758
 30
0.0
 10
268.096601
 20
217.532571
 30
0.0
  0
SPLINE
  5
163
100
AcDbEntity
  8
Layer_1
 62
1
100
AcDbSpline
 70
8
 71
3
 72
8
 73
4
 74
0
 40
0
 40
0
 40
0
 40
0
 40
1
 40
1
 40
1
 40
1
 10
268.096601
 20
217.532571
 30
0.0
 10
268.016403
 20
217.129384
 30
0.0
 10
267.779325
 20
216.774569
 30
0.0
 10
267.437520
 20
216.546182
 30
0.0
  0
SPLINE
  5
164
100
AcDbEntity
  8
Layer_1
 62
1
100
AcDbSpline
 70
8
 71
3
 72
8
 73
4
 74
0
 40
0
 40
0
 40
0
 40
0
 40
1
 40
1
 40
1
 40
1
 10
267.437520
 20
216.546182
 30
0.0
 10
266.725748
 20
216.070592
 30
0.0
 10
265.763201
 20
216.262055
 30
0.0
 10
265.287610
 20
216.973826
 30
0.0
  0
LINE
  5
165
100
AcDbEntity
  8
Layer_1
 62
1
100
AcDbLine
 10
265.287610
 20
216.973826
 30
0.0
 11
265.287610
 21
216.973826
 31
0.0
  0
LINE
  5
166
100
AcDbEntity
  8
Layer_1
 62
1
100
AcDbLine
 10
280.474430
 20
170.613930
 30
0.0
 11
271.773770
 21
168.883250
 31
0.0
  0
LINE
  5
167
100
AcDbEntity
  8
Layer_1
 62
1
100
AcDbLine
 10
271.773770
 20
168.883250
 30
0.0
 11
271.188500
 21
171.825600
 31
0.0
  0
LINE
  5
168
100
AcDbEntity
  8
Layer_1
 62
1
100
AcDbLine
 10
271.188500
 20
171.825600
 30
0.0
 11
279.889160
 21
173.556270
 31
0.0
  0
LINE
  5
169
100
AcDbEntity
  8
Layer_1
 62
1
100
AcDbLine
 10
279.889160
 20
173.556270
 30
0.0
 11
280.474430
 21
170.613930
 31
0.0
  0
SPLINE
  5
16a
100
AcDbEntity
  8
Layer_1
 62
1
100
AcDbSpline
 70
8
 71
3
 72
8
 73
4
 74
0
 40
0
 40
0
 40
0
 40
0
 40
1
 40
1
 40
1
 40
1
 10
283.565270
 20
172.759280
 30
0.0
 10
283.485070
 20
173.162468
 30
0.0
 10
283.568321
 20
173.581001
 30
0.0
 10
283.796709
 20
173.922807
 30
0.0
  0
SPLINE
  5
16b
100
AcDbEntity
  8
Layer_1
 62
1
100
AcDbSpline
 70
8
 71
3
 72
8
 73
4
 74
0
 40
0
 40
0
 40
0
 40
0
 40
1
 40
1
 40
1
 40
1
 10
283.796709
 20
173.922807
 30
0.0
 10
284.025097
 20
174.264612
 30
0.0
 10
284.379912
 20
174.501692
 30
0.0
 10
284.783100
 20
174.581890
 30
0.0
  0
SPLINE
  5
16c
100
AcDbEntity
  8
Layer_1
 62
1
100
AcDbSpline
 70
8
 71
3
 72
8
 73
4
 74
0
 40
0
 40
0
 40
0
 40
0
 40
1
 40
1
 40
1
 40
1
 10
284.783100
 20
174.581890
 30
0.0
 10
285.186288
 20
174.662090
 30
0.0
 10
285.604821
 20
174.578839
 30
0.0
 10
285.946627
 20
174.350451
 30
0.0
  0
SPLINE
  5
16d
100
AcDbEntity
  8
Layer_1
 62
1
100
AcDbSpline
 70
8
 71
3
 72
8
 73
4
 74
0
 40
0
 40
0
 40
0
 40
0
 40
1
 40
1
 40
1
 40
1
 10
285.946627
 20
174.350451
 30
0.0
 10
286.288432
 20
174.122063
 30
0.0
 10
286.525512
 20
173.767248
 30
0.0
 10
286.605710
 20
173.364060
 30
0.0
  0
SPLINE
  5
16e
100
AcDbEntity
  8
Layer_1
 62
1
100
AcDbSpline
 70
8
 71
3
 72
8
 73
4
 74
0
 40
0
 40
0
 40
0
 40
0
 40
1
 40
1
 40
1
 40
1
 10
286.605710
 20
173.364060
 30
0.0
 10
286.772711
 20
172.524469
 30
0.0
 10
286.227471
 20
171.708464
 30
0.0
 10
285.387880
 20
171.541460
 30
0.0
  0
SPLINE
  5
16f
100
AcDbEntity
  8
Layer_1
 62
1
100
AcDbSpline
 70
8
 71
3
 72
8
 73
4
 74
0
 40
0
 40
0
 40
0
 40
0
 40
1
 40
1
 40
1
 40
1
 10
285.387880
 20
171.541460
 30
0.0
 10
284.548289
 20
171.374452
 30
0.0
 10
283.732279
 20
171.919689
 30
0.0
 10
283.565270
 20
172.759280
 30
0.0
  0
LINE
  5
170
100
AcDbEntity
  8
Layer_1
 62
1
100
AcDbLine
 10
283.565270
 20
172.759280
 30
0.0
 11
283.565270
 21
172.759280
 31
0.0
  0
SPLINE
  5
171
100
AcDbEntity
  8
Layer_1
 62
3
100
AcDbSpline
 70
8
 71
3
 72
8
 73
4
 74
0
 40
0
 40
0
 40
0
 40
0
 40
1
 40
1
 40
1
 40
1
 10
86.161360
 20
35.036740
 30
0.0
 10
86.161360
 20
35.854762
 30
0.0
 10
86.824498
 20
36.517900
 30
0.0
 10
87.642520
 20
36.517900
 30
0.0
  0
SPLINE
  5
172
100
AcDbEntity
  8
Layer_1
 62
3
100
AcDbSpline
 70
8
 71
3
 72
8
 73
4
 74
0
 40
0
 40
0
 40
0
 40
0
 40
1
 40
1
 40
1
 40
1
 10
87.642520
 20
36.517900
 30
0.0
 10
88.460542
 20
36.517900
 30
0.0
 10
89.123680
 20
35.854762
 30
0.0
 10
89.123680
 20
35.036740
 30
0.0
  0
SPLINE
  5
173
100
AcDbEntity
  8
Layer_1
 62
3
100
AcDbSpline
 70
8
 71
3
 72
8
 73
4
 74
0
 40
0
 40
0
 40
0
 40
0
 40
1
 40
1
 40
1
 40
1
 10
89.123680
 20
35.036740
 30
0.0
 10
89.123680
 20
34.218718
 30
0.0
 10
88.460542
 20
33.555580
 30
0.0
 10
87.642520
 20
33.555580
 30
0.0
  0
SPLINE
  5
174
100
AcDbEntity
  8
Layer_1
 62
3
100
AcDbSpline
 70
8
 71
3
 72
8
 73
4
 74
0
 40
0
 40
0
 40
0
 40
0
 40
1
 40
1
 40
1
 40
1
 10
87.642520
 20
33.555580
 30
0.0
 10
86.824498
 20
33.555580
 30
0.0
 10
86.161360
 20
34.218718
 30
0.0
 10
86.161360
 20
35.036740
 30
0.0
  0
LINE
  5
175
100
AcDbEntity
  8
Layer_1
 62
3
100
AcDbLine
 10
86.161360
 20
35.036740
 30
0.0
 11
86.161360
 21
35.036740
 31
0.0
  0
LINE
  5
176
100
AcDbEntity
  8
Layer_1
 62
1
100
AcDbLine
 10
279.854870
 20
124.116570
 30
0.0
 11
271.154210
 21
125.847240
 31
0.0
  0
LINE
  5
177
100
AcDbEntity
  8
Layer_1
 62
1
100
AcDbLine
 10
271.154210
 20
125.847240
 30
0.0
 11
271.739480
 21
128.789590
 31
0.0
  0
LINE
  5
178
100
AcDbEntity
  8
Layer_1
 62
1
100
AcDbLine
 10
271.739480
 20
128.789590
 30
0.0
 11
280.440140
 21
127.058920
 31
0.0
  0
LINE
  5
179
100
AcDbEntity
  8
Layer_1
 62
1
100
AcDbLine
 10
280.440140
 20
127.058920
 30
0.0
 11
279.854870
 21
124.116570
 31
0.0
  0
SPLINE
  5
17a
100
AcDbEntity
  8
Layer_1
 62
1
100
AcDbSpline
 70
8
 71
3
 72
8
 73
4
 74
0
 40
0
 40
0
 40
0
 40
0
 40
1
 40
1
 40
1
 40
1
 10
283.531420
 20
124.915830
 30
0.0
 10
283.611618
 20
125.319018
 30
0.0
 10
283.848698
 20
125.673833
 30
0.0
 10
284.190503
 20
125.902221
 30
0.0
  0
SPLINE
  5
17b
100
AcDbEntity
  8
Layer_1
 62
1
100
AcDbSpline
 70
8
 71
3
 72
8
 73
4
 74
0
 40
0
 40
0
 40
0
 40
0
 40
1
 40
1
 40
1
 40
1
 10
284.190503
 20
125.902221
 30
0.0
 10
284.532309
 20
126.130609
 30
0.0
 10
284.950843
 20
126.213860
 30
0.0
 10
285.354030
 20
126.133660
 30
0.0
  0
SPLINE
  5
17c
100
AcDbEntity
  8
Layer_1
 62
1
100
AcDbSpline
 70
8
 71
3
 72
8
 73
4
 74
0
 40
0
 40
0
 40
0
 40
0
 40
1
 40
1
 40
1
 40
1
 10
285.354030
 20
126.133660
 30
0.0
 10
285.757218
 20
126.053462
 30
0.0
 10
286.112033
 20
125.816382
 30
0.0
 10
286.340421
 20
125.474577
 30
0.0
  0
SPLINE
  5
17d
100
AcDbEntity
  8
Layer_1
 62
1
100
AcDbSpline
 70
8
 71
3
 72
8
 73
4
 74
0
 40
0
 40
0
 40
0
 40
0
 40
1
 40
1
 40
1
 40
1
 10
286.340421
 20
125.474577
 30
0.0
 10
286.568809
 20
125.132771
 30
0.0
 10
286.652060
 20
124.714238
 30
0.0
 10
286.571860
 20
124.311050
 30
0.0
  0
SPLINE
  5
17e
100
AcDbEntity
  8
Layer_1
 62
1
100
AcDbSpline
 70
8
 71
3
 72
8
 73
4
 74
0
 40
0
 40
0
 40
0
 40
0
 40
1
 40
1
 40
1
 40
1
 10
286.571860
 20
124.311050
 30
0.0
 10
286.491662
 20
123.907862
 30
0.0
 10
286.254582
 20
123.553047
 30
0.0
 10
285.912777
 20
123.324659
 30
0.0
  0
SPLINE
  5
17f
100
AcDbEntity
  8
Layer_1
 62
1
100
AcDbSpline
 70
8
 71
3
 72
8
 73
4
 74
0
 40
0
 40
0
 40
0
 40
0
 40
1
 40
1
 40
1
 40
1
 10
285.912777
 20
123.324659
 30
0.0
 10
285.570971
 20
123.096271
 30
0.0
 10
285.152438
 20
123.013020
 30
0.0
 10
284.749250
 20
123.093220
 30
0.0
  0
SPLINE
  5
180
100
AcDbEntity
  8
Layer_1
 62
1
100
AcDbSpline
 70
8
 71
3
 72
8
 73
4
 74
0
 40
0
 40
0
 40
0
 40
0
 40
1
 40
1
 40
1
 40
1
 10
284.749250
 20
123.093220
 30
0.0
 10
284.346062
 20
123.173418
 30
0.0
 10
283.991247
 20
123.410498
 30
0.0
 10
283.762859
 20
123.752303
 30
0.0
  0
SPLINE
  5
181
100
AcDbEntity
  8
Layer_1
 62
1
100
AcDbSpline
 70
8
 71
3
 72
8
 73
4
 74
0
 40
0
 40
0
 40
0
 40
0
 40
1
 40
1
 40
1
 40
1
 10
283.762859
 20
123.752303
 30
0.0
 10
283.534471
 20
124.094109
 30
0.0
 10
283.451220
 20
124.512643
 30
0.0
 10
283.531420
 20
124.915830
 30
0.0
  0
LINE
  5
182
100
AcDbEntity
  8
Layer_1
 62
1
100
AcDbLine
 10
283.531420
 20
124.915830
 30
0.0
 11
283.531420
 21
124.915830
 31
0.0
  0
LINE
  5
183
100
AcDbEntity
  8
Layer_1
 62
1
100
AcDbLine
 10
261.488720
 20
81.395730
 30
0.0
 11
254.112640
 21
86.324260
 31
0.0
  0
LINE
  5
184
100
AcDbEntity
  8
Layer_1
 62
1
100
AcDbLine
 10
254.112640
 20
86.324260
 30
0.0
 11
255.779370
 21
88.818660
 31
0.0
  0
LINE
  5
185
100
AcDbEntity
  8
Layer_1
 62
1
100
AcDbLine
 10
255.779370
 20
88.818660
 30
0.0
 11
263.155410
 21
83.890130
 31
0.0
  0
LINE
  5
186
100
AcDbEntity
  8
Layer_1
 62
1
100
AcDbLine
 10
263.155410
 20
83.890130
 30
0.0
 11
261.488720
 21
81.395730
 31
0.0
  0
SPLINE
  5
187
100
AcDbEntity
  8
Layer_1
 62
1
100
AcDbSpline
 70
8
 71
3
 72
8
 73
4
 74
0
 40
0
 40
0
 40
0
 40
0
 40
1
 40
1
 40
1
 40
1
 10
265.191280
 20
80.727170
 30
0.0
 10
265.666872
 20
81.438940
 30
0.0
 10
266.629419
 20
81.630401
 30
0.0
 10
267.341190
 20
81.154810
 30
0.0
  0
SPLINE
  5
188
100
AcDbEntity
  8
Layer_1
 62
1
100
AcDbSpline
 70
8
 71
3
 72
8
 73
4
 74
0
 40
0
 40
0
 40
0
 40
0
 40
1
 40
1
 40
1
 40
1
 10
267.341190
 20
81.154810
 30
0.0
 10
267.682996
 20
80.926424
 30
0.0
 10
267.920076
 20
80.571611
 30
0.0
 10
268.000276
 20
80.168424
 30
0.0
  0
SPLINE
  5
189
100
AcDbEntity
  8
Layer_1
 62
1
100
AcDbSpline
 70
8
 71
3
 72
8
 73
4
 74
0
 40
0
 40
0
 40
0
 40
0
 40
1
 40
1
 40
1
 40
1
 10
268.000276
 20
80.168424
 30
0.0
 10
268.080476
 20
79.765238
 30
0.0
 10
267.997226
 20
79.346706
 30
0.0
 10
267.768840
 20
79.004900
 30
0.0
  0
SPLINE
  5
18a
100
AcDbEntity
  8
Layer_1
 62
1
100
AcDbSpline
 70
8
 71
3
 72
8
 73
4
 74
0
 40
0
 40
0
 40
0
 40
0
 40
1
 40
1
 40
1
 40
1
 10
267.768840
 20
79.004900
 30
0.0
 10
267.540452
 20
78.663093
 30
0.0
 10
267.185636
 20
78.426013
 30
0.0
 10
266.782448
 20
78.345815
 30
0.0
  0
SPLINE
  5
18b
100
AcDbEntity
  8
Layer_1
 62
1
100
AcDbSpline
 70
8
 71
3
 72
8
 73
4
 74
0
 40
0
 40
0
 40
0
 40
0
 40
1
 40
1
 40
1
 40
1
 10
266.782448
 20
78.345815
 30
0.0
 10
266.379259
 20
78.265617
 30
0.0
 10
265.960725
 20
78.348870
 30
0.0
 10
265.618920
 20
78.577260
 30
0.0
  0
SPLINE
  5
18c
100
AcDbEntity
  8
Layer_1
 62
1
100
AcDbSpline
 70
8
 71
3
 72
8
 73
4
 74
0
 40
0
 40
0
 40
0
 40
0
 40
1
 40
1
 40
1
 40
1
 10
265.618920
 20
78.577260
 30
0.0
 10
264.907150
 20
79.052852
 30
0.0
 10
264.715689
 20
80.015399
 30
0.0
 10
265.191280
 20
80.727170
 30
0.0
  0
LINE
  5
18d
100
AcDbEntity
  8
Layer_1
 62
1
100
AcDbLine
 10
265.191280
 20
80.727170
 30
0.0
 11
265.191280
 21
80.727170
 31
0.0
  0
LINE
  5
18e
100
AcDbEntity
  8
Layer_1
 62
1
100
AcDbLine
 10
228.172030
 20
48.955250
 30
0.0
 11
223.243500
 21
56.331310
 31
0.0
  0
LINE
  5
18f
100
AcDbEntity
  8
Layer_1
 62
1
100
AcDbLine
 10
223.243500
 20
56.331310
 30
0.0
 11
225.737910
 21
57.998020
 31
0.0
  0
LINE
  5
190
100
AcDbEntity
  8
Layer_1
 62
1
100
AcDbLine
 10
225.737910
 20
57.998020
 30
0.0
 11
230.666440
 21
50.621950
 31
0.0
  0
LINE
  5
191
100
AcDbEntity
  8
Layer_1
 62
1
100
AcDbLine
 10
230.666440
 20
50.621950
 30
0.0
 11
228.172030
 21
48.955250
 31
0.0
  0
SPLINE
  5
192
100
AcDbEntity
  8
Layer_1
 62
1
100
AcDbSpline
 70
8
 71
3
 72
8
 73
4
 74
0
 40
0
 40
0
 40
0
 40
0
 40
1
 40
1
 40
1
 40
1
 10
231.336900
 20
46.920670
 30
0.0
 10
232.048671
 20
47.396261
 30
0.0
 10
233.011218
 20
47.204800
 30
0.0
 10
233.486810
 20
46.493030
 30
0.0
  0
SPLINE
  5
193
100
AcDbEntity
  8
Layer_1
 62
1
100
AcDbSpline
 70
8
 71
3
 72
8
 73
4
 74
0
 40
0
 40
0
 40
0
 40
0
 40
1
 40
1
 40
1
 40
1
 10
233.486810
 20
46.493030
 30
0.0
 10
233.962401
 20
45.781259
 30
0.0
 10
233.770940
 20
44.818712
 30
0.0
 10
233.059170
 20
44.343120
 30
0.0
  0
SPLINE
  5
194
100
AcDbEntity
  8
Layer_1
 62
1
100
AcDbSpline
 70
8
 71
3
 72
8
 73
4
 74
0
 40
0
 40
0
 40
0
 40
0
 40
1
 40
1
 40
1
 40
1
 10
233.059170
 20
44.343120
 30
0.0
 10
232.347399
 20
43.867529
 30
0.0
 10
231.384852
 20
44.058990
 30
0.0
 10
230.909260
 20
44.770760
 30
0.0
  0
SPLINE
  5
195
100
AcDbEntity
  8
Layer_1
 62
1
100
AcDbSpline
 70
8
 71
3
 72
8
 73
4
 74
0
 40
0
 40
0
 40
0
 40
0
 40
1
 40
1
 40
1
 40
1
 10
230.909260
 20
44.770760
 30
0.0
 10
230.433669
 20
45.482531
 30
0.0
 10
230.625130
 20
46.445078
 30
0.0
 10
231.336900
 20
46.920670
 30
0.0
  0
LINE
  5
196
100
AcDbEntity
  8
Layer_1
 62
1
100
AcDbLine
 10
231.336900
 20
46.920670
 30
0.0
 11
231.336900
 21
46.920670
 31
0.0
  0
LINE
  5
197
100
AcDbEntity
  8
Layer_1
 62
1
100
AcDbLine
 10
184.977000
 20
31.733880
 30
0.0
 11
183.246330
 21
40.434540
 31
0.0
  0
LINE
  5
198
100
AcDbEntity
  8
Layer_1
 62
1
100
AcDbLine
 10
183.246330
 20
40.434540
 30
0.0
 11
186.188680
 21
41.019820
 31
0.0
  0
LINE
  5
199
100
AcDbEntity
  8
Layer_1
 62
1
100
AcDbLine
 10
186.188680
 20
41.019820
 30
0.0
 11
187.919350
 21
32.319150
 31
0.0
  0
LINE
  5
19a
100
AcDbEntity
  8
Layer_1
 62
1
100
AcDbLine
 10
187.919350
 20
32.319150
 30
0.0
 11
184.977000
 21
31.733880
 31
0.0
  0
SPLINE
  5
19b
100
AcDbEntity
  8
Layer_1
 62
1
100
AcDbSpline
 70
8
 71
3
 72
8
 73
4
 74
0
 40
0
 40
0
 40
0
 40
0
 40
1
 40
1
 40
1
 40
1
 10
187.122360
 20
28.643070
 30
0.0
 10
187.961951
 20
28.810071
 30
0.0
 10
188.777956
 20
28.264831
 30
0.0
 10
188.944960
 20
27.425240
 30
0.0
  0
SPLINE
  5
19c
100
AcDbEntity
  8
Layer_1
 62
1
100
AcDbSpline
 70
8
 71
3
 72
8
 73
4
 74
0
 40
0
 40
0
 40
0
 40
0
 40
1
 40
1
 40
1
 40
1
 10
188.944960
 20
27.425240
 30
0.0
 10
189.111961
 20
26.585652
 30
0.0
 10
188.566727
 20
25.769649
 30
0.0
 10
187.727140
 20
25.602640
 30
0.0
  0
SPLINE
  5
19d
100
AcDbEntity
  8
Layer_1
 62
1
100
AcDbSpline
 70
8
 71
3
 72
8
 73
4
 74
0
 40
0
 40
0
 40
0
 40
0
 40
1
 40
1
 40
1
 40
1
 10
187.727140
 20
25.602640
 30
0.0
 10
186.887549
 20
25.435632
 30
0.0
 10
186.071539
 20
25.980869
 30
0.0
 10
185.904530
 20
26.820460
 30
0.0
  0
SPLINE
  5
19e
100
AcDbEntity
  8
Layer_1
 62
1
100
AcDbSpline
 70
8
 71
3
 72
8
 73
4
 74
0
 40
0
 40
0
 40
0
 40
0
 40
1
 40
1
 40
1
 40
1
 10
185.904530
 20
26.820460
 30
0.0
 10
185.824330
 20
27.223648
 30
0.0
 10
185.907581
 20
27.642181
 30
0.0
 10
186.135969
 20
27.983987
 30
0.0
  0
SPLINE
  5
19f
100
AcDbEntity
  8
Layer_1
 62
1
100
AcDbSpline
 70
8
 71
3
 72
8
 73
4
 74
0
 40
0
 40
0
 40
0
 40
0
 40
1
 40
1
 40
1
 40
1
 10
186.135969
 20
27.983987
 30
0.0
 10
186.364357
 20
28.325792
 30
0.0
 10
186.719172
 20
28.562872
 30
0.0
 10
187.122360
 20
28.643070
 30
0.0
  0
LINE
  5
1a0
100
AcDbEntity
  8
Layer_1
 62
1
100
AcDbLine
 10
187.122360
 20
28.643070
 30
0.0
 11
187.122360
 21
28.643070
 31
0.0
  0
LINE
  5
1a1
100
AcDbEntity
  8
Layer_1
 62
1
100
AcDbLine
 10
138.479690
 20
32.353460
 30
0.0
 11
140.210350
 21
41.054120
 31
0.0
  0
LINE
  5
1a2
100
AcDbEntity
  8
Layer_1
 62
1
100
AcDbLine
 10
140.210350
 20
41.054120
 30
0.0
 11
143.152700
 21
40.468850
 31
0.0
  0
LINE
  5
1a3
100
AcDbEntity
  8
Layer_1
 62
1
100
AcDbLine
 10
143.152700
 20
40.468850
 30
0.0
 11
141.422040
 21
31.768190
 31
0.0
  0
LINE
  5
1a4
100
AcDbEntity
  8
Layer_1
 62
1
100
AcDbLine
 10
141.422040
 20
31.768190
 30
0.0
 11
138.479690
 21
32.353460
 31
0.0
  0
SPLINE
  5
1a5
100
AcDbEntity
  8
Layer_1
 62
1
100
AcDbSpline
 70
8
 71
3
 72
8
 73
4
 74
0
 40
0
 40
0
 40
0
 40
0
 40
1
 40
1
 40
1
 40
1
 10
139.278910
 20
28.676900
 30
0.0
 10
140.118501
 20
28.509896
 30
0.0
 10
140.663741
 20
27.693891
 30
0.0
 10
140.496740
 20
26.854300
 30
0.0
  0
SPLINE
  5
1a6
100
AcDbEntity
  8
Layer_1
 62
1
100
AcDbSpline
 70
8
 71
3
 72
8
 73
4
 74
0
 40
0
 40
0
 40
0
 40
0
 40
1
 40
1
 40
1
 40
1
 10
140.496740
 20
26.854300
 30
0.0
 10
140.329731
 20
26.014709
 30
0.0
 10
139.513721
 20
25.469472
 30
0.0
 10
138.674130
 20
25.636480
 30
0.0
  0
SPLINE
  5
1a7
100
AcDbEntity
  8
Layer_1
 62
1
100
AcDbSpline
 70
8
 71
3
 72
8
 73
4
 74
0
 40
0
 40
0
 40
0
 40
0
 40
1
 40
1
 40
1
 40
1
 10
138.674130
 20
25.636480
 30
0.0
 10
137.834539
 20
25.803484
 30
0.0
 10
137.289299
 20
26.619489
 30
0.0
 10
137.456300
 20
27.459080
 30
0.0
  0
SPLINE
  5
1a8
100
AcDbEntity
  8
Layer_1
 62
1
100
AcDbSpline
 70
8
 71
3
 72
8
 73
4
 74
0
 40
0
 40
0
 40
0
 40
0
 40
1
 40
1
 40
1
 40
1
 10
137.456300
 20
27.459080
 30
0.0
 10
137.623309
 20
28.298671
 30
0.0
 10
138.439319
 20
28.843908
 30
0.0
 10
139.278910
 20
28.676900
 30
0.0
  0
LINE
  5
1a9
100
AcDbEntity
  8
Layer_1
 62
1
100
AcDbLine
 10
139.278910
 20
28.676900
 30
0.0
 11
139.278910
 21
28.676900
 31
0.0
  0
LINE
  5
1aa
100
AcDbEntity
  8
Layer_1
 62
1
100
AcDbLine
 10
95.758840
 20
50.719620
 30
0.0
 11
100.687370
 21
58.095680
 31
0.0
  0
LINE
  5
1ab
100
AcDbEntity
  8
Layer_1
 62
1
100
AcDbLine
 10
100.687370
 20
58.095680
 30
0.0
 11
103.181770
 21
56.428980
 31
0.0
  0
LINE
  5
1ac
100
AcDbEntity
  8
Layer_1
 62
1
100
AcDbLine
 10
103.181770
 20
56.428980
 30
0.0
 11
98.253240
 21
49.052910
 31
0.0
  0
LINE
  5
1ad
100
AcDbEntity
  8
Layer_1
 62
1
100
AcDbLine
 10
98.253240
 20
49.052910
 30
0.0
 11
95.758840
 21
50.719620
 31
0.0
  0
SPLINE
  5
1ae
100
AcDbEntity
  8
Layer_1
 62
1
100
AcDbSpline
 70
8
 71
3
 72
8
 73
4
 74
0
 40
0
 40
0
 40
0
 40
0
 40
1
 40
1
 40
1
 40
1
 10
95.090275
 20
47.017070
 30
0.0
 10
95.802046
 20
46.541479
 30
0.0
 10
95.993509
 20
45.578932
 30
0.0
 10
95.517919
 20
44.867160
 30
0.0
  0
SPLINE
  5
1af
100
AcDbEntity
  8
Layer_1
 62
1
100
AcDbSpline
 70
8
 71
3
 72
8
 73
4
 74
0
 40
0
 40
0
 40
0
 40
0
 40
1
 40
1
 40
1
 40
1
 10
95.517919
 20
44.867160
 30
0.0
 10
95.289533
 20
44.525354
 30
0.0
 10
94.934719
 20
44.288274
 30
0.0
 10
94.531533
 20
44.208074
 30
0.0
  0
SPLINE
  5
1b0
100
AcDbEntity
  8
Layer_1
 62
1
100
AcDbSpline
 70
8
 71
3
 72
8
 73
4
 74
0
 40
0
 40
0
 40
0
 40
0
 40
1
 40
1
 40
1
 40
1
 10
94.531533
 20
44.208074
 30
0.0
 10
94.128346
 20
44.127874
 30
0.0
 10
93.709814
 20
44.211124
 30
0.0
 10
93.368008
 20
44.439510
 30
0.0
  0
SPLINE
  5
1b1
100
AcDbEntity
  8
Layer_1
 62
1
100
AcDbSpline
 70
8
 71
3
 72
8
 73
4
 74
0
 40
0
 40
0
 40
0
 40
0
 40
1
 40
1
 40
1
 40
1
 10
93.368008
 20
44.439510
 30
0.0
 10
93.026200
 20
44.667897
 30
0.0
 10
92.789119
 20
45.022713
 30
0.0
 10
92.708921
 20
45.425902
 30
0.0
  0
SPLINE
  5
1b2
100
AcDbEntity
  8
Layer_1
 62
1
100
AcDbSpline
 70
8
 71
3
 72
8
 73
4
 74
0
 40
0
 40
0
 40
0
 40
0
 40
1
 40
1
 40
1
 40
1
 10
92.708921
 20
45.425902
 30
0.0
 10
92.628722
 20
45.829090
 30
0.0
 10
92.711974
 20
46.247624
 30
0.0
 10
92.940364
 20
46.589430
 30
0.0
  0
SPLINE
  5
1b3
100
AcDbEntity
  8
Layer_1
 62
1
100
AcDbSpline
 70
8
 71
3
 72
8
 73
4
 74
0
 40
0
 40
0
 40
0
 40
0
 40
1
 40
1
 40
1
 40
1
 10
92.940364
 20
46.589430
 30
0.0
 10
93.415956
 20
47.301201
 30
0.0
 10
94.378504
 20
47.492662
 30
0.0
 10
95.090275
 20
47.017070
 30
0.0
  0
LINE
  5
1b4
100
AcDbEntity
  8
Layer_1
 62
1
100
AcDbLine
 10
95.090275
 20
47.017070
 30
0.0
 11
95.090275
 21
47.017070
 31
0.0
  0
LINE
  5
1b5
100
AcDbEntity
  8
Layer_1
 62
1
100
AcDbLine
 10
63.318360
 20
84.036300
 30
0.0
 11
70.694410
 21
88.964830
 31
0.0
  0
LINE
  5
1b6
100
AcDbEntity
  8
Layer_1
 62
1
100
AcDbLine
 10
70.694410
 20
88.964830
 30
0.0
 11
72.361130
 21
86.470420
 31
0.0
  0
LINE
  5
1b7
100
AcDbEntity
  8
Layer_1
 62
1
100
AcDbLine
 10
72.361130
 20
86.470420
 30
0.0
 11
64.985050
 21
81.541900
 31
0.0
  0
LINE
  5
1b8
100
AcDbEntity
  8
Layer_1
 62
1
100
AcDbLine
 10
64.985050
 20
81.541900
 30
0.0
 11
63.318360
 21
84.036300
 31
0.0
  0
SPLINE
  5
1b9
100
AcDbEntity
  8
Layer_1
 62
1
100
AcDbSpline
 70
8
 71
3
 72
8
 73
4
 74
0
 40
0
 40
0
 40
0
 40
0
 40
1
 40
1
 40
1
 40
1
 10
61.283794
 20
80.871450
 30
0.0
 10
61.759384
 20
80.159678
 30
0.0
 10
61.567922
 20
79.197131
 30
0.0
 10
60.856151
 20
78.721540
 30
0.0
  0
SPLINE
  5
1ba
100
AcDbEntity
  8
Layer_1
 62
1
100
AcDbSpline
 70
8
 71
3
 72
8
 73
4
 74
0
 40
0
 40
0
 40
0
 40
0
 40
1
 40
1
 40
1
 40
1
 10
60.856151
 20
78.721540
 30
0.0
 10
60.514345
 20
78.493153
 30
0.0
 10
60.095812
 20
78.409903
 30
0.0
 10
59.692626
 20
78.490103
 30
0.0
  0
SPLINE
  5
1bb
100
AcDbEntity
  8
Layer_1
 62
1
100
AcDbSpline
 70
8
 71
3
 72
8
 73
4
 74
0
 40
0
 40
0
 40
0
 40
0
 40
1
 40
1
 40
1
 40
1
 10
59.692626
 20
78.490103
 30
0.0
 10
59.289439
 20
78.570303
 30
0.0
 10
58.934625
 20
78.807384
 30
0.0
 10
58.706239
 20
79.149190
 30
0.0
  0
SPLINE
  5
1bc
100
AcDbEntity
  8
Layer_1
 62
1
100
AcDbSpline
 70
8
 71
3
 72
8
 73
4
 74
0
 40
0
 40
0
 40
0
 40
0
 40
1
 40
1
 40
1
 40
1
 10
58.706239
 20
79.149190
 30
0.0
 10
58.230649
 20
79.860962
 30
0.0
 10
58.422112
 20
80.823509
 30
0.0
 10
59.133883
 20
81.299100
 30
0.0
  0
SPLINE
  5
1bd
100
AcDbEntity
  8
Layer_1
 62
1
100
AcDbSpline
 70
8
 71
3
 72
8
 73
4
 74
0
 40
0
 40
0
 40
0
 40
0
 40
1
 40
1
 40
1
 40
1
 10
59.133883
 20
81.299100
 30
0.0
 10
59.475689
 20
81.527486
 30
0.0
 10
59.894221
 20
81.610736
 30
0.0
 10
60.297408
 20
81.530536
 30
0.0
  0
SPLINE
  5
1be
100
AcDbEntity
  8
Layer_1
 62
1
100
AcDbSpline
 70
8
 71
3
 72
8
 73
4
 74
0
 40
0
 40
0
 40
0
 40
0
 40
1
 40
1
 40
1
 40
1
 10
60.297408
 20
81.530536
 30
0.0
 10
60.700594
 20
81.450336
 30
0.0
 10
61.055408
 20
81.213256
 30
0.0
 10
61.283794
 20
80.871450
 30
0.0
  0
LINE
  5
1bf
100
AcDbEntity
  8
Layer_1
 62
1
100
AcDbLine
 10
61.283794
 20
80.871450
 30
0.0
 11
61.283794
 21
80.871450
 31
0.0
  0
LINE
  5
1c0
100
AcDbEntity
  8
Layer_1
 62
1
100
AcDbLine
 10
46.096990
 20
127.231330
 30
0.0
 11
54.797650
 21
128.962000
 31
0.0
  0
LINE
  5
1c1
100
AcDbEntity
  8
Layer_1
 62
1
100
AcDbLine
 10
54.797650
 20
128.962000
 30
0.0
 11
55.382920
 21
126.019650
 31
0.0
  0
LINE
  5
1c2
100
AcDbEntity
  8
Layer_1
 62
1
100
AcDbLine
 10
55.382920
 20
126.019650
 30
0.0
 11
46.682260
 21
124.288980
 31
0.0
  0
LINE
  5
1c3
100
AcDbEntity
  8
Layer_1
 62
1
100
AcDbLine
 10
46.682260
 20
124.288980
 30
0.0
 11
46.096990
 21
127.231330
 31
0.0
  0
SPLINE
  5
1c4
100
AcDbEntity
  8
Layer_1
 62
1
100
AcDbSpline
 70
8
 71
3
 72
8
 73
4
 74
0
 40
0
 40
0
 40
0
 40
0
 40
1
 40
1
 40
1
 40
1
 10
43.006157
 20
125.086000
 30
0.0
 10
43.086357
 20
124.682813
 30
0.0
 10
43.003106
 20
124.264280
 30
0.0
 10
42.774719
 20
123.922475
 30
0.0
  0
SPLINE
  5
1c5
100
AcDbEntity
  8
Layer_1
 62
1
100
AcDbSpline
 70
8
 71
3
 72
8
 73
4
 74
0
 40
0
 40
0
 40
0
 40
0
 40
1
 40
1
 40
1
 40
1
 10
42.774719
 20
123.922475
 30
0.0
 10
42.546333
 20
123.580669
 30
0.0
 10
42.191518
 20
123.343589
 30
0.0
 10
41.788331
 20
123.263390
 30
0.0
  0
SPLINE
  5
1c6
100
AcDbEntity
  8
Layer_1
 62
1
100
AcDbSpline
 70
8
 71
3
 72
8
 73
4
 74
0
 40
0
 40
0
 40
0
 40
0
 40
1
 40
1
 40
1
 40
1
 10
41.788331
 20
123.263390
 30
0.0
 10
41.385144
 20
123.183191
 30
0.0
 10
40.966612
 20
123.266443
 30
0.0
 10
40.624806
 20
123.494830
 30
0.0
  0
SPLINE
  5
1c7
100
AcDbEntity
  8
Layer_1
 62
1
100
AcDbSpline
 70
8
 71
3
 72
8
 73
4
 74
0
 40
0
 40
0
 40
0
 40
0
 40
1
 40
1
 40
1
 40
1
 10
40.624806
 20
123.494830
 30
0.0
 10
40.283001
 20
123.723218
 30
0.0
 10
40.045922
 20
124.078033
 30
0.0
 10
39.965724
 20
124.481220
 30
0.0
  0
SPLINE
  5
1c8
100
AcDbEntity
  8
Layer_1
 62
1
100
AcDbSpline
 70
8
 71
3
 72
8
 73
4
 74
0
 40
0
 40
0
 40
0
 40
0
 40
1
 40
1
 40
1
 40
1
 10
39.965724
 20
124.481220
 30
0.0
 10
39.885524
 20
124.884407
 30
0.0
 10
39.968775
 20
125.302940
 30
0.0
 10
40.197162
 20
125.644746
 30
0.0
  0
SPLINE
  5
1c9
100
AcDbEntity
  8
Layer_1
 62
1
100
AcDbSpline
 70
8
 71
3
 72
8
 73
4
 74
0
 40
0
 40
0
 40
0
 40
0
 40
1
 40
1
 40
1
 40
1
 10
40.197162
 20
125.644746
 30
0.0
 10
40.425549
 20
125.986552
 30
0.0
 10
40.780364
 20
126.223631
 30
0.0
 10
41.183551
 20
126.303830
 30
0.0
  0
SPLINE
  5
1ca
100
AcDbEntity
  8
Layer_1
 62
1
100
AcDbSpline
 70
8
 71
3
 72
8
 73
4
 74
0
 40
0
 40
0
 40
0
 40
0
 40
1
 40
1
 40
1
 40
1
 10
41.183551
 20
126.303830
 30
0.0
 10
41.586738
 20
126.384029
 30
0.0
 10
42.005270
 20
126.300777
 30
0.0
 10
42.347075
 20
126.072389
 30
0.0
  0
SPLINE
  5
1cb
100
AcDbEntity
  8
Layer_1
 62
1
100
AcDbSpline
 70
8
 71
3
 72
8
 73
4
 74
0
 40
0
 40
0
 40
0
 40
0
 40
1
 40
1
 40
1
 40
1
 10
42.347075
 20
126.072389
 30
0.0
 10
42.688880
 20
125.844002
 30
0.0
 10
42.925959
 20
125.489187
 30
0.0
 10
43.006157
 20
125.086000
 30
0.0
  0
LINE
  5
1cc
100
AcDbEntity
  8
Layer_1
 62
1
100
AcDbLine
 10
43.006157
 20
125.086000
 30
0.0
 11
43.006157
 21
125.086000
 31
0.0
  0
SPLINE
  5
1cd
100
AcDbEntity
  8
Layer_1
 62
6
100
AcDbSpline
 70
8
 71
3
 72
8
 73
4
 74
0
 40
0
 40
0
 40
0
 40
0
 40
1
 40
1
 40
1
 40
1
 10
195.323990
 20
148.922620
 30
0.0
 10
195.323990
 20
140.425535
 30
0.0
 10
191.948536
 20
132.276468
 30
0.0
 10
185.940189
 20
126.268121
 30
0.0
  0
SPLINE
  5
1ce
100
AcDbEntity
  8
Layer_1
 62
6
100
AcDbSpline
 70
8
 71
3
 72
8
 73
4
 74
0
 40
0
 40
0
 40
0
 40
0
 40
1
 40
1
 40
1
 40
1
 10
185.940189
 20
126.268121
 30
0.0
 10
179.931842
 20
120.259774
 30
0.0
 10
171.782775
 20
116.884320
 30
0.0
 10
163.285690
 20
116.884320
 30
0.0
  0
SPLINE
  5
1cf
100
AcDbEntity
  8
Layer_1
 62
6
100
AcDbSpline
 70
8
 71
3
 72
8
 73
4
 74
0
 40
0
 40
0
 40
0
 40
0
 40
1
 40
1
 40
1
 40
1
 10
163.285690
 20
116.884320
 30
0.0
 10
145.591426
 20
116.884320
 30
0.0
 10
131.247390
 20
131.228356
 30
0.0
 10
131.247390
 20
148.922620
 30
0.0
  0
SPLINE
  5
1d0
100
AcDbEntity
  8
Layer_1
 62
6
100
AcDbSpline
 70
8
 71
3
 72
8
 73
4
 74
0
 40
0
 40
0
 40
0
 40
0
 40
1
 40
1
 40
1
 40
1
 10
131.247390
 20
148.922620
 30
0.0
 10
131.247390
 20
157.419705
 30
0.0
 10
134.622844
 20
165.568772
 30
0.0
 10
140.631191
 20
171.577119
 30
0.0
  0
SPLINE
  5
1d1
100
AcDbEntity
  8
Layer_1
 62
6
100
AcDbSpline
 70
8
 71
3
 72
8
 73
4
 74
0
 40
0
 40
0
 40
0
 40
0
 40
1
 40
1
 40
1
 40
1
 10
140.631191
 20
171.577119
 30
0.0
 10
146.639538
 20
177.585466
 30
0.0
 10
154.788605
 20
180.960920
 30
0.0
 10
163.285690
 20
180.960920
 30
0.0
  0
SPLINE
  5
1d2
100
AcDbEntity
  8
Layer_1
 62
6
100
AcDbSpline
 70
8
 71
3
 72
8
 73
4
 74
0
 40
0
 40
0
 40
0
 40
0
 40
1
 40
1
 40
1
 40
1
 10
163.285690
 20
180.960920
 30
0.0
 10
171.782775
 20
180.960920
 30
0.0
 10
179.931842
 20
177.585466
 30
0.0
 10
185.940189
 20
171.577119
 30
0.0
  0
SPLINE
  5
1d3
100
AcDbEntity
  8
Layer_1
 62
6
100
AcDbSpline
 70
8
 71
3
 72
8
 73
4
 74
0
 40
0
 40
0
 40
0
 40
0
 40
1
 40
1
 40
1
 40
1
 10
185.940189
 20
171.577119
 30
0.0
 10
191.948536
 20
165.568772
 30
0.0
 10
195.323990
 20
157.419705
 30
0.0
 10
195.323990
 20
148.922620
 30
0.0
  0
LINE
  5
1d4
100
AcDbEntity
  8
Layer_1
 62
6
100
AcDbLine
 10
195.323990
 20
148.922620
 30
0.0
 11
195.323990
 21
148.922620
 31
0.0
  0
SPLINE
  5
1d5
100
AcDbEntity
  8
Layer_1
 62
6
100
AcDbSpline
 70
8
 71
3
 72
8
 73
4
 74
0
 40
0
 40
0
 40
0
 40
0
 40
1
 40
1
 40
1
 40
1
 10
143.566240
 20
49.995300
 30
0.0
 10
132.798200
 20
52.186250
 30
0.0
 10
128.610200
 20
36.387260
 30
0.0
 10
118.420370
 20
40.608020
 30
0.0
  0
SPLINE
  5
1d6
100
AcDbEntity
  8
Layer_1
 62
6
100
AcDbSpline
 70
8
 71
3
 72
8
 73
4
 74
0
 40
0
 40
0
 40
0
 40
0
 40
1
 40
1
 40
1
 40
1
 10
118.420370
 20
40.608020
 30
0.0
 10
108.230530
 20
44.828790
 30
0.0
 10
116.440750
 20
58.961730
 30
0.0
 10
107.270130
 20
65.089340
 30
0.0
  0
SPLINE
  5
1d7
100
AcDbEntity
  8
Layer_1
 62
6
100
AcDbSpline
 70
8
 71
3
 72
8
 73
4
 74
0
 40
0
 40
0
 40
0
 40
0
 40
1
 40
1
 40
1
 40
1
 10
107.270130
 20
65.089340
 30
0.0
 10
98.099520
 20
71.216940
 30
0.0
 10
88.184300
 20
58.223250
 30
0.0
 10
80.385340
 20
66.022220
 30
0.0
  0
SPLINE
  5
1d8
100
AcDbEntity
  8
Layer_1
 62
6
100
AcDbSpline
 70
8
 71
3
 72
8
 73
4
 74
0
 40
0
 40
0
 40
0
 40
0
 40
1
 40
1
 40
1
 40
1
 10
80.385340
 20
66.022220
 30
0.0
 10
72.586370
 20
73.821180
 30
0.0
 10
85.580060
 20
83.736400
 30
0.0
 10
79.452460
 20
92.907010
 30
0.0
  0
SPLINE
  5
1d9
100
AcDbEntity
  8
Layer_1
 62
6
100
AcDbSpline
 70
8
 71
3
 72
8
 73
4
 74
0
 40
0
 40
0
 40
0
 40
0
 40
1
 40
1
 40
1
 40
1
 10
79.452460
 20
92.907010
 30
0.0
 10
73.324850
 20
102.077620
 30
0.0
 10
59.191910
 20
93.867410
 30
0.0
 10
54.971140
 20
104.057240
 30
0.0
  0
SPLINE
  5
1da
100
AcDbEntity
  8
Layer_1
 62
6
100
AcDbSpline
 70
8
 71
3
 72
8
 73
4
 74
0
 40
0
 40
0
 40
0
 40
0
 40
1
 40
1
 40
1
 40
1
 10
54.971140
 20
104.057240
 30
0.0
 10
50.750380
 20
114.247080
 30
0.0
 10
66.549370
 20
118.435080
 30
0.0
 10
64.397640
 20
129.252550
 30
0.0
  0
SPLINE
  5
1db
100
AcDbEntity
  8
Layer_1
 62
6
100
AcDbSpline
 70
8
 71
3
 72
8
 73
4
 74
0
 40
0
 40
0
 40
0
 40
0
 40
1
 40
1
 40
1
 40
1
 10
64.397640
 20
129.252550
 30
0.0
 10
63.098920
 20
135.781690
 30
0.0
 10
92.256320
 20
131.673740
 30
0.0
 10
115.523590
 20
133.322120
 30
0.0
  0
SPLINE
  5
1dc
100
AcDbEntity
  8
Layer_1
 62
6
100
AcDbSpline
 70
8
 71
3
 72
8
 73
4
 74
0
 40
0
 40
0
 40
0
 40
0
 40
1
 40
1
 40
1
 40
1
 10
115.523590
 20
133.322120
 30
0.0
 10
133.163480
 20
133.265420
 30
0.0
 10
147.507520
 20
118.921340
 30
0.0
 10
147.543630
 20
101.127960
 30
0.0
  0
SPLINE
  5
1dd
100
AcDbEntity
  8
Layer_1
 62
6
100
AcDbSpline
 70
8
 71
3
 72
8
 73
4
 74
0
 40
0
 40
0
 40
0
 40
0
 40
1
 40
1
 40
1
 40
1
 10
147.543630
 20
101.127960
 30
0.0
 10
145.933880
 20
77.739910
 30
0.0
 10
150.020360
 20
48.777780
 30
0.0
 10
143.566240
 20
49.995300
 30
0.0
  0
LINE
  5
1de
100
AcDbEntity
  8
Layer_1
 62
6
100
AcDbLine
 10
143.566240
 20
49.995300
 30
0.0
 11
143.566240
 21
49.995300
 31
0.0
  0
SPLINE
  5
1df
100
AcDbEntity
  8
Layer_1
 62
6
100
AcDbSpline
 70
8
 71
3
 72
8
 73
4
 74
0
 40
0
 40
0
 40
0
 40
0
 40
1
 40
1
 40
1
 40
1
 10
64.397640
 20
168.592680
 30
0.0
 10
66.549370
 20
179.410160
 30
0.0
 10
50.750370
 20
183.598160
 30
0.0
 10
54.971140
 20
193.787990
 30
0.0
  0
SPLINE
  5
1e0
100
AcDbEntity
  8
Layer_1
 62
6
100
AcDbSpline
 70
8
 71
3
 72
8
 73
4
 74
0
 40
0
 40
0
 40
0
 40
0
 40
1
 40
1
 40
1
 40
1
 10
54.971140
 20
193.787990
 30
0.0
 10
59.191910
 20
203.977830
 30
0.0
 10
73.324850
 20
195.767620
 30
0.0
 10
79.452460
 20
204.938228
 30
0.0
  0
SPLINE
  5
1e1
100
AcDbEntity
  8
Layer_1
 62
6
100
AcDbSpline
 70
8
 71
3
 72
8
 73
4
 74
0
 40
0
 40
0
 40
0
 40
0
 40
1
 40
1
 40
1
 40
1
 10
79.452460
 20
204.938228
 30
0.0
 10
85.580060
 20
214.108835
 30
0.0
 10
72.586370
 20
224.024058
 30
0.0
 10
80.385340
 20
231.823022
 30
0.0
  0
SPLINE
  5
1e2
100
AcDbEntity
  8
Layer_1
 62
6
100
AcDbSpline
 70
8
 71
3
 72
8
 73
4
 74
0
 40
0
 40
0
 40
0
 40
0
 40
1
 40
1
 40
1
 40
1
 10
80.385340
 20
231.823022
 30
0.0
 10
88.184300
 20
239.621984
 30
0.0
 10
98.099520
 20
226.628296
 30
0.0
 10
107.270130
 20
232.755898
 30
0.0
  0
SPLINE
  5
1e3
100
AcDbEntity
  8
Layer_1
 62
6
100
AcDbSpline
 70
8
 71
3
 72
8
 73
4
 74
0
 40
0
 40
0
 40
0
 40
0
 40
1
 40
1
 40
1
 40
1
 10
107.270130
 20
232.755898
 30
0.0
 10
116.440750
 20
238.883505
 30
0.0
 10
108.230530
 20
253.016446
 30
0.0
 10
118.420370
 20
257.237217
 30
0.0
  0
SPLINE
  5
1e4
100
AcDbEntity
  8
Layer_1
 62
6
100
AcDbSpline
 70
8
 71
3
 72
8
 73
4
 74
0
 40
0
 40
0
 40
0
 40
0
 40
1
 40
1
 40
1
 40
1
 10
118.420370
 20
257.237217
 30
0.0
 10
128.610200
 20
261.457986
 30
0.0
 10
132.798200
 20
245.658987
 30
0.0
 10
143.650960
 20
247.644420
 30
0.0
  0
SPLINE
  5
1e5
100
AcDbEntity
  8
Layer_1
 62
6
100
AcDbSpline
 70
8
 71
3
 72
8
 73
4
 74
0
 40
0
 40
0
 40
0
 40
0
 40
1
 40
1
 40
1
 40
1
 10
143.650960
 20
247.644420
 30
0.0
 10
150.178490
 20
248.838586
 30
0.0
 10
146.109940
 20
219.845269
 30
0.0
 10
147.667590
 20
196.565190
 30
0.0
  0
SPLINE
  5
1e6
100
AcDbEntity
  8
Layer_1
 62
6
100
AcDbSpline
 70
8
 71
3
 72
8
 73
4
 74
0
 40
0
 40
0
 40
0
 40
0
 40
1
 40
1
 40
1
 40
1
 10
147.667590
 20
196.565190
 30
0.0
 10
147.567020
 20
178.887870
 30
0.0
 10
133.222990
 20
164.543820
 30
0.0
 10
115.547670
 20
164.505500
 30
0.0
  0
SPLINE
  5
1e7
100
AcDbEntity
  8
Layer_1
 62
6
100
AcDbSpline
 70
8
 71
3
 72
8
 73
4
 74
0
 40
0
 40
0
 40
0
 40
0
 40
1
 40
1
 40
1
 40
1
 10
115.547670
 20
164.505500
 30
0.0
 10
92.246860
 20
166.170160
 30
0.0
 10
63.099130
 20
162.064600
 30
0.0
 10
64.397640
 20
168.592680
 30
0.0
  0
LINE
  5
1e8
100
AcDbEntity
  8
Layer_1
 62
6
100
AcDbLine
 10
64.397640
 20
168.592680
 30
0.0
 11
64.397640
 21
168.592680
 31
0.0
  0
SPLINE
  5
1e9
100
AcDbEntity
  8
Layer_1
 62
6
100
AcDbSpline
 70
8
 71
3
 72
8
 73
4
 74
0
 40
0
 40
0
 40
0
 40
0
 40
1
 40
1
 40
1
 40
1
 10
178.953500
 20
196.269850
 30
0.0
 10
180.612090
 20
219.692993
 30
0.0
 10
176.488070
 20
248.841888
 30
0.0
 10
182.991090
 20
247.644420
 30
0.0
  0
SPLINE
  5
1ea
100
AcDbEntity
  8
Layer_1
 62
6
100
AcDbSpline
 70
8
 71
3
 72
8
 73
4
 74
0
 40
0
 40
0
 40
0
 40
0
 40
1
 40
1
 40
1
 40
1
 10
182.991090
 20
247.644420
 30
0.0
 10
193.773270
 20
245.658987
 30
0.0
 10
197.961270
 20
261.457983
 30
0.0
 10
208.151110
 20
257.237212
 30
0.0
  0
SPLINE
  5
1eb
100
AcDbEntity
  8
Layer_1
 62
6
100
AcDbSpline
 70
8
 71
3
 72
8
 73
4
 74
0
 40
0
 40
0
 40
0
 40
0
 40
1
 40
1
 40
1
 40
1
 10
208.151110
 20
257.237212
 30
0.0
 10
218.340950
 20
253.016446
 30
0.0
 10
210.130730
 20
238.883505
 30
0.0
 10
219.301340
 20
232.755898
 30
0.0
  0
SPLINE
  5
1ec
100
AcDbEntity
  8
Layer_1
 62
6
100
AcDbSpline
 70
8
 71
3
 72
8
 73
4
 74
0
 40
0
 40
0
 40
0
 40
0
 40
1
 40
1
 40
1
 40
1
 10
219.301340
 20
232.755898
 30
0.0
 10
228.471950
 20
226.628296
 30
0.0
 10
238.387170
 20
239.621989
 30
0.0
 10
246.186120
 20
231.823022
 30
0.0
  0
SPLINE
  5
1ed
100
AcDbEntity
  8
Layer_1
 62
6
100
AcDbSpline
 70
8
 71
3
 72
8
 73
4
 74
0
 40
0
 40
0
 40
0
 40
0
 40
1
 40
1
 40
1
 40
1
 10
246.186120
 20
231.823022
 30
0.0
 10
253.985110
 20
224.024058
 30
0.0
 10
240.991410
 20
214.108837
 30
0.0
 10
247.119010
 20
204.938228
 30
0.0
  0
SPLINE
  5
1ee
100
AcDbEntity
  8
Layer_1
 62
6
100
AcDbSpline
 70
8
 71
3
 72
8
 73
4
 74
0
 40
0
 40
0
 40
0
 40
0
 40
1
 40
1
 40
1
 40
1
 10
247.119010
 20
204.938228
 30
0.0
 10
253.246620
 20
195.767620
 30
0.0
 10
267.379550
 20
203.977833
 30
0.0
 10
271.600320
 20
193.788000
 30
0.0
  0
SPLINE
  5
1ef
100
AcDbEntity
  8
Layer_1
 62
6
100
AcDbSpline
 70
8
 71
3
 72
8
 73
4
 74
0
 40
0
 40
0
 40
0
 40
0
 40
1
 40
1
 40
1
 40
1
 10
271.600320
 20
193.788000
 30
0.0
 10
275.821090
 20
183.598170
 30
0.0
 10
260.022100
 20
179.410160
 30
0.0
 10
262.142040
 20
168.470320
 30
0.0
  0
SPLINE
  5
1f0
100
AcDbEntity
  8
Layer_1
 62
6
100
AcDbSpline
 70
8
 71
3
 72
8
 73
4
 74
0
 40
0
 40
0
 40
0
 40
0
 40
1
 40
1
 40
1
 40
1
 10
262.142040
 20
168.470320
 30
0.0
 10
263.419910
 20
161.875870
 30
0.0
 10
234.324290
 20
165.935470
 30
0.0
 10
211.017460
 20
164.186140
 30
0.0
  0
SPLINE
  5
1f1
100
AcDbEntity
  8
Layer_1
 62
6
100
AcDbSpline
 70
8
 71
3
 72
8
 73
4
 74
0
 40
0
 40
0
 40
0
 40
0
 40
1
 40
1
 40
1
 40
1
 10
211.017460
 20
164.186140
 30
0.0
 10
193.327330
 20
164.136340
 30
0.0
 10
178.983300
 20
178.480430
 30
0.0
 10
178.953500
 20
196.269850
 30
0.0
  0
LINE
  5
1f2
100
AcDbEntity
  8
Layer_1
 62
6
100
AcDbLine
 10
178.953500
 20
196.269850
 30
0.0
 11
178.953500
 21
196.269850
 31
0.0
  0
SPLINE
  5
1f3
100
AcDbEntity
  8
Layer_1
 62
6
100
AcDbSpline
 70
8
 71
3
 72
8
 73
4
 74
0
 40
0
 40
0
 40
0
 40
0
 40
1
 40
1
 40
1
 40
1
 10
210.869450
 20
133.061670
 30
0.0
 10
234.155330
 20
131.432600
 30
0.0
 10
263.423940
 20
135.597520
 30
0.0
 10
262.142040
 20
129.130190
 30
0.0
  0
SPLINE
  5
1f4
100
AcDbEntity
  8
Layer_1
 62
6
100
AcDbSpline
 70
8
 71
3
 72
8
 73
4
 74
0
 40
0
 40
0
 40
0
 40
0
 40
1
 40
1
 40
1
 40
1
 10
262.142040
 20
129.130190
 30
0.0
 10
260.022100
 20
118.435080
 30
0.0
 10
275.821090
 20
114.247080
 30
0.0
 10
271.600320
 20
104.057240
 30
0.0
  0
SPLINE
  5
1f5
100
AcDbEntity
  8
Layer_1
 62
6
100
AcDbSpline
 70
8
 71
3
 72
8
 73
4
 74
0
 40
0
 40
0
 40
0
 40
0
 40
1
 40
1
 40
1
 40
1
 10
271.600320
 20
104.057240
 30
0.0
 10
267.379550
 20
93.867410
 30
0.0
 10
253.246650
 20
102.077620
 30
0.0
 10
247.119010
 20
92.907010
 30
0.0
  0
SPLINE
  5
1f6
100
AcDbEntity
  8
Layer_1
 62
6
100
AcDbSpline
 70
8
 71
3
 72
8
 73
4
 74
0
 40
0
 40
0
 40
0
 40
0
 40
1
 40
1
 40
1
 40
1
 10
247.119010
 20
92.907010
 30
0.0
 10
240.991410
 20
83.736400
 30
0.0
 10
253.985080
 20
73.821180
 30
0.0
 10
246.186120
 20
66.022220
 30
0.0
  0
SPLINE
  5
1f7
100
AcDbEntity
  8
Layer_1
 62
6
100
AcDbSpline
 70
8
 71
3
 72
8
 73
4
 74
0
 40
0
 40
0
 40
0
 40
0
 40
1
 40
1
 40
1
 40
1
 10
246.186120
 20
66.022220
 30
0.0
 10
238.387160
 20
58.223260
 30
0.0
 10
228.471950
 20
71.216940
 30
0.0
 10
219.301340
 20
65.089340
 30
0.0
  0
SPLINE
  5
1f8
100
AcDbEntity
  8
Layer_1
 62
6
100
AcDbSpline
 70
8
 71
3
 72
8
 73
4
 74
0
 40
0
 40
0
 40
0
 40
0
 40
1
 40
1
 40
1
 40
1
 10
219.301340
 20
65.089340
 30
0.0
 10
210.130730
 20
58.961730
 30
0.0
 10
218.340950
 20
44.828800
 30
0.0
 10
208.151110
 20
40.608030
 30
0.0
  0
SPLINE
  5
1f9
100
AcDbEntity
  8
Layer_1
 62
6
100
AcDbSpline
 70
8
 71
3
 72
8
 73
4
 74
0
 40
0
 40
0
 40
0
 40
0
 40
1
 40
1
 40
1
 40
1
 10
208.151110
 20
40.608030
 30
0.0
 10
197.961270
 20
36.387260
 30
0.0
 10
193.773270
 20
52.186250
 30
0.0
 10
182.906370
 20
49.995300
 30
0.0
  0
SPLINE
  5
1fa
100
AcDbEntity
  8
Layer_1
 62
6
100
AcDbSpline
 70
8
 71
3
 72
8
 73
4
 74
0
 40
0
 40
0
 40
0
 40
0
 40
1
 40
1
 40
1
 40
1
 10
182.906370
 20
49.995300
 30
0.0
 10
176.361000
 20
48.779760
 30
0.0
 10
180.391120
 20
77.658730
 30
0.0
 10
178.820940
 20
100.932310
 30
0.0
  0
SPLINE
  5
1fb
100
AcDbEntity
  8
Layer_1
 62
6
100
AcDbSpline
 70
8
 71
3
 72
8
 73
4
 74
0
 40
0
 40
0
 40
0
 40
0
 40
1
 40
1
 40
1
 40
1
 10
178.820940
 20
100.932310
 30
0.0
 10
178.890040
 20
118.628190
 30
0.0
 10
193.234070
 20
132.972220
 30
0.0
 10
210.869450
 20
133.061670
 30
0.0
  0
LINE
  5
1fc
100
AcDbEntity
  8
Layer_1
 62
6
100
AcDbLine
 10
210.869450
 20
133.061670
 30
0.0
 11
210.869450
 21
133.061670
 31
0.0
  0
SPLINE
  5
1fd
100
AcDbEntity
  8
Layer_1
 62
1
100
AcDbSpline
 70
8
 71
3
 72
8
 73
4
 74
0
 40
0
 40
0
 40
0
 40
0
 40
1
 40
1
 40
1
 40
1
 10
176.086500
 20
16.407460
 30
0.0
 10
176.926088
 20
16.574461
 30
0.0
 10
177.742091
 20
16.029227
 30
0.0
 10
177.909100
 20
15.189640
 30
0.0
  0
SPLINE
  5
1fe
100
AcDbEntity
  8
Layer_1
 62
1
100
AcDbSpline
 70
8
 71
3
 72
8
 73
4
 74
0
 40
0
 40
0
 40
0
 40
0
 40
1
 40
1
 40
1
 40
1
 10
177.909100
 20
15.189640
 30
0.0
 10
178.076101
 20
14.350049
 30
0.0
 10
177.530861
 20
13.534044
 30
0.0
 10
176.691270
 20
13.367040
 30
0.0
  0
SPLINE
  5
1ff
100
AcDbEntity
  8
Layer_1
 62
1
100
AcDbSpline
 70
8
 71
3
 72
8
 73
4
 74
0
 40
0
 40
0
 40
0
 40
0
 40
1
 40
1
 40
1
 40
1
 10
176.691270
 20
13.367040
 30
0.0
 10
175.851682
 20
13.200039
 30
0.0
 10
175.035679
 20
13.745273
 30
0.0
 10
174.868670
 20
14.584860
 30
0.0
  0
SPLINE
  5
200
100
AcDbEntity
  8
Layer_1
 62
1
100
AcDbSpline
 70
8
 71
3
 72
8
 73
4
 74
0
 40
0
 40
0
 40
0
 40
0
 40
1
 40
1
 40
1
 40
1
 10
174.868670
 20
14.584860
 30
0.0
 10
174.701669
 20
15.424451
 30
0.0
 10
175.246909
 20
16.240456
 30
0.0
 10
176.086500
 20
16.407460
 30
0.0
  0
LINE
  5
201
100
AcDbEntity
  8
Layer_1
 62
1
100
AcDbLine
 10
176.086500
 20
16.407460
 30
0.0
 11
176.086500
 21
16.407460
 31
0.0
  0
LINE
  5
202
100
AcDbEntity
  8
Layer_1
 62
1
100
AcDbLine
 10
155.100630
 20
13.486890
 30
0.0
 11
145.100630
 21
13.486890
 31
0.0
  0
LINE
  5
203
100
AcDbEntity
  8
Layer_1
 62
1
100
AcDbLine
 10
145.100630
 20
13.486890
 30
0.0
 11
145.100630
 21
16.486880
 31
0.0
  0
LINE
  5
204
100
AcDbEntity
  8
Layer_1
 62
1
100
AcDbLine
 10
145.100630
 20
16.486880
 30
0.0
 11
155.100630
 21
16.486880
 31
0.0
  0
LINE
  5
205
100
AcDbEntity
  8
Layer_1
 62
1
100
AcDbLine
 10
155.100630
 20
16.486880
 30
0.0
 11
155.100630
 21
13.486890
 31
0.0
  0
SPLINE
  5
206
100
AcDbEntity
  8
Layer_1
 62
1
100
AcDbSpline
 70
8
 71
3
 72
8
 73
4
 74
0
 40
0
 40
0
 40
0
 40
0
 40
1
 40
1
 40
1
 40
1
 10
124.400700
 20
21.595900
 30
0.0
 10
124.803888
 20
21.515702
 30
0.0
 10
125.158703
 20
21.278622
 30
0.0
 10
125.387091
 20
20.936817
 30
0.0
  0
SPLINE
  5
207
100
AcDbEntity
  8
Layer_1
 62
1
100
AcDbSpline
 70
8
 71
3
 72
8
 73
4
 74
0
 40
0
 40
0
 40
0
 40
0
 40
1
 40
1
 40
1
 40
1
 10
125.387091
 20
20.936817
 30
0.0
 10
125.615479
 20
20.595011
 30
0.0
 10
125.698730
 20
20.176477
 30
0.0
 10
125.618530
 20
19.773290
 30
0.0
  0
SPLINE
  5
208
100
AcDbEntity
  8
Layer_1
 62
1
100
AcDbSpline
 70
8
 71
3
 72
8
 73
4
 74
0
 40
0
 40
0
 40
0
 40
0
 40
1
 40
1
 40
1
 40
1
 10
125.618530
 20
19.773290
 30
0.0
 10
125.451521
 20
18.933699
 30
0.0
 10
124.635511
 20
18.388462
 30
0.0
 10
123.795920
 20
18.555470
 30
0.0
  0
SPLINE
  5
209
100
AcDbEntity
  8
Layer_1
 62
1
100
AcDbSpline
 70
8
 71
3
 72
8
 73
4
 74
0
 40
0
 40
0
 40
0
 40
0
 40
1
 40
1
 40
1
 40
1
 10
123.795920
 20
18.555470
 30
0.0
 10
122.956329
 20
18.722474
 30
0.0
 10
122.411089
 20
19.538479
 30
0.0
 10
122.578090
 20
20.378070
 30
0.0
  0
SPLINE
  5
20a
100
AcDbEntity
  8
Layer_1
 62
1
100
AcDbSpline
 70
8
 71
3
 72
8
 73
4
 74
0
 40
0
 40
0
 40
0
 40
0
 40
1
 40
1
 40
1
 40
1
 10
122.578090
 20
20.378070
 30
0.0
 10
122.658288
 20
20.781258
 30
0.0
 10
122.895368
 20
21.136073
 30
0.0
 10
123.237173
 20
21.364461
 30
0.0
  0
SPLINE
  5
20b
100
AcDbEntity
  8
Layer_1
 62
1
100
AcDbSpline
 70
8
 71
3
 72
8
 73
4
 74
0
 40
0
 40
0
 40
0
 40
0
 40
1
 40
1
 40
1
 40
1
 10
123.237173
 20
21.364461
 30
0.0
 10
123.578979
 20
21.592849
 30
0.0
 10
123.997513
 20
21.676100
 30
0.0
 10
124.400700
 20
21.595900
 30
0.0
  0
LINE
  5
20c
100
AcDbEntity
  8
Layer_1
 62
1
100
AcDbLine
 10
124.400700
 20
21.595900
 30
0.0
 11
124.400700
 21
21.595900
 31
0.0
  0
LINE
  5
20d
100
AcDbEntity
  8
Layer_1
 62
1
100
AcDbLine
 10
103.894670
 20
26.928600
 30
0.0
 11
94.655870
 21
30.755440
 31
0.0
  0
LINE
  5
20e
100
AcDbEntity
  8
Layer_1
 62
1
100
AcDbLine
 10
94.655870
 20
30.755440
 30
0.0
 11
95.803920
 21
33.527070
 31
0.0
  0
LINE
  5
20f
100
AcDbEntity
  8
Layer_1
 62
1
100
AcDbLine
 10
95.803920
 20
33.527070
 30
0.0
 11
105.042720
 21
29.700240
 31
0.0
  0
LINE
  5
210
100
AcDbEntity
  8
Layer_1
 62
1
100
AcDbLine
 10
105.042720
 20
29.700240
 30
0.0
 11
103.894670
 21
26.928600
 31
0.0
  0
SPLINE
  5
211
100
AcDbEntity
  8
Layer_1
 62
1
100
AcDbSpline
 70
8
 71
3
 72
8
 73
4
 74
0
 40
0
 40
0
 40
0
 40
0
 40
1
 40
1
 40
1
 40
1
 10
78.634840
 20
46.168720
 30
0.0
 10
79.346610
 20
45.693128
 30
0.0
 10
79.538071
 20
44.730581
 30
0.0
 10
79.062480
 20
44.018810
 30
0.0
  0
SPLINE
  5
212
100
AcDbEntity
  8
Layer_1
 62
1
100
AcDbSpline
 70
8
 71
3
 72
8
 73
4
 74
0
 40
0
 40
0
 40
0
 40
0
 40
1
 40
1
 40
1
 40
1
 10
79.062480
 20
44.018810
 30
0.0
 10
78.586891
 20
43.307037
 30
0.0
 10
77.624344
 20
43.115571
 30
0.0
 10
76.912570
 20
43.591160
 30
0.0
  0
SPLINE
  5
213
100
AcDbEntity
  8
Layer_1
 62
1
100
AcDbSpline
 70
8
 71
3
 72
8
 73
4
 74
0
 40
0
 40
0
 40
0
 40
0
 40
1
 40
1
 40
1
 40
1
 10
76.912570
 20
43.591160
 30
0.0
 10
76.200800
 20
44.066752
 30
0.0
 10
76.009339
 20
45.029299
 30
0.0
 10
76.484930
 20
45.741070
 30
0.0
  0
SPLINE
  5
214
100
AcDbEntity
  8
Layer_1
 62
1
100
AcDbSpline
 70
8
 71
3
 72
8
 73
4
 74
0
 40
0
 40
0
 40
0
 40
0
 40
1
 40
1
 40
1
 40
1
 10
76.484930
 20
45.741070
 30
0.0
 10
76.960519
 20
46.452843
 30
0.0
 10
77.923066
 20
46.644309
 30
0.0
 10
78.634840
 20
46.168720
 30
0.0
  0
LINE
  5
215
100
AcDbEntity
  8
Layer_1
 62
1
100
AcDbLine
 10
78.634840
 20
46.168720
 30
0.0
 11
78.634840
 21
46.168720
 31
0.0
  0
LINE
  5
216
100
AcDbEntity
  8
Layer_1
 62
1
100
AcDbLine
 10
61.730430
 20
58.942810
 30
0.0
 11
54.659360
 21
66.013880
 31
0.0
  0
LINE
  5
217
100
AcDbEntity
  8
Layer_1
 62
1
100
AcDbLine
 10
54.659360
 20
66.013880
 30
0.0
 11
56.780680
 21
68.135190
 31
0.0
  0
LINE
  5
218
100
AcDbEntity
  8
Layer_1
 62
1
100
AcDbLine
 10
56.780680
 20
68.135190
 30
0.0
 11
63.851750
 21
61.064120
 31
0.0
  0
LINE
  5
219
100
AcDbEntity
  8
Layer_1
 62
1
100
AcDbLine
 10
63.851750
 20
61.064120
 30
0.0
 11
61.730430
 21
58.942810
 31
0.0
  0
SPLINE
  5
21a
100
AcDbEntity
  8
Layer_1
 62
1
100
AcDbSpline
 70
8
 71
3
 72
8
 73
4
 74
0
 40
0
 40
0
 40
0
 40
0
 40
1
 40
1
 40
1
 40
1
 10
45.756270
 20
86.384860
 30
0.0
 10
46.231861
 20
85.673089
 30
0.0
 10
46.040400
 20
84.710542
 30
0.0
 10
45.328630
 20
84.234950
 30
0.0
  0
SPLINE
  5
21b
100
AcDbEntity
  8
Layer_1
 62
1
100
AcDbSpline
 70
8
 71
3
 72
8
 73
4
 74
0
 40
0
 40
0
 40
0
 40
0
 40
1
 40
1
 40
1
 40
1
 10
45.328630
 20
84.234950
 30
0.0
 10
44.616856
 20
83.759361
 30
0.0
 10
43.654309
 20
83.950827
 30
0.0
 10
43.178720
 20
84.662600
 30
0.0
  0
SPLINE
  5
21c
100
AcDbEntity
  8
Layer_1
 62
1
100
AcDbSpline
 70
8
 71
3
 72
8
 73
4
 74
0
 40
0
 40
0
 40
0
 40
0
 40
1
 40
1
 40
1
 40
1
 10
43.178720
 20
84.662600
 30
0.0
 10
42.703129
 20
85.374371
 30
0.0
 10
42.894590
 20
86.336918
 30
0.0
 10
43.606360
 20
86.812510
 30
0.0
  0
SPLINE
  5
21d
100
AcDbEntity
  8
Layer_1
 62
1
100
AcDbSpline
 70
8
 71
3
 72
8
 73
4
 74
0
 40
0
 40
0
 40
0
 40
0
 40
1
 40
1
 40
1
 40
1
 10
43.606360
 20
86.812510
 30
0.0
 10
44.318134
 20
87.288099
 30
0.0
 10
45.280681
 20
87.096633
 30
0.0
 10
45.756270
 20
86.384860
 30
0.0
  0
LINE
  5
21e
100
AcDbEntity
  8
Layer_1
 62
1
100
AcDbLine
 10
45.756270
 20
86.384860
 30
0.0
 11
45.756270
 21
86.384860
 31
0.0
  0
LINE
  5
21f
100
AcDbEntity
  8
Layer_1
 62
1
100
AcDbLine
 10
35.027080
 20
104.655630
 30
0.0
 11
31.200240
 21
113.894430
 31
0.0
  0
LINE
  5
220
100
AcDbEntity
  8
Layer_1
 62
1
100
AcDbLine
 10
31.200240
 20
113.894430
 30
0.0
 11
33.971870
 21
115.042480
 31
0.0
  0
LINE
  5
221
100
AcDbEntity
  8
Layer_1
 62
1
100
AcDbLine
 10
33.971870
 20
115.042480
 30
0.0
 11
37.798710
 21
105.803680
 31
0.0
  0
LINE
  5
222
100
AcDbEntity
  8
Layer_1
 62
1
100
AcDbLine
 10
37.798710
 20
105.803680
 30
0.0
 11
35.027080
 21
104.655630
 31
0.0
  0
SPLINE
  5
223
100
AcDbEntity
  8
Layer_1
 62
1
100
AcDbSpline
 70
8
 71
3
 72
8
 73
4
 74
0
 40
0
 40
0
 40
0
 40
0
 40
1
 40
1
 40
1
 40
1
 10
30.770560
 20
136.121830
 30
0.0
 10
30.850760
 20
135.718643
 30
0.0
 10
30.767509
 20
135.300109
 30
0.0
 10
30.539121
 20
134.958303
 30
0.0
  0
SPLINE
  5
224
100
AcDbEntity
  8
Layer_1
 62
1
100
AcDbSpline
 70
8
 71
3
 72
8
 73
4
 74
0
 40
0
 40
0
 40
0
 40
0
 40
1
 40
1
 40
1
 40
1
 10
30.539121
 20
134.958303
 30
0.0
 10
30.310733
 20
134.616498
 30
0.0
 10
29.955918
 20
134.379418
 30
0.0
 10
29.552730
 20
134.299220
 30
0.0
  0
SPLINE
  5
225
100
AcDbEntity
  8
Layer_1
 62
1
100
AcDbSpline
 70
8
 71
3
 72
8
 73
4
 74
0
 40
0
 40
0
 40
0
 40
0
 40
1
 40
1
 40
1
 40
1
 10
29.552730
 20
134.299220
 30
0.0
 10
28.713139
 20
134.132219
 30
0.0
 10
27.897134
 20
134.677459
 30
0.0
 10
27.730130
 20
135.517050
 30
0.0
  0
SPLINE
  5
226
100
AcDbEntity
  8
Layer_1
 62
1
100
AcDbSpline
 70
8
 71
3
 72
8
 73
4
 74
0
 40
0
 40
0
 40
0
 40
0
 40
1
 40
1
 40
1
 40
1
 10
27.730130
 20
135.517050
 30
0.0
 10
27.563122
 20
136.356641
 30
0.0
 10
28.108359
 20
137.172651
 30
0.0
 10
28.947950
 20
137.339660
 30
0.0
  0
SPLINE
  5
227
100
AcDbEntity
  8
Layer_1
 62
1
100
AcDbSpline
 70
8
 71
3
 72
8
 73
4
 74
0
 40
0
 40
0
 40
0
 40
0
 40
1
 40
1
 40
1
 40
1
 10
28.947950
 20
137.339660
 30
0.0
 10
29.351137
 20
137.419860
 30
0.0
 10
29.769671
 20
137.336609
 30
0.0
 10
30.111477
 20
137.108221
 30
0.0
  0
SPLINE
  5
228
100
AcDbEntity
  8
Layer_1
 62
1
100
AcDbSpline
 70
8
 71
3
 72
8
 73
4
 74
0
 40
0
 40
0
 40
0
 40
0
 40
1
 40
1
 40
1
 40
1
 10
30.111477
 20
137.108221
 30
0.0
 10
30.453282
 20
136.879833
 30
0.0
 10
30.690362
 20
136.525018
 30
0.0
 10
30.770560
 20
136.121830
 30
0.0
  0
LINE
  5
229
100
AcDbEntity
  8
Layer_1
 62
1
100
AcDbLine
 10
30.770560
 20
136.121830
 30
0.0
 11
30.770560
 21
136.121830
 31
0.0
  0
LINE
  5
22a
100
AcDbEntity
  8
Layer_1
 62
1
100
AcDbLine
 10
27.849990
 20
157.107670
 30
0.0
 11
27.849990
 21
167.107680
 31
0.0
  0
LINE
  5
22b
100
AcDbEntity
  8
Layer_1
 62
1
100
AcDbLine
 10
27.849990
 20
167.107680
 30
0.0
 11
30.849990
 21
167.107680
 31
0.0
  0
LINE
  5
22c
100
AcDbEntity
  8
Layer_1
 62
1
100
AcDbLine
 10
30.849990
 20
167.107680
 30
0.0
 11
30.849990
 21
157.107670
 31
0.0
  0
LINE
  5
22d
100
AcDbEntity
  8
Layer_1
 62
1
100
AcDbLine
 10
30.849990
 20
157.107670
 30
0.0
 11
27.849990
 21
157.107670
 31
0.0
  0
SPLINE
  5
22e
100
AcDbEntity
  8
Layer_1
 62
1
100
AcDbSpline
 70
8
 71
3
 72
8
 73
4
 74
0
 40
0
 40
0
 40
0
 40
0
 40
1
 40
1
 40
1
 40
1
 10
35.959030
 20
187.807590
 30
0.0
 10
35.792021
 20
186.967999
 30
0.0
 10
34.976011
 20
186.422762
 30
0.0
 10
34.136420
 20
186.589770
 30
0.0
  0
SPLINE
  5
22f
100
AcDbEntity
  8
Layer_1
 62
1
100
AcDbSpline
 70
8
 71
3
 72
8
 73
4
 74
0
 40
0
 40
0
 40
0
 40
0
 40
1
 40
1
 40
1
 40
1
 10
34.136420
 20
186.589770
 30
0.0
 10
33.296829
 20
186.756774
 30
0.0
 10
32.751589
 20
187.572779
 30
0.0
 10
32.918590
 20
188.412370
 30
0.0
  0
SPLINE
  5
230
100
AcDbEntity
  8
Layer_1
 62
1
100
AcDbSpline
 70
8
 71
3
 72
8
 73
4
 74
0
 40
0
 40
0
 40
0
 40
0
 40
1
 40
1
 40
1
 40
1
 10
32.918590
 20
188.412370
 30
0.0
 10
32.998788
 20
188.815558
 30
0.0
 10
33.235868
 20
189.170373
 30
0.0
 10
33.577673
 20
189.398761
 30
0.0
  0
SPLINE
  5
231
100
AcDbEntity
  8
Layer_1
 62
1
100
AcDbSpline
 70
8
 71
3
 72
8
 73
4
 74
0
 40
0
 40
0
 40
0
 40
0
 40
1
 40
1
 40
1
 40
1
 10
33.577673
 20
189.398761
 30
0.0
 10
33.919479
 20
189.627149
 30
0.0
 10
34.338013
 20
189.710400
 30
0.0
 10
34.741200
 20
189.630200
 30
0.0
  0
SPLINE
  5
232
100
AcDbEntity
  8
Layer_1
 62
1
100
AcDbSpline
 70
8
 71
3
 72
8
 73
4
 74
0
 40
0
 40
0
 40
0
 40
0
 40
1
 40
1
 40
1
 40
1
 10
34.741200
 20
189.630200
 30
0.0
 10
35.144388
 20
189.550002
 30
0.0
 10
35.499203
 20
189.312922
 30
0.0
 10
35.727591
 20
188.971117
 30
0.0
  0
SPLINE
  5
233
100
AcDbEntity
  8
Layer_1
 62
1
100
AcDbSpline
 70
8
 71
3
 72
8
 73
4
 74
0
 40
0
 40
0
 40
0
 40
0
 40
1
 40
1
 40
1
 40
1
 10
35.727591
 20
188.971117
 30
0.0
 10
35.955979
 20
188.629311
 30
0.0
 10
36.039230
 20
188.210778
 30
0.0
 10
35.959030
 20
187.807590
 30
0.0
  0
LINE
  5
234
100
AcDbEntity
  8
Layer_1
 62
1
100
AcDbLine
 10
35.959030
 20
187.807590
 30
0.0
 11
35.959030
 21
187.807590
 31
0.0
  0
LINE
  5
235
100
AcDbEntity
  8
Layer_1
 62
1
100
AcDbLine
 10
41.291720
 20
208.313646
 30
0.0
 11
45.118550
 21
217.552446
 31
0.0
  0
LINE
  5
236
100
AcDbEntity
  8
Layer_1
 62
1
100
AcDbLine
 10
45.118550
 20
217.552446
 30
0.0
 11
47.890190
 21
216.404398
 31
0.0
  0
LINE
  5
237
100
AcDbEntity
  8
Layer_1
 62
1
100
AcDbLine
 10
47.890190
 20
216.404398
 30
0.0
 11
44.063350
 21
207.165598
 31
0.0
  0
LINE
  5
238
100
AcDbEntity
  8
Layer_1
 62
1
100
AcDbLine
 10
44.063350
 20
207.165598
 30
0.0
 11
41.291720
 21
208.313646
 31
0.0
  0
SPLINE
  5
239
100
AcDbEntity
  8
Layer_1
 62
1
100
AcDbSpline
 70
8
 71
3
 72
8
 73
4
 74
0
 40
0
 40
0
 40
0
 40
0
 40
1
 40
1
 40
1
 40
1
 10
150.484930
 20
281.437822
 30
0.0
 10
149.645340
 20
281.270821
 30
0.0
 10
148.829336
 20
281.816058
 30
0.0
 10
148.662330
 20
282.655647
 30
0.0
  0
SPLINE
  5
23a
100
AcDbEntity
  8
Layer_1
 62
1
100
AcDbSpline
 70
8
 71
3
 72
8
 73
4
 74
0
 40
0
 40
0
 40
0
 40
0
 40
1
 40
1
 40
1
 40
1
 10
148.662330
 20
282.655647
 30
0.0
 10
148.495325
 20
283.495237
 30
0.0
 10
149.040561
 20
284.311244
 30
0.0
 10
149.880150
 20
284.478253
 30
0.0
  0
SPLINE
  5
23b
100
AcDbEntity
  8
Layer_1
 62
1
100
AcDbSpline
 70
8
 71
3
 72
8
 73
4
 74
0
 40
0
 40
0
 40
0
 40
0
 40
1
 40
1
 40
1
 40
1
 10
149.880150
 20
284.478253
 30
0.0
 10
150.283337
 20
284.558453
 30
0.0
 10
150.701870
 20
284.475202
 30
0.0
 10
151.043675
 20
284.246815
 30
0.0
  0
SPLINE
  5
23c
100
AcDbEntity
  8
Layer_1
 62
1
100
AcDbSpline
 70
8
 71
3
 72
8
 73
4
 74
0
 40
0
 40
0
 40
0
 40
0
 40
1
 40
1
 40
1
 40
1
 10
151.043675
 20
284.246815
 30
0.0
 10
151.385481
 20
284.018429
 30
0.0
 10
151.622561
 20
283.663614
 30
0.0
 10
151.702760
 20
283.260427
 30
0.0
  0
SPLINE
  5
23d
100
AcDbEntity
  8
Layer_1
 62
1
100
AcDbSpline
 70
8
 71
3
 72
8
 73
4
 74
0
 40
0
 40
0
 40
0
 40
0
 40
1
 40
1
 40
1
 40
1
 10
151.702760
 20
283.260427
 30
0.0
 10
151.782958
 20
282.857240
 30
0.0
 10
151.699706
 20
282.438708
 30
0.0
 10
151.471319
 20
282.096904
 30
0.0
  0
SPLINE
  5
23e
100
AcDbEntity
  8
Layer_1
 62
1
100
AcDbSpline
 70
8
 71
3
 72
8
 73
4
 74
0
 40
0
 40
0
 40
0
 40
0
 40
1
 40
1
 40
1
 40
1
 10
151.471319
 20
282.096904
 30
0.0
 10
151.242931
 20
281.755099
 30
0.0
 10
150.888117
 20
281.518020
 30
0.0
 10
150.484930
 20
281.437822
 30
0.0
  0
LINE
  5
23f
100
AcDbEntity
  8
Layer_1
 62
1
100
AcDbLine
 10
150.484930
 20
281.437822
 30
0.0
 11
150.484930
 21
281.437822
 31
0.0
  0
LINE
  5
240
100
AcDbEntity
  8
Layer_1
 62
1
100
AcDbLine
 10
171.470780
 20
284.358381
 30
0.0
 11
181.470790
 21
284.358381
 31
0.0
  0
LINE
  5
241
100
AcDbEntity
  8
Layer_1
 62
1
100
AcDbLine
 10
181.470790
 20
284.358381
 30
0.0
 11
181.470790
 21
281.358387
 31
0.0
  0
LINE
  5
242
100
AcDbEntity
  8
Layer_1
 62
1
100
AcDbLine
 10
181.470790
 20
281.358387
 30
0.0
 11
171.470780
 21
281.358387
 31
0.0
  0
LINE
  5
243
100
AcDbEntity
  8
Layer_1
 62
1
100
AcDbLine
 10
171.470780
 20
281.358387
 30
0.0
 11
171.470780
 21
284.358381
 31
0.0
  0
SPLINE
  5
244
100
AcDbEntity
  8
Layer_1
 62
1
100
AcDbSpline
 70
8
 71
3
 72
8
 73
4
 74
0
 40
0
 40
0
 40
0
 40
0
 40
1
 40
1
 40
1
 40
1
 10
202.170700
 20
276.249347
 30
0.0
 10
201.767513
 20
276.329545
 30
0.0
 10
201.412698
 20
276.566624
 30
0.0
 10
201.184310
 20
276.908429
 30
0.0
  0
SPLINE
  5
245
100
AcDbEntity
  8
Layer_1
 62
1
100
AcDbSpline
 70
8
 71
3
 72
8
 73
4
 74
0
 40
0
 40
0
 40
0
 40
0
 40
1
 40
1
 40
1
 40
1
 10
201.184310
 20
276.908429
 30
0.0
 10
200.955923
 20
277.250235
 30
0.0
 10
200.872671
 20
277.668767
 30
0.0
 10
200.952870
 20
278.071954
 30
0.0
  0
SPLINE
  5
246
100
AcDbEntity
  8
Layer_1
 62
1
100
AcDbSpline
 70
8
 71
3
 72
8
 73
4
 74
0
 40
0
 40
0
 40
0
 40
0
 40
1
 40
1
 40
1
 40
1
 10
200.952870
 20
278.071954
 30
0.0
 10
201.033069
 20
278.475141
 30
0.0
 10
201.270149
 20
278.829955
 30
0.0
 10
201.611955
 20
279.058342
 30
0.0
  0
SPLINE
  5
247
100
AcDbEntity
  8
Layer_1
 62
1
100
AcDbSpline
 70
8
 71
3
 72
8
 73
4
 74
0
 40
0
 40
0
 40
0
 40
0
 40
1
 40
1
 40
1
 40
1
 10
201.611955
 20
279.058342
 30
0.0
 10
201.953761
 20
279.286728
 30
0.0
 10
202.372293
 20
279.369979
 30
0.0
 10
202.775480
 20
279.289779
 30
0.0
  0
SPLINE
  5
248
100
AcDbEntity
  8
Layer_1
 62
1
100
AcDbSpline
 70
8
 71
3
 72
8
 73
4
 74
0
 40
0
 40
0
 40
0
 40
0
 40
1
 40
1
 40
1
 40
1
 10
202.775480
 20
279.289779
 30
0.0
 10
203.178667
 20
279.209581
 30
0.0
 10
203.533481
 20
278.972502
 30
0.0
 10
203.761869
 20
278.630697
 30
0.0
  0
SPLINE
  5
249
100
AcDbEntity
  8
Layer_1
 62
1
100
AcDbSpline
 70
8
 71
3
 72
8
 73
4
 74
0
 40
0
 40
0
 40
0
 40
0
 40
1
 40
1
 40
1
 40
1
 10
203.761869
 20
278.630697
 30
0.0
 10
203.990256
 20
278.288893
 30
0.0
 10
204.073508
 20
277.870361
 30
0.0
 10
203.993310
 20
277.467174
 30
0.0
  0
SPLINE
  5
24a
100
AcDbEntity
  8
Layer_1
 62
1
100
AcDbSpline
 70
8
 71
3
 72
8
 73
4
 74
0
 40
0
 40
0
 40
0
 40
0
 40
1
 40
1
 40
1
 40
1
 10
203.993310
 20
277.467174
 30
0.0
 10
203.913111
 20
277.063987
 30
0.0
 10
203.676031
 20
276.709172
 30
0.0
 10
203.334226
 20
276.480785
 30
0.0
  0
SPLINE
  5
24b
100
AcDbEntity
  8
Layer_1
 62
1
100
AcDbSpline
 70
8
 71
3
 72
8
 73
4
 74
0
 40
0
 40
0
 40
0
 40
0
 40
1
 40
1
 40
1
 40
1
 10
203.334226
 20
276.480785
 30
0.0
 10
202.992420
 20
276.252398
 30
0.0
 10
202.573887
 20
276.169147
 30
0.0
 10
202.170700
 20
276.249347
 30
0.0
  0
LINE
  5
24c
100
AcDbEntity
  8
Layer_1
 62
1
100
AcDbLine
 10
202.170700
 20
276.249347
 30
0.0
 11
202.170700
 21
276.249347
 31
0.0
  0
LINE
  5
24d
100
AcDbEntity
  8
Layer_1
 62
1
100
AcDbLine
 10
222.676750
 20
270.916660
 30
0.0
 11
231.915550
 21
267.089824
 31
0.0
  0
LINE
  5
24e
100
AcDbEntity
  8
Layer_1
 62
1
100
AcDbLine
 10
231.915550
 20
267.089824
 30
0.0
 11
230.767500
 21
264.318191
 31
0.0
  0
LINE
  5
24f
100
AcDbEntity
  8
Layer_1
 62
1
100
AcDbLine
 10
230.767500
 20
264.318191
 30
0.0
 11
221.528700
 21
268.145027
 31
0.0
  0
LINE
  5
250
100
AcDbEntity
  8
Layer_1
 62
1
100
AcDbLine
 10
221.528700
 20
268.145027
 30
0.0
 11
222.676750
 21
270.916660
 31
0.0
  0
SPLINE
  5
251
100
AcDbEntity
  8
Layer_1
 62
1
100
AcDbSpline
 70
8
 71
3
 72
8
 73
4
 74
0
 40
0
 40
0
 40
0
 40
0
 40
1
 40
1
 40
1
 40
1
 10
247.936580
 20
251.676548
 30
0.0
 10
247.594774
 20
251.904934
 30
0.0
 10
247.357694
 20
252.259748
 30
0.0
 10
247.277494
 20
252.662934
 30
0.0
  0
SPLINE
  5
252
100
AcDbEntity
  8
Layer_1
 62
1
100
AcDbSpline
 70
8
 71
3
 72
8
 73
4
 74
0
 40
0
 40
0
 40
0
 40
0
 40
1
 40
1
 40
1
 40
1
 10
247.277494
 20
252.662934
 30
0.0
 10
247.197294
 20
253.066121
 30
0.0
 10
247.280544
 20
253.484653
 30
0.0
 10
247.508930
 20
253.826459
 30
0.0
  0
SPLINE
  5
253
100
AcDbEntity
  8
Layer_1
 62
1
100
AcDbSpline
 70
8
 71
3
 72
8
 73
4
 74
0
 40
0
 40
0
 40
0
 40
0
 40
1
 40
1
 40
1
 40
1
 10
247.508930
 20
253.826459
 30
0.0
 10
247.737317
 20
254.168267
 30
0.0
 10
248.092133
 20
254.405348
 30
0.0
 10
248.495322
 20
254.485546
 30
0.0
  0
SPLINE
  5
254
100
AcDbEntity
  8
Layer_1
 62
1
100
AcDbSpline
 70
8
 71
3
 72
8
 73
4
 74
0
 40
0
 40
0
 40
0
 40
0
 40
1
 40
1
 40
1
 40
1
 10
248.495322
 20
254.485546
 30
0.0
 10
248.898510
 20
254.565745
 30
0.0
 10
249.317044
 20
254.482493
 30
0.0
 10
249.658850
 20
254.254103
 30
0.0
  0
SPLINE
  5
255
100
AcDbEntity
  8
Layer_1
 62
1
100
AcDbSpline
 70
8
 71
3
 72
8
 73
4
 74
0
 40
0
 40
0
 40
0
 40
0
 40
1
 40
1
 40
1
 40
1
 10
249.658850
 20
254.254103
 30
0.0
 10
250.370621
 20
253.778511
 30
0.0
 10
250.562082
 20
252.815962
 30
0.0
 10
250.086490
 20
252.104191
 30
0.0
  0
SPLINE
  5
256
100
AcDbEntity
  8
Layer_1
 62
1
100
AcDbSpline
 70
8
 71
3
 72
8
 73
4
 74
0
 40
0
 40
0
 40
0
 40
0
 40
1
 40
1
 40
1
 40
1
 10
250.086490
 20
252.104191
 30
0.0
 10
249.610899
 20
251.392420
 30
0.0
 10
248.648352
 20
251.200958
 30
0.0
 10
247.936580
 20
251.676548
 30
0.0
  0
LINE
  5
257
100
AcDbEntity
  8
Layer_1
 62
1
100
AcDbLine
 10
247.936580
 20
251.676548
 30
0.0
 11
247.936580
 21
251.676548
 31
0.0
  0
LINE
  5
258
100
AcDbEntity
  8
Layer_1
 62
1
100
AcDbLine
 10
264.840970
 20
238.902462
 30
0.0
 11
271.912040
 21
231.831390
 31
0.0
  0
LINE
  5
259
100
AcDbEntity
  8
Layer_1
 62
1
100
AcDbLine
 10
271.912040
 20
231.831390
 30
0.0
 11
269.790720
 21
229.710074
 31
0.0
  0
LINE
  5
25a
100
AcDbEntity
  8
Layer_1
 62
1
100
AcDbLine
 10
269.790720
 20
229.710074
 30
0.0
 11
262.719650
 21
236.781146
 31
0.0
  0
LINE
  5
25b
100
AcDbEntity
  8
Layer_1
 62
1
100
AcDbLine
 10
262.719650
 20
236.781146
 30
0.0
 11
264.840970
 21
238.902462
 31
0.0
  0
SPLINE
  5
25c
100
AcDbEntity
  8
Layer_1
 62
1
100
AcDbSpline
 70
8
 71
3
 72
8
 73
4
 74
0
 40
0
 40
0
 40
0
 40
0
 40
1
 40
1
 40
1
 40
1
 10
280.815120
 20
211.460386
 30
0.0
 10
280.339532
 20
212.172159
 30
0.0
 10
280.530997
 20
213.134706
 30
0.0
 10
281.242770
 20
213.610295
 30
0.0
  0
SPLINE
  5
25d
100
AcDbEntity
  8
Layer_1
 62
1
100
AcDbSpline
 70
8
 71
3
 72
8
 73
4
 74
0
 40
0
 40
0
 40
0
 40
0
 40
1
 40
1
 40
1
 40
1
 10
281.242770
 20
213.610295
 30
0.0
 10
281.954541
 20
214.085885
 30
0.0
 10
282.917088
 20
213.894424
 30
0.0
 10
283.392680
 20
213.182653
 30
0.0
  0
SPLINE
  5
25e
100
AcDbEntity
  8
Layer_1
 62
1
100
AcDbSpline
 70
8
 71
3
 72
8
 73
4
 74
0
 40
0
 40
0
 40
0
 40
0
 40
1
 40
1
 40
1
 40
1
 10
283.392680
 20
213.182653
 30
0.0
 10
283.621067
 20
212.840847
 30
0.0
 10
283.704317
 20
212.422314
 30
0.0
 10
283.624117
 20
212.019127
 30
0.0
  0
SPLINE
  5
25f
100
AcDbEntity
  8
Layer_1
 62
1
100
AcDbSpline
 70
8
 71
3
 72
8
 73
4
 74
0
 40
0
 40
0
 40
0
 40
0
 40
1
 40
1
 40
1
 40
1
 10
283.624117
 20
212.019127
 30
0.0
 10
283.543917
 20
211.615940
 30
0.0
 10
283.306837
 20
211.261126
 30
0.0
 10
282.965030
 20
211.032740
 30
0.0
  0
SPLINE
  5
260
100
AcDbEntity
  8
Layer_1
 62
1
100
AcDbSpline
 70
8
 71
3
 72
8
 73
4
 74
0
 40
0
 40
0
 40
0
 40
0
 40
1
 40
1
 40
1
 40
1
 10
282.965030
 20
211.032740
 30
0.0
 10
282.253257
 20
210.557150
 30
0.0
 10
281.290710
 20
210.748614
 30
0.0
 10
280.815120
 20
211.460386
 30
0.0
  0
LINE
  5
261
100
AcDbEntity
  8
Layer_1
 62
1
100
AcDbLine
 10
280.815120
 20
211.460386
 30
0.0
 11
280.815120
 21
211.460386
 31
0.0
  0
LINE
  5
262
100
AcDbEntity
  8
Layer_1
 62
1
100
AcDbLine
 10
291.544300
 20
193.189640
 30
0.0
 11
295.371140
 21
183.950840
 31
0.0
  0
LINE
  5
263
100
AcDbEntity
  8
Layer_1
 62
1
100
AcDbLine
 10
295.371140
 20
183.950840
 30
0.0
 11
292.599510
 21
182.802790
 31
0.0
  0
LINE
  5
264
100
AcDbEntity
  8
Layer_1
 62
1
100
AcDbLine
 10
292.599510
 20
182.802790
 30
0.0
 11
288.772670
 21
192.041590
 31
0.0
  0
LINE
  5
265
100
AcDbEntity
  8
Layer_1
 62
1
100
AcDbLine
 10
288.772670
 20
192.041590
 30
0.0
 11
291.544300
 21
193.189640
 31
0.0
  0
SPLINE
  5
266
100
AcDbEntity
  8
Layer_1
 62
1
100
AcDbSpline
 70
8
 71
3
 72
8
 73
4
 74
0
 40
0
 40
0
 40
0
 40
0
 40
1
 40
1
 40
1
 40
1
 10
295.800910
 20
161.723430
 30
0.0
 10
295.633902
 20
162.563021
 30
0.0
 10
296.179139
 20
163.379031
 30
0.0
 10
297.018730
 20
163.546040
 30
0.0
  0
SPLINE
  5
267
100
AcDbEntity
  8
Layer_1
 62
1
100
AcDbSpline
 70
8
 71
3
 72
8
 73
4
 74
0
 40
0
 40
0
 40
0
 40
0
 40
1
 40
1
 40
1
 40
1
 10
297.018730
 20
163.546040
 30
0.0
 10
297.858321
 20
163.713041
 30
0.0
 10
298.674326
 20
163.167801
 30
0.0
 10
298.841330
 20
162.328210
 30
0.0
  0
SPLINE
  5
268
100
AcDbEntity
  8
Layer_1
 62
1
100
AcDbSpline
 70
8
 71
3
 72
8
 73
4
 74
0
 40
0
 40
0
 40
0
 40
0
 40
1
 40
1
 40
1
 40
1
 10
298.841330
 20
162.328210
 30
0.0
 10
299.008338
 20
161.488619
 30
0.0
 10
298.463101
 20
160.672609
 30
0.0
 10
297.623510
 20
160.505600
 30
0.0
  0
SPLINE
  5
269
100
AcDbEntity
  8
Layer_1
 62
1
100
AcDbSpline
 70
8
 71
3
 72
8
 73
4
 74
0
 40
0
 40
0
 40
0
 40
0
 40
1
 40
1
 40
1
 40
1
 10
297.623510
 20
160.505600
 30
0.0
 10
296.783919
 20
160.338599
 30
0.0
 10
295.967914
 20
160.883839
 30
0.0
 10
295.800910
 20
161.723430
 30
0.0
  0
LINE
  5
26a
100
AcDbEntity
  8
Layer_1
 62
1
100
AcDbLine
 10
295.800910
 20
161.723430
 30
0.0
 11
295.800910
 21
161.723430
 31
0.0
  0
LINE
  5
26b
100
AcDbEntity
  8
Layer_1
 62
1
100
AcDbLine
 10
298.721470
 20
140.737570
 30
0.0
 11
298.721470
 21
130.737570
 31
0.0
  0
LINE
  5
26c
100
AcDbEntity
  8
Layer_1
 62
1
100
AcDbLine
 10
298.721470
 20
130.737570
 30
0.0
 11
295.721480
 21
130.737570
 31
0.0
  0
LINE
  5
26d
100
AcDbEntity
  8
Layer_1
 62
1
100
AcDbLine
 10
295.721480
 20
130.737570
 30
0.0
 11
295.721480
 21
140.737570
 31
0.0
  0
LINE
  5
26e
100
AcDbEntity
  8
Layer_1
 62
1
100
AcDbLine
 10
295.721480
 20
140.737570
 30
0.0
 11
298.721470
 21
140.737570
 31
0.0
  0
SPLINE
  5
26f
100
AcDbEntity
  8
Layer_1
 62
1
100
AcDbSpline
 70
8
 71
3
 72
8
 73
4
 74
0
 40
0
 40
0
 40
0
 40
0
 40
1
 40
1
 40
1
 40
1
 10
290.612440
 20
110.037650
 30
0.0
 10
290.779444
 20
110.877241
 30
0.0
 10
291.595449
 20
111.422481
 30
0.0
 10
292.435040
 20
111.255480
 30
0.0
  0
SPLINE
  5
270
100
AcDbEntity
  8
Layer_1
 62
1
100
AcDbSpline
 70
8
 71
3
 72
8
 73
4
 74
0
 40
0
 40
0
 40
0
 40
0
 40
1
 40
1
 40
1
 40
1
 10
292.435040
 20
111.255480
 30
0.0
 10
293.274627
 20
111.088471
 30
0.0
 10
293.819861
 20
110.272468
 30
0.0
 10
293.652860
 20
109.432880
 30
0.0
  0
SPLINE
  5
271
100
AcDbEntity
  8
Layer_1
 62
1
100
AcDbSpline
 70
8
 71
3
 72
8
 73
4
 74
0
 40
0
 40
0
 40
0
 40
0
 40
1
 40
1
 40
1
 40
1
 10
293.652860
 20
109.432880
 30
0.0
 10
293.485856
 20
108.593289
 30
0.0
 10
292.669851
 20
108.048049
 30
0.0
 10
291.830260
 20
108.215050
 30
0.0
  0
SPLINE
  5
272
100
AcDbEntity
  8
Layer_1
 62
1
100
AcDbSpline
 70
8
 71
3
 72
8
 73
4
 74
0
 40
0
 40
0
 40
0
 40
0
 40
1
 40
1
 40
1
 40
1
 10
291.830260
 20
108.215050
 30
0.0
 10
290.990673
 20
108.382059
 30
0.0
 10
290.445439
 20
109.198062
 30
0.0
 10
290.612440
 20
110.037650
 30
0.0
  0
LINE
  5
273
100
AcDbEntity
  8
Layer_1
 62
1
100
AcDbLine
 10
290.612440
 20
110.037650
 30
0.0
 11
290.612440
 21
110.037650
 31
0.0
  0
LINE
  5
274
100
AcDbEntity
  8
Layer_1
 62
1
100
AcDbLine
 10
285.279750
 20
89.531610
 30
0.0
 11
281.452910
 21
80.292810
 31
0.0
  0
LINE
  5
275
100
AcDbEntity
  8
Layer_1
 62
1
100
AcDbLine
 10
281.452910
 20
80.292810
 30
0.0
 11
278.681280
 21
81.440850
 31
0.0
  0
LINE
  5
276
100
AcDbEntity
  8
Layer_1
 62
1
100
AcDbLine
 10
278.681280
 20
81.440850
 30
0.0
 11
282.508120
 21
90.679660
 31
0.0
  0
LINE
  5
277
100
AcDbEntity
  8
Layer_1
 62
1
100
AcDbLine
 10
282.508120
 20
90.679660
 30
0.0
 11
285.279750
 21
89.531610
 31
0.0
  0
SPLINE
  5
278
100
AcDbEntity
  8
Layer_1
 62
1
100
AcDbSpline
 70
8
 71
3
 72
8
 73
4
 74
0
 40
0
 40
0
 40
0
 40
0
 40
1
 40
1
 40
1
 40
1
 10
266.039620
 20
64.271770
 30
0.0
 10
266.515209
 20
64.983543
 30
0.0
 10
267.477756
 20
65.175009
 30
0.0
 10
268.189530
 20
64.699420
 30
0.0
  0
SPLINE
  5
279
100
AcDbEntity
  8
Layer_1
 62
1
100
AcDbSpline
 70
8
 71
3
 72
8
 73
4
 74
0
 40
0
 40
0
 40
0
 40
0
 40
1
 40
1
 40
1
 40
1
 10
268.189530
 20
64.699420
 30
0.0
 10
268.901297
 20
64.223825
 30
0.0
 10
269.092753
 20
63.261278
 30
0.0
 10
268.617160
 20
62.549510
 30
0.0
  0
SPLINE
  5
27a
100
AcDbEntity
  8
Layer_1
 62
1
100
AcDbSpline
 70
8
 71
3
 72
8
 73
4
 74
0
 40
0
 40
0
 40
0
 40
0
 40
1
 40
1
 40
1
 40
1
 10
268.617160
 20
62.549510
 30
0.0
 10
268.141568
 20
61.837746
 30
0.0
 10
267.179029
 20
61.646286
 30
0.0
 10
266.467260
 20
62.121870
 30
0.0
  0
SPLINE
  5
27b
100
AcDbEntity
  8
Layer_1
 62
1
100
AcDbSpline
 70
8
 71
3
 72
8
 73
4
 74
0
 40
0
 40
0
 40
0
 40
0
 40
1
 40
1
 40
1
 40
1
 10
266.467260
 20
62.121870
 30
0.0
 10
265.755496
 20
62.597462
 30
0.0
 10
265.564036
 20
63.560001
 30
0.0
 10
266.039620
 20
64.271770
 30
0.0
  0
LINE
  5
27c
100
AcDbEntity
  8
Layer_1
 62
1
100
AcDbLine
 10
266.039620
 20
64.271770
 30
0.0
 11
266.039620
 21
64.271770
 31
0.0
  0
LINE
  5
27d
100
AcDbEntity
  8
Layer_1
 62
1
100
AcDbLine
 10
253.265530
 20
47.367390
 30
0.0
 11
246.194460
 21
40.296320
 31
0.0
  0
LINE
  5
27e
100
AcDbEntity
  8
Layer_1
 62
1
100
AcDbLine
 10
246.194460
 20
40.296320
 30
0.0
 11
244.073140
 21
42.417630
 31
0.0
  0
LINE
  5
27f
100
AcDbEntity
  8
Layer_1
 62
1
100
AcDbLine
 10
244.073140
 20
42.417630
 30
0.0
 11
251.144210
 21
49.488710
 31
0.0
  0
LINE
  5
280
100
AcDbEntity
  8
Layer_1
 62
1
100
AcDbLine
 10
251.144210
 20
49.488710
 30
0.0
 11
253.265530
 21
47.367390
 31
0.0
  0
SPLINE
  5
281
100
AcDbEntity
  8
Layer_1
 62
1
100
AcDbSpline
 70
8
 71
3
 72
8
 73
4
 74
0
 40
0
 40
0
 40
0
 40
0
 40
1
 40
1
 40
1
 40
1
 10
225.823460
 20
31.393230
 30
0.0
 10
226.535229
 20
31.868814
 30
0.0
 10
227.497768
 20
31.677354
 30
0.0
 10
227.973360
 20
30.965590
 30
0.0
  0
SPLINE
  5
282
100
AcDbEntity
  8
Layer_1
 62
1
100
AcDbSpline
 70
8
 71
3
 72
8
 73
4
 74
0
 40
0
 40
0
 40
0
 40
0
 40
1
 40
1
 40
1
 40
1
 10
227.973360
 20
30.965590
 30
0.0
 10
228.448951
 20
30.253819
 30
0.0
 10
228.257490
 20
29.291272
 30
0.0
 10
227.545720
 20
28.815680
 30
0.0
  0
SPLINE
  5
283
100
AcDbEntity
  8
Layer_1
 62
1
100
AcDbSpline
 70
8
 71
3
 72
8
 73
4
 74
0
 40
0
 40
0
 40
0
 40
0
 40
1
 40
1
 40
1
 40
1
 10
227.545720
 20
28.815680
 30
0.0
 10
226.833949
 20
28.340089
 30
0.0
 10
225.871402
 20
28.531550
 30
0.0
 10
225.395810
 20
29.243320
 30
0.0
  0
SPLINE
  5
284
100
AcDbEntity
  8
Layer_1
 62
1
100
AcDbSpline
 70
8
 71
3
 72
8
 73
4
 74
0
 40
0
 40
0
 40
0
 40
0
 40
1
 40
1
 40
1
 40
1
 10
225.395810
 20
29.243320
 30
0.0
 10
224.920221
 20
29.955094
 30
0.0
 10
225.111687
 20
30.917641
 30
0.0
 10
225.823460
 20
31.393230
 30
0.0
  0
LINE
  5
285
100
AcDbEntity
  8
Layer_1
 62
1
100
AcDbLine
 10
225.823460
 20
31.393230
 30
0.0
 11
225.823460
 21
31.393230
 31
0.0
  0
LINE
  5
286
100
AcDbEntity
  8
Layer_1
 62
1
100
AcDbLine
 10
207.552710
 20
20.664030
 30
0.0
 11
198.313910
 21
16.837200
 31
0.0
  0
LINE
  5
287
100
AcDbEntity
  8
Layer_1
 62
1
100
AcDbLine
 10
198.313910
 20
16.837200
 30
0.0
 11
197.165860
 21
19.608830
 31
0.0
  0
LINE
  5
288
100
AcDbEntity
  8
Layer_1
 62
1
100
AcDbLine
 10
197.165860
 20
19.608830
 30
0.0
 11
206.404660
 21
23.435660
 31
0.0
  0
LINE
  5
289
100
AcDbEntity
  8
Layer_1
 62
1
100
AcDbLine
 10
206.404660
 20
23.435660
 30
0.0
 11
207.552710
 21
20.664030
 31
0.0
  0
SPLINE
  5
28a
100
AcDbEntity
  8
Layer_1
 62
1
100
AcDbSpline
 70
8
 71
3
 72
8
 73
4
 74
0
 40
0
 40
0
 40
0
 40
0
 40
1
 40
1
 40
1
 40
1
 10
60.531830
 20
233.573478
 30
0.0
 10
60.056239
 20
232.861707
 30
0.0
 10
59.093692
 20
232.670244
 30
0.0
 10
58.381920
 20
233.145834
 30
0.0
  0
SPLINE
  5
28b
100
AcDbEntity
  8
Layer_1
 62
1
100
AcDbSpline
 70
8
 71
3
 72
8
 73
4
 74
0
 40
0
 40
0
 40
0
 40
0
 40
1
 40
1
 40
1
 40
1
 10
58.381920
 20
233.145834
 30
0.0
 10
57.670147
 20
233.621423
 30
0.0
 10
57.478681
 20
234.583970
 30
0.0
 10
57.954270
 20
235.295744
 30
0.0
  0
SPLINE
  5
28c
100
AcDbEntity
  8
Layer_1
 62
1
100
AcDbSpline
 70
8
 71
3
 72
8
 73
4
 74
0
 40
0
 40
0
 40
0
 40
0
 40
1
 40
1
 40
1
 40
1
 10
57.954270
 20
235.295744
 30
0.0
 10
58.429861
 20
236.007516
 30
0.0
 10
59.392408
 20
236.198979
 30
0.0
 10
60.104180
 20
235.723389
 30
0.0
  0
SPLINE
  5
28d
100
AcDbEntity
  8
Layer_1
 62
1
100
AcDbSpline
 70
8
 71
3
 72
8
 73
4
 74
0
 40
0
 40
0
 40
0
 40
0
 40
1
 40
1
 40
1
 40
1
 10
60.104180
 20
235.723389
 30
0.0
 10
60.445986
 20
235.495003
 30
0.0
 10
60.683066
 20
235.140189
 30
0.0
 10
60.763266
 20
234.737003
 30
0.0
  0
SPLINE
  5
28e
100
AcDbEntity
  8
Layer_1
 62
1
100
AcDbSpline
 70
8
 71
3
 72
8
 73
4
 74
0
 40
0
 40
0
 40
0
 40
0
 40
1
 40
1
 40
1
 40
1
 10
60.763266
 20
234.737003
 30
0.0
 10
60.843466
 20
234.333816
 30
0.0
 10
60.760216
 20
233.915284
 30
0.0
 10
60.531830
 20
233.573478
 30
0.0
  0
LINE
  5
28f
100
AcDbEntity
  8
Layer_1
 62
1
100
AcDbLine
 10
60.531830
 20
233.573478
 30
0.0
 11
60.531830
 21
233.573478
 31
0.0
  0
LINE
  5
290
100
AcDbEntity
  8
Layer_1
 62
1
100
AcDbLine
 10
73.305920
 20
250.477869
 30
0.0
 11
80.376990
 21
257.548940
 31
0.0
  0
LINE
  5
291
100
AcDbEntity
  8
Layer_1
 62
1
100
AcDbLine
 10
80.376990
 20
257.548940
 30
0.0
 11
82.498310
 21
255.427624
 31
0.0
  0
LINE
  5
292
100
AcDbEntity
  8
Layer_1
 62
1
100
AcDbLine
 10
82.498310
 20
255.427624
 30
0.0
 11
75.427230
 21
248.356552
 31
0.0
  0
LINE
  5
293
100
AcDbEntity
  8
Layer_1
 62
1
100
AcDbLine
 10
75.427230
 20
248.356552
 30
0.0
 11
73.305920
 21
250.477869
 31
0.0
  0
SPLINE
  5
294
100
AcDbEntity
  8
Layer_1
 62
1
100
AcDbSpline
 70
8
 71
3
 72
8
 73
4
 74
0
 40
0
 40
0
 40
0
 40
0
 40
1
 40
1
 40
1
 40
1
 10
100.747970
 20
266.452051
 30
0.0
 10
100.036198
 20
265.976461
 30
0.0
 10
99.073651
 20
266.167924
 30
0.0
 10
98.598060
 20
266.879695
 30
0.0
  0
SPLINE
  5
295
100
AcDbEntity
  8
Layer_1
 62
1
100
AcDbSpline
 70
8
 71
3
 72
8
 73
4
 74
0
 40
0
 40
0
 40
0
 40
0
 40
1
 40
1
 40
1
 40
1
 10
98.598060
 20
266.879695
 30
0.0
 10
98.369674
 20
267.221501
 30
0.0
 10
98.286424
 20
267.640033
 30
0.0
 10
98.366624
 20
268.043220
 30
0.0
  0
SPLINE
  5
296
100
AcDbEntity
  8
Layer_1
 62
1
100
AcDbSpline
 70
8
 71
3
 72
8
 73
4
 74
0
 40
0
 40
0
 40
0
 40
0
 40
1
 40
1
 40
1
 40
1
 10
98.366624
 20
268.043220
 30
0.0
 10
98.446824
 20
268.446406
 30
0.0
 10
98.683904
 20
268.801220
 30
0.0
 10
99.025710
 20
269.029606
 30
0.0
  0
SPLINE
  5
297
100
AcDbEntity
  8
Layer_1
 62
1
100
AcDbSpline
 70
8
 71
3
 72
8
 73
4
 74
0
 40
0
 40
0
 40
0
 40
0
 40
1
 40
1
 40
1
 40
1
 10
99.025710
 20
269.029606
 30
0.0
 10
99.737482
 20
269.505196
 30
0.0
 10
100.700029
 20
269.313734
 30
0.0
 10
101.175620
 20
268.601963
 30
0.0
  0
SPLINE
  5
298
100
AcDbEntity
  8
Layer_1
 62
1
100
AcDbSpline
 70
8
 71
3
 72
8
 73
4
 74
0
 40
0
 40
0
 40
0
 40
0
 40
1
 40
1
 40
1
 40
1
 10
101.175620
 20
268.601963
 30
0.0
 10
101.404006
 20
268.260157
 30
0.0
 10
101.487257
 20
267.841624
 30
0.0
 10
101.407057
 20
267.438438
 30
0.0
  0
SPLINE
  5
299
100
AcDbEntity
  8
Layer_1
 62
1
100
AcDbSpline
 70
8
 71
3
 72
8
 73
4
 74
0
 40
0
 40
0
 40
0
 40
0
 40
1
 40
1
 40
1
 40
1
 10
101.407057
 20
267.438438
 30
0.0
 10
101.326857
 20
267.035251
 30
0.0
 10
101.089776
 20
266.680437
 30
0.0
 10
100.747970
 20
266.452051
 30
0.0
  0
LINE
  5
29a
100
AcDbEntity
  8
Layer_1
 62
1
100
AcDbLine
 10
100.747970
 20
266.452051
 30
0.0
 11
100.747970
 21
266.452051
 31
0.0
  0
LINE
  5
29b
100
AcDbEntity
  8
Layer_1
 62
1
100
AcDbLine
 10
119.018720
 20
277.181237
 30
0.0
 11
128.257520
 21
281.008073
 31
0.0
  0
LINE
  5
29c
100
AcDbEntity
  8
Layer_1
 62
1
100
AcDbLine
 10
128.257520
 20
281.008073
 30
0.0
 11
129.405560
 21
278.236440
 31
0.0
  0
LINE
  5
29d
100
AcDbEntity
  8
Layer_1
 62
1
100
AcDbLine
 10
129.405560
 20
278.236440
 30
0.0
 11
120.166760
 21
274.409604
 31
0.0
  0
LINE
  5
29e
100
AcDbEntity
  8
Layer_1
 62
1
100
AcDbLine
 10
120.166760
 20
274.409604
 30
0.0
 11
119.018720
 21
277.181237
 31
0.0
  0
SPLINE
  5
29f
100
AcDbEntity
  8
Layer_1
 62
5
100
AcDbSpline
 70
8
 71
3
 72
8
 73
4
 74
0
 40
0
 40
0
 40
0
 40
0
 40
1
 40
1
 40
1
 40
1
 10
127.675300
 20
226.785011
 30
0.0
 10
125.305724
 20
226.785009
 30
0.0
 10
123.033199
 20
227.726317
 30
0.0
 10
121.357655
 20
229.401859
 30
0.0
  0
SPLINE
  5
2a0
100
AcDbEntity
  8
Layer_1
 62
5
100
AcDbSpline
 70
8
 71
3
 72
8
 73
4
 74
0
 40
0
 40
0
 40
0
 40
0
 40
1
 40
1
 40
1
 40
1
 10
121.357655
 20
229.401859
 30
0.0
 10
119.682111
 20
231.077401
 30
0.0
 10
118.740800
 20
233.349925
 30
0.0
 10
118.740800
 20
235.719501
 30
0.0
  0
SPLINE
  5
2a1
100
AcDbEntity
  8
Layer_1
 62
5
100
AcDbSpline
 70
8
 71
3
 72
8
 73
4
 74
0
 40
0
 40
0
 40
0
 40
0
 40
1
 40
1
 40
1
 40
1
 10
118.740800
 20
235.719501
 30
0.0
 10
118.740800
 20
238.089077
 30
0.0
 10
119.682111
 20
240.361601
 30
0.0
 10
121.357655
 20
242.037144
 30
0.0
  0
SPLINE
  5
2a2
100
AcDbEntity
  8
Layer_1
 62
5
100
AcDbSpline
 70
8
 71
3
 72
8
 73
4
 74
0
 40
0
 40
0
 40
0
 40
0
 40
1
 40
1
 40
1
 40
1
 10
121.357655
 20
242.037144
 30
0.0
 10
123.033199
 20
243.712687
 30
0.0
 10
125.305724
 20
244.653995
 30
0.0
 10
127.675300
 20
244.653993
 30
0.0
  0
SPLINE
  5
2a3
100
AcDbEntity
  8
Layer_1
 62
5
100
AcDbSpline
 70
8
 71
3
 72
8
 73
4
 74
0
 40
0
 40
0
 40
0
 40
0
 40
1
 40
1
 40
1
 40
1
 10
127.675300
 20
244.653993
 30
0.0
 10
130.044874
 20
244.653993
 30
0.0
 10
132.317397
 20
243.712683
 30
0.0
 10
133.992939
 20
242.037141
 30
0.0
  0
SPLINE
  5
2a4
100
AcDbEntity
  8
Layer_1
 62
5
100
AcDbSpline
 70
8
 71
3
 72
8
 73
4
 74
0
 40
0
 40
0
 40
0
 40
0
 40
1
 40
1
 40
1
 40
1
 10
133.992939
 20
242.037141
 30
0.0
 10
135.668481
 20
240.361598
 30
0.0
 10
136.609790
 20
238.089075
 30
0.0
 10
136.609790
 20
235.719501
 30
0.0
  0
SPLINE
  5
2a5
100
AcDbEntity
  8
Layer_1
 62
5
100
AcDbSpline
 70
8
 71
3
 72
8
 73
4
 74
0
 40
0
 40
0
 40
0
 40
0
 40
1
 40
1
 40
1
 40
1
 10
136.609790
 20
235.719501
 30
0.0
 10
136.609790
 20
230.785119
 30
0.0
 10
132.609682
 20
226.785012
 30
0.0
 10
127.675300
 20
226.785011
 30
0.0
  0
LINE
  5
2a6
100
AcDbEntity
  8
Layer_1
 62
5
100
AcDbLine
 10
127.675300
 20
226.785011
 30
0.0
 11
127.675300
 21
226.785011
 31
0.0
  0
SPLINE
  5
2a7
100
AcDbEntity
  8
Layer_1
 62
5
100
AcDbSpline
 70
8
 71
3
 72
8
 73
4
 74
0
 40
0
 40
0
 40
0
 40
0
 40
1
 40
1
 40
1
 40
1
 10
127.675300
 20
234.296302
 30
0.0
 10
127.297844
 20
234.296301
 30
0.0
 10
126.935847
 20
234.446245
 30
0.0
 10
126.668945
 20
234.713147
 30
0.0
  0
SPLINE
  5
2a8
100
AcDbEntity
  8
Layer_1
 62
5
100
AcDbSpline
 70
8
 71
3
 72
8
 73
4
 74
0
 40
0
 40
0
 40
0
 40
0
 40
1
 40
1
 40
1
 40
1
 10
126.668945
 20
234.713147
 30
0.0
 10
126.402043
 20
234.980048
 30
0.0
 10
126.252100
 20
235.342045
 30
0.0
 10
126.252100
 20
235.719501
 30
0.0
  0
SPLINE
  5
2a9
100
AcDbEntity
  8
Layer_1
 62
5
100
AcDbSpline
 70
8
 71
3
 72
8
 73
4
 74
0
 40
0
 40
0
 40
0
 40
0
 40
1
 40
1
 40
1
 40
1
 10
126.252100
 20
235.719501
 30
0.0
 10
126.252100
 20
236.096957
 30
0.0
 10
126.402044
 20
236.458953
 30
0.0
 10
126.668946
 20
236.725855
 30
0.0
  0
SPLINE
  5
2aa
100
AcDbEntity
  8
Layer_1
 62
5
100
AcDbSpline
 70
8
 71
3
 72
8
 73
4
 74
0
 40
0
 40
0
 40
0
 40
0
 40
1
 40
1
 40
1
 40
1
 10
126.668946
 20
236.725855
 30
0.0
 10
126.935848
 20
236.992756
 30
0.0
 10
127.297844
 20
237.142700
 30
0.0
 10
127.675300
 20
237.142699
 30
0.0
  0
SPLINE
  5
2ab
100
AcDbEntity
  8
Layer_1
 62
5
100
AcDbSpline
 70
8
 71
3
 72
8
 73
4
 74
0
 40
0
 40
0
 40
0
 40
0
 40
1
 40
1
 40
1
 40
1
 10
127.675300
 20
237.142699
 30
0.0
 10
128.052756
 20
237.142700
 30
0.0
 10
128.414752
 20
236.992756
 30
0.0
 10
128.681654
 20
236.725855
 30
0.0
  0
SPLINE
  5
2ac
100
AcDbEntity
  8
Layer_1
 62
5
100
AcDbSpline
 70
8
 71
3
 72
8
 73
4
 74
0
 40
0
 40
0
 40
0
 40
0
 40
1
 40
1
 40
1
 40
1
 10
128.681654
 20
236.725855
 30
0.0
 10
128.948556
 20
236.458953
 30
0.0
 10
129.098500
 20
236.096957
 30
0.0
 10
129.098500
 20
235.719501
 30
0.0
  0
SPLINE
  5
2ad
100
AcDbEntity
  8
Layer_1
 62
5
100
AcDbSpline
 70
8
 71
3
 72
8
 73
4
 74
0
 40
0
 40
0
 40
0
 40
0
 40
1
 40
1
 40
1
 40
1
 10
129.098500
 20
235.719501
 30
0.0
 10
129.098500
 20
235.342045
 30
0.0
 10
128.948557
 20
234.980048
 30
0.0
 10
128.681655
 20
234.713147
 30
0.0
  0
SPLINE
  5
2ae
100
AcDbEntity
  8
Layer_1
 62
5
100
AcDbSpline
 70
8
 71
3
 72
8
 73
4
 74
0
 40
0
 40
0
 40
0
 40
0
 40
1
 40
1
 40
1
 40
1
 10
128.681655
 20
234.713147
 30
0.0
 10
128.414753
 20
234.446245
 30
0.0
 10
128.052756
 20
234.296301
 30
0.0
 10
127.675300
 20
234.296302
 30
0.0
  0
LINE
  5
2af
100
AcDbEntity
  8
Layer_1
 62
5
100
AcDbLine
 10
127.675300
 20
234.296302
 30
0.0
 11
127.675300
 21
234.296302
 31
0.0
  0
LINE
  5
2b0
100
AcDbEntity
  8
Layer_1
 62
6
100
AcDbLine
 10
103.189450
 20
193.983180
 30
0.0
 11
100.434480
 21
196.695540
 31
0.0
  0
LINE
  5
2b1
100
AcDbEntity
  8
Layer_1
 62
6
100
AcDbLine
 10
100.434480
 20
196.695540
 30
0.0
 11
115.073590
 21
211.564671
 31
0.0
  0
LINE
  5
2b2
100
AcDbEntity
  8
Layer_1
 62
6
100
AcDbLine
 10
115.073590
 20
211.564671
 30
0.0
 11
117.828560
 21
208.852312
 31
0.0
  0
LINE
  5
2b3
100
AcDbEntity
  8
Layer_1
 62
6
100
AcDbLine
 10
117.828560
 20
208.852312
 30
0.0
 11
103.189450
 21
193.983180
 31
0.0
  0
LINE
  5
2b4
100
AcDbEntity
  8
Layer_1
 62
5
100
AcDbLine
 10
138.597930
 20
205.107765
 30
0.0
 11
107.257580
 21
173.274970
 31
0.0
  0
LINE
  5
2b5
100
AcDbEntity
  8
Layer_1
 62
5
100
AcDbLine
 10
107.257580
 20
173.274970
 30
0.0
 11
89.711440
 21
198.746127
 31
0.0
  0
SPLINE
  5
2b6
100
AcDbEntity
  8
Layer_1
 62
5
100
AcDbSpline
 70
8
 71
3
 72
8
 73
4
 74
0
 40
0
 40
0
 40
0
 40
0
 40
1
 40
1
 40
1
 40
1
 10
89.711440
 20
198.746127
 30
0.0
 10
92.678210
 20
207.117088
 30
0.0
 10
82.313280
 20
215.878068
 30
0.0
 10
88.994000
 20
222.663762
 30
0.0
  0
SPLINE
  5
2b7
100
AcDbEntity
  8
Layer_1
 62
5
100
AcDbSpline
 70
8
 71
3
 72
8
 73
4
 74
0
 40
0
 40
0
 40
0
 40
0
 40
1
 40
1
 40
1
 40
1
 10
88.994000
 20
222.663762
 30
0.0
 10
95.770060
 20
229.546301
 30
0.0
 10
104.851320
 20
218.926984
 30
0.0
 10
112.967760
 20
222.259830
 30
0.0
  0
LINE
  5
2b8
100
AcDbEntity
  8
Layer_1
 62
5
100
AcDbLine
 10
112.967760
 20
222.259830
 30
0.0
 11
138.597930
 21
205.107765
 31
0.0
  0
SPLINE
  5
2b9
100
AcDbEntity
  8
Layer_1
 62
1
100
AcDbSpline
 70
8
 71
3
 72
8
 73
4
 74
0
 40
0
 40
0
 40
0
 40
0
 40
1
 40
1
 40
1
 40
1
 10
94.262790
 20
217.056745
 30
0.0
 10
94.488506
 20
217.400322
 30
0.0
 10
94.841463
 20
217.640161
 30
0.0
 10
95.244014
 20
217.723499
 30
0.0
  0
SPLINE
  5
2ba
100
AcDbEntity
  8
Layer_1
 62
1
100
AcDbSpline
 70
8
 71
3
 72
8
 73
4
 74
0
 40
0
 40
0
 40
0
 40
0
 40
1
 40
1
 40
1
 40
1
 10
95.244014
 20
217.723499
 30
0.0
 10
95.646565
 20
217.806838
 30
0.0
 10
96.065735
 20
217.726850
 30
0.0
 10
96.409310
 20
217.501132
 30
0.0
  0
SPLINE
  5
2bb
100
AcDbEntity
  8
Layer_1
 62
1
100
AcDbSpline
 70
8
 71
3
 72
8
 73
4
 74
0
 40
0
 40
0
 40
0
 40
0
 40
1
 40
1
 40
1
 40
1
 10
96.409310
 20
217.501132
 30
0.0
 10
97.124763
 20
217.031101
 30
0.0
 10
97.323718
 20
216.070077
 30
0.0
 10
96.853690
 20
215.354622
 30
0.0
  0
SPLINE
  5
2bc
100
AcDbEntity
  8
Layer_1
 62
1
100
AcDbSpline
 70
8
 71
3
 72
8
 73
4
 74
0
 40
0
 40
0
 40
0
 40
0
 40
1
 40
1
 40
1
 40
1
 10
96.853690
 20
215.354622
 30
0.0
 10
96.383663
 20
214.639165
 30
0.0
 10
95.422638
 20
214.440204
 30
0.0
 10
94.707180
 20
214.910230
 30
0.0
  0
SPLINE
  5
2bd
100
AcDbEntity
  8
Layer_1
 62
1
100
AcDbSpline
 70
8
 71
3
 72
8
 73
4
 74
0
 40
0
 40
0
 40
0
 40
0
 40
1
 40
1
 40
1
 40
1
 10
94.707180
 20
214.910230
 30
0.0
 10
94.363604
 20
215.135945
 30
0.0
 10
94.123766
 20
215.488901
 30
0.0
 10
94.040426
 20
215.891451
 30
0.0
  0
SPLINE
  5
2be
100
AcDbEntity
  8
Layer_1
 62
1
100
AcDbSpline
 70
8
 71
3
 72
8
 73
4
 74
0
 40
0
 40
0
 40
0
 40
0
 40
1
 40
1
 40
1
 40
1
 10
94.040426
 20
215.891451
 30
0.0
 10
93.957087
 20
216.294001
 30
0.0
 10
94.037074
 20
216.713170
 30
0.0
 10
94.262790
 20
217.056745
 30
0.0
  0
LINE
  5
2bf
100
AcDbEntity
  8
Layer_1
 62
1
100
AcDbLine
 10
94.262790
 20
217.056745
 30
0.0
 11
94.262790
 21
217.056745
 31
0.0
  0
SPLINE
  5
2c0
100
AcDbEntity
  8
Layer_1
 62
1
100
AcDbSpline
 70
8
 71
3
 72
8
 73
4
 74
0
 40
0
 40
0
 40
0
 40
0
 40
1
 40
1
 40
1
 40
1
 10
118.395860
 20
193.325260
 30
0.0
 10
118.621576
 20
193.668837
 30
0.0
 10
118.974532
 20
193.908677
 30
0.0
 10
119.377083
 20
193.992016
 30
0.0
  0
SPLINE
  5
2c1
100
AcDbEntity
  8
Layer_1
 62
1
100
AcDbSpline
 70
8
 71
3
 72
8
 73
4
 74
0
 40
0
 40
0
 40
0
 40
0
 40
1
 40
1
 40
1
 40
1
 10
119.377083
 20
193.992016
 30
0.0
 10
119.779634
 20
194.075355
 30
0.0
 10
120.198804
 20
193.995368
 30
0.0
 10
120.542380
 20
193.769650
 30
0.0
  0
SPLINE
  5
2c2
100
AcDbEntity
  8
Layer_1
 62
1
100
AcDbSpline
 70
8
 71
3
 72
8
 73
4
 74
0
 40
0
 40
0
 40
0
 40
0
 40
1
 40
1
 40
1
 40
1
 10
120.542380
 20
193.769650
 30
0.0
 10
121.257836
 20
193.299622
 30
0.0
 10
121.456797
 20
192.338597
 30
0.0
 10
120.986770
 20
191.623140
 30
0.0
  0
SPLINE
  5
2c3
100
AcDbEntity
  8
Layer_1
 62
1
100
AcDbSpline
 70
8
 71
3
 72
8
 73
4
 74
0
 40
0
 40
0
 40
0
 40
0
 40
1
 40
1
 40
1
 40
1
 10
120.986770
 20
191.623140
 30
0.0
 10
120.761054
 20
191.279563
 30
0.0
 10
120.408098
 20
191.039723
 30
0.0
 10
120.005547
 20
190.956384
 30
0.0
  0
SPLINE
  5
2c4
100
AcDbEntity
  8
Layer_1
 62
1
100
AcDbSpline
 70
8
 71
3
 72
8
 73
4
 74
0
 40
0
 40
0
 40
0
 40
0
 40
1
 40
1
 40
1
 40
1
 10
120.005547
 20
190.956384
 30
0.0
 10
119.602996
 20
190.873045
 30
0.0
 10
119.183826
 20
190.953032
 30
0.0
 10
118.840250
 20
191.178750
 30
0.0
  0
SPLINE
  5
2c5
100
AcDbEntity
  8
Layer_1
 62
1
100
AcDbSpline
 70
8
 71
3
 72
8
 73
4
 74
0
 40
0
 40
0
 40
0
 40
0
 40
1
 40
1
 40
1
 40
1
 10
118.840250
 20
191.178750
 30
0.0
 10
118.124794
 20
191.648778
 30
0.0
 10
117.925833
 20
192.609803
 30
0.0
 10
118.395860
 20
193.325260
 30
0.0
  0
LINE
  5
2c6
100
AcDbEntity
  8
Layer_1
 62
1
100
AcDbLine
 10
118.395860
 20
193.325260
 30
0.0
 11
118.395860
 21
193.325260
 31
0.0
  0
SPLINE
  5
2c7
100
AcDbEntity
  8
Layer_1
 62
5
100
AcDbSpline
 70
8
 71
3
 72
8
 73
4
 74
0
 40
0
 40
0
 40
0
 40
0
 40
1
 40
1
 40
1
 40
1
 10
304.836110
 20
121.254330
 30
0.0
 10
289.621783
 20
43.418127
 30
0.0
 10
213.913866
 20
-7.293074
 30
0.0
 10
135.737740
 20
7.987690
 30
0.0
  0
SPLINE
  5
2c8
100
AcDbEntity
  8
Layer_1
 62
5
100
AcDbSpline
 70
8
 71
3
 72
8
 73
4
 74
0
 40
0
 40
0
 40
0
 40
0
 40
1
 40
1
 40
1
 40
1
 10
135.737740
 20
7.987690
 30
0.0
 10
98.196239
 20
15.325776
 30
0.0
 10
65.094708
 20
37.211772
 30
0.0
 10
43.715107
 20
68.831007
 30
0.0
  0
SPLINE
  5
2c9
100
AcDbEntity
  8
Layer_1
 62
5
100
AcDbSpline
 70
8
 71
3
 72
8
 73
4
 74
0
 40
0
 40
0
 40
0
 40
0
 40
1
 40
1
 40
1
 40
1
 10
43.715107
 20
68.831007
 30
0.0
 10
22.335506
 20
100.450243
 30
0.0
 10
14.429140
 20
139.212635
 30
0.0
 10
21.735320
 20
176.590900
 30
0.0
  0
SPLINE
  5
2ca
100
AcDbEntity
  8
Layer_1
 62
5
100
AcDbSpline
 70
8
 71
3
 72
8
 73
4
 74
0
 40
0
 40
0
 40
0
 40
0
 40
1
 40
1
 40
1
 40
1
 10
21.735320
 20
176.590900
 30
0.0
 10
29.041497
 20
213.969166
 30
0.0
 10
50.961736
 20
246.901472
 30
0.0
 10
82.673834
 20
268.143088
 30
0.0
  0
SPLINE
  5
2cb
100
AcDbEntity
  8
Layer_1
 62
5
100
AcDbSpline
 70
8
 71
3
 72
8
 73
4
 74
0
 40
0
 40
0
 40
0
 40
0
 40
1
 40
1
 40
1
 40
1
 10
82.673834
 20
268.143088
 30
0.0
 10
114.385931
 20
289.384703
 30
0.0
 10
153.292199
 20
297.195626
 30
0.0
 10
190.833700
 20
289.857541
 30
0.0
  0
SPLINE
  5
2cc
100
AcDbEntity
  8
Layer_1
 62
5
100
AcDbSpline
 70
8
 71
3
 72
8
 73
4
 74
0
 40
0
 40
0
 40
0
 40
0
 40
1
 40
1
 40
1
 40
1
 10
190.833700
 20
289.857541
 30
0.0
 10
269.009826
 20
274.576763
 30
0.0
 10
320.050443
 20
199.090535
 30
0.0
 10
304.836110
 20
121.254330
 30
0.0
  0
LINE
  5
2cd
100
AcDbEntity
  8
Layer_1
 62
3
100
AcDbLine
 10
304.836110
 20
121.254330
 30
0.0
 11
304.836110
 21
121.254330
 31
0.0
  0
LINE
  5
2ce
100
AcDbEntity
  8
Layer_1
 62
6
100
AcDbLine
 10
161.650260
 20
267.648721
 30
0.0
 11
161.650260
 21
262.207677
 31
0.0
  0
LINE
  5
2cf
100
AcDbEntity
  8
Layer_1
 62
6
100
AcDbLine
 10
161.650260
 20
262.207677
 30
0.0
 11
152.852860
 21
262.207677
 31
0.0
  0
LINE
  5
2d0
100
AcDbEntity
  8
Layer_1
 62
6
100
AcDbLine
 10
152.852860
 20
262.207677
 30
0.0
 11
152.852860
 21
258.341453
 31
0.0
  0
LINE
  5
2d1
100
AcDbEntity
  8
Layer_1
 62
6
100
AcDbLine
 10
152.852860
 20
258.341453
 30
0.0
 11
161.650260
 21
258.341453
 31
0.0
  0
LINE
  5
2d2
100
AcDbEntity
  8
Layer_1
 62
6
100
AcDbLine
 10
161.650260
 20
258.341453
 30
0.0
 11
161.650260
 21
252.899855
 31
0.0
  0
LINE
  5
2d3
100
AcDbEntity
  8
Layer_1
 62
6
100
AcDbLine
 10
161.650260
 20
252.899855
 30
0.0
 11
164.723290
 21
252.899855
 31
0.0
  0
LINE
  5
2d4
100
AcDbEntity
  8
Layer_1
 62
6
100
AcDbLine
 10
164.723290
 20
252.899855
 30
0.0
 11
164.723290
 21
258.341453
 31
0.0
  0
LINE
  5
2d5
100
AcDbEntity
  8
Layer_1
 62
6
100
AcDbLine
 10
164.723290
 20
258.341453
 30
0.0
 11
173.718570
 21
258.341453
 31
0.0
  0
LINE
  5
2d6
100
AcDbEntity
  8
Layer_1
 62
6
100
AcDbLine
 10
173.718570
 20
258.341453
 30
0.0
 11
173.718570
 21
262.207677
 31
0.0
  0
LINE
  5
2d7
100
AcDbEntity
  8
Layer_1
 62
6
100
AcDbLine
 10
173.718570
 20
262.207677
 30
0.0
 11
164.723290
 21
262.207677
 31
0.0
  0
LINE
  5
2d8
100
AcDbEntity
  8
Layer_1
 62
6
100
AcDbLine
 10
164.723290
 20
262.207677
 30
0.0
 11
164.723290
 21
267.648721
 31
0.0
  0
LINE
  5
2d9
100
AcDbEntity
  8
Layer_1
 62
6
100
AcDbLine
 10
164.723290
 20
267.648721
 30
0.0
 11
161.650260
 21
267.648721
 31
0.0
  0
SPLINE
  5
2da
100
AcDbEntity
  8
Layer_1
 62
1
100
AcDbSpline
 70
8
 71
3
 72
8
 73
4
 74
0
 40
0
 40
0
 40
0
 40
0
 40
1
 40
1
 40
1
 40
1
 10
163.539340
 20
239.658504
 30
0.0
 10
163.136153
 20
239.578304
 30
0.0
 10
162.717620
 20
239.661555
 30
0.0
 10
162.375815
 20
239.889942
 30
0.0
  0
SPLINE
  5
2db
100
AcDbEntity
  8
Layer_1
 62
1
100
AcDbSpline
 70
8
 71
3
 72
8
 73
4
 74
0
 40
0
 40
0
 40
0
 40
0
 40
1
 40
1
 40
1
 40
1
 10
162.375815
 20
239.889942
 30
0.0
 10
162.034009
 20
240.118328
 30
0.0
 10
161.796929
 20
240.473143
 30
0.0
 10
161.716730
 20
240.876330
 30
0.0
  0
SPLINE
  5
2dc
100
AcDbEntity
  8
Layer_1
 62
1
100
AcDbSpline
 70
8
 71
3
 72
8
 73
4
 74
0
 40
0
 40
0
 40
0
 40
0
 40
1
 40
1
 40
1
 40
1
 10
161.716730
 20
240.876330
 30
0.0
 10
161.636531
 20
241.279517
 30
0.0
 10
161.719782
 20
241.698050
 30
0.0
 10
161.948170
 20
242.039855
 30
0.0
  0
SPLINE
  5
2dd
100
AcDbEntity
  8
Layer_1
 62
1
100
AcDbSpline
 70
8
 71
3
 72
8
 73
4
 74
0
 40
0
 40
0
 40
0
 40
0
 40
1
 40
1
 40
1
 40
1
 10
161.948170
 20
242.039855
 30
0.0
 10
162.176557
 20
242.381661
 30
0.0
 10
162.531373
 20
242.618740
 30
0.0
 10
162.934560
 20
242.698938
 30
0.0
  0
SPLINE
  5
2de
100
AcDbEntity
  8
Layer_1
 62
1
100
AcDbSpline
 70
8
 71
3
 72
8
 73
4
 74
0
 40
0
 40
0
 40
0
 40
0
 40
1
 40
1
 40
1
 40
1
 10
162.934560
 20
242.698938
 30
0.0
 10
163.774151
 20
242.865939
 30
0.0
 10
164.590155
 20
242.320700
 30
0.0
 10
164.757160
 20
241.481110
 30
0.0
  0
SPLINE
  5
2df
100
AcDbEntity
  8
Layer_1
 62
1
100
AcDbSpline
 70
8
 71
3
 72
8
 73
4
 74
0
 40
0
 40
0
 40
0
 40
0
 40
1
 40
1
 40
1
 40
1
 10
164.757160
 20
241.481110
 30
0.0
 10
164.924165
 20
240.641520
 30
0.0
 10
164.378929
 20
239.825513
 30
0.0
 10
163.539340
 20
239.658504
 30
0.0
  0
LINE
  5
2e0
100
AcDbEntity
  8
Layer_1
 62
1
100
AcDbLine
 10
163.539340
 20
239.658504
 30
0.0
 11
163.539340
 21
239.658504
 31
0.0
  0
SPLINE
  5
2e1
100
AcDbEntity
  8
Layer_1
 62
1
100
AcDbSpline
 70
8
 71
3
 72
8
 73
4
 74
0
 40
0
 40
0
 40
0
 40
0
 40
1
 40
1
 40
1
 40
1
 10
163.519190
 20
273.505040
 30
0.0
 10
163.116003
 20
273.424840
 30
0.0
 10
162.697470
 20
273.508091
 30
0.0
 10
162.355665
 20
273.736478
 30
0.0
  0
SPLINE
  5
2e2
100
AcDbEntity
  8
Layer_1
 62
1
100
AcDbSpline
 70
8
 71
3
 72
8
 73
4
 74
0
 40
0
 40
0
 40
0
 40
0
 40
1
 40
1
 40
1
 40
1
 10
162.355665
 20
273.736478
 30
0.0
 10
162.013859
 20
273.964864
 30
0.0
 10
161.776779
 20
274.319679
 30
0.0
 10
161.696580
 20
274.722866
 30
0.0
  0
SPLINE
  5
2e3
100
AcDbEntity
  8
Layer_1
 62
1
100
AcDbSpline
 70
8
 71
3
 72
8
 73
4
 74
0
 40
0
 40
0
 40
0
 40
0
 40
1
 40
1
 40
1
 40
1
 10
161.696580
 20
274.722866
 30
0.0
 10
161.616381
 20
275.126053
 30
0.0
 10
161.699632
 20
275.544586
 30
0.0
 10
161.928020
 20
275.886391
 30
0.0
  0
SPLINE
  5
2e4
100
AcDbEntity
  8
Layer_1
 62
1
100
AcDbSpline
 70
8
 71
3
 72
8
 73
4
 74
0
 40
0
 40
0
 40
0
 40
0
 40
1
 40
1
 40
1
 40
1
 10
161.928020
 20
275.886391
 30
0.0
 10
162.156407
 20
276.228197
 30
0.0
 10
162.511223
 20
276.465276
 30
0.0
 10
162.914410
 20
276.545474
 30
0.0
  0
SPLINE
  5
2e5
100
AcDbEntity
  8
Layer_1
 62
1
100
AcDbSpline
 70
8
 71
3
 72
8
 73
4
 74
0
 40
0
 40
0
 40
0
 40
0
 40
1
 40
1
 40
1
 40
1
 10
162.914410
 20
276.545474
 30
0.0
 10
163.317597
 20
276.625674
 30
0.0
 10
163.736130
 20
276.542423
 30
0.0
 10
164.077936
 20
276.314036
 30
0.0
  0
SPLINE
  5
2e6
100
AcDbEntity
  8
Layer_1
 62
1
100
AcDbSpline
 70
8
 71
3
 72
8
 73
4
 74
0
 40
0
 40
0
 40
0
 40
0
 40
1
 40
1
 40
1
 40
1
 10
164.077936
 20
276.314036
 30
0.0
 10
164.419742
 20
276.085649
 30
0.0
 10
164.656821
 20
275.730833
 30
0.0
 10
164.737020
 20
275.327646
 30
0.0
  0
SPLINE
  5
2e7
100
AcDbEntity
  8
Layer_1
 62
1
100
AcDbSpline
 70
8
 71
3
 72
8
 73
4
 74
0
 40
0
 40
0
 40
0
 40
0
 40
1
 40
1
 40
1
 40
1
 10
164.737020
 20
275.327646
 30
0.0
 10
164.817218
 20
274.924459
 30
0.0
 10
164.733967
 20
274.505927
 30
0.0
 10
164.505579
 20
274.164122
 30
0.0
  0
SPLINE
  5
2e8
100
AcDbEntity
  8
Layer_1
 62
1
100
AcDbSpline
 70
8
 71
3
 72
8
 73
4
 74
0
 40
0
 40
0
 40
0
 40
0
 40
1
 40
1
 40
1
 40
1
 10
164.505579
 20
274.164122
 30
0.0
 10
164.277192
 20
273.822317
 30
0.0
 10
163.922377
 20
273.585238
 30
0.0
 10
163.519190
 20
273.505040
 30
0.0
  0
LINE
  5
2e9
100
AcDbEntity
  8
Layer_1
 62
1
100
AcDbLine
 10
163.519190
 20
273.505040
 30
0.0
 11
163.519190
 21
273.505040
 31
0.0
  0
LINE
  5
2ea
100
AcDbEntity
  8
Layer_1
 62
6
100
AcDbLine
 10
44.559660
 20
147.287150
 30
0.0
 11
50.000700
 21
147.287150
 31
0.0
  0
LINE
  5
2eb
100
AcDbEntity
  8
Layer_1
 62
6
100
AcDbLine
 10
50.000700
 20
147.287150
 30
0.0
 11
50.000700
 21
138.489760
 31
0.0
  0
LINE
  5
2ec
100
AcDbEntity
  8
Layer_1
 62
6
100
AcDbLine
 10
50.000700
 20
138.489760
 30
0.0
 11
53.866930
 21
138.489760
 31
0.0
  0
LINE
  5
2ed
100
AcDbEntity
  8
Layer_1
 62
6
100
AcDbLine
 10
53.866930
 20
138.489760
 30
0.0
 11
53.866930
 21
147.287150
 31
0.0
  0
LINE
  5
2ee
100
AcDbEntity
  8
Layer_1
 62
6
100
AcDbLine
 10
53.866930
 20
147.287150
 30
0.0
 11
59.308520
 21
147.287150
 31
0.0
  0
LINE
  5
2ef
100
AcDbEntity
  8
Layer_1
 62
6
100
AcDbLine
 10
59.308520
 20
147.287150
 30
0.0
 11
59.308520
 21
150.360180
 31
0.0
  0
LINE
  5
2f0
100
AcDbEntity
  8
Layer_1
 62
6
100
AcDbLine
 10
59.308520
 20
150.360180
 30
0.0
 11
53.866930
 21
150.360180
 31
0.0
  0
LINE
  5
2f1
100
AcDbEntity
  8
Layer_1
 62
6
100
AcDbLine
 10
53.866930
 20
150.360180
 30
0.0
 11
53.866930
 21
159.355460
 31
0.0
  0
LINE
  5
2f2
100
AcDbEntity
  8
Layer_1
 62
6
100
AcDbLine
 10
53.866930
 20
159.355460
 30
0.0
 11
50.000700
 21
159.355460
 31
0.0
  0
LINE
  5
2f3
100
AcDbEntity
  8
Layer_1
 62
6
100
AcDbLine
 10
50.000700
 20
159.355460
 30
0.0
 11
50.000700
 21
150.360180
 31
0.0
  0
LINE
  5
2f4
100
AcDbEntity
  8
Layer_1
 62
6
100
AcDbLine
 10
50.000700
 20
150.360180
 30
0.0
 11
44.559660
 21
150.360180
 31
0.0
  0
LINE
  5
2f5
100
AcDbEntity
  8
Layer_1
 62
6
100
AcDbLine
 10
44.559660
 20
150.360180
 30
0.0
 11
44.559660
 21
147.287150
 31
0.0
  0
SPLINE
  5
2f6
100
AcDbEntity
  8
Layer_1
 62
1
100
AcDbSpline
 70
8
 71
3
 72
8
 73
4
 74
0
 40
0
 40
0
 40
0
 40
0
 40
1
 40
1
 40
1
 40
1
 10
72.549870
 20
149.176230
 30
0.0
 10
72.716878
 20
148.336639
 30
0.0
 10
72.171641
 20
147.520629
 30
0.0
 10
71.332050
 20
147.353620
 30
0.0
  0
SPLINE
  5
2f7
100
AcDbEntity
  8
Layer_1
 62
1
100
AcDbSpline
 70
8
 71
3
 72
8
 73
4
 74
0
 40
0
 40
0
 40
0
 40
0
 40
1
 40
1
 40
1
 40
1
 10
71.332050
 20
147.353620
 30
0.0
 10
70.928863
 20
147.273420
 30
0.0
 10
70.510329
 20
147.356671
 30
0.0
 10
70.168523
 20
147.585059
 30
0.0
  0
SPLINE
  5
2f8
100
AcDbEntity
  8
Layer_1
 62
1
100
AcDbSpline
 70
8
 71
3
 72
8
 73
4
 74
0
 40
0
 40
0
 40
0
 40
0
 40
1
 40
1
 40
1
 40
1
 10
70.168523
 20
147.585059
 30
0.0
 10
69.826718
 20
147.813447
 30
0.0
 10
69.589638
 20
148.168262
 30
0.0
 10
69.509440
 20
148.571450
 30
0.0
  0
SPLINE
  5
2f9
100
AcDbEntity
  8
Layer_1
 62
1
100
AcDbSpline
 70
8
 71
3
 72
8
 73
4
 74
0
 40
0
 40
0
 40
0
 40
0
 40
1
 40
1
 40
1
 40
1
 10
69.509440
 20
148.571450
 30
0.0
 10
69.429240
 20
148.974638
 30
0.0
 10
69.512491
 20
149.393171
 30
0.0
 10
69.740879
 20
149.734977
 30
0.0
  0
SPLINE
  5
2fa
100
AcDbEntity
  8
Layer_1
 62
1
100
AcDbSpline
 70
8
 71
3
 72
8
 73
4
 74
0
 40
0
 40
0
 40
0
 40
0
 40
1
 40
1
 40
1
 40
1
 10
69.740879
 20
149.734977
 30
0.0
 10
69.969267
 20
150.076782
 30
0.0
 10
70.324082
 20
150.313862
 30
0.0
 10
70.727270
 20
150.394060
 30
0.0
  0
SPLINE
  5
2fb
100
AcDbEntity
  8
Layer_1
 62
1
100
AcDbSpline
 70
8
 71
3
 72
8
 73
4
 74
0
 40
0
 40
0
 40
0
 40
0
 40
1
 40
1
 40
1
 40
1
 10
70.727270
 20
150.394060
 30
0.0
 10
71.566861
 20
150.561061
 30
0.0
 10
72.382866
 20
150.015821
 30
0.0
 10
72.549870
 20
149.176230
 30
0.0
  0
LINE
  5
2fc
100
AcDbEntity
  8
Layer_1
 62
1
100
AcDbLine
 10
72.549870
 20
149.176230
 30
0.0
 11
72.549870
 21
149.176230
 31
0.0
  0
SPLINE
  5
2fd
100
AcDbEntity
  8
Layer_1
 62
1
100
AcDbSpline
 70
8
 71
3
 72
8
 73
4
 74
0
 40
0
 40
0
 40
0
 40
0
 40
1
 40
1
 40
1
 40
1
 10
38.703340
 20
149.156080
 30
0.0
 10
38.870341
 20
148.316489
 30
0.0
 10
38.325101
 20
147.500484
 30
0.0
 10
37.485510
 20
147.333480
 30
0.0
  0
SPLINE
  5
2fe
100
AcDbEntity
  8
Layer_1
 62
1
100
AcDbSpline
 70
8
 71
3
 72
8
 73
4
 74
0
 40
0
 40
0
 40
0
 40
0
 40
1
 40
1
 40
1
 40
1
 10
37.485510
 20
147.333480
 30
0.0
 10
36.645919
 20
147.166472
 30
0.0
 10
35.829909
 20
147.711709
 30
0.0
 10
35.662900
 20
148.551300
 30
0.0
  0
SPLINE
  5
2ff
100
AcDbEntity
  8
Layer_1
 62
1
100
AcDbSpline
 70
8
 71
3
 72
8
 73
4
 74
0
 40
0
 40
0
 40
0
 40
0
 40
1
 40
1
 40
1
 40
1
 10
35.662900
 20
148.551300
 30
0.0
 10
35.582700
 20
148.954488
 30
0.0
 10
35.665951
 20
149.373021
 30
0.0
 10
35.894339
 20
149.714827
 30
0.0
  0
SPLINE
  5
300
100
AcDbEntity
  8
Layer_1
 62
1
100
AcDbSpline
 70
8
 71
3
 72
8
 73
4
 74
0
 40
0
 40
0
 40
0
 40
0
 40
1
 40
1
 40
1
 40
1
 10
35.894339
 20
149.714827
 30
0.0
 10
36.122727
 20
150.056632
 30
0.0
 10
36.477542
 20
150.293712
 30
0.0
 10
36.880730
 20
150.373910
 30
0.0
  0
SPLINE
  5
301
100
AcDbEntity
  8
Layer_1
 62
1
100
AcDbSpline
 70
8
 71
3
 72
8
 73
4
 74
0
 40
0
 40
0
 40
0
 40
0
 40
1
 40
1
 40
1
 40
1
 10
36.880730
 20
150.373910
 30
0.0
 10
37.283917
 20
150.454110
 30
0.0
 10
37.702451
 20
150.370859
 30
0.0
 10
38.044257
 20
150.142471
 30
0.0
  0
SPLINE
  5
302
100
AcDbEntity
  8
Layer_1
 62
1
100
AcDbSpline
 70
8
 71
3
 72
8
 73
4
 74
0
 40
0
 40
0
 40
0
 40
0
 40
1
 40
1
 40
1
 40
1
 10
38.044257
 20
150.142471
 30
0.0
 10
38.386062
 20
149.914083
 30
0.0
 10
38.623142
 20
149.559268
 30
0.0
 10
38.703340
 20
149.156080
 30
0.0
  0
LINE
  5
303
100
AcDbEntity
  8
Layer_1
 62
1
100
AcDbLine
 10
38.703340
 20
149.156080
 30
0.0
 11
38.703340
 21
149.156080
 31
0.0
  0
LINE
  5
304
100
AcDbEntity
  8
Layer_1
 62
6
100
AcDbLine
 10
164.921270
 20
30.196510
 30
0.0
 11
164.921270
 21
35.637550
 31
0.0
  0
LINE
  5
305
100
AcDbEntity
  8
Layer_1
 62
6
100
AcDbLine
 10
164.921270
 20
35.637550
 30
0.0
 11
173.718660
 21
35.637550
 31
0.0
  0
LINE
  5
306
100
AcDbEntity
  8
Layer_1
 62
6
100
AcDbLine
 10
173.718660
 20
35.637550
 30
0.0
 11
173.718660
 21
39.503780
 31
0.0
  0
LINE
  5
307
100
AcDbEntity
  8
Layer_1
 62
6
100
AcDbLine
 10
173.718660
 20
39.503780
 30
0.0
 11
164.921270
 21
39.503780
 31
0.0
  0
LINE
  5
308
100
AcDbEntity
  8
Layer_1
 62
6
100
AcDbLine
 10
164.921270
 20
39.503780
 30
0.0
 11
164.921270
 21
44.945380
 31
0.0
  0
LINE
  5
309
100
AcDbEntity
  8
Layer_1
 62
6
100
AcDbLine
 10
164.921270
 20
44.945380
 30
0.0
 11
161.848240
 21
44.945380
 31
0.0
  0
LINE
  5
30a
100
AcDbEntity
  8
Layer_1
 62
6
100
AcDbLine
 10
161.848240
 20
44.945380
 30
0.0
 11
161.848240
 21
39.503780
 31
0.0
  0
LINE
  5
30b
100
AcDbEntity
  8
Layer_1
 62
6
100
AcDbLine
 10
161.848240
 20
39.503780
 30
0.0
 11
152.852960
 21
39.503780
 31
0.0
  0
LINE
  5
30c
100
AcDbEntity
  8
Layer_1
 62
6
100
AcDbLine
 10
152.852960
 20
39.503780
 30
0.0
 11
152.852960
 21
35.637550
 31
0.0
  0
LINE
  5
30d
100
AcDbEntity
  8
Layer_1
 62
6
100
AcDbLine
 10
152.852960
 20
35.637550
 30
0.0
 11
161.848240
 21
35.637550
 31
0.0
  0
LINE
  5
30e
100
AcDbEntity
  8
Layer_1
 62
6
100
AcDbLine
 10
161.848240
 20
35.637550
 30
0.0
 11
161.848240
 21
30.196510
 31
0.0
  0
LINE
  5
30f
100
AcDbEntity
  8
Layer_1
 62
6
100
AcDbLine
 10
161.848240
 20
30.196510
 30
0.0
 11
164.921270
 21
30.196510
 31
0.0
  0
SPLINE
  5
310
100
AcDbEntity
  8
Layer_1
 62
1
100
AcDbSpline
 70
8
 71
3
 72
8
 73
4
 74
0
 40
0
 40
0
 40
0
 40
0
 40
1
 40
1
 40
1
 40
1
 10
163.032190
 20
58.186730
 30
0.0
 10
163.435378
 20
58.266930
 30
0.0
 10
163.853911
 20
58.183679
 30
0.0
 10
164.195717
 20
57.955291
 30
0.0
  0
SPLINE
  5
311
100
AcDbEntity
  8
Layer_1
 62
1
100
AcDbSpline
 70
8
 71
3
 72
8
 73
4
 74
0
 40
0
 40
0
 40
0
 40
0
 40
1
 40
1
 40
1
 40
1
 10
164.195717
 20
57.955291
 30
0.0
 10
164.537522
 20
57.726903
 30
0.0
 10
164.774602
 20
57.372088
 30
0.0
 10
164.854800
 20
56.968900
 30
0.0
  0
SPLINE
  5
312
100
AcDbEntity
  8
Layer_1
 62
1
100
AcDbSpline
 70
8
 71
3
 72
8
 73
4
 74
0
 40
0
 40
0
 40
0
 40
0
 40
1
 40
1
 40
1
 40
1
 10
164.854800
 20
56.968900
 30
0.0
 10
164.935000
 20
56.565713
 30
0.0
 10
164.851749
 20
56.147179
 30
0.0
 10
164.623361
 20
55.805373
 30
0.0
  0
SPLINE
  5
313
100
AcDbEntity
  8
Layer_1
 62
1
100
AcDbSpline
 70
8
 71
3
 72
8
 73
4
 74
0
 40
0
 40
0
 40
0
 40
0
 40
1
 40
1
 40
1
 40
1
 10
164.623361
 20
55.805373
 30
0.0
 10
164.394973
 20
55.463568
 30
0.0
 10
164.040158
 20
55.226488
 30
0.0
 10
163.636970
 20
55.146290
 30
0.0
  0
SPLINE
  5
314
100
AcDbEntity
  8
Layer_1
 62
1
100
AcDbSpline
 70
8
 71
3
 72
8
 73
4
 74
0
 40
0
 40
0
 40
0
 40
0
 40
1
 40
1
 40
1
 40
1
 10
163.636970
 20
55.146290
 30
0.0
 10
163.233783
 20
55.066090
 30
0.0
 10
162.815249
 20
55.149341
 30
0.0
 10
162.473443
 20
55.377729
 30
0.0
  0
SPLINE
  5
315
100
AcDbEntity
  8
Layer_1
 62
1
100
AcDbSpline
 70
8
 71
3
 72
8
 73
4
 74
0
 40
0
 40
0
 40
0
 40
0
 40
1
 40
1
 40
1
 40
1
 10
162.473443
 20
55.377729
 30
0.0
 10
162.131638
 20
55.606117
 30
0.0
 10
161.894558
 20
55.960932
 30
0.0
 10
161.814360
 20
56.364120
 30
0.0
  0
SPLINE
  5
316
100
AcDbEntity
  8
Layer_1
 62
1
100
AcDbSpline
 70
8
 71
3
 72
8
 73
4
 74
0
 40
0
 40
0
 40
0
 40
0
 40
1
 40
1
 40
1
 40
1
 10
161.814360
 20
56.364120
 30
0.0
 10
161.734160
 20
56.767307
 30
0.0
 10
161.817411
 20
57.185841
 30
0.0
 10
162.045799
 20
57.527647
 30
0.0
  0
SPLINE
  5
317
100
AcDbEntity
  8
Layer_1
 62
1
100
AcDbSpline
 70
8
 71
3
 72
8
 73
4
 74
0
 40
0
 40
0
 40
0
 40
0
 40
1
 40
1
 40
1
 40
1
 10
162.045799
 20
57.527647
 30
0.0
 10
162.274187
 20
57.869452
 30
0.0
 10
162.629002
 20
58.106532
 30
0.0
 10
163.032190
 20
58.186730
 30
0.0
  0
LINE
  5
318
100
AcDbEntity
  8
Layer_1
 62
1
100
AcDbLine
 10
163.032190
 20
58.186730
 30
0.0
 11
163.032190
 21
58.186730
 31
0.0
  0
SPLINE
  5
319
100
AcDbEntity
  8
Layer_1
 62
1
100
AcDbSpline
 70
8
 71
3
 72
8
 73
4
 74
0
 40
0
 40
0
 40
0
 40
0
 40
1
 40
1
 40
1
 40
1
 10
163.052340
 20
24.340190
 30
0.0
 10
163.891931
 20
24.507191
 30
0.0
 10
164.707936
 20
23.961951
 30
0.0
 10
164.874940
 20
23.122360
 30
0.0
  0
SPLINE
  5
31a
100
AcDbEntity
  8
Layer_1
 62
1
100
AcDbSpline
 70
8
 71
3
 72
8
 73
4
 74
0
 40
0
 40
0
 40
0
 40
0
 40
1
 40
1
 40
1
 40
1
 10
164.874940
 20
23.122360
 30
0.0
 10
165.041941
 20
22.282772
 30
0.0
 10
164.496707
 20
21.466769
 30
0.0
 10
163.657120
 20
21.299760
 30
0.0
  0
SPLINE
  5
31b
100
AcDbEntity
  8
Layer_1
 62
1
100
AcDbSpline
 70
8
 71
3
 72
8
 73
4
 74
0
 40
0
 40
0
 40
0
 40
0
 40
1
 40
1
 40
1
 40
1
 10
163.657120
 20
21.299760
 30
0.0
 10
162.817529
 20
21.132752
 30
0.0
 10
162.001519
 20
21.677989
 30
0.0
 10
161.834510
 20
22.517580
 30
0.0
  0
SPLINE
  5
31c
100
AcDbEntity
  8
Layer_1
 62
1
100
AcDbSpline
 70
8
 71
3
 72
8
 73
4
 74
0
 40
0
 40
0
 40
0
 40
0
 40
1
 40
1
 40
1
 40
1
 10
161.834510
 20
22.517580
 30
0.0
 10
161.754310
 20
22.920767
 30
0.0
 10
161.837561
 20
23.339301
 30
0.0
 10
162.065949
 20
23.681107
 30
0.0
  0
SPLINE
  5
31d
100
AcDbEntity
  8
Layer_1
 62
1
100
AcDbSpline
 70
8
 71
3
 72
8
 73
4
 74
0
 40
0
 40
0
 40
0
 40
0
 40
1
 40
1
 40
1
 40
1
 10
162.065949
 20
23.681107
 30
0.0
 10
162.294337
 20
24.022912
 30
0.0
 10
162.649152
 20
24.259992
 30
0.0
 10
163.052340
 20
24.340190
 30
0.0
  0
LINE
  5
31e
100
AcDbEntity
  8
Layer_1
 62
1
100
AcDbLine
 10
163.052340
 20
24.340190
 30
0.0
 11
163.052340
 21
24.340190
 31
0.0
  0
LINE
  5
31f
100
AcDbEntity
  8
Layer_1
 62
6
100
AcDbLine
 10
282.011860
 20
150.558070
 30
0.0
 11
276.570820
 21
150.558070
 31
0.0
  0
LINE
  5
320
100
AcDbEntity
  8
Layer_1
 62
6
100
AcDbLine
 10
276.570820
 20
150.558070
 30
0.0
 11
276.570820
 21
159.355460
 31
0.0
  0
LINE
  5
321
100
AcDbEntity
  8
Layer_1
 62
6
100
AcDbLine
 10
276.570820
 20
159.355460
 30
0.0
 11
272.704600
 21
159.355460
 31
0.0
  0
LINE
  5
322
100
AcDbEntity
  8
Layer_1
 62
6
100
AcDbLine
 10
272.704600
 20
159.355460
 30
0.0
 11
272.704600
 21
150.558070
 31
0.0
  0
LINE
  5
323
100
AcDbEntity
  8
Layer_1
 62
6
100
AcDbLine
 10
272.704600
 20
150.558070
 30
0.0
 11
267.262990
 21
150.558070
 31
0.0
  0
LINE
  5
324
100
AcDbEntity
  8
Layer_1
 62
6
100
AcDbLine
 10
267.262990
 20
150.558070
 30
0.0
 11
267.262990
 21
147.485040
 31
0.0
  0
LINE
  5
325
100
AcDbEntity
  8
Layer_1
 62
6
100
AcDbLine
 10
267.262990
 20
147.485040
 30
0.0
 11
272.704600
 21
147.485040
 31
0.0
  0
LINE
  5
326
100
AcDbEntity
  8
Layer_1
 62
6
100
AcDbLine
 10
272.704600
 20
147.485040
 30
0.0
 11
272.704600
 21
138.489760
 31
0.0
  0
LINE
  5
327
100
AcDbEntity
  8
Layer_1
 62
6
100
AcDbLine
 10
272.704600
 20
138.489760
 30
0.0
 11
276.570820
 21
138.489760
 31
0.0
  0
LINE
  5
328
100
AcDbEntity
  8
Layer_1
 62
6
100
AcDbLine
 10
276.570820
 20
138.489760
 30
0.0
 11
276.570820
 21
147.485040
 31
0.0
  0
LINE
  5
329
100
AcDbEntity
  8
Layer_1
 62
6
100
AcDbLine
 10
276.570820
 20
147.485040
 30
0.0
 11
282.011860
 21
147.485040
 31
0.0
  0
LINE
  5
32a
100
AcDbEntity
  8
Layer_1
 62
6
100
AcDbLine
 10
282.011860
 20
147.485040
 30
0.0
 11
282.011860
 21
150.558070
 31
0.0
  0
SPLINE
  5
32b
100
AcDbEntity
  8
Layer_1
 62
1
100
AcDbSpline
 70
8
 71
3
 72
8
 73
4
 74
0
 40
0
 40
0
 40
0
 40
0
 40
1
 40
1
 40
1
 40
1
 10
254.021630
 20
148.669000
 30
0.0
 10
253.854629
 20
149.508591
 30
0.0
 10
254.399869
 20
150.324596
 30
0.0
 10
255.239460
 20
150.491600
 30
0.0
  0
SPLINE
  5
32c
100
AcDbEntity
  8
Layer_1
 62
1
100
AcDbSpline
 70
8
 71
3
 72
8
 73
4
 74
0
 40
0
 40
0
 40
0
 40
0
 40
1
 40
1
 40
1
 40
1
 10
255.239460
 20
150.491600
 30
0.0
 10
256.079051
 20
150.658608
 30
0.0
 10
256.895061
 20
150.113371
 30
0.0
 10
257.062070
 20
149.273780
 30
0.0
  0
SPLINE
  5
32d
100
AcDbEntity
  8
Layer_1
 62
1
100
AcDbSpline
 70
8
 71
3
 72
8
 73
4
 74
0
 40
0
 40
0
 40
0
 40
0
 40
1
 40
1
 40
1
 40
1
 10
257.062070
 20
149.273780
 30
0.0
 10
257.142270
 20
148.870593
 30
0.0
 10
257.059019
 20
148.452059
 30
0.0
 10
256.830631
 20
148.110253
 30
0.0
  0
SPLINE
  5
32e
100
AcDbEntity
  8
Layer_1
 62
1
100
AcDbSpline
 70
8
 71
3
 72
8
 73
4
 74
0
 40
0
 40
0
 40
0
 40
0
 40
1
 40
1
 40
1
 40
1
 10
256.830631
 20
148.110253
 30
0.0
 10
256.602243
 20
147.768448
 30
0.0
 10
256.247428
 20
147.531368
 30
0.0
 10
255.844240
 20
147.451170
 30
0.0
  0
SPLINE
  5
32f
100
AcDbEntity
  8
Layer_1
 62
1
100
AcDbSpline
 70
8
 71
3
 72
8
 73
4
 74
0
 40
0
 40
0
 40
0
 40
0
 40
1
 40
1
 40
1
 40
1
 10
255.844240
 20
147.451170
 30
0.0
 10
255.441053
 20
147.370970
 30
0.0
 10
255.022519
 20
147.454221
 30
0.0
 10
254.680713
 20
147.682609
 30
0.0
  0
SPLINE
  5
330
100
AcDbEntity
  8
Layer_1
 62
1
100
AcDbSpline
 70
8
 71
3
 72
8
 73
4
 74
0
 40
0
 40
0
 40
0
 40
0
 40
1
 40
1
 40
1
 40
1
 10
254.680713
 20
147.682609
 30
0.0
 10
254.338908
 20
147.910997
 30
0.0
 10
254.101828
 20
148.265812
 30
0.0
 10
254.021630
 20
148.669000
 30
0.0
  0
LINE
  5
331
100
AcDbEntity
  8
Layer_1
 62
1
100
AcDbLine
 10
254.021630
 20
148.669000
 30
0.0
 11
254.021630
 21
148.669000
 31
0.0
  0
SPLINE
  5
332
100
AcDbEntity
  8
Layer_1
 62
1
100
AcDbSpline
 70
8
 71
3
 72
8
 73
4
 74
0
 40
0
 40
0
 40
0
 40
0
 40
1
 40
1
 40
1
 40
1
 10
287.868190
 20
148.689150
 30
0.0
 10
287.787990
 20
149.092338
 30
0.0
 10
287.871241
 20
149.510871
 30
0.0
 10
288.099629
 20
149.852677
 30
0.0
  0
SPLINE
  5
333
100
AcDbEntity
  8
Layer_1
 62
1
100
AcDbSpline
 70
8
 71
3
 72
8
 73
4
 74
0
 40
0
 40
0
 40
0
 40
0
 40
1
 40
1
 40
1
 40
1
 10
288.099629
 20
149.852677
 30
0.0
 10
288.328017
 20
150.194482
 30
0.0
 10
288.682832
 20
150.431562
 30
0.0
 10
289.086020
 20
150.511760
 30
0.0
  0
SPLINE
  5
334
100
AcDbEntity
  8
Layer_1
 62
1
100
AcDbSpline
 70
8
 71
3
 72
8
 73
4
 74
0
 40
0
 40
0
 40
0
 40
0
 40
1
 40
1
 40
1
 40
1
 10
289.086020
 20
150.511760
 30
0.0
 10
289.489208
 20
150.591960
 30
0.0
 10
289.907741
 20
150.508709
 30
0.0
 10
290.249547
 20
150.280321
 30
0.0
  0
SPLINE
  5
335
100
AcDbEntity
  8
Layer_1
 62
1
100
AcDbSpline
 70
8
 71
3
 72
8
 73
4
 74
0
 40
0
 40
0
 40
0
 40
0
 40
1
 40
1
 40
1
 40
1
 10
290.249547
 20
150.280321
 30
0.0
 10
290.591352
 20
150.051933
 30
0.0
 10
290.828432
 20
149.697118
 30
0.0
 10
290.908630
 20
149.293930
 30
0.0
  0
SPLINE
  5
336
100
AcDbEntity
  8
Layer_1
 62
1
100
AcDbSpline
 70
8
 71
3
 72
8
 73
4
 74
0
 40
0
 40
0
 40
0
 40
0
 40
1
 40
1
 40
1
 40
1
 10
290.908630
 20
149.293930
 30
0.0
 10
290.988830
 20
148.890743
 30
0.0
 10
290.905579
 20
148.472209
 30
0.0
 10
290.677191
 20
148.130403
 30
0.0
  0
SPLINE
  5
337
100
AcDbEntity
  8
Layer_1
 62
1
100
AcDbSpline
 70
8
 71
3
 72
8
 73
4
 74
0
 40
0
 40
0
 40
0
 40
0
 40
1
 40
1
 40
1
 40
1
 10
290.677191
 20
148.130403
 30
0.0
 10
290.448803
 20
147.788598
 30
0.0
 10
290.093988
 20
147.551518
 30
0.0
 10
289.690800
 20
147.471320
 30
0.0
  0
SPLINE
  5
338
100
AcDbEntity
  8
Layer_1
 62
1
100
AcDbSpline
 70
8
 71
3
 72
8
 73
4
 74
0
 40
0
 40
0
 40
0
 40
0
 40
1
 40
1
 40
1
 40
1
 10
289.690800
 20
147.471320
 30
0.0
 10
289.287613
 20
147.391120
 30
0.0
 10
288.869079
 20
147.474371
 30
0.0
 10
288.527273
 20
147.702759
 30
0.0
  0
SPLINE
  5
339
100
AcDbEntity
  8
Layer_1
 62
1
100
AcDbSpline
 70
8
 71
3
 72
8
 73
4
 74
0
 40
0
 40
0
 40
0
 40
0
 40
1
 40
1
 40
1
 40
1
 10
288.527273
 20
147.702759
 30
0.0
 10
288.185468
 20
147.931147
 30
0.0
 10
287.948388
 20
148.285962
 30
0.0
 10
287.868190
 20
148.689150
 30
0.0
  0
LINE
  5
33a
100
AcDbEntity
  8
Layer_1
 62
1
100
AcDbLine
 10
287.868190
 20
148.689150
 30
0.0
 11
287.868190
 21
148.689150
 31
0.0
  0
LINE
  5
33b
100
AcDbEntity
  8
Layer_1
 62
6
100
AcDbLine
 10
208.950320
 20
209.791360
 30
0.0
 11
211.662680
 21
212.546337
 31
0.0
  0
LINE
  5
33c
100
AcDbEntity
  8
Layer_1
 62
6
100
AcDbLine
 10
211.662680
 20
212.546337
 30
0.0
 11
226.531810
 21
197.907229
 31
0.0
  0
LINE
  5
33d
100
AcDbEntity
  8
Layer_1
 62
6
100
AcDbLine
 10
226.531810
 20
197.907229
 30
0.0
 11
223.819450
 21
195.152250
 31
0.0
  0
LINE
  5
33e
100
AcDbEntity
  8
Layer_1
 62
6
100
AcDbLine
 10
223.819450
 20
195.152250
 30
0.0
 11
208.950320
 21
209.791360
 31
0.0
  0
LINE
  5
33f
100
AcDbEntity
  8
Layer_1
 62
5
100
AcDbLine
 10
220.074900
 20
174.382880
 30
0.0
 11
188.242110
 21
205.723233
 31
0.0
  0
LINE
  5
340
100
AcDbEntity
  8
Layer_1
 62
5
100
AcDbLine
 10
188.242110
 20
205.723233
 30
0.0
 11
213.713260
 21
223.269371
 31
0.0
  0
SPLINE
  5
341
100
AcDbEntity
  8
Layer_1
 62
5
100
AcDbSpline
 70
8
 71
3
 72
8
 73
4
 74
0
 40
0
 40
0
 40
0
 40
0
 40
1
 40
1
 40
1
 40
1
 10
213.713260
 20
223.269371
 30
0.0
 10
222.084220
 20
220.302600
 30
0.0
 10
230.845200
 20
230.667531
 30
0.0
 10
237.630900
 20
223.986814
 30
0.0
  0
SPLINE
  5
342
100
AcDbEntity
  8
Layer_1
 62
5
100
AcDbSpline
 70
8
 71
3
 72
8
 73
4
 74
0
 40
0
 40
0
 40
0
 40
0
 40
1
 40
1
 40
1
 40
1
 10
237.630900
 20
223.986814
 30
0.0
 10
244.513440
 20
217.210749
 30
0.0
 10
233.894120
 20
208.129492
 30
0.0
 10
237.226970
 20
200.013056
 30
0.0
  0
LINE
  5
343
100
AcDbEntity
  8
Layer_1
 62
5
100
AcDbLine
 10
237.226970
 20
200.013056
 30
0.0
 11
220.074900
 21
174.382880
 31
0.0
  0
SPLINE
  5
344
100
AcDbEntity
  8
Layer_1
 62
1
100
AcDbSpline
 70
8
 71
3
 72
8
 73
4
 74
0
 40
0
 40
0
 40
0
 40
0
 40
1
 40
1
 40
1
 40
1
 10
232.023880
 20
218.718021
 30
0.0
 10
232.367455
 20
218.492306
 30
0.0
 10
232.607293
 20
218.139350
 30
0.0
 10
232.690633
 20
217.736801
 30
0.0
  0
SPLINE
  5
345
100
AcDbEntity
  8
Layer_1
 62
1
100
AcDbSpline
 70
8
 71
3
 72
8
 73
4
 74
0
 40
0
 40
0
 40
0
 40
0
 40
1
 40
1
 40
1
 40
1
 10
232.690633
 20
217.736801
 30
0.0
 10
232.773972
 20
217.334251
 30
0.0
 10
232.693986
 20
216.915083
 30
0.0
 10
232.468270
 20
216.571508
 30
0.0
  0
SPLINE
  5
346
100
AcDbEntity
  8
Layer_1
 62
1
100
AcDbSpline
 70
8
 71
3
 72
8
 73
4
 74
0
 40
0
 40
0
 40
0
 40
0
 40
1
 40
1
 40
1
 40
1
 10
232.468270
 20
216.571508
 30
0.0
 10
231.998242
 20
215.856052
 30
0.0
 10
231.037217
 20
215.657092
 30
0.0
 10
230.321760
 20
216.127119
 30
0.0
  0
SPLINE
  5
347
100
AcDbEntity
  8
Layer_1
 62
1
100
AcDbSpline
 70
8
 71
3
 72
8
 73
4
 74
0
 40
0
 40
0
 40
0
 40
0
 40
1
 40
1
 40
1
 40
1
 10
230.321760
 20
216.127119
 30
0.0
 10
229.606302
 20
216.597147
 30
0.0
 10
229.407342
 20
217.558173
 30
0.0
 10
229.877370
 20
218.273631
 30
0.0
  0
SPLINE
  5
348
100
AcDbEntity
  8
Layer_1
 62
1
100
AcDbSpline
 70
8
 71
3
 72
8
 73
4
 74
0
 40
0
 40
0
 40
0
 40
0
 40
1
 40
1
 40
1
 40
1
 10
229.877370
 20
218.273631
 30
0.0
 10
230.347398
 20
218.989087
 30
0.0
 10
231.308423
 20
219.188048
 30
0.0
 10
232.023880
 20
218.718021
 30
0.0
  0
LINE
  5
349
100
AcDbEntity
  8
Layer_1
 62
1
100
AcDbLine
 10
232.023880
 20
218.718021
 30
0.0
 11
232.023880
 21
218.718021
 31
0.0
  0
SPLINE
  5
34a
100
AcDbEntity
  8
Layer_1
 62
1
100
AcDbSpline
 70
8
 71
3
 72
8
 73
4
 74
0
 40
0
 40
0
 40
0
 40
0
 40
1
 40
1
 40
1
 40
1
 10
208.292400
 20
194.584950
 30
0.0
 10
208.635977
 20
194.359234
 30
0.0
 10
208.875817
 20
194.006278
 30
0.0
 10
208.959156
 20
193.603727
 30
0.0
  0
SPLINE
  5
34b
100
AcDbEntity
  8
Layer_1
 62
1
100
AcDbSpline
 70
8
 71
3
 72
8
 73
4
 74
0
 40
0
 40
0
 40
0
 40
0
 40
1
 40
1
 40
1
 40
1
 10
208.959156
 20
193.603727
 30
0.0
 10
209.042495
 20
193.201176
 30
0.0
 10
208.962508
 20
192.782006
 30
0.0
 10
208.736790
 20
192.438430
 30
0.0
  0
SPLINE
  5
34c
100
AcDbEntity
  8
Layer_1
 62
1
100
AcDbSpline
 70
8
 71
3
 72
8
 73
4
 74
0
 40
0
 40
0
 40
0
 40
0
 40
1
 40
1
 40
1
 40
1
 10
208.736790
 20
192.438430
 30
0.0
 10
208.266762
 20
191.722974
 30
0.0
 10
207.305737
 20
191.524013
 30
0.0
 10
206.590280
 20
191.994040
 30
0.0
  0
SPLINE
  5
34d
100
AcDbEntity
  8
Layer_1
 62
1
100
AcDbSpline
 70
8
 71
3
 72
8
 73
4
 74
0
 40
0
 40
0
 40
0
 40
0
 40
1
 40
1
 40
1
 40
1
 10
206.590280
 20
191.994040
 30
0.0
 10
206.246703
 20
192.219756
 30
0.0
 10
206.006863
 20
192.572712
 30
0.0
 10
205.923524
 20
192.975263
 30
0.0
  0
SPLINE
  5
34e
100
AcDbEntity
  8
Layer_1
 62
1
100
AcDbSpline
 70
8
 71
3
 72
8
 73
4
 74
0
 40
0
 40
0
 40
0
 40
0
 40
1
 40
1
 40
1
 40
1
 10
205.923524
 20
192.975263
 30
0.0
 10
205.840185
 20
193.377814
 30
0.0
 10
205.920172
 20
193.796984
 30
0.0
 10
206.145890
 20
194.140560
 30
0.0
  0
SPLINE
  5
34f
100
AcDbEntity
  8
Layer_1
 62
1
100
AcDbSpline
 70
8
 71
3
 72
8
 73
4
 74
0
 40
0
 40
0
 40
0
 40
0
 40
1
 40
1
 40
1
 40
1
 10
206.145890
 20
194.140560
 30
0.0
 10
206.615918
 20
194.856016
 30
0.0
 10
207.576943
 20
195.054977
 30
0.0
 10
208.292400
 20
194.584950
 30
0.0
  0
LINE
  5
350
100
AcDbEntity
  8
Layer_1
 62
1
100
AcDbLine
 10
208.292400
 20
194.584950
 30
0.0
 11
208.292400
 21
194.584950
 31
0.0
  0
LINE
  5
351
100
AcDbEntity
  8
Layer_1
 62
6
100
AcDbLine
 10
221.287580
 20
103.357630
 30
0.0
 11
224.042550
 21
100.645270
 31
0.0
  0
LINE
  5
352
100
AcDbEntity
  8
Layer_1
 62
6
100
AcDbLine
 10
224.042550
 20
100.645270
 30
0.0
 11
209.403440
 21
85.776140
 31
0.0
  0
LINE
  5
353
100
AcDbEntity
  8
Layer_1
 62
6
100
AcDbLine
 10
209.403440
 20
85.776140
 30
0.0
 11
206.648470
 21
88.488500
 31
0.0
  0
LINE
  5
354
100
AcDbEntity
  8
Layer_1
 62
6
100
AcDbLine
 10
206.648470
 20
88.488500
 30
0.0
 11
221.287580
 21
103.357630
 31
0.0
  0
LINE
  5
355
100
AcDbEntity
  8
Layer_1
 62
5
100
AcDbLine
 10
185.879100
 20
92.233050
 30
0.0
 11
217.219450
 21
124.065840
 31
0.0
  0
LINE
  5
356
100
AcDbEntity
  8
Layer_1
 62
5
100
AcDbLine
 10
217.219450
 20
124.065840
 30
0.0
 11
234.765590
 21
98.594690
 31
0.0
  0
SPLINE
  5
357
100
AcDbEntity
  8
Layer_1
 62
5
100
AcDbSpline
 70
8
 71
3
 72
8
 73
4
 74
0
 40
0
 40
0
 40
0
 40
0
 40
1
 40
1
 40
1
 40
1
 10
234.765590
 20
98.594690
 30
0.0
 10
231.798820
 20
90.223730
 30
0.0
 10
242.163750
 20
81.462750
 30
0.0
 10
235.483030
 20
74.677050
 30
0.0
  0
SPLINE
  5
358
100
AcDbEntity
  8
Layer_1
 62
5
100
AcDbSpline
 70
8
 71
3
 72
8
 73
4
 74
0
 40
0
 40
0
 40
0
 40
0
 40
1
 40
1
 40
1
 40
1
 10
235.483030
 20
74.677050
 30
0.0
 10
228.706970
 20
67.794510
 30
0.0
 10
219.625710
 20
78.413830
 30
0.0
 10
211.509270
 20
75.080980
 30
0.0
  0
LINE
  5
359
100
AcDbEntity
  8
Layer_1
 62
5
100
AcDbLine
 10
211.509270
 20
75.080980
 30
0.0
 11
185.879100
 21
92.233050
 31
0.0
  0
SPLINE
  5
35a
100
AcDbEntity
  8
Layer_1
 62
1
100
AcDbSpline
 70
8
 71
3
 72
8
 73
4
 74
0
 40
0
 40
0
 40
0
 40
0
 40
1
 40
1
 40
1
 40
1
 10
230.214240
 20
80.284070
 30
0.0
 10
229.988524
 20
79.940493
 30
0.0
 10
229.635568
 20
79.700653
 30
0.0
 10
229.233017
 20
79.617314
 30
0.0
  0
SPLINE
  5
35b
100
AcDbEntity
  8
Layer_1
 62
1
100
AcDbSpline
 70
8
 71
3
 72
8
 73
4
 74
0
 40
0
 40
0
 40
0
 40
0
 40
1
 40
1
 40
1
 40
1
 10
229.233017
 20
79.617314
 30
0.0
 10
228.830466
 20
79.533975
 30
0.0
 10
228.411296
 20
79.613962
 30
0.0
 10
228.067720
 20
79.839680
 30
0.0
  0
SPLINE
  5
35c
100
AcDbEntity
  8
Layer_1
 62
1
100
AcDbSpline
 70
8
 71
3
 72
8
 73
4
 74
0
 40
0
 40
0
 40
0
 40
0
 40
1
 40
1
 40
1
 40
1
 10
228.067720
 20
79.839680
 30
0.0
 10
227.352267
 20
80.309711
 30
0.0
 10
227.153312
 20
81.270735
 30
0.0
 10
227.623340
 20
81.986190
 30
0.0
  0
SPLINE
  5
35d
100
AcDbEntity
  8
Layer_1
 62
1
100
AcDbSpline
 70
8
 71
3
 72
8
 73
4
 74
0
 40
0
 40
0
 40
0
 40
0
 40
1
 40
1
 40
1
 40
1
 10
227.623340
 20
81.986190
 30
0.0
 10
228.093368
 20
82.701646
 30
0.0
 10
229.054393
 20
82.900607
 30
0.0
 10
229.769850
 20
82.430580
 30
0.0
  0
SPLINE
  5
35e
100
AcDbEntity
  8
Layer_1
 62
1
100
AcDbSpline
 70
8
 71
3
 72
8
 73
4
 74
0
 40
0
 40
0
 40
0
 40
0
 40
1
 40
1
 40
1
 40
1
 10
229.769850
 20
82.430580
 30
0.0
 10
230.485306
 20
81.960552
 30
0.0
 10
230.684267
 20
80.999527
 30
0.0
 10
230.214240
 20
80.284070
 30
0.0
  0
LINE
  5
35f
100
AcDbEntity
  8
Layer_1
 62
1
100
AcDbLine
 10
230.214240
 20
80.284070
 30
0.0
 11
230.214240
 21
80.284070
 31
0.0
  0
SPLINE
  5
360
100
AcDbEntity
  8
Layer_1
 62
1
100
AcDbSpline
 70
8
 71
3
 72
8
 73
4
 74
0
 40
0
 40
0
 40
0
 40
0
 40
1
 40
1
 40
1
 40
1
 10
206.081170
 20
104.015550
 30
0.0
 10
205.855454
 20
103.671973
 30
0.0
 10
205.502498
 20
103.432133
 30
0.0
 10
205.099947
 20
103.348794
 30
0.0
  0
SPLINE
  5
361
100
AcDbEntity
  8
Layer_1
 62
1
100
AcDbSpline
 70
8
 71
3
 72
8
 73
4
 74
0
 40
0
 40
0
 40
0
 40
0
 40
1
 40
1
 40
1
 40
1
 10
205.099947
 20
103.348794
 30
0.0
 10
204.697396
 20
103.265455
 30
0.0
 10
204.278226
 20
103.345442
 30
0.0
 10
203.934650
 20
103.571160
 30
0.0
  0
SPLINE
  5
362
100
AcDbEntity
  8
Layer_1
 62
1
100
AcDbSpline
 70
8
 71
3
 72
8
 73
4
 74
0
 40
0
 40
0
 40
0
 40
0
 40
1
 40
1
 40
1
 40
1
 10
203.934650
 20
103.571160
 30
0.0
 10
203.219194
 20
104.041188
 30
0.0
 10
203.020233
 20
105.002213
 30
0.0
 10
203.490260
 20
105.717670
 30
0.0
  0
SPLINE
  5
363
100
AcDbEntity
  8
Layer_1
 62
1
100
AcDbSpline
 70
8
 71
3
 72
8
 73
4
 74
0
 40
0
 40
0
 40
0
 40
0
 40
1
 40
1
 40
1
 40
1
 10
203.490260
 20
105.717670
 30
0.0
 10
203.715976
 20
106.061247
 30
0.0
 10
204.068932
 20
106.301087
 30
0.0
 10
204.471483
 20
106.384426
 30
0.0
  0
SPLINE
  5
364
100
AcDbEntity
  8
Layer_1
 62
1
100
AcDbSpline
 70
8
 71
3
 72
8
 73
4
 74
0
 40
0
 40
0
 40
0
 40
0
 40
1
 40
1
 40
1
 40
1
 10
204.471483
 20
106.384426
 30
0.0
 10
204.874034
 20
106.467765
 30
0.0
 10
205.293204
 20
106.387778
 30
0.0
 10
205.636780
 20
106.162060
 30
0.0
  0
SPLINE
  5
365
100
AcDbEntity
  8
Layer_1
 62
1
100
AcDbSpline
 70
8
 71
3
 72
8
 73
4
 74
0
 40
0
 40
0
 40
0
 40
0
 40
1
 40
1
 40
1
 40
1
 10
205.636780
 20
106.162060
 30
0.0
 10
206.352236
 20
105.692032
 30
0.0
 10
206.551197
 20
104.731007
 30
0.0
 10
206.081170
 20
104.015550
 30
0.0
  0
LINE
  5
366
100
AcDbEntity
  8
Layer_1
 62
1
100
AcDbLine
 10
206.081170
 20
104.015550
 30
0.0
 11
206.081170
 21
104.015550
 31
0.0
  0
LINE
  5
367
100
AcDbEntity
  8
Layer_1
 62
6
100
AcDbLine
 10
117.284680
 20
91.432410
 30
0.0
 11
114.572320
 21
88.677440
 31
0.0
  0
LINE
  5
368
100
AcDbEntity
  8
Layer_1
 62
6
100
AcDbLine
 10
114.572320
 20
88.677440
 30
0.0
 11
99.703190
 21
103.316550
 31
0.0
  0
LINE
  5
369
100
AcDbEntity
  8
Layer_1
 62
6
100
AcDbLine
 10
99.703190
 20
103.316550
 30
0.0
 11
102.415550
 21
106.071520
 31
0.0
  0
LINE
  5
36a
100
AcDbEntity
  8
Layer_1
 62
6
100
AcDbLine
 10
102.415550
 20
106.071520
 30
0.0
 11
117.284680
 21
91.432410
 31
0.0
  0
LINE
  5
36b
100
AcDbEntity
  8
Layer_1
 62
5
100
AcDbLine
 10
106.160100
 20
126.840890
 30
0.0
 11
137.992890
 21
95.500540
 31
0.0
  0
LINE
  5
36c
100
AcDbEntity
  8
Layer_1
 62
5
100
AcDbLine
 10
137.992890
 20
95.500540
 30
0.0
 11
112.521740
 21
77.954400
 31
0.0
  0
SPLINE
  5
36d
100
AcDbEntity
  8
Layer_1
 62
5
100
AcDbSpline
 70
8
 71
3
 72
8
 73
4
 74
0
 40
0
 40
0
 40
0
 40
0
 40
1
 40
1
 40
1
 40
1
 10
112.521740
 20
77.954400
 30
0.0
 10
104.150780
 20
80.921170
 30
0.0
 10
95.389800
 20
70.556240
 30
0.0
 10
88.604100
 20
77.236960
 30
0.0
  0
SPLINE
  5
36e
100
AcDbEntity
  8
Layer_1
 62
5
100
AcDbSpline
 70
8
 71
3
 72
8
 73
4
 74
0
 40
0
 40
0
 40
0
 40
0
 40
1
 40
1
 40
1
 40
1
 10
88.604100
 20
77.236960
 30
0.0
 10
81.721560
 20
84.013020
 30
0.0
 10
92.340880
 20
93.094280
 30
0.0
 10
89.008030
 20
101.210720
 30
0.0
  0
LINE
  5
36f
100
AcDbEntity
  8
Layer_1
 62
5
100
AcDbLine
 10
89.008030
 20
101.210720
 30
0.0
 11
106.160100
 21
126.840890
 31
0.0
  0
SPLINE
  5
370
100
AcDbEntity
  8
Layer_1
 62
1
100
AcDbSpline
 70
8
 71
3
 72
8
 73
4
 74
0
 40
0
 40
0
 40
0
 40
0
 40
1
 40
1
 40
1
 40
1
 10
94.211120
 20
82.505750
 30
0.0
 10
93.867543
 20
82.731466
 30
0.0
 10
93.627703
 20
83.084422
 30
0.0
 10
93.544364
 20
83.486973
 30
0.0
  0
SPLINE
  5
371
100
AcDbEntity
  8
Layer_1
 62
1
100
AcDbSpline
 70
8
 71
3
 72
8
 73
4
 74
0
 40
0
 40
0
 40
0
 40
0
 40
1
 40
1
 40
1
 40
1
 10
93.544364
 20
83.486973
 30
0.0
 10
93.461025
 20
83.889524
 30
0.0
 10
93.541012
 20
84.308694
 30
0.0
 10
93.766730
 20
84.652270
 30
0.0
  0
SPLINE
  5
372
100
AcDbEntity
  8
Layer_1
 62
1
100
AcDbSpline
 70
8
 71
3
 72
8
 73
4
 74
0
 40
0
 40
0
 40
0
 40
0
 40
1
 40
1
 40
1
 40
1
 10
93.766730
 20
84.652270
 30
0.0
 10
94.236761
 20
85.367723
 30
0.0
 10
95.197785
 20
85.566678
 30
0.0
 10
95.913240
 20
85.096650
 30
0.0
  0
SPLINE
  5
373
100
AcDbEntity
  8
Layer_1
 62
1
100
AcDbSpline
 70
8
 71
3
 72
8
 73
4
 74
0
 40
0
 40
0
 40
0
 40
0
 40
1
 40
1
 40
1
 40
1
 10
95.913240
 20
85.096650
 30
0.0
 10
96.628696
 20
84.626622
 30
0.0
 10
96.827657
 20
83.665597
 30
0.0
 10
96.357630
 20
82.950140
 30
0.0
  0
SPLINE
  5
374
100
AcDbEntity
  8
Layer_1
 62
1
100
AcDbSpline
 70
8
 71
3
 72
8
 73
4
 74
0
 40
0
 40
0
 40
0
 40
0
 40
1
 40
1
 40
1
 40
1
 10
96.357630
 20
82.950140
 30
0.0
 10
95.887602
 20
82.234684
 30
0.0
 10
94.926577
 20
82.035723
 30
0.0
 10
94.211120
 20
82.505750
 30
0.0
  0
LINE
  5
375
100
AcDbEntity
  8
Layer_1
 62
1
100
AcDbLine
 10
94.211120
 20
82.505750
 30
0.0
 11
94.211120
 21
82.505750
 31
0.0
  0
SPLINE
  5
376
100
AcDbEntity
  8
Layer_1
 62
1
100
AcDbSpline
 70
8
 71
3
 72
8
 73
4
 74
0
 40
0
 40
0
 40
0
 40
0
 40
1
 40
1
 40
1
 40
1
 10
117.942600
 20
106.638820
 30
0.0
 10
117.599023
 20
106.864536
 30
0.0
 10
117.359183
 20
107.217492
 30
0.0
 10
117.275844
 20
107.620043
 30
0.0
  0
SPLINE
  5
377
100
AcDbEntity
  8
Layer_1
 62
1
100
AcDbSpline
 70
8
 71
3
 72
8
 73
4
 74
0
 40
0
 40
0
 40
0
 40
0
 40
1
 40
1
 40
1
 40
1
 10
117.275844
 20
107.620043
 30
0.0
 10
117.192505
 20
108.022594
 30
0.0
 10
117.272492
 20
108.441764
 30
0.0
 10
117.498210
 20
108.785340
 30
0.0
  0
SPLINE
  5
378
100
AcDbEntity
  8
Layer_1
 62
1
100
AcDbSpline
 70
8
 71
3
 72
8
 73
4
 74
0
 40
0
 40
0
 40
0
 40
0
 40
1
 40
1
 40
1
 40
1
 10
117.498210
 20
108.785340
 30
0.0
 10
117.968238
 20
109.500796
 30
0.0
 10
118.929263
 20
109.699757
 30
0.0
 10
119.644720
 20
109.229730
 30
0.0
  0
SPLINE
  5
379
100
AcDbEntity
  8
Layer_1
 62
1
100
AcDbSpline
 70
8
 71
3
 72
8
 73
4
 74
0
 40
0
 40
0
 40
0
 40
0
 40
1
 40
1
 40
1
 40
1
 10
119.644720
 20
109.229730
 30
0.0
 10
119.988297
 20
109.004014
 30
0.0
 10
120.228137
 20
108.651058
 30
0.0
 10
120.311476
 20
108.248507
 30
0.0
  0
SPLINE
  5
37a
100
AcDbEntity
  8
Layer_1
 62
1
100
AcDbSpline
 70
8
 71
3
 72
8
 73
4
 74
0
 40
0
 40
0
 40
0
 40
0
 40
1
 40
1
 40
1
 40
1
 10
120.311476
 20
108.248507
 30
0.0
 10
120.394815
 20
107.845956
 30
0.0
 10
120.314828
 20
107.426786
 30
0.0
 10
120.089110
 20
107.083210
 30
0.0
  0
SPLINE
  5
37b
100
AcDbEntity
  8
Layer_1
 62
1
100
AcDbSpline
 70
8
 71
3
 72
8
 73
4
 74
0
 40
0
 40
0
 40
0
 40
0
 40
1
 40
1
 40
1
 40
1
 10
120.089110
 20
107.083210
 30
0.0
 10
119.619082
 20
106.367754
 30
0.0
 10
118.658057
 20
106.168793
 30
0.0
 10
117.942600
 20
106.638820
 30
0.0
  0
LINE
  5
37c
100
AcDbEntity
  8
Layer_1
 62
1
100
AcDbLine
 10
117.942600
 20
106.638820
 30
0.0
 11
117.942600
 21
106.638820
 31
0.0
  0
SPLINE
  5
37d
100
AcDbEntity
  8
Layer_1
 62
5
100
AcDbSpline
 70
8
 71
3
 72
8
 73
4
 74
0
 40
0
 40
0
 40
0
 40
0
 40
1
 40
1
 40
1
 40
1
 10
75.875500
 20
175.880550
 30
0.0
 10
73.505924
 20
175.880548
 30
0.0
 10
71.233399
 20
176.821856
 30
0.0
 10
69.557855
 20
178.497398
 30
0.0
  0
SPLINE
  5
37e
100
AcDbEntity
  8
Layer_1
 62
5
100
AcDbSpline
 70
8
 71
3
 72
8
 73
4
 74
0
 40
0
 40
0
 40
0
 40
0
 40
1
 40
1
 40
1
 40
1
 10
69.557855
 20
178.497398
 30
0.0
 10
67.882311
 20
180.172940
 30
0.0
 10
66.941000
 20
182.445464
 30
0.0
 10
66.941000
 20
184.815040
 30
0.0
  0
SPLINE
  5
37f
100
AcDbEntity
  8
Layer_1
 62
5
100
AcDbSpline
 70
8
 71
3
 72
8
 73
4
 74
0
 40
0
 40
0
 40
0
 40
0
 40
1
 40
1
 40
1
 40
1
 10
66.941000
 20
184.815040
 30
0.0
 10
66.941000
 20
187.184616
 30
0.0
 10
67.882311
 20
189.457140
 30
0.0
 10
69.557855
 20
191.132682
 30
0.0
  0
SPLINE
  5
380
100
AcDbEntity
  8
Layer_1
 62
5
100
AcDbSpline
 70
8
 71
3
 72
8
 73
4
 74
0
 40
0
 40
0
 40
0
 40
0
 40
1
 40
1
 40
1
 40
1
 10
69.557855
 20
191.132682
 30
0.0
 10
71.233399
 20
192.808224
 30
0.0
 10
73.505924
 20
193.749532
 30
0.0
 10
75.875500
 20
193.749530
 30
0.0
  0
SPLINE
  5
381
100
AcDbEntity
  8
Layer_1
 62
5
100
AcDbSpline
 70
8
 71
3
 72
8
 73
4
 74
0
 40
0
 40
0
 40
0
 40
0
 40
1
 40
1
 40
1
 40
1
 10
75.875500
 20
193.749530
 30
0.0
 10
80.809882
 20
193.749530
 30
0.0
 10
84.809990
 20
189.749422
 30
0.0
 10
84.809990
 20
184.815040
 30
0.0
  0
SPLINE
  5
382
100
AcDbEntity
  8
Layer_1
 62
5
100
AcDbSpline
 70
8
 71
3
 72
8
 73
4
 74
0
 40
0
 40
0
 40
0
 40
0
 40
1
 40
1
 40
1
 40
1
 10
84.809990
 20
184.815040
 30
0.0
 10
84.809990
 20
179.880658
 30
0.0
 10
80.809882
 20
175.880551
 30
0.0
 10
75.875500
 20
175.880550
 30
0.0
  0
LINE
  5
383
100
AcDbEntity
  8
Layer_1
 62
5
100
AcDbLine
 10
75.875500
 20
175.880550
 30
0.0
 11
75.875500
 21
175.880550
 31
0.0
  0
SPLINE
  5
384
100
AcDbEntity
  8
Layer_1
 62
5
100
AcDbSpline
 70
8
 71
3
 72
8
 73
4
 74
0
 40
0
 40
0
 40
0
 40
0
 40
1
 40
1
 40
1
 40
1
 10
75.875500
 20
183.391840
 30
0.0
 10
75.498044
 20
183.391839
 30
0.0
 10
75.136047
 20
183.541783
 30
0.0
 10
74.869145
 20
183.808685
 30
0.0
  0
SPLINE
  5
385
100
AcDbEntity
  8
Layer_1
 62
5
100
AcDbSpline
 70
8
 71
3
 72
8
 73
4
 74
0
 40
0
 40
0
 40
0
 40
0
 40
1
 40
1
 40
1
 40
1
 10
74.869145
 20
183.808685
 30
0.0
 10
74.602243
 20
184.075587
 30
0.0
 10
74.452299
 20
184.437584
 30
0.0
 10
74.452300
 20
184.815040
 30
0.0
  0
SPLINE
  5
386
100
AcDbEntity
  8
Layer_1
 62
5
100
AcDbSpline
 70
8
 71
3
 72
8
 73
4
 74
0
 40
0
 40
0
 40
0
 40
0
 40
1
 40
1
 40
1
 40
1
 10
74.452300
 20
184.815040
 30
0.0
 10
74.452299
 20
185.192496
 30
0.0
 10
74.602243
 20
185.554493
 30
0.0
 10
74.869145
 20
185.821395
 30
0.0
  0
SPLINE
  5
387
100
AcDbEntity
  8
Layer_1
 62
5
100
AcDbSpline
 70
8
 71
3
 72
8
 73
4
 74
0
 40
0
 40
0
 40
0
 40
0
 40
1
 40
1
 40
1
 40
1
 10
74.869145
 20
185.821395
 30
0.0
 10
75.136047
 20
186.088297
 30
0.0
 10
75.498044
 20
186.238241
 30
0.0
 10
75.875500
 20
186.238240
 30
0.0
  0
SPLINE
  5
388
100
AcDbEntity
  8
Layer_1
 62
5
100
AcDbSpline
 70
8
 71
3
 72
8
 73
4
 74
0
 40
0
 40
0
 40
0
 40
0
 40
1
 40
1
 40
1
 40
1
 10
75.875500
 20
186.238240
 30
0.0
 10
76.252956
 20
186.238241
 30
0.0
 10
76.614953
 20
186.088297
 30
0.0
 10
76.881855
 20
185.821395
 30
0.0
  0
SPLINE
  5
389
100
AcDbEntity
  8
Layer_1
 62
5
100
AcDbSpline
 70
8
 71
3
 72
8
 73
4
 74
0
 40
0
 40
0
 40
0
 40
0
 40
1
 40
1
 40
1
 40
1
 10
76.881855
 20
185.821395
 30
0.0
 10
77.148757
 20
185.554493
 30
0.0
 10
77.298701
 20
185.192496
 30
0.0
 10
77.298700
 20
184.815040
 30
0.0
  0
SPLINE
  5
38a
100
AcDbEntity
  8
Layer_1
 62
5
100
AcDbSpline
 70
8
 71
3
 72
8
 73
4
 74
0
 40
0
 40
0
 40
0
 40
0
 40
1
 40
1
 40
1
 40
1
 10
77.298700
 20
184.815040
 30
0.0
 10
77.298701
 20
184.437584
 30
0.0
 10
77.148757
 20
184.075587
 30
0.0
 10
76.881855
 20
183.808685
 30
0.0
  0
SPLINE
  5
38b
100
AcDbEntity
  8
Layer_1
 62
5
100
AcDbSpline
 70
8
 71
3
 72
8
 73
4
 74
0
 40
0
 40
0
 40
0
 40
0
 40
1
 40
1
 40
1
 40
1
 10
76.881855
 20
183.808685
 30
0.0
 10
76.614953
 20
183.541783
 30
0.0
 10
76.252956
 20
183.391839
 30
0.0
 10
75.875500
 20
183.391840
 30
0.0
  0
LINE
  5
38c
100
AcDbEntity
  8
Layer_1
 62
5
100
AcDbLine
 10
75.875500
 20
183.391840
 30
0.0
 11
75.875500
 21
183.391840
 31
0.0
  0
SPLINE
  5
38d
100
AcDbEntity
  8
Layer_1
 62
5
100
AcDbSpline
 70
8
 71
3
 72
8
 73
4
 74
0
 40
0
 40
0
 40
0
 40
0
 40
1
 40
1
 40
1
 40
1
 10
195.996880
 20
222.349592
 30
0.0
 10
191.062498
 20
222.349593
 30
0.0
 10
187.062391
 20
226.349700
 30
0.0
 10
187.062390
 20
231.284082
 30
0.0
  0
SPLINE
  5
38e
100
AcDbEntity
  8
Layer_1
 62
5
100
AcDbSpline
 70
8
 71
3
 72
8
 73
4
 74
0
 40
0
 40
0
 40
0
 40
0
 40
1
 40
1
 40
1
 40
1
 10
187.062390
 20
231.284082
 30
0.0
 10
187.062390
 20
233.653656
 30
0.0
 10
188.003699
 20
235.926179
 30
0.0
 10
189.679241
 20
237.601722
 30
0.0
  0
SPLINE
  5
38f
100
AcDbEntity
  8
Layer_1
 62
5
100
AcDbSpline
 70
8
 71
3
 72
8
 73
4
 74
0
 40
0
 40
0
 40
0
 40
0
 40
1
 40
1
 40
1
 40
1
 10
189.679241
 20
237.601722
 30
0.0
 10
191.354783
 20
239.277264
 30
0.0
 10
193.627306
 20
240.218574
 30
0.0
 10
195.996880
 20
240.218574
 30
0.0
  0
SPLINE
  5
390
100
AcDbEntity
  8
Layer_1
 62
5
100
AcDbSpline
 70
8
 71
3
 72
8
 73
4
 74
0
 40
0
 40
0
 40
0
 40
0
 40
1
 40
1
 40
1
 40
1
 10
195.996880
 20
240.218574
 30
0.0
 10
198.366454
 20
240.218574
 30
0.0
 10
200.638977
 20
239.277264
 30
0.0
 10
202.314519
 20
237.601722
 30
0.0
  0
SPLINE
  5
391
100
AcDbEntity
  8
Layer_1
 62
5
100
AcDbSpline
 70
8
 71
3
 72
8
 73
4
 74
0
 40
0
 40
0
 40
0
 40
0
 40
1
 40
1
 40
1
 40
1
 10
202.314519
 20
237.601722
 30
0.0
 10
203.990061
 20
235.926179
 30
0.0
 10
204.931370
 20
233.653656
 30
0.0
 10
204.931370
 20
231.284082
 30
0.0
  0
SPLINE
  5
392
100
AcDbEntity
  8
Layer_1
 62
5
100
AcDbSpline
 70
8
 71
3
 72
8
 73
4
 74
0
 40
0
 40
0
 40
0
 40
0
 40
1
 40
1
 40
1
 40
1
 10
204.931370
 20
231.284082
 30
0.0
 10
204.931370
 20
226.349700
 30
0.0
 10
200.931262
 20
222.349593
 30
0.0
 10
195.996880
 20
222.349592
 30
0.0
  0
LINE
  5
393
100
AcDbEntity
  8
Layer_1
 62
5
100
AcDbLine
 10
195.996880
 20
222.349592
 30
0.0
 11
195.996880
 21
222.349592
 31
0.0
  0
SPLINE
  5
394
100
AcDbEntity
  8
Layer_1
 62
5
100
AcDbSpline
 70
8
 71
3
 72
8
 73
4
 74
0
 40
0
 40
0
 40
0
 40
0
 40
1
 40
1
 40
1
 40
1
 10
195.996880
 20
229.860883
 30
0.0
 10
195.619424
 20
229.860882
 30
0.0
 10
195.257427
 20
230.010826
 30
0.0
 10
194.990525
 20
230.277728
 30
0.0
  0
SPLINE
  5
395
100
AcDbEntity
  8
Layer_1
 62
5
100
AcDbSpline
 70
8
 71
3
 72
8
 73
4
 74
0
 40
0
 40
0
 40
0
 40
0
 40
1
 40
1
 40
1
 40
1
 10
194.990525
 20
230.277728
 30
0.0
 10
194.723623
 20
230.544629
 30
0.0
 10
194.573680
 20
230.906626
 30
0.0
 10
194.573680
 20
231.284082
 30
0.0
  0
SPLINE
  5
396
100
AcDbEntity
  8
Layer_1
 62
5
100
AcDbSpline
 70
8
 71
3
 72
8
 73
4
 74
0
 40
0
 40
0
 40
0
 40
0
 40
1
 40
1
 40
1
 40
1
 10
194.573680
 20
231.284082
 30
0.0
 10
194.573680
 20
231.661538
 30
0.0
 10
194.723624
 20
232.023534
 30
0.0
 10
194.990526
 20
232.290436
 30
0.0
  0
SPLINE
  5
397
100
AcDbEntity
  8
Layer_1
 62
5
100
AcDbSpline
 70
8
 71
3
 72
8
 73
4
 74
0
 40
0
 40
0
 40
0
 40
0
 40
1
 40
1
 40
1
 40
1
 10
194.990526
 20
232.290436
 30
0.0
 10
195.257428
 20
232.557337
 30
0.0
 10
195.619424
 20
232.707281
 30
0.0
 10
195.996880
 20
232.707280
 30
0.0
  0
SPLINE
  5
398
100
AcDbEntity
  8
Layer_1
 62
5
100
AcDbSpline
 70
8
 71
3
 72
8
 73
4
 74
0
 40
0
 40
0
 40
0
 40
0
 40
1
 40
1
 40
1
 40
1
 10
195.996880
 20
232.707280
 30
0.0
 10
196.374336
 20
232.707281
 30
0.0
 10
196.736332
 20
232.557337
 30
0.0
 10
197.003234
 20
232.290436
 30
0.0
  0
SPLINE
  5
399
100
AcDbEntity
  8
Layer_1
 62
5
100
AcDbSpline
 70
8
 71
3
 72
8
 73
4
 74
0
 40
0
 40
0
 40
0
 40
0
 40
1
 40
1
 40
1
 40
1
 10
197.003234
 20
232.290436
 30
0.0
 10
197.270136
 20
232.023534
 30
0.0
 10
197.420080
 20
231.661538
 30
0.0
 10
197.420080
 20
231.284082
 30
0.0
  0
SPLINE
  5
39a
100
AcDbEntity
  8
Layer_1
 62
5
100
AcDbSpline
 70
8
 71
3
 72
8
 73
4
 74
0
 40
0
 40
0
 40
0
 40
0
 40
1
 40
1
 40
1
 40
1
 10
197.420080
 20
231.284082
 30
0.0
 10
197.420080
 20
230.906626
 30
0.0
 10
197.270137
 20
230.544629
 30
0.0
 10
197.003235
 20
230.277728
 30
0.0
  0
SPLINE
  5
39b
100
AcDbEntity
  8
Layer_1
 62
5
100
AcDbSpline
 70
8
 71
3
 72
8
 73
4
 74
0
 40
0
 40
0
 40
0
 40
0
 40
1
 40
1
 40
1
 40
1
 10
197.003235
 20
230.277728
 30
0.0
 10
196.736333
 20
230.010826
 30
0.0
 10
196.374336
 20
229.860882
 30
0.0
 10
195.996880
 20
229.860883
 30
0.0
  0
LINE
  5
39c
100
AcDbEntity
  8
Layer_1
 62
5
100
AcDbLine
 10
195.996880
 20
229.860883
 30
0.0
 11
195.996880
 21
229.860883
 31
0.0
  0
SPLINE
  5
39d
100
AcDbEntity
  8
Layer_1
 62
5
100
AcDbSpline
 70
8
 71
3
 72
8
 73
4
 74
0
 40
0
 40
0
 40
0
 40
0
 40
1
 40
1
 40
1
 40
1
 10
246.243550
 20
172.637450
 30
0.0
 10
241.309168
 20
172.637451
 30
0.0
 10
237.309061
 20
176.637558
 30
0.0
 10
237.309060
 20
181.571940
 30
0.0
  0
SPLINE
  5
39e
100
AcDbEntity
  8
Layer_1
 62
5
100
AcDbSpline
 70
8
 71
3
 72
8
 73
4
 74
0
 40
0
 40
0
 40
0
 40
0
 40
1
 40
1
 40
1
 40
1
 10
237.309060
 20
181.571940
 30
0.0
 10
237.309058
 20
183.941516
 30
0.0
 10
238.250366
 20
186.214041
 30
0.0
 10
239.925908
 20
187.889585
 30
0.0
  0
SPLINE
  5
39f
100
AcDbEntity
  8
Layer_1
 62
5
100
AcDbSpline
 70
8
 71
3
 72
8
 73
4
 74
0
 40
0
 40
0
 40
0
 40
0
 40
1
 40
1
 40
1
 40
1
 10
239.925908
 20
187.889585
 30
0.0
 10
241.601450
 20
189.565129
 30
0.0
 10
243.873974
 20
190.506440
 30
0.0
 10
246.243550
 20
190.506440
 30
0.0
  0
SPLINE
  5
3a0
100
AcDbEntity
  8
Layer_1
 62
5
100
AcDbSpline
 70
8
 71
3
 72
8
 73
4
 74
0
 40
0
 40
0
 40
0
 40
0
 40
1
 40
1
 40
1
 40
1
 10
246.243550
 20
190.506440
 30
0.0
 10
248.613126
 20
190.506440
 30
0.0
 10
250.885650
 20
189.565129
 30
0.0
 10
252.561192
 20
187.889585
 30
0.0
  0
SPLINE
  5
3a1
100
AcDbEntity
  8
Layer_1
 62
5
100
AcDbSpline
 70
8
 71
3
 72
8
 73
4
 74
0
 40
0
 40
0
 40
0
 40
0
 40
1
 40
1
 40
1
 40
1
 10
252.561192
 20
187.889585
 30
0.0
 10
254.236734
 20
186.214041
 30
0.0
 10
255.178042
 20
183.941516
 30
0.0
 10
255.178040
 20
181.571940
 30
0.0
  0
SPLINE
  5
3a2
100
AcDbEntity
  8
Layer_1
 62
5
100
AcDbSpline
 70
8
 71
3
 72
8
 73
4
 74
0
 40
0
 40
0
 40
0
 40
0
 40
1
 40
1
 40
1
 40
1
 10
255.178040
 20
181.571940
 30
0.0
 10
255.178040
 20
176.637558
 30
0.0
 10
251.177932
 20
172.637451
 30
0.0
 10
246.243550
 20
172.637450
 30
0.0
  0
LINE
  5
3a3
100
AcDbEntity
  8
Layer_1
 62
5
100
AcDbLine
 10
246.243550
 20
172.637450
 30
0.0
 11
246.243550
 21
172.637450
 31
0.0
  0
SPLINE
  5
3a4
100
AcDbEntity
  8
Layer_1
 62
5
100
AcDbSpline
 70
8
 71
3
 72
8
 73
4
 74
0
 40
0
 40
0
 40
0
 40
0
 40
1
 40
1
 40
1
 40
1
 10
246.243550
 20
180.148750
 30
0.0
 10
245.457542
 20
180.148749
 30
0.0
 10
244.820354
 20
180.785932
 30
0.0
 10
244.820350
 20
181.571940
 30
0.0
  0
SPLINE
  5
3a5
100
AcDbEntity
  8
Layer_1
 62
5
100
AcDbSpline
 70
8
 71
3
 72
8
 73
4
 74
0
 40
0
 40
0
 40
0
 40
0
 40
1
 40
1
 40
1
 40
1
 10
244.820350
 20
181.571940
 30
0.0
 10
244.820349
 20
181.949396
 30
0.0
 10
244.970293
 20
182.311393
 30
0.0
 10
245.237195
 20
182.578295
 30
0.0
  0
SPLINE
  5
3a6
100
AcDbEntity
  8
Layer_1
 62
5
100
AcDbSpline
 70
8
 71
3
 72
8
 73
4
 74
0
 40
0
 40
0
 40
0
 40
0
 40
1
 40
1
 40
1
 40
1
 10
245.237195
 20
182.578295
 30
0.0
 10
245.504097
 20
182.845197
 30
0.0
 10
245.866094
 20
182.995141
 30
0.0
 10
246.243550
 20
182.995140
 30
0.0
  0
SPLINE
  5
3a7
100
AcDbEntity
  8
Layer_1
 62
5
100
AcDbSpline
 70
8
 71
3
 72
8
 73
4
 74
0
 40
0
 40
0
 40
0
 40
0
 40
1
 40
1
 40
1
 40
1
 10
246.243550
 20
182.995140
 30
0.0
 10
246.621006
 20
182.995141
 30
0.0
 10
246.983003
 20
182.845197
 30
0.0
 10
247.249905
 20
182.578295
 30
0.0
  0
SPLINE
  5
3a8
100
AcDbEntity
  8
Layer_1
 62
5
100
AcDbSpline
 70
8
 71
3
 72
8
 73
4
 74
0
 40
0
 40
0
 40
0
 40
0
 40
1
 40
1
 40
1
 40
1
 10
247.249905
 20
182.578295
 30
0.0
 10
247.516807
 20
182.311393
 30
0.0
 10
247.666751
 20
181.949396
 30
0.0
 10
247.666750
 20
181.571940
 30
0.0
  0
SPLINE
  5
3a9
100
AcDbEntity
  8
Layer_1
 62
5
100
AcDbSpline
 70
8
 71
3
 72
8
 73
4
 74
0
 40
0
 40
0
 40
0
 40
0
 40
1
 40
1
 40
1
 40
1
 10
247.666750
 20
181.571940
 30
0.0
 10
247.666746
 20
180.785932
 30
0.0
 10
247.029558
 20
180.148749
 30
0.0
 10
246.243550
 20
180.148750
 30
0.0
  0
LINE
  5
3aa
100
AcDbEntity
  8
Layer_1
 62
5
100
AcDbLine
 10
246.243550
 20
180.148750
 30
0.0
 11
246.243550
 21
180.148750
 31
0.0
  0
LINE
  5
3ab
100
AcDbEntity
  8
Layer_1
 62
6
100
AcDbLine
 10
29.432020
 20
256.803034
 30
0.0
 11
26.677050
 21
259.515394
 31
0.0
  0
LINE
  5
3ac
100
AcDbEntity
  8
Layer_1
 62
6
100
AcDbLine
 10
26.677050
 20
259.515394
 30
0.0
 11
41.316160
 21
274.384525
 31
0.0
  0
LINE
  5
3ad
100
AcDbEntity
  8
Layer_1
 62
6
100
AcDbLine
 10
41.316160
 20
274.384525
 30
0.0
 11
44.071130
 21
271.672166
 31
0.0
  0
LINE
  5
3ae
100
AcDbEntity
  8
Layer_1
 62
6
100
AcDbLine
 10
44.071130
 20
271.672166
 30
0.0
 11
29.432020
 21
256.803034
 31
0.0
  0
LINE
  5
3af
100
AcDbEntity
  8
Layer_1
 62
5
100
AcDbLine
 10
64.840500
 20
267.927619
 30
0.0
 11
33.500150
 21
236.094824
 31
0.0
  0
LINE
  5
3b0
100
AcDbEntity
  8
Layer_1
 62
5
100
AcDbLine
 10
33.500150
 20
236.094824
 30
0.0
 11
15.954010
 21
261.565981
 31
0.0
  0
SPLINE
  5
3b1
100
AcDbEntity
  8
Layer_1
 62
5
100
AcDbSpline
 70
8
 71
3
 72
8
 73
4
 74
0
 40
0
 40
0
 40
0
 40
0
 40
1
 40
1
 40
1
 40
1
 10
15.954010
 20
261.565981
 30
0.0
 10
18.920780
 20
269.936942
 30
0.0
 10
8.555850
 20
278.697922
 30
0.0
 10
15.236570
 20
285.483616
 30
0.0
  0
SPLINE
  5
3b2
100
AcDbEntity
  8
Layer_1
 62
5
100
AcDbSpline
 70
8
 71
3
 72
8
 73
4
 74
0
 40
0
 40
0
 40
0
 40
0
 40
1
 40
1
 40
1
 40
1
 10
15.236570
 20
285.483616
 30
0.0
 10
22.012630
 20
292.366155
 30
0.0
 10
31.093890
 20
281.746838
 30
0.0
 10
39.210330
 20
285.079684
 30
0.0
  0
LINE
  5
3b3
100
AcDbEntity
  8
Layer_1
 62
5
100
AcDbLine
 10
39.210330
 20
285.079684
 30
0.0
 11
64.840500
 21
267.927619
 31
0.0
  0
SPLINE
  5
3b4
100
AcDbEntity
  8
Layer_1
 62
1
100
AcDbSpline
 70
8
 71
3
 72
8
 73
4
 74
0
 40
0
 40
0
 40
0
 40
0
 40
1
 40
1
 40
1
 40
1
 10
20.505360
 20
279.876599
 30
0.0
 10
20.731076
 20
280.220176
 30
0.0
 10
21.084033
 20
280.460015
 30
0.0
 10
21.486584
 20
280.543353
 30
0.0
  0
SPLINE
  5
3b5
100
AcDbEntity
  8
Layer_1
 62
1
100
AcDbSpline
 70
8
 71
3
 72
8
 73
4
 74
0
 40
0
 40
0
 40
0
 40
0
 40
1
 40
1
 40
1
 40
1
 10
21.486584
 20
280.543353
 30
0.0
 10
21.889135
 20
280.626692
 30
0.0
 10
22.308305
 20
280.546704
 30
0.0
 10
22.651880
 20
280.320986
 30
0.0
  0
SPLINE
  5
3b6
100
AcDbEntity
  8
Layer_1
 62
1
100
AcDbSpline
 70
8
 71
3
 72
8
 73
4
 74
0
 40
0
 40
0
 40
0
 40
0
 40
1
 40
1
 40
1
 40
1
 10
22.651880
 20
280.320986
 30
0.0
 10
23.367333
 20
279.850955
 30
0.0
 10
23.566288
 20
278.889931
 30
0.0
 10
23.096260
 20
278.174476
 30
0.0
  0
SPLINE
  5
3b7
100
AcDbEntity
  8
Layer_1
 62
1
100
AcDbSpline
 70
8
 71
3
 72
8
 73
4
 74
0
 40
0
 40
0
 40
0
 40
0
 40
1
 40
1
 40
1
 40
1
 10
23.096260
 20
278.174476
 30
0.0
 10
22.626233
 20
277.459019
 30
0.0
 10
21.665208
 20
277.260058
 30
0.0
 10
20.949750
 20
277.730084
 30
0.0
  0
SPLINE
  5
3b8
100
AcDbEntity
  8
Layer_1
 62
1
100
AcDbSpline
 70
8
 71
3
 72
8
 73
4
 74
0
 40
0
 40
0
 40
0
 40
0
 40
1
 40
1
 40
1
 40
1
 10
20.949750
 20
277.730084
 30
0.0
 10
20.606174
 20
277.955799
 30
0.0
 10
20.366336
 20
278.308755
 30
0.0
 10
20.282996
 20
278.711305
 30
0.0
  0
SPLINE
  5
3b9
100
AcDbEntity
  8
Layer_1
 62
1
100
AcDbSpline
 70
8
 71
3
 72
8
 73
4
 74
0
 40
0
 40
0
 40
0
 40
0
 40
1
 40
1
 40
1
 40
1
 10
20.282996
 20
278.711305
 30
0.0
 10
20.199657
 20
279.113855
 30
0.0
 10
20.279644
 20
279.533024
 30
0.0
 10
20.505360
 20
279.876599
 30
0.0
  0
LINE
  5
3ba
100
AcDbEntity
  8
Layer_1
 62
1
100
AcDbLine
 10
20.505360
 20
279.876599
 30
0.0
 11
20.505360
 21
279.876599
 31
0.0
  0
SPLINE
  5
3bb
100
AcDbEntity
  8
Layer_1
 62
1
100
AcDbSpline
 70
8
 71
3
 72
8
 73
4
 74
0
 40
0
 40
0
 40
0
 40
0
 40
1
 40
1
 40
1
 40
1
 10
44.638430
 20
256.145114
 30
0.0
 10
44.864146
 20
256.488691
 30
0.0
 10
45.217102
 20
256.728531
 30
0.0
 10
45.619653
 20
256.811870
 30
0.0
  0
SPLINE
  5
3bc
100
AcDbEntity
  8
Layer_1
 62
1
100
AcDbSpline
 70
8
 71
3
 72
8
 73
4
 74
0
 40
0
 40
0
 40
0
 40
0
 40
1
 40
1
 40
1
 40
1
 10
45.619653
 20
256.811870
 30
0.0
 10
46.022204
 20
256.895209
 30
0.0
 10
46.441374
 20
256.815222
 30
0.0
 10
46.784950
 20
256.589504
 30
0.0
  0
SPLINE
  5
3bd
100
AcDbEntity
  8
Layer_1
 62
1
100
AcDbSpline
 70
8
 71
3
 72
8
 73
4
 74
0
 40
0
 40
0
 40
0
 40
0
 40
1
 40
1
 40
1
 40
1
 10
46.784950
 20
256.589504
 30
0.0
 10
47.500406
 20
256.119476
 30
0.0
 10
47.699367
 20
255.158451
 30
0.0
 10
47.229340
 20
254.442994
 30
0.0
  0
SPLINE
  5
3be
100
AcDbEntity
  8
Layer_1
 62
1
100
AcDbSpline
 70
8
 71
3
 72
8
 73
4
 74
0
 40
0
 40
0
 40
0
 40
0
 40
1
 40
1
 40
1
 40
1
 10
47.229340
 20
254.442994
 30
0.0
 10
47.003624
 20
254.099417
 30
0.0
 10
46.650668
 20
253.859577
 30
0.0
 10
46.248117
 20
253.776238
 30
0.0
  0
SPLINE
  5
3bf
100
AcDbEntity
  8
Layer_1
 62
1
100
AcDbSpline
 70
8
 71
3
 72
8
 73
4
 74
0
 40
0
 40
0
 40
0
 40
0
 40
1
 40
1
 40
1
 40
1
 10
46.248117
 20
253.776238
 30
0.0
 10
45.845566
 20
253.692899
 30
0.0
 10
45.426396
 20
253.772886
 30
0.0
 10
45.082820
 20
253.998604
 30
0.0
  0
SPLINE
  5
3c0
100
AcDbEntity
  8
Layer_1
 62
1
100
AcDbSpline
 70
8
 71
3
 72
8
 73
4
 74
0
 40
0
 40
0
 40
0
 40
0
 40
1
 40
1
 40
1
 40
1
 10
45.082820
 20
253.998604
 30
0.0
 10
44.367364
 20
254.468632
 30
0.0
 10
44.168403
 20
255.429657
 30
0.0
 10
44.638430
 20
256.145114
 30
0.0
  0
LINE
  5
3c1
100
AcDbEntity
  8
Layer_1
 62
1
100
AcDbLine
 10
44.638430
 20
256.145114
 30
0.0
 11
44.638430
 21
256.145114
 31
0.0
  0
LINE
  5
3c2
100
AcDbEntity
  8
Layer_1
 62
6
100
AcDbLine
 10
45.200220
 20
26.483890
 30
0.0
 11
42.487860
 21
23.728920
 31
0.0
  0
LINE
  5
3c3
100
AcDbEntity
  8
Layer_1
 62
6
100
AcDbLine
 10
42.487860
 20
23.728920
 30
0.0
 11
27.618729
 21
38.368030
 31
0.0
  0
LINE
  5
3c4
100
AcDbEntity
  8
Layer_1
 62
6
100
AcDbLine
 10
27.618729
 20
38.368030
 30
0.0
 11
30.331088
 21
41.123000
 31
0.0
  0
LINE
  5
3c5
100
AcDbEntity
  8
Layer_1
 62
6
100
AcDbLine
 10
30.331088
 20
41.123000
 30
0.0
 11
45.200220
 21
26.483890
 31
0.0
  0
LINE
  5
3c6
100
AcDbEntity
  8
Layer_1
 62
5
100
AcDbLine
 10
34.075635
 20
61.892370
 30
0.0
 11
65.908430
 21
30.552020
 31
0.0
  0
LINE
  5
3c7
100
AcDbEntity
  8
Layer_1
 62
5
100
AcDbLine
 10
65.908430
 20
30.552020
 30
0.0
 11
40.437273
 21
13.005880
 31
0.0
  0
SPLINE
  5
3c8
100
AcDbEntity
  8
Layer_1
 62
5
100
AcDbSpline
 70
8
 71
3
 72
8
 73
4
 74
0
 40
0
 40
0
 40
0
 40
0
 40
1
 40
1
 40
1
 40
1
 10
40.437273
 20
13.005880
 30
0.0
 10
32.066312
 20
15.972650
 30
0.0
 10
23.305332
 20
5.607720
 30
0.0
 10
16.519638
 20
12.288440
 30
0.0
  0
SPLINE
  5
3c9
100
AcDbEntity
  8
Layer_1
 62
5
100
AcDbSpline
 70
8
 71
3
 72
8
 73
4
 74
0
 40
0
 40
0
 40
0
 40
0
 40
1
 40
1
 40
1
 40
1
 10
16.519638
 20
12.288440
 30
0.0
 10
9.637099
 20
19.064500
 30
0.0
 10
20.256416
 20
28.145760
 30
0.0
 10
16.923570
 20
36.262200
 30
0.0
  0
LINE
  5
3ca
100
AcDbEntity
  8
Layer_1
 62
5
100
AcDbLine
 10
16.923570
 20
36.262200
 30
0.0
 11
34.075635
 21
61.892370
 31
0.0
  0
SPLINE
  5
3cb
100
AcDbEntity
  8
Layer_1
 62
1
100
AcDbSpline
 70
8
 71
3
 72
8
 73
4
 74
0
 40
0
 40
0
 40
0
 40
0
 40
1
 40
1
 40
1
 40
1
 10
22.126655
 20
17.557230
 30
0.0
 10
21.783078
 20
17.782946
 30
0.0
 10
21.543239
 20
18.135903
 30
0.0
 10
21.459901
 20
18.538454
 30
0.0
  0
SPLINE
  5
3cc
100
AcDbEntity
  8
Layer_1
 62
1
100
AcDbSpline
 70
8
 71
3
 72
8
 73
4
 74
0
 40
0
 40
0
 40
0
 40
0
 40
1
 40
1
 40
1
 40
1
 10
21.459901
 20
18.538454
 30
0.0
 10
21.376562
 20
18.941005
 30
0.0
 10
21.456550
 20
19.360175
 30
0.0
 10
21.682268
 20
19.703750
 30
0.0
  0
SPLINE
  5
3cd
100
AcDbEntity
  8
Layer_1
 62
1
100
AcDbSpline
 70
8
 71
3
 72
8
 73
4
 74
0
 40
0
 40
0
 40
0
 40
0
 40
1
 40
1
 40
1
 40
1
 10
21.682268
 20
19.703750
 30
0.0
 10
22.152299
 20
20.419203
 30
0.0
 10
23.113323
 20
20.618158
 30
0.0
 10
23.828778
 20
20.148130
 30
0.0
  0
SPLINE
  5
3ce
100
AcDbEntity
  8
Layer_1
 62
1
100
AcDbSpline
 70
8
 71
3
 72
8
 73
4
 74
0
 40
0
 40
0
 40
0
 40
0
 40
1
 40
1
 40
1
 40
1
 10
23.828778
 20
20.148130
 30
0.0
 10
24.544235
 20
19.678103
 30
0.0
 10
24.743196
 20
18.717078
 30
0.0
 10
24.273170
 20
18.001620
 30
0.0
  0
SPLINE
  5
3cf
100
AcDbEntity
  8
Layer_1
 62
1
100
AcDbSpline
 70
8
 71
3
 72
8
 73
4
 74
0
 40
0
 40
0
 40
0
 40
0
 40
1
 40
1
 40
1
 40
1
 10
24.273170
 20
18.001620
 30
0.0
 10
24.047455
 20
17.658044
 30
0.0
 10
23.694499
 20
17.418206
 30
0.0
 10
23.291949
 20
17.334866
 30
0.0
  0
SPLINE
  5
3d0
100
AcDbEntity
  8
Layer_1
 62
1
100
AcDbSpline
 70
8
 71
3
 72
8
 73
4
 74
0
 40
0
 40
0
 40
0
 40
0
 40
1
 40
1
 40
1
 40
1
 10
23.291949
 20
17.334866
 30
0.0
 10
22.889399
 20
17.251527
 30
0.0
 10
22.470230
 20
17.331514
 30
0.0
 10
22.126655
 20
17.557230
 30
0.0
  0
LINE
  5
3d1
100
AcDbEntity
  8
Layer_1
 62
1
100
AcDbLine
 10
22.126655
 20
17.557230
 30
0.0
 11
22.126655
 21
17.557230
 31
0.0
  0
SPLINE
  5
3d2
100
AcDbEntity
  8
Layer_1
 62
1
100
AcDbSpline
 70
8
 71
3
 72
8
 73
4
 74
0
 40
0
 40
0
 40
0
 40
0
 40
1
 40
1
 40
1
 40
1
 10
45.858140
 20
41.690300
 30
0.0
 10
45.514563
 20
41.916016
 30
0.0
 10
45.274723
 20
42.268972
 30
0.0
 10
45.191384
 20
42.671523
 30
0.0
  0
SPLINE
  5
3d3
100
AcDbEntity
  8
Layer_1
 62
1
100
AcDbSpline
 70
8
 71
3
 72
8
 73
4
 74
0
 40
0
 40
0
 40
0
 40
0
 40
1
 40
1
 40
1
 40
1
 10
45.191384
 20
42.671523
 30
0.0
 10
45.108045
 20
43.074074
 30
0.0
 10
45.188032
 20
43.493244
 30
0.0
 10
45.413750
 20
43.836820
 30
0.0
  0
SPLINE
  5
3d4
100
AcDbEntity
  8
Layer_1
 62
1
100
AcDbSpline
 70
8
 71
3
 72
8
 73
4
 74
0
 40
0
 40
0
 40
0
 40
0
 40
1
 40
1
 40
1
 40
1
 10
45.413750
 20
43.836820
 30
0.0
 10
45.883778
 20
44.552276
 30
0.0
 10
46.844803
 20
44.751237
 30
0.0
 10
47.560260
 20
44.281210
 30
0.0
  0
SPLINE
  5
3d5
100
AcDbEntity
  8
Layer_1
 62
1
100
AcDbSpline
 70
8
 71
3
 72
8
 73
4
 74
0
 40
0
 40
0
 40
0
 40
0
 40
1
 40
1
 40
1
 40
1
 10
47.560260
 20
44.281210
 30
0.0
 10
47.903837
 20
44.055494
 30
0.0
 10
48.143677
 20
43.702538
 30
0.0
 10
48.227016
 20
43.299987
 30
0.0
  0
SPLINE
  5
3d6
100
AcDbEntity
  8
Layer_1
 62
1
100
AcDbSpline
 70
8
 71
3
 72
8
 73
4
 74
0
 40
0
 40
0
 40
0
 40
0
 40
1
 40
1
 40
1
 40
1
 10
48.227016
 20
43.299987
 30
0.0
 10
48.310355
 20
42.897436
 30
0.0
 10
48.230368
 20
42.478266
 30
0.0
 10
48.004650
 20
42.134690
 30
0.0
  0
SPLINE
  5
3d7
100
AcDbEntity
  8
Layer_1
 62
1
100
AcDbSpline
 70
8
 71
3
 72
8
 73
4
 74
0
 40
0
 40
0
 40
0
 40
0
 40
1
 40
1
 40
1
 40
1
 10
48.004650
 20
42.134690
 30
0.0
 10
47.534622
 20
41.419234
 30
0.0
 10
46.573597
 20
41.220273
 30
0.0
 10
45.858140
 20
41.690300
 30
0.0
  0
LINE
  5
3d8
100
AcDbEntity
  8
Layer_1
 62
1
100
AcDbLine
 10
45.858140
 20
41.690300
 30
0.0
 11
45.858140
 21
41.690300
 31
0.0
  0
LINE
  5
3d9
100
AcDbEntity
  8
Layer_1
 62
6
100
AcDbLine
 10
296.686050
 20
40.362220
 30
0.0
 11
299.441020
 21
37.649860
 31
0.0
  0
LINE
  5
3da
100
AcDbEntity
  8
Layer_1
 62
6
100
AcDbLine
 10
299.441020
 20
37.649860
 30
0.0
 11
284.801910
 21
22.780729
 31
0.0
  0
LINE
  5
3db
100
AcDbEntity
  8
Layer_1
 62
6
100
AcDbLine
 10
284.801910
 20
22.780729
 30
0.0
 11
282.046940
 21
25.493088
 31
0.0
  0
LINE
  5
3dc
100
AcDbEntity
  8
Layer_1
 62
6
100
AcDbLine
 10
282.046940
 20
25.493088
 30
0.0
 11
296.686050
 21
40.362220
 31
0.0
  0
LINE
  5
3dd
100
AcDbEntity
  8
Layer_1
 62
5
100
AcDbLine
 10
261.277570
 20
29.237635
 30
0.0
 11
292.617920
 21
61.070430
 31
0.0
  0
LINE
  5
3de
100
AcDbEntity
  8
Layer_1
 62
5
100
AcDbLine
 10
292.617920
 20
61.070430
 30
0.0
 11
310.164060
 21
35.599273
 31
0.0
  0
SPLINE
  5
3df
100
AcDbEntity
  8
Layer_1
 62
5
100
AcDbSpline
 70
8
 71
3
 72
8
 73
4
 74
0
 40
0
 40
0
 40
0
 40
0
 40
1
 40
1
 40
1
 40
1
 10
310.164060
 20
35.599273
 30
0.0
 10
307.197290
 20
27.228312
 30
0.0
 10
317.562220
 20
18.467332
 30
0.0
 10
310.881500
 20
11.681638
 30
0.0
  0
SPLINE
  5
3e0
100
AcDbEntity
  8
Layer_1
 62
5
100
AcDbSpline
 70
8
 71
3
 72
8
 73
4
 74
0
 40
0
 40
0
 40
0
 40
0
 40
1
 40
1
 40
1
 40
1
 10
310.881500
 20
11.681638
 30
0.0
 10
304.105440
 20
4.799099
 30
0.0
 10
295.024180
 20
15.418416
 30
0.0
 10
286.907740
 20
12.085570
 30
0.0
  0
LINE
  5
3e1
100
AcDbEntity
  8
Layer_1
 62
5
100
AcDbLine
 10
286.907740
 20
12.085570
 30
0.0
 11
261.277570
 21
29.237635
 31
0.0
  0
SPLINE
  5
3e2
100
AcDbEntity
  8
Layer_1
 62
1
100
AcDbSpline
 70
8
 71
3
 72
8
 73
4
 74
0
 40
0
 40
0
 40
0
 40
0
 40
1
 40
1
 40
1
 40
1
 10
305.612710
 20
17.288655
 30
0.0
 10
305.386994
 20
16.945078
 30
0.0
 10
305.034037
 20
16.705239
 30
0.0
 10
304.631486
 20
16.621901
 30
0.0
  0
SPLINE
  5
3e3
100
AcDbEntity
  8
Layer_1
 62
1
100
AcDbSpline
 70
8
 71
3
 72
8
 73
4
 74
0
 40
0
 40
0
 40
0
 40
0
 40
1
 40
1
 40
1
 40
1
 10
304.631486
 20
16.621901
 30
0.0
 10
304.228935
 20
16.538562
 30
0.0
 10
303.809765
 20
16.618550
 30
0.0
 10
303.466190
 20
16.844268
 30
0.0
  0
SPLINE
  5
3e4
100
AcDbEntity
  8
Layer_1
 62
1
100
AcDbSpline
 70
8
 71
3
 72
8
 73
4
 74
0
 40
0
 40
0
 40
0
 40
0
 40
1
 40
1
 40
1
 40
1
 10
303.466190
 20
16.844268
 30
0.0
 10
302.750737
 20
17.314299
 30
0.0
 10
302.551782
 20
18.275323
 30
0.0
 10
303.021810
 20
18.990778
 30
0.0
  0
SPLINE
  5
3e5
100
AcDbEntity
  8
Layer_1
 62
1
100
AcDbSpline
 70
8
 71
3
 72
8
 73
4
 74
0
 40
0
 40
0
 40
0
 40
0
 40
1
 40
1
 40
1
 40
1
 10
303.021810
 20
18.990778
 30
0.0
 10
303.491837
 20
19.706235
 30
0.0
 10
304.452862
 20
19.905196
 30
0.0
 10
305.168320
 20
19.435170
 30
0.0
  0
SPLINE
  5
3e6
100
AcDbEntity
  8
Layer_1
 62
1
100
AcDbSpline
 70
8
 71
3
 72
8
 73
4
 74
0
 40
0
 40
0
 40
0
 40
0
 40
1
 40
1
 40
1
 40
1
 10
305.168320
 20
19.435170
 30
0.0
 10
305.511896
 20
19.209455
 30
0.0
 10
305.751734
 20
18.856499
 30
0.0
 10
305.835074
 20
18.453949
 30
0.0
  0
SPLINE
  5
3e7
100
AcDbEntity
  8
Layer_1
 62
1
100
AcDbSpline
 70
8
 71
3
 72
8
 73
4
 74
0
 40
0
 40
0
 40
0
 40
0
 40
1
 40
1
 40
1
 40
1
 10
305.835074
 20
18.453949
 30
0.0
 10
305.918413
 20
18.051399
 30
0.0
 10
305.838426
 20
17.632230
 30
0.0
 10
305.612710
 20
17.288655
 30
0.0
  0
LINE
  5
3e8
100
AcDbEntity
  8
Layer_1
 62
1
100
AcDbLine
 10
305.612710
 20
17.288655
 30
0.0
 11
305.612710
 21
17.288655
 31
0.0
  0
SPLINE
  5
3e9
100
AcDbEntity
  8
Layer_1
 62
1
100
AcDbSpline
 70
8
 71
3
 72
8
 73
4
 74
0
 40
0
 40
0
 40
0
 40
0
 40
1
 40
1
 40
1
 40
1
 10
281.479640
 20
41.020140
 30
0.0
 10
281.253924
 20
40.676563
 30
0.0
 10
280.900968
 20
40.436723
 30
0.0
 10
280.498417
 20
40.353384
 30
0.0
  0
SPLINE
  5
3ea
100
AcDbEntity
  8
Layer_1
 62
1
100
AcDbSpline
 70
8
 71
3
 72
8
 73
4
 74
0
 40
0
 40
0
 40
0
 40
0
 40
1
 40
1
 40
1
 40
1
 10
280.498417
 20
40.353384
 30
0.0
 10
280.095866
 20
40.270045
 30
0.0
 10
279.676696
 20
40.350032
 30
0.0
 10
279.333120
 20
40.575750
 30
0.0
  0
SPLINE
  5
3eb
100
AcDbEntity
  8
Layer_1
 62
1
100
AcDbSpline
 70
8
 71
3
 72
8
 73
4
 74
0
 40
0
 40
0
 40
0
 40
0
 40
1
 40
1
 40
1
 40
1
 10
279.333120
 20
40.575750
 30
0.0
 10
278.617664
 20
41.045778
 30
0.0
 10
278.418703
 20
42.006803
 30
0.0
 10
278.888730
 20
42.722260
 30
0.0
  0
SPLINE
  5
3ec
100
AcDbEntity
  8
Layer_1
 62
1
100
AcDbSpline
 70
8
 71
3
 72
8
 73
4
 74
0
 40
0
 40
0
 40
0
 40
0
 40
1
 40
1
 40
1
 40
1
 10
278.888730
 20
42.722260
 30
0.0
 10
279.114446
 20
43.065837
 30
0.0
 10
279.467402
 20
43.305677
 30
0.0
 10
279.869953
 20
43.389016
 30
0.0
  0
SPLINE
  5
3ed
100
AcDbEntity
  8
Layer_1
 62
1
100
AcDbSpline
 70
8
 71
3
 72
8
 73
4
 74
0
 40
0
 40
0
 40
0
 40
0
 40
1
 40
1
 40
1
 40
1
 10
279.869953
 20
43.389016
 30
0.0
 10
280.272504
 20
43.472355
 30
0.0
 10
280.691674
 20
43.392368
 30
0.0
 10
281.035250
 20
43.166650
 30
0.0
  0
SPLINE
  5
3ee
100
AcDbEntity
  8
Layer_1
 62
1
100
AcDbSpline
 70
8
 71
3
 72
8
 73
4
 74
0
 40
0
 40
0
 40
0
 40
0
 40
1
 40
1
 40
1
 40
1
 10
281.035250
 20
43.166650
 30
0.0
 10
281.750706
 20
42.696622
 30
0.0
 10
281.949667
 20
41.735597
 30
0.0
 10
281.479640
 20
41.020140
 30
0.0
  0
LINE
  5
3ef
100
AcDbEntity
  8
Layer_1
 62
1
100
AcDbLine
 10
281.479640
 20
41.020140
 30
0.0
 11
281.479640
 21
41.020140
 31
0.0
  0
LINE
  5
3f0
100
AcDbEntity
  8
Layer_1
 62
6
100
AcDbLine
 10
280.539850
 20
275.217060
 30
0.0
 11
283.252210
 21
277.972030
 31
0.0
  0
LINE
  5
3f1
100
AcDbEntity
  8
Layer_1
 62
6
100
AcDbLine
 10
283.252210
 20
277.972030
 30
0.0
 11
298.121341
 21
263.332920
 31
0.0
  0
LINE
  5
3f2
100
AcDbEntity
  8
Layer_1
 62
6
100
AcDbLine
 10
298.121341
 20
263.332920
 30
0.0
 11
295.408982
 21
260.577950
 31
0.0
  0
LINE
  5
3f3
100
AcDbEntity
  8
Layer_1
 62
6
100
AcDbLine
 10
295.408982
 20
260.577950
 30
0.0
 11
280.539850
 21
275.217060
 31
0.0
  0
LINE
  5
3f4
100
AcDbEntity
  8
Layer_1
 62
5
100
AcDbLine
 10
291.664435
 20
239.808580
 30
0.0
 11
259.831640
 21
271.148930
 31
0.0
  0
LINE
  5
3f5
100
AcDbEntity
  8
Layer_1
 62
5
100
AcDbLine
 10
259.831640
 20
271.148930
 30
0.0
 11
285.302797
 21
288.695070
 31
0.0
  0
SPLINE
  5
3f6
100
AcDbEntity
  8
Layer_1
 62
5
100
AcDbSpline
 70
8
 71
3
 72
8
 73
4
 74
0
 40
0
 40
0
 40
0
 40
0
 40
1
 40
1
 40
1
 40
1
 10
285.302797
 20
288.695070
 30
0.0
 10
293.673758
 20
285.728300
 30
0.0
 10
302.434738
 20
296.093230
 30
0.0
 10
309.220432
 20
289.412510
 30
0.0
  0
SPLINE
  5
3f7
100
AcDbEntity
  8
Layer_1
 62
5
100
AcDbSpline
 70
8
 71
3
 72
8
 73
4
 74
0
 40
0
 40
0
 40
0
 40
0
 40
1
 40
1
 40
1
 40
1
 10
309.220432
 20
289.412510
 30
0.0
 10
316.102971
 20
282.636450
 30
0.0
 10
305.483654
 20
273.555190
 30
0.0
 10
308.816500
 20
265.438750
 30
0.0
  0
LINE
  5
3f8
100
AcDbEntity
  8
Layer_1
 62
5
100
AcDbLine
 10
308.816500
 20
265.438750
 30
0.0
 11
291.664435
 21
239.808580
 31
0.0
  0
SPLINE
  5
3f9
100
AcDbEntity
  8
Layer_1
 62
1
100
AcDbSpline
 70
8
 71
3
 72
8
 73
4
 74
0
 40
0
 40
0
 40
0
 40
0
 40
1
 40
1
 40
1
 40
1
 10
303.613415
 20
284.143720
 30
0.0
 10
303.956992
 20
283.918004
 30
0.0
 10
304.196831
 20
283.565047
 30
0.0
 10
304.280169
 20
283.162496
 30
0.0
  0
SPLINE
  5
3fa
100
AcDbEntity
  8
Layer_1
 62
1
100
AcDbSpline
 70
8
 71
3
 72
8
 73
4
 74
0
 40
0
 40
0
 40
0
 40
0
 40
1
 40
1
 40
1
 40
1
 10
304.280169
 20
283.162496
 30
0.0
 10
304.363508
 20
282.759945
 30
0.0
 10
304.283520
 20
282.340775
 30
0.0
 10
304.057802
 20
281.997200
 30
0.0
  0
SPLINE
  5
3fb
100
AcDbEntity
  8
Layer_1
 62
1
100
AcDbSpline
 70
8
 71
3
 72
8
 73
4
 74
0
 40
0
 40
0
 40
0
 40
0
 40
1
 40
1
 40
1
 40
1
 10
304.057802
 20
281.997200
 30
0.0
 10
303.587771
 20
281.281747
 30
0.0
 10
302.626747
 20
281.082792
 30
0.0
 10
301.911292
 20
281.552820
 30
0.0
  0
SPLINE
  5
3fc
100
AcDbEntity
  8
Layer_1
 62
1
100
AcDbSpline
 70
8
 71
3
 72
8
 73
4
 74
0
 40
0
 40
0
 40
0
 40
0
 40
1
 40
1
 40
1
 40
1
 10
301.911292
 20
281.552820
 30
0.0
 10
301.195835
 20
282.022847
 30
0.0
 10
300.996874
 20
282.983872
 30
0.0
 10
301.466900
 20
283.699330
 30
0.0
  0
SPLINE
  5
3fd
100
AcDbEntity
  8
Layer_1
 62
1
100
AcDbSpline
 70
8
 71
3
 72
8
 73
4
 74
0
 40
0
 40
0
 40
0
 40
0
 40
1
 40
1
 40
1
 40
1
 10
301.466900
 20
283.699330
 30
0.0
 10
301.692615
 20
284.042906
 30
0.0
 10
302.045571
 20
284.282744
 30
0.0
 10
302.448121
 20
284.366084
 30
0.0
  0
SPLINE
  5
3fe
100
AcDbEntity
  8
Layer_1
 62
1
100
AcDbSpline
 70
8
 71
3
 72
8
 73
4
 74
0
 40
0
 40
0
 40
0
 40
0
 40
1
 40
1
 40
1
 40
1
 10
302.448121
 20
284.366084
 30
0.0
 10
302.850671
 20
284.449423
 30
0.0
 10
303.269840
 20
284.369436
 30
0.0
 10
303.613415
 20
284.143720
 30
0.0
  0
LINE
  5
3ff
100
AcDbEntity
  8
Layer_1
 62
1
100
AcDbLine
 10
303.613415
 20
284.143720
 30
0.0
 11
303.613415
 21
284.143720
 31
0.0
  0
SPLINE
  5
400
100
AcDbEntity
  8
Layer_1
 62
1
100
AcDbSpline
 70
8
 71
3
 72
8
 73
4
 74
0
 40
0
 40
0
 40
0
 40
0
 40
1
 40
1
 40
1
 40
1
 10
279.881930
 20
260.010650
 30
0.0
 10
280.225507
 20
259.784934
 30
0.0
 10
280.465347
 20
259.431978
 30
0.0
 10
280.548686
 20
259.029427
 30
0.0
  0
SPLINE
  5
401
100
AcDbEntity
  8
Layer_1
 62
1
100
AcDbSpline
 70
8
 71
3
 72
8
 73
4
 74
0
 40
0
 40
0
 40
0
 40
0
 40
1
 40
1
 40
1
 40
1
 10
280.548686
 20
259.029427
 30
0.0
 10
280.632025
 20
258.626876
 30
0.0
 10
280.552038
 20
258.207706
 30
0.0
 10
280.326320
 20
257.864130
 30
0.0
  0
SPLINE
  5
402
100
AcDbEntity
  8
Layer_1
 62
1
100
AcDbSpline
 70
8
 71
3
 72
8
 73
4
 74
0
 40
0
 40
0
 40
0
 40
0
 40
1
 40
1
 40
1
 40
1
 10
280.326320
 20
257.864130
 30
0.0
 10
279.856292
 20
257.148674
 30
0.0
 10
278.895267
 20
256.949713
 30
0.0
 10
278.179810
 20
257.419740
 30
0.0
  0
SPLINE
  5
403
100
AcDbEntity
  8
Layer_1
 62
1
100
AcDbSpline
 70
8
 71
3
 72
8
 73
4
 74
0
 40
0
 40
0
 40
0
 40
0
 40
1
 40
1
 40
1
 40
1
 10
278.179810
 20
257.419740
 30
0.0
 10
277.836233
 20
257.645456
 30
0.0
 10
277.596393
 20
257.998412
 30
0.0
 10
277.513054
 20
258.400963
 30
0.0
  0
SPLINE
  5
404
100
AcDbEntity
  8
Layer_1
 62
1
100
AcDbSpline
 70
8
 71
3
 72
8
 73
4
 74
0
 40
0
 40
0
 40
0
 40
0
 40
1
 40
1
 40
1
 40
1
 10
277.513054
 20
258.400963
 30
0.0
 10
277.429715
 20
258.803514
 30
0.0
 10
277.509702
 20
259.222684
 30
0.0
 10
277.735420
 20
259.566260
 30
0.0
  0
SPLINE
  5
405
100
AcDbEntity
  8
Layer_1
 62
1
100
AcDbSpline
 70
8
 71
3
 72
8
 73
4
 74
0
 40
0
 40
0
 40
0
 40
0
 40
1
 40
1
 40
1
 40
1
 10
277.735420
 20
259.566260
 30
0.0
 10
278.205448
 20
260.281716
 30
0.0
 10
279.166473
 20
260.480677
 30
0.0
 10
279.881930
 20
260.010650
 30
0.0
  0
LINE
  5
406
100
AcDbEntity
  8
Layer_1
 62
1
100
AcDbLine
 10
279.881930
 20
260.010650
 30
0.0
 11
279.881930
 21
260.010650
 31
0.0
  0
ENDSEC
  0
SECTION
  2
OBJECTS
  0
DICTIONARY
  5
C
330
0
100
AcDbDictionary
  3
ACAD_GROUP
350
D
  3
ACAD_MLINESTYLE
350
17
  0
DICTIONARY
  5
D
330
C
100
AcDbDictionary
  0
DICTIONARY
  5
1A
330
C
100
AcDbDictionary
  0
DICTIONARY
  5
17
330
C
100
AcDbDictionary
  3
STANDARD
350
18
  0
DICTIONARY
  5
19
330
C
100
AcDbDictionary
  0
ENDSEC
  0
EOF
