ISO-10303-21;
HEADER;
/* Generated by software containing ST-Developer
 * from STEP Tools, Inc. (www.steptools.com) 
 */

FILE_DESCRIPTION(
/* description */ (''),
/* implementation_level */ '2;1');

FILE_NAME(
/* name */ 
'C:\\Users\\Mark\\Desktop\\Inventor Projects\\Puzzles\\Barrel_Puzzle\\
Barrel5.stp',
/* time_stamp */ '2019-07-15T20:26:16-04:00',
/* author */ ('Mark'),
/* organization */ (''),
/* preprocessor_version */ 'ST-DEVELOPER v16.1',
/* originating_system */ 'Autodesk Inventor 2016',
/* authorisation */ '');

FILE_SCHEMA (('AUTOMOTIVE_DESIGN { 1 0 10303 214 3 1 1 }'));
ENDSEC;

DATA;
#10=MECHANICAL_DESIGN_GEOMETRIC_PRESENTATION_REPRESENTATION('',(#13),#303);
#11=SHAPE_REPRESENTATION_RELATIONSHIP('SRR','None',#315,#12);
#12=ADVANCED_BREP_SHAPE_REPRESENTATION('',(#14),#302);
#13=STYLED_ITEM('',(#324),#14);
#14=MANIFOLD_SOLID_BREP('Solid1',#191);
#15=FACE_OUTER_BOUND('',#25,.T.);
#16=FACE_OUTER_BOUND('',#26,.T.);
#17=FACE_OUTER_BOUND('',#27,.T.);
#18=FACE_OUTER_BOUND('',#28,.T.);
#19=FACE_OUTER_BOUND('',#29,.T.);
#20=FACE_OUTER_BOUND('',#30,.T.);
#21=FACE_OUTER_BOUND('',#31,.T.);
#22=FACE_OUTER_BOUND('',#32,.T.);
#23=FACE_OUTER_BOUND('',#33,.T.);
#24=FACE_OUTER_BOUND('',#34,.T.);
#25=EDGE_LOOP('',(#123,#124,#125,#126));
#26=EDGE_LOOP('',(#127,#128,#129,#130));
#27=EDGE_LOOP('',(#131,#132,#133,#134));
#28=EDGE_LOOP('',(#135,#136,#137,#138));
#29=EDGE_LOOP('',(#139,#140,#141,#142));
#30=EDGE_LOOP('',(#143,#144,#145,#146,#147,#148,#149,#150));
#31=EDGE_LOOP('',(#151,#152,#153,#154,#155,#156,#157,#158));
#32=EDGE_LOOP('',(#159,#160,#161,#162));
#33=EDGE_LOOP('',(#163,#164,#165,#166));
#34=EDGE_LOOP('',(#167,#168,#169,#170));
#35=LINE('',#253,#59);
#36=LINE('',#255,#60);
#37=LINE('',#257,#61);
#38=LINE('',#258,#62);
#39=LINE('',#262,#63);
#40=LINE('',#264,#64);
#41=LINE('',#266,#65);
#42=LINE('',#267,#66);
#43=LINE('',#269,#67);
#44=LINE('',#270,#68);
#45=LINE('',#273,#69);
#46=LINE('',#275,#70);
#47=LINE('',#276,#71);
#48=LINE('',#279,#72);
#49=LINE('',#281,#73);
#50=LINE('',#282,#74);
#51=LINE('',#285,#75);
#52=LINE('',#287,#76);
#53=LINE('',#288,#77);
#54=LINE('',#291,#78);
#55=LINE('',#293,#79);
#56=LINE('',#294,#80);
#57=LINE('',#296,#81);
#58=LINE('',#298,#82);
#59=VECTOR('',#207,0.245);
#60=VECTOR('',#208,0.339999999999999);
#61=VECTOR('',#209,0.245);
#62=VECTOR('',#210,0.339999999999999);
#63=VECTOR('',#213,0.245);
#64=VECTOR('',#214,0.34);
#65=VECTOR('',#215,0.245);
#66=VECTOR('',#216,0.34);
#67=VECTOR('',#219,1.21);
#68=VECTOR('',#220,1.21);
#69=VECTOR('',#223,0.395);
#70=VECTOR('',#224,0.34);
#71=VECTOR('',#225,0.395);
#72=VECTOR('',#228,0.395);
#73=VECTOR('',#229,0.339999999999999);
#74=VECTOR('',#230,0.395);
#75=VECTOR('',#233,0.39);
#76=VECTOR('',#234,2.);
#77=VECTOR('',#235,0.39);
#78=VECTOR('',#238,0.39);
#79=VECTOR('',#239,2.);
#80=VECTOR('',#240,0.39);
#81=VECTOR('',#243,0.339999999999999);
#82=VECTOR('',#246,0.34);
#83=VERTEX_POINT('',#251);
#84=VERTEX_POINT('',#252);
#85=VERTEX_POINT('',#254);
#86=VERTEX_POINT('',#256);
#87=VERTEX_POINT('',#260);
#88=VERTEX_POINT('',#261);
#89=VERTEX_POINT('',#263);
#90=VERTEX_POINT('',#265);
#91=VERTEX_POINT('',#272);
#92=VERTEX_POINT('',#274);
#93=VERTEX_POINT('',#278);
#94=VERTEX_POINT('',#280);
#95=VERTEX_POINT('',#284);
#96=VERTEX_POINT('',#286);
#97=VERTEX_POINT('',#290);
#98=VERTEX_POINT('',#292);
#99=EDGE_CURVE('',#83,#84,#35,.T.);
#100=EDGE_CURVE('',#85,#83,#36,.T.);
#101=EDGE_CURVE('',#86,#85,#37,.T.);
#102=EDGE_CURVE('',#84,#86,#38,.T.);
#103=EDGE_CURVE('',#87,#88,#39,.T.);
#104=EDGE_CURVE('',#89,#87,#40,.T.);
#105=EDGE_CURVE('',#90,#89,#41,.T.);
#106=EDGE_CURVE('',#90,#88,#42,.T.);
#107=EDGE_CURVE('',#88,#83,#43,.T.);
#108=EDGE_CURVE('',#85,#90,#44,.T.);
#109=EDGE_CURVE('',#87,#91,#45,.T.);
#110=EDGE_CURVE('',#91,#92,#46,.T.);
#111=EDGE_CURVE('',#92,#89,#47,.T.);
#112=EDGE_CURVE('',#86,#93,#48,.T.);
#113=EDGE_CURVE('',#93,#94,#49,.T.);
#114=EDGE_CURVE('',#94,#84,#50,.T.);
#115=EDGE_CURVE('',#95,#92,#51,.T.);
#116=EDGE_CURVE('',#95,#96,#52,.T.);
#117=EDGE_CURVE('',#96,#93,#53,.T.);
#118=EDGE_CURVE('',#97,#94,#54,.T.);
#119=EDGE_CURVE('',#97,#98,#55,.T.);
#120=EDGE_CURVE('',#98,#91,#56,.T.);
#121=EDGE_CURVE('',#96,#97,#57,.T.);
#122=EDGE_CURVE('',#98,#95,#58,.T.);
#123=ORIENTED_EDGE('',*,*,#99,.F.);
#124=ORIENTED_EDGE('',*,*,#100,.F.);
#125=ORIENTED_EDGE('',*,*,#101,.F.);
#126=ORIENTED_EDGE('',*,*,#102,.F.);
#127=ORIENTED_EDGE('',*,*,#103,.F.);
#128=ORIENTED_EDGE('',*,*,#104,.F.);
#129=ORIENTED_EDGE('',*,*,#105,.F.);
#130=ORIENTED_EDGE('',*,*,#106,.T.);
#131=ORIENTED_EDGE('',*,*,#107,.F.);
#132=ORIENTED_EDGE('',*,*,#106,.F.);
#133=ORIENTED_EDGE('',*,*,#108,.F.);
#134=ORIENTED_EDGE('',*,*,#100,.T.);
#135=ORIENTED_EDGE('',*,*,#104,.T.);
#136=ORIENTED_EDGE('',*,*,#109,.T.);
#137=ORIENTED_EDGE('',*,*,#110,.T.);
#138=ORIENTED_EDGE('',*,*,#111,.T.);
#139=ORIENTED_EDGE('',*,*,#102,.T.);
#140=ORIENTED_EDGE('',*,*,#112,.T.);
#141=ORIENTED_EDGE('',*,*,#113,.T.);
#142=ORIENTED_EDGE('',*,*,#114,.T.);
#143=ORIENTED_EDGE('',*,*,#101,.T.);
#144=ORIENTED_EDGE('',*,*,#108,.T.);
#145=ORIENTED_EDGE('',*,*,#105,.T.);
#146=ORIENTED_EDGE('',*,*,#111,.F.);
#147=ORIENTED_EDGE('',*,*,#115,.F.);
#148=ORIENTED_EDGE('',*,*,#116,.T.);
#149=ORIENTED_EDGE('',*,*,#117,.T.);
#150=ORIENTED_EDGE('',*,*,#112,.F.);
#151=ORIENTED_EDGE('',*,*,#99,.T.);
#152=ORIENTED_EDGE('',*,*,#114,.F.);
#153=ORIENTED_EDGE('',*,*,#118,.F.);
#154=ORIENTED_EDGE('',*,*,#119,.T.);
#155=ORIENTED_EDGE('',*,*,#120,.T.);
#156=ORIENTED_EDGE('',*,*,#109,.F.);
#157=ORIENTED_EDGE('',*,*,#103,.T.);
#158=ORIENTED_EDGE('',*,*,#107,.T.);
#159=ORIENTED_EDGE('',*,*,#121,.T.);
#160=ORIENTED_EDGE('',*,*,#118,.T.);
#161=ORIENTED_EDGE('',*,*,#113,.F.);
#162=ORIENTED_EDGE('',*,*,#117,.F.);
#163=ORIENTED_EDGE('',*,*,#122,.T.);
#164=ORIENTED_EDGE('',*,*,#115,.T.);
#165=ORIENTED_EDGE('',*,*,#110,.F.);
#166=ORIENTED_EDGE('',*,*,#120,.F.);
#167=ORIENTED_EDGE('',*,*,#122,.F.);
#168=ORIENTED_EDGE('',*,*,#119,.F.);
#169=ORIENTED_EDGE('',*,*,#121,.F.);
#170=ORIENTED_EDGE('',*,*,#116,.F.);
#171=PLANE('',#193);
#172=PLANE('',#194);
#173=PLANE('',#195);
#174=PLANE('',#196);
#175=PLANE('',#197);
#176=PLANE('',#198);
#177=PLANE('',#199);
#178=PLANE('',#200);
#179=PLANE('',#201);
#180=PLANE('',#202);
#181=ADVANCED_FACE('',(#15),#171,.F.);
#182=ADVANCED_FACE('',(#16),#172,.F.);
#183=ADVANCED_FACE('',(#17),#173,.F.);
#184=ADVANCED_FACE('',(#18),#174,.T.);
#185=ADVANCED_FACE('',(#19),#175,.T.);
#186=ADVANCED_FACE('',(#20),#176,.T.);
#187=ADVANCED_FACE('',(#21),#177,.T.);
#188=ADVANCED_FACE('',(#22),#178,.T.);
#189=ADVANCED_FACE('',(#23),#179,.T.);
#190=ADVANCED_FACE('',(#24),#180,.F.);
#191=CLOSED_SHELL('',(#181,#182,#183,#184,#185,#186,#187,#188,#189,#190));
#192=AXIS2_PLACEMENT_3D('placement',#249,#203,#204);
#193=AXIS2_PLACEMENT_3D('',#250,#205,#206);
#194=AXIS2_PLACEMENT_3D('',#259,#211,#212);
#195=AXIS2_PLACEMENT_3D('',#268,#217,#218);
#196=AXIS2_PLACEMENT_3D('',#271,#221,#222);
#197=AXIS2_PLACEMENT_3D('',#277,#226,#227);
#198=AXIS2_PLACEMENT_3D('',#283,#231,#232);
#199=AXIS2_PLACEMENT_3D('',#289,#236,#237);
#200=AXIS2_PLACEMENT_3D('',#295,#241,#242);
#201=AXIS2_PLACEMENT_3D('',#297,#244,#245);
#202=AXIS2_PLACEMENT_3D('',#299,#247,#248);
#203=DIRECTION('axis',(0.,0.,1.));
#204=DIRECTION('refdir',(1.,0.,0.));
#205=DIRECTION('center_axis',(0.,1.,0.));
#206=DIRECTION('ref_axis',(0.,0.,-1.));
#207=DIRECTION('',(0.,0.,1.));
#208=DIRECTION('',(-1.,0.,0.));
#209=DIRECTION('',(0.,0.,-1.));
#210=DIRECTION('',(1.,0.,0.));
#211=DIRECTION('center_axis',(0.,-1.,-3.56812799172475E-16));
#212=DIRECTION('ref_axis',(0.,-4.22994972382185E-16,1.));
#213=DIRECTION('',(0.,3.56812799172475E-16,-1.));
#214=DIRECTION('',(-1.,0.,0.));
#215=DIRECTION('',(9.35767996351734E-32,-3.56812799172475E-16,1.));
#216=DIRECTION('',(-1.,0.,0.));
#217=DIRECTION('center_axis',(0.,5.41854147503656E-17,-1.));
#218=DIRECTION('ref_axis',(2.8199664825479E-16,-1.,-7.04991620636974E-17));
#219=DIRECTION('',(0.,1.,5.41854147503656E-17));
#220=DIRECTION('',(2.62257407391769E-16,-1.,-5.41854147503656E-17));
#221=DIRECTION('center_axis',(0.,0.,1.));
#222=DIRECTION('ref_axis',(1.,0.,0.));
#223=DIRECTION('',(0.,-1.,0.));
#224=DIRECTION('',(1.,0.,0.));
#225=DIRECTION('',(-2.62257407391769E-16,1.,0.));
#226=DIRECTION('center_axis',(0.,0.,1.));
#227=DIRECTION('ref_axis',(1.,0.,0.));
#228=DIRECTION('',(-2.62257407391769E-16,1.,0.));
#229=DIRECTION('',(-1.,-1.0284604211442E-15,0.));
#230=DIRECTION('',(0.,-1.,0.));
#231=DIRECTION('center_axis',(1.,2.62257407391769E-16,0.));
#232=DIRECTION('ref_axis',(-2.8199664825479E-16,1.,0.));
#233=DIRECTION('',(0.,0.,1.));
#234=DIRECTION('',(-2.62257407391769E-16,1.,0.));
#235=DIRECTION('',(0.,0.,1.));
#236=DIRECTION('center_axis',(-1.,0.,0.));
#237=DIRECTION('ref_axis',(0.,-1.,0.));
#238=DIRECTION('',(0.,0.,1.));
#239=DIRECTION('',(0.,-1.,0.));
#240=DIRECTION('',(0.,0.,1.));
#241=DIRECTION('center_axis',(-1.0284604211442E-15,1.,0.));
#242=DIRECTION('ref_axis',(-1.,-1.12798659301916E-15,0.));
#243=DIRECTION('',(-1.,-1.0284604211442E-15,0.));
#244=DIRECTION('center_axis',(0.,-1.,0.));
#245=DIRECTION('ref_axis',(1.,0.,0.));
#246=DIRECTION('',(1.,0.,0.));
#247=DIRECTION('center_axis',(0.,0.,1.));
#248=DIRECTION('ref_axis',(1.,0.,0.));
#249=CARTESIAN_POINT('',(0.,0.,0.));
#250=CARTESIAN_POINT('Origin',(0.339999999999999,1.605,0.39));
#251=CARTESIAN_POINT('',(0.,1.605,0.145));
#252=CARTESIAN_POINT('',(0.,1.605,0.39));
#253=CARTESIAN_POINT('',(0.,1.605,0.195));
#254=CARTESIAN_POINT('',(0.339999999999999,1.605,0.145));
#255=CARTESIAN_POINT('',(0.339999999999999,1.605,0.145));
#256=CARTESIAN_POINT('',(0.339999999999999,1.605,0.39));
#257=CARTESIAN_POINT('',(0.339999999999999,1.605,0.195));
#258=CARTESIAN_POINT('',(0.255,1.605,0.39));
#259=CARTESIAN_POINT('Origin',(0.34,0.395,0.145));
#260=CARTESIAN_POINT('',(0.,0.395,0.39));
#261=CARTESIAN_POINT('',(0.,0.395,0.145));
#262=CARTESIAN_POINT('',(0.,0.395,0.0724999999999997));
#263=CARTESIAN_POINT('',(0.34,0.395,0.39));
#264=CARTESIAN_POINT('',(0.255,0.395,0.39));
#265=CARTESIAN_POINT('',(0.34,0.395,0.145));
#266=CARTESIAN_POINT('',(0.34,0.395,0.0725000000000001));
#267=CARTESIAN_POINT('',(0.34,0.395,0.145));
#268=CARTESIAN_POINT('Origin',(0.339999999999999,1.605,0.145));
#269=CARTESIAN_POINT('',(0.,1.8025,0.145));
#270=CARTESIAN_POINT('',(0.34,0.8025,0.145));
#271=CARTESIAN_POINT('Origin',(0.17,1.,0.39));
#272=CARTESIAN_POINT('',(0.,0.,0.39));
#273=CARTESIAN_POINT('',(0.,2.,0.39));
#274=CARTESIAN_POINT('',(0.34,0.,0.39));
#275=CARTESIAN_POINT('',(0.,0.,0.39));
#276=CARTESIAN_POINT('',(0.34,0.,0.39));
#277=CARTESIAN_POINT('Origin',(0.17,1.,0.39));
#278=CARTESIAN_POINT('',(0.339999999999999,2.,0.39));
#279=CARTESIAN_POINT('',(0.34,0.,0.39));
#280=CARTESIAN_POINT('',(0.,2.,0.39));
#281=CARTESIAN_POINT('',(0.339999999999999,2.,0.39));
#282=CARTESIAN_POINT('',(0.,2.,0.39));
#283=CARTESIAN_POINT('Origin',(0.34,0.,0.));
#284=CARTESIAN_POINT('',(0.34,0.,0.));
#285=CARTESIAN_POINT('',(0.34,0.,0.));
#286=CARTESIAN_POINT('',(0.339999999999999,2.,0.));
#287=CARTESIAN_POINT('',(0.34,0.,0.));
#288=CARTESIAN_POINT('',(0.339999999999999,2.,0.));
#289=CARTESIAN_POINT('Origin',(0.,2.,0.));
#290=CARTESIAN_POINT('',(0.,2.,0.));
#291=CARTESIAN_POINT('',(0.,2.,0.));
#292=CARTESIAN_POINT('',(0.,0.,0.));
#293=CARTESIAN_POINT('',(0.,2.,0.));
#294=CARTESIAN_POINT('',(0.,0.,0.));
#295=CARTESIAN_POINT('Origin',(0.339999999999999,2.,0.));
#296=CARTESIAN_POINT('',(0.339999999999999,2.,0.));
#297=CARTESIAN_POINT('Origin',(0.,0.,0.));
#298=CARTESIAN_POINT('',(0.,0.,0.));
#299=CARTESIAN_POINT('Origin',(0.17,1.,0.));
#300=UNCERTAINTY_MEASURE_WITH_UNIT(LENGTH_MEASURE(0.000393700787401575),
#304,'DISTANCE_ACCURACY_VALUE',
'Maximum model space distance between geometric entities at asserted c
onnectivities');
#301=UNCERTAINTY_MEASURE_WITH_UNIT(LENGTH_MEASURE(1.E-6),#305,
'DISTANCE_ACCURACY_VALUE',
'Maximum model space distance between geometric entities at asserted c
onnectivities');
#302=(
GEOMETRIC_REPRESENTATION_CONTEXT(3)
GLOBAL_UNCERTAINTY_ASSIGNED_CONTEXT((#300))
GLOBAL_UNIT_ASSIGNED_CONTEXT((#304,#310,#307))
REPRESENTATION_CONTEXT('','3D')
);
#303=(
GEOMETRIC_REPRESENTATION_CONTEXT(3)
GLOBAL_UNCERTAINTY_ASSIGNED_CONTEXT((#301))
GLOBAL_UNIT_ASSIGNED_CONTEXT((#305,#310,#307))
REPRESENTATION_CONTEXT('','3D')
);
#304=(
CONVERSION_BASED_UNIT('__CONSTANT UNIT inch',#306)
LENGTH_UNIT()
NAMED_UNIT(#309)
);
#305=(
LENGTH_UNIT()
NAMED_UNIT(*)
SI_UNIT(.MILLI.,.METRE.)
);
#306=LENGTH_MEASURE_WITH_UNIT(LENGTH_MEASURE(25.4),#305);
#307=(
NAMED_UNIT(*)
SI_UNIT($,.STERADIAN.)
SOLID_ANGLE_UNIT()
);
#308=DIMENSIONAL_EXPONENTS(0.,0.,0.,0.,0.,0.,0.);
#309=DIMENSIONAL_EXPONENTS(1.,0.,0.,0.,0.,0.,0.);
#310=(
CONVERSION_BASED_UNIT('degree',#312)
NAMED_UNIT(#308)
PLANE_ANGLE_UNIT()
);
#311=(
NAMED_UNIT(*)
PLANE_ANGLE_UNIT()
SI_UNIT($,.RADIAN.)
);
#312=PLANE_ANGLE_MEASURE_WITH_UNIT(PLANE_ANGLE_MEASURE(0.01745329252),#311);
#313=SHAPE_DEFINITION_REPRESENTATION(#314,#315);
#314=PRODUCT_DEFINITION_SHAPE('',$,#317);
#315=SHAPE_REPRESENTATION('',(#192),#302);
#316=PRODUCT_DEFINITION_CONTEXT('part definition',#321,'design');
#317=PRODUCT_DEFINITION('Barrel5','Barrel5',#318,#316);
#318=PRODUCT_DEFINITION_FORMATION('',$,#323);
#319=PRODUCT_RELATED_PRODUCT_CATEGORY('Barrel5','Barrel5',(#323));
#320=APPLICATION_PROTOCOL_DEFINITION('international standard',
'automotive_design',2009,#321);
#321=APPLICATION_CONTEXT(
'Core Data for Automotive Mechanical Design Process');
#322=PRODUCT_CONTEXT('part definition',#321,'mechanical');
#323=PRODUCT('Barrel5','Barrel5',$,(#322));
#324=PRESENTATION_STYLE_ASSIGNMENT((#325));
#325=SURFACE_STYLE_USAGE(.BOTH.,#326);
#326=SURFACE_SIDE_STYLE('',(#327));
#327=SURFACE_STYLE_FILL_AREA(#328);
#328=FILL_AREA_STYLE('',(#329));
#329=FILL_AREA_STYLE_COLOUR('',#330);
#330=COLOUR_RGB('',0.,0.737254901960784,0.729411764705882);
ENDSEC;
END-ISO-10303-21;
