0
SECTION
2
HEADER
9
$INSUNITS
70
4
9
$ACADVER
1
AC1014
9
$HANDSEED
5
FFFF
0
ENDSEC
0
SECTION
2
TABLES
0
TABLE
2
VPORT
5
8
100
AcDbSymbolTable
0
ENDTAB
0
TABLE
2
LTYPE
5
5
100
AcDbSymbolTable
0
LTYPE
5
14
100
AcDbSymbolTableRecord
100
AcDbLinetypeTableRecord
2
BYBLOCK
70
0
0
LTYPE
5
15
100
AcDbSymbolTableRecord
100
AcDbLinetypeTableRecord
2
BYLAYER
70
0
0
ENDTAB
0
TABLE
2
LAYER
5
2
100
AcDbSymbolTable
70
2
0
LAYER
5
50
100
AcDbSymbolTableRecord
100
AcDbLayerTableRecord
2
0
70
0
6
CONTINUOUS
0
ENDTAB
0
TABLE
2
STYLE
5
3
100
AcDbSymbolTable
70
1
0
STYLE
5
11
100
AcDbSymbolTableRecord
100
AcDbTextStyleTableRecord
2
STANDARD
70
0
0
ENDTAB
0
TABLE
2
VIEW
5
6
100
AcDbSymbolTable
70
0
0
ENDTAB
0
TABLE
2
UCS
5
7
100
AcDbSymbolTable
70
0
0
ENDTAB
0
TABLE
2
APPID
5
9
100
AcDbSymbolTable
70
2
0
APPID
5
12
100
AcDbSymbolTableRecord
100
AcDbRegAppTableRecord
2
ACAD
70
0
0
ENDTAB
0
TABLE
2
DIMSTYLE
5
A
100
AcDbSymbolTable
70
1
0
ENDTAB
0
TABLE
2
BLOCK_RECORD
5
1
100
AcDbSymbolTable
70
1
0
BLOCK_RECORD
5
1F
100
AcDbSymbolTableRecord
100
AcDbBlockTableRecord
2
*MODEL_SPACE
0
BLOCK_RECORD
5
1B
100
AcDbSymbolTableRecord
100
AcDbBlockTableRecord
2
*PAPER_SPACE
0
ENDTAB
0
ENDSEC
0
SECTION
2
BLOCKS
0
BLOCK
5
20
100
AcDbEntity
100
AcDbBlockBegin
2
*MODEL_SPACE
0
ENDBLK
5
21
100
AcDbEntity
100
AcDbBlockEnd
0
BLOCK
5
1C
100
AcDbEntity
100
AcDbBlockBegin
2
*PAPER_SPACE
0
ENDBLK
5
1D
100
AcDbEntity
100
AcDbBlockEnd
0
ENDSEC
0
SECTION
2
ENTITIES
0
LWPOLYLINE
5
100
100
AcDbEntity
8
0
100
AcDbPolyline
90
6
70
1
43
0.0
10
7.1014083110324
20
-3.3306690738754696e-15
10
3.5507041555161969
20
-6.1500000000000039
10
-3.5507041555162075
20
-6.1499999999999977
10
-7.1014083110323973
20
1.1102230246251565e-15
10
-3.5507041555161898
20
6.1500000000000092
10
3.5507041555162022
20
6.1500000000000004
0
LINE
5
101
100
AcDbEntity
8
0
100
AcDbLine
10
0
20
0
30
0
11
-5.3260562332742944
21
3.0750000000000051
31
0
0
LWPOLYLINE
5
102
100
AcDbEntity
8
0
100
AcDbPolyline
90
6
70
1
43
0.0
10
20.698007150448081
20
-7.8500000000000147
10
27.799415461480471
20
-7.8500000000000236
10
31.350119616996672
20
-14.000000000000025
10
27.799415461480468
20
-20.150000000000027
10
20.698007150448063
20
-20.150000000000023
10
17.147302994931874
20
-14.000000000000023
0
LWPOLYLINE
5
103
100
AcDbEntity
8
0
100
AcDbPolyline
90
6
70
1
43
0.0
10
8.5736514974659457
20
-0.85000000000000298
10
15.675059808498338
20
-0.85000000000001186
10
19.225763964014536
20
-7.0000000000000151
10
15.675059808498332
20
-13.150000000000016
10
8.5736514974659279
20
-13.150000000000009
10
5.0229473419497372
20
-7.0000000000000107
0
LWPOLYLINE
5
104
100
AcDbEntity
8
0
100
AcDbPolyline
90
6
70
1
43
0.0
10
-15.675059808498325
20
13.150000000000022
10
-8.5736514974659332
20
13.150000000000013
10
-5.0229473419497346
20
7.0000000000000089
10
-8.5736514974659368
20
0.85000000000000742
10
-15.675059808498343
20
0.85000000000001408
10
-19.225763964014533
20
7.0000000000000124
0
LWPOLYLINE
5
105
100
AcDbEntity
8
0
100
AcDbPolyline
90
6
70
1
43
0.0
10
-27.799415461480457
20
20.150000000000034
10
-20.698007150448067
20
20.150000000000023
10
-17.14730299493187
20
14.000000000000021
10
-20.69800715044807
20
7.8500000000000192
10
-27.799415461480478
20
7.8500000000000263
10
-31.350119616996672
20
14.000000000000023
0
LINE
5
106
100
AcDbEntity
8
0
100
AcDbLine
10
0
20
0
30
0
11
5.3260562332743007
21
3.0749999999999984
31
0
0
LWPOLYLINE
5
107
100
AcDbEntity
8
0
100
AcDbPolyline
90
6
70
1
43
0.0
10
-20.698007150448092
20
-7.8499999999999881
10
-17.147302994931891
20
-13.999999999999989
10
-20.698007150448095
20
-20.149999999999991
10
-27.7994154614805
20
-20.149999999999988
10
-31.350119616996686
20
-13.999999999999988
10
-27.799415461480482
20
-7.8499999999999792
0
LWPOLYLINE
5
108
100
AcDbEntity
8
0
100
AcDbPolyline
90
6
70
1
43
0.0
10
-8.5736514974659439
20
-0.84999999999999409
10
-5.0229473419497461
20
-6.9999999999999973
10
-8.5736514974659492
20
-13.149999999999999
10
-15.675059808498354
20
-13.149999999999991
10
-19.225763964014543
20
-6.9999999999999929
10
-15.675059808498336
20
-0.84999999999998521
0
LWPOLYLINE
5
109
100
AcDbEntity
8
0
100
AcDbPolyline
90
6
70
1
43
0.0
10
15.675059808498348
20
13.149999999999995
10
19.225763964014547
20
6.9999999999999911
10
15.675059808498343
20
0.84999999999998965
10
8.5736514974659386
20
0.84999999999999631
10
5.0229473419497488
20
6.9999999999999947
10
8.5736514974659563
20
13.150000000000004
0
LWPOLYLINE
5
110
100
AcDbEntity
8
0
100
AcDbPolyline
90
6
70
1
43
0.0
10
27.799415461480493
20
20.149999999999988
10
31.350119616996693
20
13.999999999999986
10
27.799415461480489
20
7.8499999999999837
10
20.698007150448085
20
7.8499999999999908
10
17.147302994931895
20
13.999999999999988
10
20.698007150448102
20
20.149999999999999
0
LWPOLYLINE
5
111
100
AcDbEntity
8
0
100
AcDbPolyline
90
6
70
1
43
0.0
10
-7.1014083110323973
20
-28.000000000000004
10
-3.5507041555161898
20
-21.849999999999994
10
3.5507041555162022
20
-21.850000000000005
10
7.1014083110324
20
-28.000000000000007
10
3.5507041555161969
20
-34.150000000000006
10
-3.5507041555162075
20
-34.149999999999999
0
LWPOLYLINE
5
112
100
AcDbEntity
8
0
100
AcDbPolyline
90
6
70
1
43
0.0
10
-7.1014083110323973
20
-14.000000000000002
10
-3.5507041555161898
20
-7.8499999999999925
10
3.5507041555162022
20
-7.8500000000000014
10
7.1014083110324
20
-14.000000000000004
10
3.5507041555161969
20
-20.150000000000006
10
-3.5507041555162075
20
-20.149999999999999
0
LWPOLYLINE
5
113
100
AcDbEntity
8
0
100
AcDbPolyline
90
6
70
1
43
0.0
10
-7.1014083110323973
20
14.000000000000002
10
-3.5507041555161898
20
20.150000000000009
10
3.5507041555162022
20
20.150000000000002
10
7.1014083110324
20
14
10
3.5507041555161969
20
7.849999999999997
10
-3.5507041555162075
20
7.8500000000000032
0
LWPOLYLINE
5
114
100
AcDbEntity
8
0
100
AcDbPolyline
90
6
70
1
43
0.0
10
-7.1014083110323973
20
28.000000000000004
10
-3.5507041555161898
20
34.150000000000006
10
3.5507041555162022
20
34.149999999999999
10
7.1014083110324
20
28
10
3.5507041555161969
20
21.849999999999994
10
-3.5507041555162075
20
21.850000000000005
0
LWPOLYLINE
5
115
100
AcDbEntity
8
0
100
AcDbPolyline
90
20
70
1
43
0.0
10
14.925000000000011
20
36.150000000000006
10
14.925000000000011
20
40.150000000000006
10
40.149999999999999
20
40.150000000000006
10
40.149999999999999
20
14.925000000000006
10
36.149999999999999
20
14.925000000000006
10
36.149999999999999
20
-14.924999999999988
10
40.149999999999999
20
-14.924999999999988
10
40.149999999999999
20
-40.149999999999999
10
14.924999999999997
20
-40.149999999999999
10
14.924999999999997
20
-36.149999999999999
10
-14.925000000000001
20
-36.149999999999999
10
-14.925000000000001
20
-40.149999999999999
10
-40.149999999999991
20
-40.149999999999999
10
-40.149999999999991
20
-14.924999999999997
10
-36.149999999999991
20
-14.924999999999997
10
-36.149999999999991
20
14.925000000000001
10
-40.149999999999991
20
14.925000000000001
10
-40.149999999999999
20
40.150000000000006
10
-14.924999999999988
20
40.150000000000006
10
-14.924999999999988
20
36.150000000000006
0
ENDSEC
0
SECTION
2
OBJECTS
0
DICTIONARY
5
C
100
AcDbDictionary
3
ACAD_GROUP
350
D
3
ACAD_MLINESTYLE
350
17
0
DICTIONARY
5
D
100
AcDbDictionary
0
DICTIONARY
5
1A
330
C
100
AcDbDictionary
0
DICTIONARY
5
17
100
AcDbDictionary
0
ENDSEC
0
EOF
