0
SECTION
2
HEADER
9
$INSUNITS
70
4
9
$ACADVER
1
AC1014
9
$HANDSEED
5
FFFF
0
ENDSEC
0
SECTION
2
TABLES
0
TABLE
2
VPORT
5
8
100
AcDbSymbolTable
0
ENDTAB
0
TABLE
2
LTYPE
5
5
100
AcDbSymbolTable
0
LTYPE
5
14
100
AcDbSymbolTableRecord
100
AcDbLinetypeTableRecord
2
BYBLOCK
70
0
0
LTYPE
5
15
100
AcDbSymbolTableRecord
100
AcDbLinetypeTableRecord
2
BYLAYER
70
0
0
ENDTAB
0
TABLE
2
LAYER
5
2
100
AcDbSymbolTable
70
2
0
LAYER
5
50
100
AcDbSymbolTableRecord
100
AcDbLayerTableRecord
2
0
70
0
6
CONTINUOUS
0
ENDTAB
0
TABLE
2
STYLE
5
3
100
AcDbSymbolTable
70
1
0
STYLE
5
11
100
AcDbSymbolTableRecord
100
AcDbTextStyleTableRecord
2
STANDARD
70
0
0
ENDTAB
0
TABLE
2
VIEW
5
6
100
AcDbSymbolTable
70
0
0
ENDTAB
0
TABLE
2
UCS
5
7
100
AcDbSymbolTable
70
0
0
ENDTAB
0
TABLE
2
APPID
5
9
100
AcDbSymbolTable
70
2
0
APPID
5
12
100
AcDbSymbolTableRecord
100
AcDbRegAppTableRecord
2
ACAD
70
0
0
ENDTAB
0
TABLE
2
DIMSTYLE
5
A
100
AcDbSymbolTable
70
1
0
ENDTAB
0
TABLE
2
BLOCK_RECORD
5
1
100
AcDbSymbolTable
70
1
0
BLOCK_RECORD
5
1F
100
AcDbSymbolTableRecord
100
AcDbBlockTableRecord
2
*MODEL_SPACE
0
BLOCK_RECORD
5
1B
100
AcDbSymbolTableRecord
100
AcDbBlockTableRecord
2
*PAPER_SPACE
0
ENDTAB
0
ENDSEC
0
SECTION
2
BLOCKS
0
BLOCK
5
20
100
AcDbEntity
100
AcDbBlockBegin
2
*MODEL_SPACE
0
ENDBLK
5
21
100
AcDbEntity
100
AcDbBlockEnd
0
BLOCK
5
1C
100
AcDbEntity
100
AcDbBlockBegin
2
*PAPER_SPACE
0
ENDBLK
5
1D
100
AcDbEntity
100
AcDbBlockEnd
0
ENDSEC
0
SECTION
2
ENTITIES
0
LWPOLYLINE
5
100
100
AcDbEntity
8
0
100
AcDbPolyline
90
32
70
1
43
0.0
10
93.916276733736282
20
79.665862909508803
10
87.916276733736282
20
79.665862909508803
10
87.91627673373624
20
49.665862909508824
10
93.916276733736225
20
49.665862909508824
10
93.916276733736225
20
43.665862909508832
10
87.91627673373624
20
43.665862909508832
10
87.916276733736197
20
29.665862909508832
10
73.916276733736225
20
29.665862909508828
10
73.916276733736211
20
23.665862909508832
10
67.916276733736225
20
23.665862909508828
10
67.91627673373624
20
29.665862909508821
10
11.316276733736288
20
29.665862909508792
10
11.316276733736284
20
23.665862909508796
10
5.3162767337362915
20
23.665862909508796
10
5.3162767337362906
20
29.665862909508789
10
-8.6837232662636961
20
29.665862909508785
10
-8.6837232662636836
20
33.779862909508779
10
-2.6837232662636934
20
33.779862909508786
10
-2.6837232662636898
20
39.779862909508779
10
-8.6837232662636783
20
39.779862909508779
10
-8.6837232662636747
20
43.893826905790938
10
8.6367848094251016
20
53.893826905790938
10
5.6367848094251114
20
59.08997932849757
10
10.832937232131751
20
62.089979328497563
10
13.832937232131721
20
56.893826905790938
10
65.399616235340915
20
86.665862909508775
10
62.399616235340922
20
91.862015332215407
10
67.595768658047547
20
94.862015332215407
10
70.595768658047547
20
89.665862909508789
10
87.916276733736311
20
99.665862909508789
10
87.916276733736268
20
85.665862909508803
10
93.916276733736268
20
85.665862909508803
0
LWPOLYLINE
5
101
100
AcDbEntity
8
0
100
AcDbPolyline
90
3
70
1
43
0.0
10
70.217774204262625
20
49.665862909508832
10
69.612055246194572
20
49.665862909508832
42
0.030801235610559068
10
70.199859033040738
20
50.133028977997107
42
52.172290746980217
0
CIRCLE
5
102
100
AcDbEntity
8
0
100
AcDbCircle
10
54.117774204262652
20
62.665862909508824
30
0
40
6.3999999999999977
210
-8.6187251693591201e-32
220
1.2460817465102872e-46
230
1
0
LWPOLYLINE
5
103
100
AcDbEntity
8
0
100
AcDbPolyline
90
3
70
1
43
0.0
10
50.199859033040724
20
50.133028977997597
42
-0.030801235610585714
10
49.612055246193847
20
49.665862909508832
10
50.217774204262618
20
49.665862909508817
42
-52.172290746923984
0
LWPOLYLINE
5
104
100
AcDbEntity
8
0
100
AcDbPolyline
90
12
70
1
43
0.0
10
35.964295136281365
20
33.683597437096715
10
35.964295136281365
20
35.328890672875524
10
37.597311007329338
20
35.328890672875531
10
37.597311007329338
20
36.016475549889684
10
35.964295136281365
20
36.016475549889684
10
35.964295136281372
20
37.649490228844762
10
35.268524753400207
20
37.649490228844762
10
35.268524753400207
20
36.016475549889684
10
33.635509478398681
20
36.016475549889684
10
33.635509478398674
20
35.328890672875524
10
35.268524753400207
20
35.328890672875531
10
35.2685247534002
20
33.683597437096722
0
LWPOLYLINE
5
105
100
AcDbEntity
8
0
100
AcDbPolyline
90
4
70
1
43
0.0
10
46.654608713933328
20
32.71361052150835
10
46.654608713933328
20
33.552628151131763
10
45.815591084309908
20
33.552628151131763
10
45.815591084309908
20
32.71361052150835
0
LWPOLYLINE
5
106
100
AcDbEntity
8
0
100
AcDbPolyline
90
4
70
1
43
0.0
10
74.600043761082958
20
34.514428964806697
10
74.600043761082958
20
35.255220524026058
10
72.336736189671825
20
35.255220524026065
10
72.336736189671825
20
34.514428964806704
0
SPLINE
5
107
100
AcDbEntity
8
0
100
AcDbSpline
70
0
71
3
72
9
73
5
74
0
42
0.000000001
43
0.0000000001
44
0.0000000001
40
0
40
0
40
0
40
0
40
0.045569106977480477
40
0.09689479167526259
40
0.09689479167526259
40
0.09689479167526259
40
0.09689479167526259
10
61.409044730016078
20
32.815930238915584
30
0
10
61.259782799794181
20
32.786115396069967
30
0
10
60.942403228563066
20
32.722719310915515
30
0
10
60.618706563396181
20
32.716764706844486
30
0
10
60.447242724248255
20
32.713610521508357
30
0
0
LINE
5
108
100
AcDbEntity
8
0
100
AcDbLine
10
60.447242724248255
20
32.713610521508357
30
0
11
58.282168375798548
21
32.713610521508357
31
-1.1195912140966794e-31
0
LINE
5
109
100
AcDbEntity
8
0
100
AcDbLine
10
58.282168375798548
20
32.713610521508357
30
-1.1195912140966794e-31
11
58.282168375798555
21
38.713610759926929
31
0
0
LINE
5
110
100
AcDbEntity
8
0
100
AcDbLine
10
58.282168375798555
20
38.713610759926929
30
0
11
60.34901665384421
21
38.713610759926929
31
-5.1840401598453947e-32
0
SPLINE
5
111
100
AcDbEntity
8
0
100
AcDbSpline
70
0
71
3
72
9
73
5
74
0
42
0.000000001
43
0.0000000001
44
0.0000000001
40
0
40
0
40
0
40
0
40
0.061736080467907087
40
0.10731681817312957
40
0.10731681817312957
40
0.10731681817312957
40
0.10731681817312957
10
60.34901665384421
20
38.713610759926929
30
0
10
60.555237951169346
20
38.712759067603088
30
0
10
60.913715737590763
20
38.711278557185757
30
0
10
61.267125637340598
20
38.6525892145741
30
0
10
61.417229639836641
20
38.627662054253719
30
0
0
SPLINE
5
112
100
AcDbEntity
8
0
100
AcDbSpline
70
0
71
3
72
9
73
5
74
0
42
0.000000001
43
0.0000000001
44
0.0000000001
40
0
40
0
40
0
40
0
40
0.050610107617738417
40
0.098656340368222462
40
0.098656340368222462
40
0.098656340368222462
40
0.098656340368222462
10
61.417229639836641
20
38.627662054253719
30
0
10
61.581145857700946
20
38.581491876710253
30
0
10
61.9006744053112
20
38.491490472544236
30
0
10
62.167318239484359
20
38.294068024841742
30
8.8817841970012523e-15
10
62.297175394841524
20
38.197922102166316
30
8.8817841970012523e-15
0
SPLINE
5
113
100
AcDbEntity
8
0
100
AcDbSpline
70
0
71
3
72
9
73
5
74
0
42
0.000000001
43
0.0000000001
44
0.0000000001
40
0
40
0
40
0
40
0
40
0.061717656202580802
40
0.12583007274363261
40
0.12583007274363261
40
0.12583007274363261
40
0.12583007274363261
10
62.297175394841524
20
38.197922102166316
30
8.8817841970012523e-15
10
62.446073021425299
20
38.052926594892462
30
8.8817841970012523e-15
10
62.749645780619062
20
37.757309483836224
30
8.8817841970012523e-15
10
62.918956992412348
20
37.368659418218911
30
8.8817841970012523e-15
10
63.005223738499971
20
37.170636049462459
30
8.8817841970012523e-15
0
SPLINE
5
114
100
AcDbEntity
8
0
100
AcDbSpline
70
0
71
3
72
9
73
5
74
0
42
0.000000001
43
0.0000000001
44
0.0000000001
40
0
40
0
40
0
40
0
40
0.06904688190893013
40
0.14499536730445961
40
0.14499536730445961
40
0.14499536730445961
40
0.14499536730445961
10
63.005223738499971
20
37.170636049462459
30
8.8817841970012523e-15
10
63.074416348056523
20
36.949947691116634
30
8.8817841970012523e-15
10
63.219717736910553
20
36.486511997954189
30
8.8817841970012523e-15
10
63.234737732308645
20
36.000778814721926
30
0
10
63.242605196782442
20
35.746352068139217
30
0
0
SPLINE
5
115
100
AcDbEntity
8
0
100
AcDbSpline
70
0
71
3
72
9
73
5
74
0
42
0.000000001
43
0.0000000001
44
0.0000000001
40
0
40
0
40
0
40
0
40
0.064584386506752731
40
0.12251971340939052
40
0.12251971340939052
40
0.12251971340939052
40
0.12251971340939052
10
63.242605196782442
20
35.746352068139217
30
0
10
63.237522724323469
20
35.530365917961902
30
0
10
63.22788102757962
20
35.120629716204292
30
0
10
63.129504970644668
20
34.722944153434305
30
0
10
63.08298634225973
20
34.534892431450984
30
0
0
SPLINE
5
116
100
AcDbEntity
8
0
100
AcDbSpline
70
0
71
3
72
9
73
5
74
0
42
0.000000001
43
0.0000000001
44
0.0000000001
40
0
40
0
40
0
40
0
40
0.051614730715558638
40
0.096998777169616038
40
0.096998777169616038
40
0.096998777169616038
40
0.096998777169616038
10
63.08298634225973
20
34.534892431450984
30
0
10
63.029035388863193
20
34.370708650937452
30
0
10
62.927646183997666
20
34.062160573283776
30
0
10
62.754651207576856
20
33.787533548119512
30
0
10
62.673709856816615
20
33.659040323449275
30
0
0
SPLINE
5
117
100
AcDbEntity
8
0
100
AcDbSpline
70
0
71
3
72
9
73
5
74
0
42
0.000000001
43
0.0000000001
44
0.0000000001
40
0
40
0
40
0
40
0
40
0.040430523708296223
40
0.077571420608389785
40
0.077571420608389785
40
0.077571420608389785
40
0.077571420608389785
10
62.673709856816615
20
33.659040323449275
30
0
10
62.590735501599355
20
33.551976866922658
30
0
10
62.431537993926518
20
33.346561164718679
30
0
10
62.224437094906236
20
33.1897720975604
30
0
10
62.125277983495081
20
33.114702097130916
30
0
0
SPLINE
5
118
100
AcDbEntity
8
0
100
AcDbSpline
70
0
71
3
72
9
73
5
74
0
42
0.000000001
43
0.0000000001
44
0.0000000001
40
0
40
0
40
0
40
0
40
0.036937491002328716
40
0.0779019941859663
40
0.0779019941859663
40
0.0779019941859663
40
0.0779019941859663
10
62.125277983495081
20
33.114702097130916
30
0
10
62.018462467878237
20
33.05236528483259
30
0
10
61.793186157799965
20
32.92089555428349
30
0
10
61.541429910783108
20
32.852104031285279
30
0
10
61.409044730016078
20
32.815930238915584
30
0
0
SPLINE
5
119
100
AcDbEntity
8
0
100
AcDbSpline
70
0
71
3
72
9
73
5
74
0
42
0.000000001
43
0.0000000001
44
0.0000000001
40
0
40
0
40
0
40
0
40
0.062342292509816932
40
0.12125633792768466
40
0.12125633792768466
40
0.12125633792768466
40
0.12125633792768466
10
66.860614287206005
20
33.290690771294734
30
0
10
67.072140120063651
20
33.304828371110816
30
0
10
67.483559829490943
20
33.332326134054242
30
0
10
67.824545254294861
20
33.563225654350553
30
0
10
67.990217673131298
20
33.675411335183284
30
0
0
SPLINE
5
120
100
AcDbEntity
8
0
100
AcDbSpline
70
0
71
3
72
9
73
5
74
0
42
0.000000001
43
0.0000000001
44
0.0000000001
40
0
40
0
40
0
40
0
40
0.061538992811595347
40
0.13209414399599617
40
0.13209414399599617
40
0.13209414399599617
40
0.13209414399599617
10
67.990217673131298
20
33.675411335183284
30
0
10
68.133446676931442
20
33.826817593651754
30
0
10
68.440889353322021
20
34.151812839662028
30
0
10
68.555303018187644
20
34.585597848534775
30
0
10
68.616414534398388
20
34.817294470025203
30
0
0
LINE
5
121
100
AcDbEntity
8
0
100
AcDbLine
10
68.616414534398388
20
34.817294470025203
30
0
11
69.410405623265575
21
34.616748682213924
31
3.0814879110195774e-32
0
SPLINE
5
122
100
AcDbEntity
8
0
100
AcDbSpline
70
0
71
3
72
9
73
5
74
0
42
0.000000001
43
0.0000000001
44
0.0000000001
40
0
40
0
40
0
40
0
40
0.093082900716821987
40
0.17684305598383721
40
0.17684305598383721
40
0.17684305598383721
40
0.17684305598383721
10
69.410405623265575
20
34.616748682213931
30
0
10
69.316731643277876
20
34.315110170735799
30
0
10
69.138765628471475
20
33.742043842103769
30
0
10
68.712093193500948
20
33.32188943826484
30
0
10
68.510003554173778
20
33.12288700695148
30
0
0
SPLINE
5
123
100
AcDbEntity
8
0
100
AcDbSpline
70
0
71
3
72
9
73
5
74
0
42
0.000000001
43
0.0000000001
44
0.0000000001
40
0
40
0
40
0
40
0
40
0.081524372327525685
40
0.16892535274470005
40
0.16892535274470005
40
0.16892535274470005
40
0.16892535274470005
10
68.510003554173778
20
33.12288700695148
30
0
10
68.277246469213182
20
32.973721017145039
30
0
10
67.794954222634004
20
32.664636546744816
30
0
10
67.222356840081332
20
32.629480391376958
30
0
10
66.92609833414204
20
32.611290804101131
30
0
0
SPLINE
5
124
100
AcDbEntity
8
0
100
AcDbSpline
70
0
71
3
72
9
73
5
74
0
42
0.000000001
43
0.0000000001
44
0.0000000001
40
0
40
0
40
0
40
0
40
0.08854111432877583
40
0.16447829095047103
40
0.16447829095047103
40
0.16447829095047103
40
0.16447829095047103
10
66.92609833414204
20
32.611290804101131
30
0
10
66.627048230208089
20
32.622018873677646
30
0
10
66.071518176441487
20
32.641947858788335
30
0
10
65.575358620675246
20
32.889777990249193
30
0
10
65.346289145299266
20
33.004197469903133
30
0
0
SPLINE
5
125
100
AcDbEntity
8
0
100
AcDbSpline
70
0
71
3
72
9
73
5
74
0
42
0.000000001
43
0.0000000001
44
0.0000000001
40
0
40
0
40
0
40
0
40
0.072144793752299999
40
0.14893474927870737
40
0.14893474927870737
40
0.14893474927870737
40
0.14893474927870737
10
65.346289145299266
20
33.004197469903133
30
0
10
65.154780458751404
20
33.154881722517388
30
0
10
64.759432482379992
20
33.465952282375177
30
0
10
64.536345340333654
20
33.917405967976336
30
0
10
64.421322810002636
20
34.15017305965533
30
0
0
SPLINE
5
126
100
AcDbEntity
8
0
100
AcDbSpline
70
0
71
3
72
9
73
5
74
0
42
0.000000001
43
0.0000000001
44
0.0000000001
40
0
40
0
40
0
40
0
40
0.081177388793696376
40
0.16473508089785777
40
0.16473508089785777
40
0.16473508089785777
40
0.16473508089785777
10
64.421322810002636
20
34.15017305965533
30
0
10
64.329411892182193
20
34.406449283722239
30
0
10
64.142895022059307
20
34.926516326173555
30
0
10
64.11853641688613
20
35.478600120921051
30
0
10
64.106181132146205
20
35.758630624962947
30
0
0
SPLINE
5
127
100
AcDbEntity
8
0
100
AcDbSpline
70
0
71
3
72
9
73
5
74
0
42
0.000000001
43
0.0000000001
44
0.0000000001
40
0
40
0
40
0
40
0
40
0.08813829974441742
40
0.16832959899697408
40
0.16832959899697408
40
0.16832959899697408
40
0.16832959899697408
10
64.106181132146205
20
35.758630624962947
30
0
10
64.118007749178531
20
36.054919737546243
30
0
10
64.140594634883357
20
36.620783018922673
30
8.8817841970012523e-15
10
64.35846153108416
20
37.142908686798663
30
8.8817841970012523e-15
10
64.462252127477015
20
37.391646496010921
30
8.8817841970012523e-15
0
SPLINE
5
128
100
AcDbEntity
8
0
100
AcDbSpline
70
0
71
3
72
9
73
5
74
0
42
0.000000001
43
0.0000000001
44
0.0000000001
40
0
40
0
40
0
40
0
40
0.075315984390747354
40
0.1487627389822927
40
0.1487627389822927
40
0.1487627389822927
40
0.1487627389822927
10
64.462252127477015
20
37.391646496010921
30
8.8817841970012523e-15
10
64.593344360081431
20
37.610002316675697
30
8.8817841970012523e-15
10
64.852275312644736
20
38.041294693952381
30
8.8817841970012523e-15
10
65.273422959579321
20
38.316031188725439
30
8.8817841970012523e-15
10
65.481350886174525
20
38.4516733800899
30
0
0
SPLINE
5
129
100
AcDbEntity
8
0
100
AcDbSpline
70
0
71
3
72
9
73
5
74
0
42
0.000000001
43
0.0000000001
44
0.0000000001
40
0
40
0
40
0
40
0
40
0.074748205748914179
40
0.15141656148678379
40
0.15141656148678379
40
0.15141656148678379
40
0.15141656148678379
10
65.481350886174525
20
38.4516733800899
30
0
10
65.709454799769787
20
38.557909865436066
30
0
10
66.171522215465217
20
38.773111864659853
30
0
10
66.680606724591229
20
38.801536657824876
30
0
10
66.938376890965799
20
38.815929285241268
30
0
0
SPLINE
5
130
100
AcDbEntity
8
0
100
AcDbSpline
70
0
71
3
72
9
73
5
74
0
42
0.000000001
43
0.0000000001
44
0.0000000001
40
0
40
0
40
0
40
0
40
0.083667111408393696
40
0.16035852540239692
40
0.16035852540239692
40
0.16035852540239692
40
0.16035852540239692
10
66.938376890965799
20
38.815929285241268
30
0
10
67.221673039729168
20
38.800379963293942
30
0
10
67.764645683377978
20
38.770577735196113
30
0
10
68.230099089017514
20
38.491167581920962
30
0
10
68.452702032872523
20
38.357539764596126
30
0
0
SPLINE
5
131
100
AcDbEntity
8
0
100
AcDbSpline
70
0
71
3
72
9
73
5
74
0
42
0.000000001
43
0.0000000001
44
0.0000000001
40
0
40
0
40
0
40
0
40
0.075854585796961305
40
0.1568594600954325
40
0.1568594600954325
40
0.1568594600954325
40
0.1568594600954325
10
68.452702032872523
20
38.357539764596126
30
0
10
68.643027788838708
20
38.184934902879007
30
8.8817841970012523e-15
10
69.036601822754378
20
37.828005850609642
30
8.8817841970012523e-15
10
69.215634945870121
20
37.327029943342183
30
8.8817841970012523e-15
10
69.308090674229931
20
37.068317524148128
30
8.8817841970012523e-15
0
LINE
5
132
100
AcDbEntity
8
0
100
AcDbLine
10
69.308090674229931
20
37.068317524148128
30
8.8817841970012523e-15
11
68.526368605443309
21
36.884142748070857
31
8.8817841970012523e-15
0
SPLINE
5
133
100
AcDbEntity
8
0
100
AcDbSpline
70
0
71
3
72
9
73
5
74
0
42
0.000000001
43
0.0000000001
44
0.0000000001
40
0
40
0
40
0
40
0
40
0.06209574975013657
40
0.11432921106775373
40
0.11432921106775373
40
0.11432921106775373
40
0.11432921106775373
10
68.526368605443309
20
36.884142748070857
30
8.8817841970012523e-15
10
68.45560612373319
20
37.082238963417787
30
8.8817841970012523e-15
10
68.325319932815617
20
37.446968982899875
30
8.8817841970012523e-15
10
68.047547809037582
20
37.715207584155536
30
8.8817841970012523e-15
10
67.920642363377894
20
37.837757459832332
30
8.8817841970012523e-15
0
SPLINE
5
134
100
AcDbEntity
8
0
100
AcDbSpline
70
0
71
3
72
9
73
5
74
0
42
0.000000001
43
0.0000000001
44
0.0000000001
40
0
40
0
40
0
40
0
40
0.050105830415080842
40
0.10565801508569975
40
0.10565801508569975
40
0.10565801508569975
40
0.10565801508569975
10
67.920642363377894
20
37.837757459832332
30
8.8817841970012523e-15
10
67.775076983498352
20
37.924836830942027
30
8.8817841970012523e-15
10
67.468123701298296
20
38.108460840965257
30
8.8817841970012523e-15
10
67.110194419380264
20
38.126857850172222
30
8.8817841970012523e-15
10
66.92200468713888
20
38.13653051014056
30
8.8817841970012523e-15
0
SPLINE
5
135
100
AcDbEntity
8
0
100
AcDbSpline
70
0
71
3
72
9
73
5
74
0
42
0.000000001
43
0.0000000001
44
0.0000000001
40
0
40
0
40
0
40
0
40
0.064078223204703397
40
0.12197416601967648
40
0.12197416601967648
40
0.12197416601967648
40
0.12197416601967648
10
66.92200468713888
20
38.13653051014056
30
8.8817841970012523e-15
10
66.705238826557462
20
38.125741992444247
30
8.8817841970012523e-15
10
66.292620721004042
20
38.105205835497593
30
8.8817841970012523e-15
10
65.933982986247315
20
37.901639640877363
30
8.8817841970012523e-15
10
65.763752924748744
20
37.805015436364314
30
8.8817841970012523e-15
0
SPLINE
5
136
100
AcDbEntity
8
0
100
AcDbSpline
70
0
71
3
72
9
73
5
74
0
42
0.000000001
43
0.0000000001
44
0.0000000001
40
0
40
0
40
0
40
0
40
0.055349605093003788
40
0.11186315222050014
40
0.11186315222050014
40
0.11186315222050014
40
0.11186315222050014
10
65.763752924748744
20
37.805015436364314
30
8.8817841970012523e-15
10
65.620698981674394
20
37.68400646658278
30
8.8817841970012523e-15
10
65.331582826591131
20
37.439443839912322
30
8.8817841970012523e-15
10
65.186365496219693
20
37.089556356998273
30
8.8817841970012523e-15
10
65.113001334019984
20
36.912792316628597
30
8.8817841970012523e-15
0
SPLINE
5
137
100
AcDbEntity
8
0
100
AcDbSpline
70
0
71
3
72
9
73
5
74
0
42
0.000000001
43
0.0000000001
44
0.0000000001
40
0
40
0
40
0
40
0
40
0.058317789008855314
40
0.11693129809103026
40
0.11693129809103026
40
0.11693129809103026
40
0.11693129809103026
10
65.113001334019984
20
36.912792316628597
30
8.8817841970012523e-15
10
65.058089860884621
20
36.725469572259527
30
8.8817841970012523e-15
10
64.947988467417304
20
36.349874200190051
30
8.8817841970012523e-15
10
64.932498615808512
20
35.958770615943678
30
0
10
64.924734103032435
20
35.762724271966121
30
0
0
SPLINE
5
138
100
AcDbEntity
8
0
100
AcDbSpline
70
0
71
3
72
9
73
5
74
0
42
0.000000001
43
0.0000000001
44
0.0000000001
40
0
40
0
40
0
40
0
40
0.071938351303208331
40
0.13621998695303797
40
0.13621998695303797
40
0.13621998695303797
40
0.13621998695303797
10
64.924734103032435
20
35.762724271966121
30
0
10
64.931688050074769
20
35.521683908075588
30
0
10
64.944855804940133
20
35.065258168125951
30
0
10
65.081337991128208
20
34.629853449320585
30
0
10
65.145743357487987
20
34.424387804223201
30
0
0
SPLINE
5
139
100
AcDbEntity
8
0
100
AcDbSpline
70
0
71
3
72
9
73
5
74
0
42
0.000000001
43
0.0000000001
44
0.0000000001
40
0
40
0
40
0
40
0
40
0.057389724584560826
40
0.11150452845899592
40
0.11150452845899592
40
0.11150452845899592
40
0.11150452845899592
10
65.145743357487987
20
34.424387804223201
30
0
10
65.228585005092143
20
34.248180992534088
30
0
10
65.389540976212984
20
33.905822537411908
30
0
10
65.693836426624017
20
33.681808808006025
30
0
10
65.841515528508495
20
33.573091617776058
30
0
0
SPLINE
5
140
100
AcDbEntity
8
0
100
AcDbSpline
70
0
71
3
72
9
73
5
74
0
42
0.000000001
43
0.0000000001
44
0.0000000001
40
0
40
0
40
0
40
0
40
0.053391458103169559
40
0.10675962701673641
40
0.10675962701673641
40
0.10675962701673641
40
0.10675962701673641
10
65.841515528508495
20
33.573091617776058
30
0
10
66.001624451965327
20
33.490724854372438
30
0
10
66.321772459859645
20
33.326027255693738
30
0
10
66.681026468036677
20
33.302467886300043
30
0
10
66.860614287206005
20
33.290690771294734
30
0
0
LINE
5
141
100
AcDbEntity
8
0
100
AcDbLine
10
57.570026385136934
20
38.713610759926929
30
0
11
55.220776068517054
21
32.713610521508357
31
0
0
LINE
5
142
100
AcDbEntity
8
0
100
AcDbLine
10
55.220776068517054
20
32.713610521508357
30
0
11
54.406314360448214
21
32.713610521508357
31
-3.7944324661405078e-32
0
LINE
5
143
100
AcDbEntity
8
0
100
AcDbLine
10
54.406314360448214
20
32.713610521508357
30
-3.7944324661405078e-32
11
52.0816235416616
21
38.713610759926929
31
0
0
LINE
5
144
100
AcDbEntity
8
0
100
AcDbLine
10
52.0816235416616
20
38.713610759926929
30
0
11
52.941103445836404
21
38.713610759926922
31
-1.5727868951879937e-33
0
LINE
5
145
100
AcDbEntity
8
0
100
AcDbLine
10
52.941103445836404
20
38.713610759926922
30
-1.5727868951879937e-33
11
54.500449168034883
21
34.354811302376888
31
0
0
SPLINE
5
146
100
AcDbEntity
8
0
100
AcDbSpline
70
0
71
3
72
9
73
5
74
0
42
0.000000001
43
0.0000000001
44
0.0000000001
40
0
40
0
40
0
40
0
40
0.053615432395580399
40
0.10317595137734675
40
0.10317595137734675
40
0.10317595137734675
40
0.10317595137734675
10
54.500449168034883
20
34.354811302376888
30
0
10
54.559740223966102
20
34.186171737784647
30
0
10
54.673838177307886
20
33.861646750495723
30
0
10
54.769594393272456
20
33.531251988319084
30
0
10
54.815590845891329
20
33.372547022057674
30
0
0
SPLINE
5
147
100
AcDbEntity
8
0
100
AcDbSpline
70
0
71
3
72
9
73
5
74
0
42
0.000000001
43
0.0000000001
44
0.0000000001
40
0
40
0
40
0
40
0
40
0.051364789018273106
40
0.10343316699822075
40
0.10343316699822075
40
0.10343316699822075
40
0.10343316699822075
10
54.815590845891329
20
33.372547022057674
30
0
10
54.864057293212383
20
33.536807317151087
30
0
10
54.96165407566555
20
33.867577925933901
30
0
10
55.079563882330717
20
34.191665324549838
30
0
10
55.138919817754122
20
34.354811302376888
30
0
0
LINE
5
148
100
AcDbEntity
8
0
100
AcDbLine
10
55.138919817754129
20
34.354811302376888
30
0
11
56.759658324071268
21
38.713610759926937
31
0
0
LINE
5
149
100
AcDbEntity
8
0
100
AcDbLine
10
56.759658324071268
20
38.713610759926937
30
0
11
57.570026385136934
21
38.713610759926929
31
0
0
SPLINE
5
150
100
AcDbEntity
8
0
100
AcDbSpline
70
0
71
3
72
9
73
5
74
0
42
0.000000001
43
0.0000000001
44
0.0000000001
40
0
40
0
40
0
40
0
40
0.075263686262328836
40
0.14393639456809681
40
0.14393639456809681
40
0.14393639456809681
40
0.14393639456809681
10
49.658704268285128
20
32.611290804101124
30
0
10
49.402704030994542
20
32.626640550021818
30
0
10
48.913121963013531
20
32.655995836682386
30
0
10
48.511827306020542
20
32.936061104261938
30
0
10
48.320367800542208
20
33.069681516839161
30
0
0
SPLINE
5
151
100
AcDbEntity
8
0
100
AcDbSpline
70
0
71
3
72
9
73
5
74
0
42
0.000000001
43
0.0000000001
44
0.0000000001
40
0
40
0
40
0
40
0
40
0.066959092038361701
40
0.13764746963304042
40
0.13764746963304042
40
0.13764746963304042
40
0.13764746963304042
10
48.320367800542208
20
33.069681516839161
30
0
10
48.166599650477778
20
33.238183144534574
30
0
10
47.85049923569921
20
33.584571095375289
30
0
10
47.77155204709031
20
34.047498734920424
30
0
10
47.731008993932107
20
34.285233608437672
30
0
0
LINE
5
152
100
AcDbEntity
8
0
100
AcDbLine
10
47.731008993932122
20
34.285233608437672
30
0
11
48.50454138452659
21
34.350718847466602
31
-3.8518598887744717e-32
0
SPLINE
5
153
100
AcDbEntity
8
0
100
AcDbSpline
70
0
71
3
72
9
73
5
74
0
42
0.000000001
43
0.0000000001
44
0.0000000001
40
0
40
0
40
0
40
0
40
0.051524325241179551
40
0.095307471827486834
40
0.095307471827486834
40
0.095307471827486834
40
0.095307471827486834
10
48.50454138452659
20
34.350718847466602
30
0
10
48.537749609737162
20
34.178778173624963
30
0
10
48.599176750682375
20
33.860729740162633
30
0
10
48.806361187219665
20
33.613155427392918
30
0
10
48.901539313145967
20
33.499422661019459
30
0
0
SPLINE
5
154
100
AcDbEntity
8
0
100
AcDbSpline
70
0
71
3
72
9
73
5
74
0
42
0.000000001
43
0.0000000001
44
0.0000000001
40
0
40
0
40
0
40
0
40
0.040641606217989609
40
0.082274754663577601
40
0.082274754663577601
40
0.082274754663577601
40
0.082274754663577601
10
48.901539313145967
20
33.499422661019459
30
0
10
49.012742083771045
20
33.417058777096052
30
0
10
49.237860663534228
20
33.250321559413493
30
0
10
49.517300501218443
20
33.228209762261088
30
0
10
49.658704268285128
20
33.21702062244524
30
0
0
SPLINE
5
155
100
AcDbEntity
8
0
100
AcDbSpline
70
0
71
3
72
9
73
5
74
0
42
0.000000001
43
0.0000000001
44
0.0000000001
40
0
40
0
40
0
40
0
40
0.050126441906987354
40
0.10091986364936414
40
0.10091986364936414
40
0.10091986364936414
40
0.10091986364936414
10
49.658704268285128
20
33.21702062244524
30
0
10
49.829636545560582
20
33.234170223044835
30
0
10
50.173775516124728
20
33.268697615939843
30
0
10
50.430101223287849
20
33.501128624828752
30
0
10
50.559111105748507
20
33.618112198067799
30
0
0
SPLINE
5
156
100
AcDbEntity
8
0
100
AcDbSpline
70
0
71
3
72
9
73
5
74
0
42
0.000000001
43
0.0000000001
44
0.0000000001
40
0
40
0
40
0
40
0
40
0.05422317231107384
40
0.11468306769320641
40
0.11468306769320641
40
0.11468306769320641
40
0.11468306769320641
10
50.559111105748507
20
33.618112198067799
30
0
10
50.666461563765004
20
33.768174121622614
30
0
10
50.893509877592429
20
34.085558018648769
30
0
10
50.915742304142533
20
34.476258763992426
30
0
10
50.927463042088839
20
34.682232729149945
30
0
0
SPLINE
5
157
100
AcDbEntity
8
0
100
AcDbSpline
70
0
71
3
72
9
73
5
74
0
42
0.000000001
43
0.0000000001
44
0.0000000001
40
0
40
0
40
0
40
0
40
0.057076342574454923
40
0.1077592766509968
40
0.1077592766509968
40
0.1077592766509968
40
0.1077592766509968
10
50.927463042088839
20
34.682232729149945
30
0
10
50.91648076934959
20
34.877104355350347
30
0
10
50.895746403533799
20
35.245019055766988
30
0
10
50.675145797026246
20
35.538664095494667
30
0
10
50.571389662572237
20
35.676775566292889
30
0
0
SPLINE
5
158
100
AcDbEntity
8
0
100
AcDbSpline
70
0
71
3
72
9
73
5
74
0
42
0.000000001
43
0.0000000001
44
0.0000000001
40
0
40
0
40
0
40
0
40
0.04903769040168679
40
0.10160599609391562
40
0.10160599609391562
40
0.10160599609391562
40
0.10160599609391562
10
50.571389662572237
20
35.676775566292889
30
0
10
50.441738756147615
20
35.782981944866386
30
0
10
50.173102338244462
20
36.003041348115055
30
0
10
49.826004912384832
20
36.02807888940216
30
0
10
49.646425711461397
20
36.041032663537152
30
0
0
SPLINE
5
159
100
AcDbEntity
8
0
100
AcDbSpline
70
0
71
3
72
9
73
5
74
0
42
0.000000001
43
0.0000000001
44
0.0000000001
40
0
40
0
40
0
40
0
40
0.034114240863546808
40
0.066889814371746154
40
0.066889814371746154
40
0.066889814371746154
40
0.066889814371746154
10
49.646425711461397
20
36.041032663537152
30
0
10
49.531630754114673
20
36.034773994841025
30
0
10
49.30654547613797
20
36.022502252111266
30
0
10
49.103399322907748
20
35.925064982015897
30
0
10
49.003859030553201
20
35.877321354104168
30
0
0
SPLINE
5
160
100
AcDbEntity
8
0
100
AcDbSpline
70
0
71
3
72
9
73
5
74
0
42
0.000000001
43
0.0000000001
44
0.0000000001
40
0
40
0
40
0
40
0
40
0.031520216840475103
40
0.061887484381093455
40
0.061887484381093455
40
0.061887484381093455
40
0.061887484381093455
10
49.003859030553201
20
35.877321354104168
30
0
10
48.914008762376866
20
35.820850612825822
30
0
10
48.737594777138682
20
35.709974722074797
30
0
10
48.614202409986703
20
35.542188814505401
30
0
10
48.553655611821512
20
35.459858766747601
30
0
0
LINE
5
161
100
AcDbEntity
8
0
100
AcDbLine
10
48.553655611821505
20
35.459858766747608
30
0
11
47.861977087804178
21
35.549899927331097
31
0
0
LINE
5
162
100
AcDbEntity
8
0
100
AcDbLine
10
47.861977087804178
20
35.549899927331097
30
0
11
48.443150984593728
21
38.631755701256878
31
0
0
LINE
5
163
100
AcDbEntity
8
0
100
AcDbLine
10
48.443150984593728
20
38.631755701256878
30
0
11
51.426778303929666
21
38.631755701256878
31
-1.1001220056141707e-31
0
LINE
5
164
100
AcDbEntity
8
0
100
AcDbLine
10
51.426778303929666
20
38.631755701256878
30
-1.1001220056141707e-31
11
51.426778303929666
21
37.927798620415814
31
0
0
LINE
5
165
100
AcDbEntity
8
0
100
AcDbLine
10
51.426778303929666
20
37.927798620415814
30
0
11
49.032509791203836
21
37.927798620415814
31
8.8817841970012523e-15
0
LINE
5
166
100
AcDbEntity
8
0
100
AcDbLine
10
49.032509791203836
20
37.927798620415814
30
8.8817841970012523e-15
11
48.709180819341043
21
36.315247408105023
31
8.8817841970012523e-15
0
SPLINE
5
167
100
AcDbEntity
8
0
100
AcDbSpline
70
0
71
3
72
9
73
5
74
0
42
0.000000001
43
0.0000000001
44
0.0000000001
40
0
40
0
40
0
40
0
40
0.06214204364964436
40
0.12091588259608906
40
0.12091588259608906
40
0.12091588259608906
40
0.12091588259608906
10
48.709180819341043
20
36.315247408105023
30
0
10
48.888569503525432
20
36.425044914399088
30
0
10
49.237623699396423
20
36.638688714967458
30
0
10
49.644908208834963
20
36.67441588764683
30
8.8817841970012523e-15
10
49.84287785226951
20
36.691781870080121
30
8.8817841970012523e-15
0
SPLINE
5
168
100
AcDbEntity
8
0
100
AcDbSpline
70
0
71
3
72
9
73
5
74
0
42
0.000000001
43
0.0000000001
44
0.0000000001
40
0
40
0
40
0
40
0
40
0.073709167418879451
40
0.14641650591438277
40
0.14641650591438277
40
0.14641650591438277
40
0.14641650591438277
10
49.84287785226951
20
36.691781870080121
30
8.8817841970012523e-15
10
50.09395795990617
20
36.669728281929466
30
8.8817841970012523e-15
10
50.592705583195027
20
36.625920850195179
30
8.8817841970012523e-15
10
50.977735613587868
20
36.306206850496409
30
0
10
51.168933379002901
20
36.147443643761761
30
0
0
SPLINE
5
169
100
AcDbEntity
8
0
100
AcDbSpline
70
0
71
3
72
9
73
5
74
0
42
0.000000001
43
0.0000000001
44
0.0000000001
40
0
40
0
40
0
40
0
40
0.074241801393699791
40
0.15316859837660562
40
0.15316859837660562
40
0.15316859837660562
40
0.15316859837660562
10
51.168933379002901
20
36.147443643761761
30
0
10
51.326464539966508
20
35.948911791674888
30
0
10
51.651467795174213
20
35.53931982399078
30
0
10
51.689554505035638
20
35.0169107984674
30
0
10
51.709180342503878
20
34.74771677608598
30
0
0
SPLINE
5
170
100
AcDbEntity
8
0
100
AcDbSpline
70
0
71
3
72
9
73
5
74
0
42
0.000000001
43
0.0000000001
44
0.0000000001
40
0
40
0
40
0
40
0
40
0.076843094083555108
40
0.15084328882031692
40
0.15084328882031692
40
0.15084328882031692
40
0.15084328882031692
10
51.709180342503878
20
34.74771677608598
30
0
10
51.690933202666486
20
34.487380539680828
30
0
10
51.655113997083184
20
33.976339507733854
30
0
10
51.372878133519478
20
33.549299608212927
30
0
10
51.234419810124727
20
33.339803806496754
30
0
0
SPLINE
5
171
100
AcDbEntity
8
0
100
AcDbSpline
70
0
71
3
72
9
73
5
74
0
42
0.000000001
43
0.0000000001
44
0.0000000001
40
0
40
0
40
0
40
0
40
0.087424239155566325
40
0.17858678749397627
40
0.17858678749397627
40
0.17858678749397627
40
0.17858678749397627
10
51.234419810124727
20
33.339803806496754
30
0
10
51.021138992377772
20
33.12734675666831
30
0
10
50.585457350267724
20
32.693347875170552
30
0
10
49.9719030844131
20
32.639022222548519
30
0
10
49.658704268285128
20
32.611290804101124
30
0
0
SPLINE
5
172
100
AcDbEntity
8
0
100
AcDbSpline
70
0
71
3
72
9
73
5
74
0
42
0.000000001
43
0.0000000001
44
0.0000000001
40
0
40
0
40
0
40
0
40
0.05422042860759823
40
0.10354813805998817
40
0.10354813805998817
40
0.10354813805998817
40
0.10354813805998817
10
40.73237227136741
20
34.448944917870648
30
0
10
40.742157466133747
20
34.632580021320251
30
0
10
40.760844863570995
20
34.983279444636764
30
0
10
40.941156011976652
20
35.283905911301602
30
0
10
41.027051674672478
20
35.427116743279583
30
0
0
SPLINE
5
173
100
AcDbEntity
8
0
100
AcDbSpline
70
0
71
3
72
9
73
5
74
0
42
0.000000001
43
0.0000000001
44
0.0000000001
40
0
40
0
40
0
40
0
40
0.049164851545700647
40
0.10197872611527456
40
0.10197872611527456
40
0.10197872611527456
40
0.10197872611527456
10
41.027051674672478
20
35.427116743279583
30
0
10
41.140115015063699
20
35.549645735003217
30
0
10
41.374633274774453
20
35.803797839511269
30
0
10
41.7037879417882
20
35.911555685417007
30
0
10
41.874254214116448
20
35.967362514687665
30
0
0
SPLINE
5
174
100
AcDbEntity
8
0
100
AcDbSpline
70
0
71
3
72
9
73
5
74
0
42
0.000000001
43
0.0000000001
44
0.0000000001
40
0
40
0
40
0
40
0
40
0.044799102258269559
40
0.084087194273780475
40
0.084087194273780475
40
0.084087194273780475
40
0.084087194273780475
10
41.874254214116448
20
35.967362514687665
30
0
10
41.734192209659895
20
36.025446320026241
30
0
10
41.471298080415615
20
36.134468688276122
30
0
10
41.282886065077385
20
36.346942481983767
30
0
10
41.194854246922844
20
36.446216694069989
30
0
0
SPLINE
5
175
100
AcDbEntity
8
0
100
AcDbSpline
70
0
71
3
72
9
73
5
74
0
42
0.000000001
43
0.0000000001
44
0.0000000001
40
0
40
0
40
0
40
0
40
0.037982396396111416
40
0.078672988165296193
40
0.078672988165296193
40
0.078672988165296193
40
0.078672988165296193
10
41.194854246922844
20
36.446216694069989
30
0
10
41.130414312288849
20
36.557351494233629
30
0
10
40.996939789987465
20
36.787545153602665
30
0
10
40.9817179213657
20
37.053530149932982
30
8.8817841970012523e-15
10
40.973844992467278
20
37.191100708199627
30
8.8817841970012523e-15
0
SPLINE
5
176
100
AcDbEntity
8
0
100
AcDbSpline
70
0
71
3
72
9
73
5
74
0
42
0.000000001
43
0.0000000001
44
0.0000000001
40
0
40
0
40
0
40
0
40
0.061403969646164791
40
0.12247020720622223
40
0.12247020720622223
40
0.12247020720622223
40
0.12247020720622223
10
40.973844992467278
20
37.191100708199627
30
8.8817841970012523e-15
10
40.993238691281263
20
37.400478242204002
30
8.8817841970012523e-15
10
41.031919420327448
20
37.818081698814495
30
8.8817841970012523e-15
10
41.307235725052429
20
38.13435510365408
30
8.8817841970012523e-15
10
41.444514262029045
20
38.292055717660077
30
8.8817841970012523e-15
0
SPLINE
5
177
100
AcDbEntity
8
0
100
AcDbSpline
70
0
71
3
72
9
73
5
74
0
42
0.000000001
43
0.0000000001
44
0.0000000001
40
0
40
0
40
0
40
0
40
0.064243470062223168
40
0.13551704607958065
40
0.13551704607958065
40
0.13551704607958065
40
0.13551704607958065
10
41.444514262029045
20
38.292055717660077
30
8.8817841970012523e-15
10
41.620522478505919
20
38.422076448077867
30
0
10
41.99179933449733
20
38.696345962135283
30
0
10
42.453876730269414
20
38.72375252580462
30
0
10
42.696900832005852
20
38.738166681481488
30
0
0
SPLINE
5
178
100
AcDbEntity
8
0
100
AcDbSpline
70
0
71
3
72
9
73
5
74
0
42
0.000000001
43
0.0000000001
44
0.0000000001
40
0
40
0
40
0
40
0
40
0.071827416868150237
40
0.13716320895717565
40
0.13716320895717565
40
0.13716320895717565
40
0.13716320895717565
10
42.696900832005852
20
38.738166681481488
30
0
10
42.941836141883158
20
38.722952469192464
30
0
10
43.409569976045141
20
38.693899076068931
30
0
10
43.783466654286102
20
38.413392552583247
30
0
10
43.961567150899285
20
38.279777160836346
30
8.8817841970012523e-15
0
SPLINE
5
179
100
AcDbEntity
8
0
100
AcDbSpline
70
0
71
3
72
9
73
5
74
0
42
0.000000001
43
0.0000000001
44
0.0000000001
40
0
40
0
40
0
40
0
40
0.061922190322198027
40
0.1235664838018925
40
0.1235664838018925
40
0.1235664838018925
40
0.1235664838018925
10
43.961567150899285
20
38.279777160836346
30
8.8817841970012523e-15
10
44.101232750933185
20
38.120235007682048
30
8.8817841970012523e-15
10
44.379937154225004
20
37.80186670092673
30
8.8817841970012523e-15
10
44.420290189132928
20
37.380730559638188
30
8.8817841970012523e-15
10
44.440421330281595
20
37.170636049462445
30
8.8817841970012523e-15
0
SPLINE
5
180
100
AcDbEntity
8
0
100
AcDbSpline
70
0
71
3
72
9
73
5
74
0
42
0.000000001
43
0.0000000001
44
0.0000000001
40
0
40
0
40
0
40
0
40
0.039474460427184048
40
0.077088954968447698
40
0.077088954968447698
40
0.077088954968447698
40
0.077088954968447698
10
44.440421330281595
20
37.170636049462445
30
8.8817841970012523e-15
10
44.43213430550994
20
37.037233994918125
30
8.8817841970012523e-15
10
44.415950725733772
20
36.776715551748104
30
0
10
44.283862639481285
20
36.551846162560494
30
0
10
44.219412075826028
20
36.44212423915971
30
0
0
SPLINE
5
181
100
AcDbEntity
8
0
100
AcDbSpline
70
0
71
3
72
9
73
5
74
0
42
0.000000001
43
0.0000000001
44
0.0000000001
40
0
40
0
40
0
40
0
40
0.038635528477891423
40
0.082478353403530505
40
0.082478353403530505
40
0.082478353403530505
40
0.082478353403530505
10
44.219412075826028
20
36.44212423915971
30
0
10
44.133348220637806
20
36.344090626490463
30
0
10
43.949620824038405
20
36.13481043104067
30
0
10
43.692865791160756
20
36.0254793702928
30
0
10
43.556383120366434
20
35.967362514687665
30
0
0
SPLINE
5
182
100
AcDbEntity
8
0
100
AcDbSpline
70
0
71
3
72
9
73
5
74
0
42
0.000000001
43
0.0000000001
44
0.0000000001
40
0
40
0
40
0
40
0
40
0.053999356448126534
40
0.10341744722987442
40
0.10341744722987442
40
0.10341744722987442
40
0.10341744722987442
10
43.556383120366434
20
35.967362514687665
30
0
10
43.727115674880032
20
35.901324261254452
30
0
10
44.054095959613484
20
35.774850391215971
30
0
10
44.285042705424445
20
35.511859952787262
30
0
10
44.395400749989847
20
35.386189809991009
30
0
0
SPLINE
5
183
100
AcDbEntity
8
0
100
AcDbSpline
70
0
71
3
72
9
73
5
74
0
42
0.000000001
43
0.0000000001
44
0.0000000001
40
0
40
0
40
0
40
0
40
0.049099320610665458
40
0.10138005227803905
40
0.10138005227803905
40
0.10138005227803905
40
0.10138005227803905
10
44.395400749989847
20
35.386189809991009
30
0
10
44.48013244738857
20
35.243265978347708
30
0
10
44.6550860680304
20
34.948157505489775
30
0
10
44.67547389126252
20
34.605293280824711
30
0
10
44.685987698384622
20
34.428481451226368
30
0
0
SPLINE
5
184
100
AcDbEntity
8
0
100
AcDbSpline
70
0
71
3
72
9
73
5
74
0
42
0.000000001
43
0.0000000001
44
0.0000000001
40
0
40
0
40
0
40
0
40
0.072100725620269188
40
0.14345961831573784
40
0.14345961831573784
40
0.14345961831573784
40
0.14345961831573784
10
44.685987698384622
20
34.428481451226368
30
0
10
44.66377972757455
20
34.182690343805035
30
0
10
44.619592280242045
20
33.693637034663944
30
0
10
44.300413581372496
20
33.320679864088689
30
0
10
44.141649472066263
20
33.135165563775189
30
0
0
SPLINE
5
185
100
AcDbEntity
8
0
100
AcDbSpline
70
0
71
3
72
9
73
5
74
0
42
0.000000001
43
0.0000000001
44
0.0000000001
40
0
40
0
40
0
40
0
40
0.074272224142672094
40
0.15555264995403947
40
0.15555264995403947
40
0.15555264995403947
40
0.15555264995403947
10
44.141649472066263
20
33.135165563775189
30
0
10
43.939728963813906
20
32.982453842505173
30
0
10
43.516835069073565
20
32.662620779784952
30
0
10
42.986364479581958
20
32.628907103120952
30
0
10
42.709179388829568
20
32.611290804101117
30
0
0
SPLINE
5
186
100
AcDbEntity
8
0
100
AcDbSpline
70
0
71
3
72
9
73
5
74
0
42
0.000000001
43
0.0000000001
44
0.0000000001
40
0
40
0
40
0
40
0
40
0.081280406602946442
40
0.15555259264531862
40
0.15555259264531862
40
0.15555259264531862
40
0.15555259264531862
10
42.709179388829568
20
32.611290804101117
30
0
10
42.431994199789919
20
32.628906474527525
30
0
10
41.901523492272091
20
32.662618943750267
30
0
10
41.478630531028514
20
32.982453264098062
30
0
10
41.276710497685769
20
33.135165563775189
30
0
0
SPLINE
5
187
100
AcDbEntity
8
0
100
AcDbSpline
70
0
71
3
72
9
73
5
74
0
42
0.000000001
43
0.0000000001
44
0.0000000001
40
0
40
0
40
0
40
0
40
0.071947378150088351
40
0.1453548804516247
40
0.1453548804516247
40
0.1453548804516247
40
0.1453548804516247
10
41.276710497685769
20
33.135165563775189
30
0
10
41.117949713438271
20
33.32318976354636
30
0
10
40.79720620049801
20
33.70305398907432
30
0
10
40.754127825233553
20
34.198655131376171
30
0
10
40.73237227136741
20
34.448944917870648
30
0
0
LINE
5
188
100
AcDbEntity
8
0
100
AcDbLine
10
60.33673809702055
20
38.005561224175565
30
8.8817841970012523e-15
11
59.076164233037403
21
38.005561224175565
31
8.9167721502021223e-15
0
LINE
5
189
100
AcDbEntity
8
0
100
AcDbLine
10
59.076164233037403
20
38.005561224175565
30
8.9167721502021223e-15
11
59.076164233037403
21
33.421660057259672
31
3.7158610118119687e-15
0
LINE
5
190
100
AcDbEntity
8
0
100
AcDbLine
10
59.076164233037403
20
33.421660057259672
30
3.7158610118119687e-15
11
60.357201563664844
21
33.421660057259672
31
-3.5555928496673928e-17
0
SPLINE
5
191
100
AcDbEntity
8
0
100
AcDbSpline
70
0
71
3
72
9
73
5
74
0
42
0.000000001
43
0.0000000001
44
0.0000000001
40
0
40
0
40
0
40
0
40
0.052971207741951916
40
0.093827535565311829
40
0.093827535565311829
40
0.093827535565311829
40
0.093827535565311829
10
60.357201563664844
20
33.421660057259672
30
0
10
60.534500424751926
20
33.423357197491917
30
0
10
60.848548676688672
20
33.426363330300426
30
0
10
61.15348141900887
20
33.500069861083517
30
0
10
61.286261545964649
20
33.532164684487462
30
0
0
SPLINE
5
192
100
AcDbEntity
8
0
100
AcDbSpline
70
0
71
3
72
9
73
5
74
0
42
0.000000001
43
0.0000000001
44
0.0000000001
40
0
40
0
40
0
40
0
40
0.033266164414192723
40
0.062775225340685997
40
0.062775225340685997
40
0.062775225340685997
40
0.062775225340685997
10
61.286261545964649
20
33.532164684487462
30
0
10
61.391397418244267
20
33.570524718614948
30
0
10
61.589795045081203
20
33.642912378233504
30
0
10
61.750814780955679
20
33.779165785765073
30
0
10
61.826506125279835
20
33.843215099526525
30
0
0
SPLINE
5
193
100
AcDbEntity
8
0
100
AcDbSpline
70
0
71
3
72
9
73
5
74
0
42
0.000000001
43
0.0000000001
44
0.0000000001
40
0
40
0
40
0
40
0
40
0.041480866234340816
40
0.088075827787263944
40
0.088075827787263944
40
0.088075827787263944
40
0.088075827787263944
10
61.826506125279835
20
33.843215099526525
30
0
10
61.916659806704416
20
33.94950503918529
30
0
10
62.108082041589299
20
34.175189198431546
30
0
10
62.210337124995732
20
34.453266031757757
30
0
10
62.264433371373585
20
34.600377670479894
30
0
0
SPLINE
5
194
100
AcDbEntity
8
0
100
AcDbSpline
70
0
71
3
72
9
73
5
74
0
42
0.000000001
43
0.0000000001
44
0.0000000001
40
0
40
0
40
0
40
0
40
0.054236709928339538
40
0.11728939951140034
40
0.11728939951140034
40
0.11728939951140034
40
0.11728939951140034
10
62.264433371373585
20
34.600377670479894
30
0
10
62.310919258838652
20
34.775760508208513
30
0
10
62.411447145462589
20
35.155034025148872
30
0
10
62.419645133643193
20
35.547596200150807
30
0
10
62.42405222589629
20
35.758630624962926
30
0
0
SPLINE
5
195
100
AcDbEntity
8
0
100
AcDbSpline
70
0
71
3
72
9
73
5
74
0
42
0.000000001
43
0.0000000001
44
0.0000000001
40
0
40
0
40
0
40
0
40
0.08354825104717313
40
0.14912718815740406
40
0.14912718815740406
40
0.14912718815740406
40
0.14912718815740406
10
62.42405222589629
20
35.758630624962926
30
0
10
62.418621281983071
20
36.04068023287828
30
0
10
62.408927465719216
20
36.544117042412047
30
0
10
62.203386443984868
20
37.002016152744432
30
0
10
62.112999426671429
20
37.203378072930455
30
0
0
SPLINE
5
196
100
AcDbEntity
8
0
100
AcDbSpline
70
0
71
3
72
9
73
5
74
0
42
0.000000001
43
0.0000000001
44
0.0000000001
40
0
40
0
40
0
40
0
40
0.054362648417923085
40
0.10253979315979153
40
0.10253979315979153
40
0.10253979315979153
40
0.10253979315979153
10
62.112999426671429
20
37.203378072930455
30
0
10
62.010024200465566
20
37.356503938051802
30
0
10
61.815790499514165
20
37.645332665016099
30
0
10
61.508432688846462
20
37.806877876783908
30
0
10
61.364024149724408
20
37.882778040124059
30
0
0
SPLINE
5
197
100
AcDbEntity
8
0
100
AcDbSpline
70
0
71
3
72
9
73
5
74
0
42
0.000000001
43
0.0000000001
44
0.0000000001
40
0
40
0
40
0
40
0
40
0.042650094202050057
40
0.1038116827352521
40
0.1038116827352521
40
0.1038116827352521
40
0.1038116827352521
10
61.364024149724408
20
37.882778040124059
30
0
10
61.225862532332229
20
37.918313421968563
30
0
10
60.889572771213345
20
38.004807669049029
30
8.8817841970012523e-15
10
60.541694006604502
20
38.005281853897998
30
8.8817841970012523e-15
10
60.33673809702055
20
38.005561224175565
30
8.8817841970012523e-15
0
SPLINE
5
198
100
AcDbEntity
8
0
100
AcDbSpline
70
0
71
3
72
9
73
5
74
0
42
0.000000001
43
0.0000000001
44
0.0000000001
40
0
40
0
40
0
40
0
40
0.048348537586752491
40
0.094917264451222394
40
0.094917264451222394
40
0.094917264451222394
40
0.094917264451222394
10
42.692808377095631
20
35.648125997735129
30
1.7763568394002505e-14
10
42.528001408209136
20
35.634906227391198
30
1.7763568394002505e-14
10
42.204454359425405
20
35.608953334080468
30
1.7763568394002505e-14
10
41.95273385686378
20
35.404596171524176
30
1.7763568394002505e-14
10
41.829233633824757
20
35.304333559228049
30
1.7763568394002505e-14
0
SPLINE
5
199
100
AcDbEntity
8
0
100
AcDbSpline
70
0
71
3
72
9
73
5
74
0
42
0.000000001
43
0.0000000001
44
0.0000000001
40
0
40
0
40
0
40
0
40
0.046313921083043358
40
0.094342202533542585
40
0.094342202533542585
40
0.094342202533542585
40
0.094342202533542585
10
41.829233633824757
20
35.304333559228049
30
1.7763568394002505e-14
10
41.730164000508239
20
35.181063162558814
30
1.7763568394002505e-14
10
41.528357563205901
20
34.929959380866343
30
1.7763568394002505e-14
10
41.502631577775865
20
34.608501914270676
30
1.7763568394002505e-14
10
41.48953484232085
20
34.444852462960348
30
1.7763568394002505e-14
0
SPLINE
5
200
100
AcDbEntity
8
0
100
AcDbSpline
70
0
71
3
72
9
73
5
74
0
42
0.000000001
43
0.0000000001
44
0.0000000001
40
0
40
0
40
0
40
0
40
0.031220927326309045
40
0.063172158781349588
40
0.063172158781349588
40
0.063172158781349588
40
0.063172158781349588
10
41.48953484232085
20
34.444852462960348
30
1.7763568394002505e-14
10
41.495952843832768
20
34.340102120232558
30
1.7763568394002505e-14
10
41.508938973499312
20
34.128151167782008
30
1.7763568394002505e-14
10
41.59390155208429
20
33.933486530301892
30
1.7763568394002505e-14
10
41.636873947926929
20
33.835028997613058
30
8.8817841970012523e-15
0
SPLINE
5
201
100
AcDbEntity
8
0
100
AcDbSpline
70
0
71
3
72
9
73
5
74
0
42
0.000000001
43
0.0000000001
44
0.0000000001
40
0
40
0
40
0
40
0
40
0.032198084106145254
40
0.064695153322851556
40
0.064695153322851556
40
0.064695153322851556
40
0.064695153322851556
10
41.636873947926929
20
33.835028997613058
30
8.8817841970012523e-15
10
41.693545282231462
20
33.742134730807933
30
8.8817841970012523e-15
10
41.807414189765069
20
33.555483599207697
30
8.8817841970012523e-15
10
41.990846225444393
20
33.436437572613499
30
8.8817841970012523e-15
10
42.082986103841236
20
33.376639476967917
30
8.8817841970012523e-15
0
SPLINE
5
202
100
AcDbEntity
8
0
100
AcDbSpline
70
0
71
3
72
9
73
5
74
0
42
0.000000001
43
0.0000000001
44
0.0000000001
40
0
40
0
40
0
40
0
40
0.032852343206154558
40
0.065938300069602149
40
0.065938300069602149
40
0.065938300069602149
40
0.065938300069602149
10
42.082986103841236
20
33.376639476967917
30
8.8817841970012523e-15
10
42.183287944968427
20
33.330084441428887
30
8.8817841970012523e-15
10
42.384604875583577
20
33.236643316579418
30
8.8817841970012523e-15
10
42.606183607636758
20
33.223576951487985
30
8.8817841970012523e-15
10
42.717365490743092
20
33.217020622445212
30
8.8817841970012523e-15
0
SPLINE
5
203
100
AcDbEntity
8
0
100
AcDbSpline
70
0
71
3
72
9
73
5
74
0
42
0.000000001
43
0.0000000001
44
0.0000000001
40
0
40
0
40
0
40
0
40
0.048934933455764808
40
0.095505570565097342
40
0.095505570565097342
40
0.095505570565097342
40
0.095505570565097342
10
42.717365490743092
20
33.217020622445212
30
8.8817841970012523e-15
10
42.884180643865754
20
33.229719691743277
30
8.8817841970012523e-15
10
43.209751258818883
20
33.254504273499251
30
8.8817841970012523e-15
10
43.464771574598593
20
33.457658226902403
30
8.8817841970012523e-15
10
43.589125143834522
20
33.556720606042013
30
8.8817841970012523e-15
0
SPLINE
5
204
100
AcDbEntity
8
0
100
AcDbSpline
70
0
71
3
72
9
73
5
74
0
42
0.000000001
43
0.0000000001
44
0.0000000001
40
0
40
0
40
0
40
0
40
0.046398487066954465
40
0.094948439405241697
40
0.094948439405241697
40
0.094948439405241697
40
0.094948439405241697
10
43.589125143834522
20
33.556720606042013
30
8.8817841970012523e-15
10
43.689383848104661
20
33.679526207609932
30
8.8817841970012523e-15
10
43.894550182375525
20
33.930831820275053
30
8.8817841970012523e-15
10
43.919936702088769
20
34.254694671023834
30
8.8817841970012523e-15
10
43.932917582341602
20
34.420295349312887
30
8.8817841970012523e-15
0
SPLINE
5
205
100
AcDbEntity
8
0
100
AcDbSpline
70
0
71
3
72
9
73
5
74
0
42
0.000000001
43
0.0000000001
44
0.0000000001
40
0
40
0
40
0
40
0
40
0.049410128903942994
40
0.09700188811844529
40
0.09700188811844529
40
0.09700188811844529
40
0.09700188811844529
10
43.932917582341602
20
34.420295349312887
30
8.8817841970012523e-15
10
43.919225335165237
20
34.588840753602895
30
8.8817841970012523e-15
10
43.892344736831355
20
34.919728828831381
30
8.8817841970012523e-15
10
43.680690097813908
20
35.174998751509477
30
8.8817841970012523e-15
10
43.576846587010792
20
35.30024110431777
30
1.7763568394002505e-14
0
SPLINE
5
206
100
AcDbEntity
8
0
100
AcDbSpline
70
0
71
3
72
9
73
5
74
0
42
0.000000001
43
0.0000000001
44
0.0000000001
40
0
40
0
40
0
40
0
40
0.047506185397759935
40
0.096980630698394937
40
0.096980630698394937
40
0.096980630698394937
40
0.096980630698394937
10
43.576846587010792
20
35.30024110431777
30
1.7763568394002505e-14
10
43.450283281825577
20
35.401696268968458
30
1.7763568394002505e-14
10
43.191912944208141
20
35.608810053690405
30
1.7763568394002505e-14
10
42.86141244517907
20
35.634844556243152
30
1.7763568394002505e-14
10
42.692808377095631
20
35.648125997735129
30
1.7763568394002505e-14
0
SPLINE
5
207
100
AcDbEntity
8
0
100
AcDbSpline
70
0
71
3
72
9
73
5
74
0
42
0.000000001
43
0.0000000001
44
0.0000000001
40
0
40
0
40
0
40
0
40
0.039160997607544622
40
0.076539490706845015
40
0.076539490706845015
40
0.076539490706845015
40
0.076539490706845015
10
42.705086933919361
20
38.132438055230246
30
1.7763568394002505e-14
10
42.571675579727099
20
38.122268880085116
30
1.7763568394002505e-14
10
42.310925401534007
20
38.102393403614435
30
1.7763568394002505e-14
10
42.1055296680113
20
37.941088658094422
30
1.7763568394002505e-14
10
42.00522350008147
20
37.862314573479757
30
1.7763568394002505e-14
0
SPLINE
5
208
100
AcDbEntity
8
0
100
AcDbSpline
70
0
71
3
72
9
73
5
74
0
42
0.000000001
43
0.0000000001
44
0.0000000001
40
0
40
0
40
0
40
0
40
0.036278844450032224
40
0.071957002490353056
40
0.071957002490353056
40
0.071957002490353056
40
0.071957002490353056
10
42.00522350008147
20
37.862314573479757
30
1.7763568394002505e-14
10
41.924051549314086
20
37.768371694664069
30
1.7763568394002505e-14
10
41.763051651107304
20
37.582041394805657
30
1.7763568394002505e-14
10
41.738893399539549
20
37.337103315824265
30
1.7763568394002505e-14
10
41.726915108510426
20
37.215656629754172
30
1.7763568394002505e-14
0
SPLINE
5
209
100
AcDbEntity
8
0
100
AcDbSpline
70
0
71
3
72
9
73
5
74
0
42
0.000000001
43
0.0000000001
44
0.0000000001
40
0
40
0
40
0
40
0
40
0.039279472719011284
40
0.076398225509415787
40
0.076398225509415787
40
0.076398225509415787
40
0.076398225509415787
10
41.726915108510426
20
37.215656629754172
30
1.7763568394002505e-14
10
41.736991611286896
20
37.08161241667284
30
1.7763568394002505e-14
10
41.756590319675134
20
36.820897612976829
30
1.7763568394002505e-14
10
41.921169026512629
20
36.618313919893779
30
1.7763568394002505e-14
10
42.001131045171192
20
36.519886842919455
30
1.7763568394002505e-14
0
SPLINE
5
210
100
AcDbEntity
8
0
100
AcDbSpline
70
0
71
3
72
9
73
5
74
0
42
0.000000001
43
0.0000000001
44
0.0000000001
40
0
40
0
40
0
40
0
40
0.037464589414411976
40
0.077734649482674223
40
0.077734649482674223
40
0.077734649482674223
40
0.077734649482674223
10
42.001131045171192
20
36.519886842919455
30
1.7763568394002505e-14
10
42.101825692841466
20
36.441129126053539
30
1.7763568394002505e-14
10
42.310755331835978
20
36.277716057598226
30
1.7763568394002505e-14
10
42.575910618856611
20
36.259302444554365
30
1.7763568394002505e-14
10
42.713273035832813
20
36.249763361168966
30
1.7763568394002505e-14
0
SPLINE
5
211
100
AcDbEntity
8
0
100
AcDbSpline
70
0
71
3
72
9
73
5
74
0
42
0.000000001
43
0.0000000001
44
0.0000000001
40
0
40
0
40
0
40
0
40
0.039244267428883192
40
0.076026414726375668
40
0.076026414726375668
40
0.076026414726375668
40
0.076026414726375668
10
42.713273035832813
20
36.249763361168966
30
1.7763568394002505e-14
10
42.847105687675516
20
36.259339647126517
30
1.7763568394002505e-14
10
43.106374553156641
20
36.277891418772299
30
1.7763568394002505e-14
10
43.310355376682075
20
36.438223390466639
30
1.7763568394002505e-14
10
43.40904282266753
20
36.515793195916281
30
1.7763568394002505e-14
0
SPLINE
5
212
100
AcDbEntity
8
0
100
AcDbSpline
70
0
71
3
72
9
73
5
74
0
42
0.000000001
43
0.0000000001
44
0.0000000001
40
0
40
0
40
0
40
0
40
0.036355814193425227
40
0.072918309083559008
40
0.072918309083559008
40
0.072918309083559008
40
0.072918309083559008
10
43.40904282266753
20
36.515793195916281
30
1.7763568394002505e-14
10
43.489022436524593
20
36.610962471023576
30
1.7763568394002505e-14
10
43.649436343708317
20
36.801842053051658
30
1.7763568394002505e-14
10
43.67196333717763
20
37.050199166344605
30
1.7763568394002505e-14
10
43.683258759328297
20
37.174729696465597
30
1.7763568394002505e-14
0
SPLINE
5
213
100
AcDbEntity
8
0
100
AcDbSpline
70
0
71
3
72
9
73
5
74
0
42
0.000000001
43
0.0000000001
44
0.0000000001
40
0
40
0
40
0
40
0
40
0.037907428330749338
40
0.075201271917029258
40
0.075201271917029258
40
0.075201271917029258
40
0.075201271917029258
10
43.683258759328297
20
37.174729696465597
30
1.7763568394002505e-14
10
43.671881274696119
20
37.303954269668765
30
1.7763568394002505e-14
10
43.64931046593297
20
37.56031173562566
30
1.7763568394002505e-14
10
43.483223717014958
20
37.756724546984557
30
1.7763568394002505e-14
10
43.400857912846973
20
37.854129663659201
30
1.7763568394002505e-14
0
SPLINE
5
214
100
AcDbEntity
8
0
100
AcDbSpline
70
0
71
3
72
9
73
5
74
0
42
0.000000001
43
0.0000000001
44
0.0000000001
40
0
40
0
40
0
40
0
40
0.037629560841930275
40
0.076524322324120514
40
0.076524322324120514
40
0.076524322324120514
40
0.076524322324120514
10
43.400857912846973
20
37.854129663659201
30
1.7763568394002505e-14
10
43.301174171039207
20
37.935296413208796
30
1.7763568394002505e-14
10
43.09845506887865
20
38.100358942921154
30
1.7763568394002505e-14
10
42.837646986203353
20
38.12162780288137
30
1.7763568394002505e-14
10
42.705086933919361
20
38.132438055230246
30
1.7763568394002505e-14
0
ENDSEC
0
SECTION
2
OBJECTS
0
DICTIONARY
5
C
100
AcDbDictionary
3
ACAD_GROUP
350
D
3
ACAD_MLINESTYLE
350
17
0
DICTIONARY
5
D
100
AcDbDictionary
0
DICTIONARY
5
1A
330
C
100
AcDbDictionary
0
DICTIONARY
5
17
100
AcDbDictionary
0
ENDSEC
0
EOF
