0
SECTION
2
HEADER
9
$INSUNITS
70
4
9
$ACADVER
1
AC1014
9
$HANDSEED
5
FFFF
0
ENDSEC
0
SECTION
2
TABLES
0
TABLE
2
VPORT
5
8
100
AcDbSymbolTable
0
ENDTAB
0
TABLE
2
LTYPE
5
5
100
AcDbSymbolTable
0
LTYPE
5
14
100
AcDbSymbolTableRecord
100
AcDbLinetypeTableRecord
2
BYBLOCK
70
0
0
LTYPE
5
15
100
AcDbSymbolTableRecord
100
AcDbLinetypeTableRecord
2
BYLAYER
70
0
0
ENDTAB
0
TABLE
2
LAYER
5
2
100
AcDbSymbolTable
70
2
0
LAYER
5
50
100
AcDbSymbolTableRecord
100
AcDbLayerTableRecord
2
0
70
0
6
CONTINUOUS
0
ENDTAB
0
TABLE
2
STYLE
5
3
100
AcDbSymbolTable
70
1
0
STYLE
5
11
100
AcDbSymbolTableRecord
100
AcDbTextStyleTableRecord
2
STANDARD
70
0
0
ENDTAB
0
TABLE
2
VIEW
5
6
100
AcDbSymbolTable
70
0
0
ENDTAB
0
TABLE
2
UCS
5
7
100
AcDbSymbolTable
70
0
0
ENDTAB
0
TABLE
2
APPID
5
9
100
AcDbSymbolTable
70
2
0
APPID
5
12
100
AcDbSymbolTableRecord
100
AcDbRegAppTableRecord
2
ACAD
70
0
0
ENDTAB
0
TABLE
2
DIMSTYLE
5
A
100
AcDbSymbolTable
70
1
0
ENDTAB
0
TABLE
2
BLOCK_RECORD
5
1
100
AcDbSymbolTable
70
1
0
BLOCK_RECORD
5
1F
100
AcDbSymbolTableRecord
100
AcDbBlockTableRecord
2
*MODEL_SPACE
0
BLOCK_RECORD
5
1B
100
AcDbSymbolTableRecord
100
AcDbBlockTableRecord
2
*PAPER_SPACE
0
ENDTAB
0
ENDSEC
0
SECTION
2
BLOCKS
0
BLOCK
5
20
100
AcDbEntity
100
AcDbBlockBegin
2
*MODEL_SPACE
0
ENDBLK
5
21
100
AcDbEntity
100
AcDbBlockEnd
0
BLOCK
5
1C
100
AcDbEntity
100
AcDbBlockBegin
2
*PAPER_SPACE
0
ENDBLK
5
1D
100
AcDbEntity
100
AcDbBlockEnd
0
ENDSEC
0
SECTION
2
ENTITIES
0
CIRCLE
5
100
100
AcDbEntity
8
0
100
AcDbCircle
10
0
20
0
30
0
40
116.68125000000001
0
CIRCLE
5
101
100
AcDbEntity
8
0
100
AcDbCircle
10
0
20
0
30
0
40
180.97499999999999
0
CIRCLE
5
102
100
AcDbEntity
8
0
100
AcDbCircle
10
0
20
0
30
0
40
116.68125000000001
0
CIRCLE
5
103
100
AcDbEntity
8
0
100
AcDbCircle
10
0
20
0
30
0
40
180.97499999999999
0
LINE
5
104
100
AcDbEntity
8
0
100
AcDbLine
10
219.83699999999709
20
-219.83699999999999
30
0
11
-559.56200000000013
21
-219.83699999999999
31
0
0
LINE
5
105
100
AcDbEntity
8
0
100
AcDbLine
10
-559.56200000000013
20
-219.83699999999999
30
0
11
-559.56200000000013
21
218.8494000000004
31
0
0
LINE
5
106
100
AcDbEntity
8
0
100
AcDbLine
10
219.83699999999709
20
219.83699999999993
30
0
11
219.83699999999709
21
-219.83699999999999
31
0
0
LINE
5
107
100
AcDbEntity
8
0
100
AcDbLine
10
1.8359563073158342e-14
20
218.84940000000012
30
0
11
-2.7154495205242711e-15
21
-219.83699999999999
31
0
0
LINE
5
108
100
AcDbEntity
8
0
100
AcDbLine
10
219.83699999999709
20
0.025913702626448147
30
0
11
-559.56200000000013
21
-0.49379999999977997
31
0
0
LINE
5
109
100
AcDbEntity
8
0
100
AcDbLine
10
0
20
-180.97499999999999
30
0
11
219.83699999999709
21
-180.97499999999999
31
0
0
LINE
5
110
100
AcDbEntity
8
0
100
AcDbLine
10
0
20
-180.97499999999999
30
0
11
-559.56200000000013
21
-180.9749999999998
31
0
0
LINE
5
111
100
AcDbEntity
8
0
100
AcDbLine
10
0
20
180.97499999999999
30
0
11
219.83699999999709
21
180.97499999999994
31
0
0
LINE
5
112
100
AcDbEntity
8
0
100
AcDbLine
10
0
20
180.97499999999999
30
0
11
-559.56200000000013
21
180.97500000000022
31
0
0
LINE
5
113
100
AcDbEntity
8
0
100
AcDbLine
10
180.97499999999999
20
2.7622348852673895e-12
30
0
11
180.97500000001014
21
-219.83699999999999
31
0
0
LINE
5
114
100
AcDbEntity
8
0
100
AcDbLine
10
180.97499999999999
20
2.7622348852673895e-12
30
0
11
180.9749999999971
21
218.8494
31
0
0
LINE
5
115
100
AcDbEntity
8
0
100
AcDbLine
10
-520.70000000000016
20
-219.83699999999999
30
0
11
-520.70000000000016
21
218.8494000000004
31
0
0
CIRCLE
5
116
100
AcDbEntity
8
0
100
AcDbCircle
10
0
20
0
30
0
40
50.799999999999997
0
LINE
5
117
100
AcDbEntity
8
0
100
AcDbLine
10
219.83699999999692
20
218.8494
30
0
11
219.83699999999709
21
-219.83699999999999
31
0
0
LINE
5
118
100
AcDbEntity
8
0
100
AcDbLine
10
-559.56200000000013
20
199.77100000000002
30
0
11
-559.56200000000013
21
-219.83699999999999
31
0
0
LINE
5
119
100
AcDbEntity
8
0
100
AcDbLine
10
-571.56200000000024
20
230.84940000000108
30
0
11
-571.56200000000035
21
-219.83699999999999
31
0
0
LINE
5
120
100
AcDbEntity
8
0
100
AcDbLine
10
-571.56200000000035
20
-219.83699999999999
30
0
11
-559.56200000000013
21
-219.83699999999999
31
0
0
LINE
5
121
100
AcDbEntity
8
0
100
AcDbLine
10
231.79629120976364
20
218.8494
30
0
11
231.79629120976364
21
-219.83699999999999
31
0
0
LINE
5
122
100
AcDbEntity
8
0
100
AcDbLine
10
231.79629120976364
20
-219.83699999999999
30
0
11
219.83699999999709
21
-219.83699999999999
31
0
0
LINE
5
123
100
AcDbEntity
8
0
100
AcDbLine
10
-571.56200000000024
20
218.8494000000004
30
0
11
231.79629120976364
21
218.8494
31
0
0
LINE
5
124
100
AcDbEntity
8
0
100
AcDbLine
10
-571.56200000000024
20
230.84940000000108
30
0
11
231.79629120976364
21
230.8494
31
0
0
LINE
5
125
100
AcDbEntity
8
0
100
AcDbLine
10
231.79629120976364
20
230.8494
30
0
11
231.79629120976364
21
218.8494
31
0
0
LINE
5
126
100
AcDbEntity
8
0
100
AcDbLine
10
-571.56200000000035
20
-231.83699999999897
30
0
11
231.79629120976364
21
-231.83699999999999
31
0
0
LINE
5
127
100
AcDbEntity
8
0
100
AcDbLine
10
231.79629120976364
20
-231.83699999999999
30
0
11
231.79629120976364
21
-219.83699999999999
31
0
0
LINE
5
128
100
AcDbEntity
8
0
100
AcDbLine
10
-571.56200000000035
20
-231.83699999999897
30
0
11
-571.56200000000035
21
-219.83699999999999
31
0
0
LINE
5
129
100
AcDbEntity
8
0
100
AcDbLine
10
219.83699999999709
20
-201.04099999999977
30
0
11
-559.56200000000013
21
-201.041
31
0
0
LINE
5
130
100
AcDbEntity
8
0
100
AcDbLine
10
219.83699999999692
20
201.04099999999991
30
0
11
-559.56200000000013
21
201.04099999999988
31
0
0
LINE
5
131
100
AcDbEntity
8
0
100
AcDbLine
10
-540.76600000000019
20
218.8494000000004
30
0
11
-540.76600000000019
21
-219.83699999999999
31
0
0
LINE
5
132
100
AcDbEntity
8
0
100
AcDbLine
10
201.06696371233903
20
218.8494
30
0
11
201.06696371233903
21
-219.83699999999999
31
0
0
LINE
5
133
100
AcDbEntity
8
0
100
AcDbLine
10
-180.97500000000002
20
-219.83699999999999
30
0
11
-180.97499999999982
21
218.84940000000023
31
0
0
LINE
5
134
100
AcDbEntity
8
0
100
AcDbLine
10
-219.83700000000016
20
-219.83699999999999
30
0
11
-219.83699999999982
21
218.84940000000023
31
0
0
LWPOLYLINE
5
135
100
AcDbEntity
8
0
100
AcDbPolyline
90
4
70
1
43
0.0
10
-559.56200000000013
20
-151.30629999999979
10
-219.83700000000013
20
-151.30629999999977
10
-219.83700000000013
20
150.31870000000018
10
-559.56200000000013
20
150.31870000000023
0
LINE
5
136
100
AcDbEntity
8
0
100
AcDbLine
10
-180.97500000000002
20
-180.97499999999994
30
0
11
180.97499999999758
21
180.97499999999994
31
0
0
LINE
5
137
100
AcDbEntity
8
0
100
AcDbLine
10
180.97500000000835
20
-180.97499999999999
30
0
11
-180.97499999999991
21
180.97500000000002
31
0
0
CIRCLE
5
138
100
AcDbEntity
8
0
100
AcDbCircle
10
0
20
0
30
0
40
110.33125
0
LWPOLYLINE
5
139
100
AcDbEntity
8
0
100
AcDbPolyline
90
6
70
1
43
0.0
10
130.17499999999703
20
-219.83699999999999
10
130.17499999999674
20
218.84940000000083
42
-0.1425200555633773
10
-1.7763568394002505e-14
20
180.97499999999911
42
-0.14252005556337491
10
-130.17499999999981
20
218.84940000000023
10
-130.17499999999995
20
-219.83700000000002
42
-0.14608287644961529
10
-1.2434497875801753e-13
20
-180.97499999999997
42
-0.1460828764496182
0
SPLINE
5
140
100
AcDbEntity
8
0
100
AcDbSpline
70
1064
71
5
72
21
73
15
74
0
42
0.000000001
43
0.0000000001
44
0.0000000001
40
0
40
0
40
0
40
0
40
0
40
0
40
0.10000000000000001
40
0.20000000000000001
40
0.30000000000000004
40
0.40000000000000002
40
0.5
40
0.59999999999999998
40
0.69999999999999996
40
0.79999999999999993
40
0.89999999999999991
40
1
40
1
40
1
40
1
40
1
40
1
10
-180.97500000000002
20
-219.83699999999999
30
0
10
-178.65276804211362
20
-218.92786215104496
30
0
10
-174.06305747872381
20
-217.00094803816484
30
0
10
-167.34275120287307
20
-213.78468281942679
30
0
10
-158.71626388104352
20
-208.8336315555045
30
0
10
-148.57027277554096
20
-201.48210161533734
30
0
10
-139.24421348351495
20
-192.91161930793135
30
0
10
-131.0571921915429
20
-183.12096950367842
30
0
10
-124.48999820735355
20
-172.22301116356988
30
0
10
-120.21599555741501
20
-160.55452222316885
30
0
10
-119.02854725261358
20
-148.5836129283764
30
0
10
-121.1867235709052
20
-139.14594956376669
30
0
10
-124.84958626618244
20
-132.31767637996489
30
0
10
-128.24151524822364
20
-127.89930908742663
30
0
10
-130.17499999999993
20
-125.72358569496822
30
0
0
SPLINE
5
141
100
AcDbEntity
8
0
100
AcDbSpline
70
1064
71
5
72
21
73
15
74
0
42
0.000000001
43
0.0000000001
44
0.0000000001
40
0
40
0
40
0
40
0
40
0
40
0
40
0.10000000000000001
40
0.20000000000000001
40
0.30000000000000004
40
0.40000000000000002
40
0.5
40
0.59999999999999998
40
0.69999999999999996
40
0.79999999999999993
40
0.89999999999999991
40
1
40
1
40
1
40
1
40
1
40
1
10
180.97500000000002
20
-219.83699999999999
30
0
10
178.65276804211362
20
-218.92786215104917
30
0
10
174.06305747872381
20
-217.00094803817632
30
0
10
167.34275120287307
20
-213.78468281944509
30
0
10
158.71626388104352
20
-208.83363155552496
30
0
10
148.57027277554096
20
-201.48210161535297
30
0
10
139.24421348351495
20
-192.91161930793905
30
0
10
131.0571921915429
20
-183.12096950367862
30
0
10
124.48999820735355
20
-172.22301116356579
30
0
10
120.21599555741501
20
-160.55452222316387
30
0
10
119.02854725261358
20
-148.58361292837316
30
0
10
121.1867235709052
20
-139.14594956376544
30
0
10
124.84958626618244
20
-132.31767637996464
30
0
10
128.24151524822364
20
-127.89930908742662
30
0
10
130.17499999999993
20
-125.72358569496821
30
0
0
SPLINE
5
142
100
AcDbEntity
8
0
100
AcDbSpline
70
1064
71
5
72
21
73
15
74
0
42
0.000000001
43
0.0000000001
44
0.0000000001
40
0
40
0
40
0
40
0
40
0
40
0
40
0.10000000000000001
40
0.20000000000000001
40
0.30000000000000004
40
0.40000000000000002
40
0.5
40
0.59999999999999998
40
0.69999999999999996
40
0.79999999999999993
40
0.89999999999999991
40
1
40
1
40
1
40
1
40
1
40
1
10
-181.26785851272345
20
219.35409849267288
30
0
10
-178.94441616985247
20
218.44805844160413
30
0
10
-174.35213990477058
20
216.52726700060651
30
0
10
-167.62755030948176
20
213.31996701865398
30
0
10
-158.99446780721084
20
208.38042466727592
30
0
10
-148.83868153126744
20
201.04243222447752
30
0
10
-139.50120071283405
20
192.4843950158839
30
0
10
-131.30112963416124
20
182.704672344568
30
0
10
-124.71940768707404
20
171.81548187791458
30
0
10
-120.42984743511333
20
160.15270323607223
30
0
10
-119.22643546774898
20
148.18338819895351
30
0
10
-121.37202355147684
20
138.7428550265291
30
0
10
-125.02577662527568
20
131.90970302523357
30
0
10
-128.4118101404658
20
127.4868160964287
30
0
10
-130.34239157106705
20
125.30851609283422
30
0
0
SPLINE
5
143
100
AcDbEntity
8
0
100
AcDbSpline
70
1064
71
5
72
21
73
15
74
0
42
0.000000001
43
0.0000000001
44
0.0000000001
40
0
40
0
40
0
40
0
40
0
40
0
40
0.10000000000000001
40
0.20000000000000001
40
0.30000000000000004
40
0.40000000000000002
40
0.5
40
0.59999999999999998
40
0.69999999999999996
40
0.79999999999999993
40
0.89999999999999991
40
1
40
1
40
1
40
1
40
1
40
1
10
180.68181961243707
20
219.83680450339179
30
0
10
178.3608021697072
20
218.92457047348154
30
0
10
173.77366547098742
20
216.99153711580811
30
0
10
167.0576544669467
20
213.76631238056171
30
0
10
158.43777766824664
20
208.8037610098188
30
0
10
148.30159977849718
20
201.43870664744455
30
0
10
138.98697859994181
20
192.8557944843904
30
0
10
130.8130216558821
20
183.05423496050381
30
0
10
124.26036731479894
20
172.14752812963755
30
0
10
120.00192986846159
20
160.47334964378649
30
0
10
118.83044733814555
20
148.50086738228541
30
0
10
121.00120805252789
20
139.0660906109255
30
0
10
124.67317385465068
20
132.24270838910314
30
0
10
128.07099227079195
20
127.82886859116016
30
0
10
130.00737690492522
20
125.65572567949172
30
0
0
LINE
5
144
100
AcDbEntity
8
0
100
AcDbLine
10
25.399999999999995
20
-219.83699999999999
30
0
11
25.399999999999924
21
218.84940000000012
31
0
0
LINE
5
145
100
AcDbEntity
8
0
100
AcDbLine
10
-25.400000000000006
20
-219.83699999999999
30
0
11
-25.400000000000077
21
218.84940000000012
31
0
0
LINE
5
146
100
AcDbEntity
8
0
100
AcDbLine
10
219.836999999997
20
-25.374086297373552
30
0
11
-219.83700000000013
21
-25.37408629737358
31
0
0
LINE
5
147
100
AcDbEntity
8
0
100
AcDbLine
10
219.836999999997
20
25.425913702626445
30
0
11
-219.83700000000013
21
25.425913702626417
31
0
0
LINE
5
148
100
AcDbEntity
8
0
100
AcDbLine
10
-25.400000000000006
20
-219.83699999999999
30
0
11
-25.400000000000006
21
-179.18367845593525
31
0
0
LINE
5
149
100
AcDbEntity
8
0
100
AcDbLine
10
25.399999999999995
20
-219.83699999999999
30
0
11
25.399999999999999
21
-179.18367845593525
31
0
0
LINE
5
150
100
AcDbEntity
8
0
100
AcDbLine
10
219.836999999997
20
-25.374086297373552
30
0
11
179.1873499150357
21
-25.374086297373559
31
0
0
LINE
5
151
100
AcDbEntity
8
0
100
AcDbLine
10
219.836999999997
20
25.425913702626445
30
0
11
179.18000317386588
21
25.425913702626438
31
0
0
LINE
5
152
100
AcDbEntity
8
0
100
AcDbLine
10
25.399999999999924
20
218.84940000000012
30
0
11
25.40000000000002
21
179.18367845593525
31
0
0
LINE
5
153
100
AcDbEntity
8
0
100
AcDbLine
10
-25.400000000000077
20
218.84940000000012
30
0
11
-25.399999999999984
21
179.18367845593525
31
0
0
ENDSEC
0
SECTION
2
OBJECTS
0
DICTIONARY
5
C
100
AcDbDictionary
3
ACAD_GROUP
350
D
3
ACAD_MLINESTYLE
350
17
0
DICTIONARY
5
D
100
AcDbDictionary
0
DICTIONARY
5
1A
330
C
100
AcDbDictionary
0
DICTIONARY
5
17
100
AcDbDictionary
0
ENDSEC
0
EOF
