  0
SECTION
  2
HEADER
  9
$ACADVER
  1
AC1009
  9
$INSBASE
 10
0.0
 20
0.0
 30
0.0
  9
$EXTMIN
 10
-5.625
 20
-11.0
 30
0.0
  9
$EXTMAX
 10
7.158204
 20
7.015676
 30
0.0
  9
$LIMMIN
 10
0.0
 20
0.0
  9
$LIMMAX
 10
0.0
 20
0.0
  9
$ORTHOMODE
 70
     0
  9
$REGENMODE
 70
     1
  9
$FILLMODE
 70
     1
  9
$QTEXTMODE
 70
     0
  9
$MIRRTEXT
 70
     1
  9
$DRAGMODE
 70
     2
  9
$LTSCALE
 40
1.0
  9
$OSMODE
 70
     0
  9
$ATTMODE
 70
     1
  9
$TEXTSIZE
 40
0.2
  9
$TRACEWID
 40
0.05
  9
$TEXTSTYLE
  7
STANDARD
  9
$CLAYER
  8
0
  9
$CELTYPE
  6
CONTINUOUS
  9
$CECOLOR
 62
   256
  9
$DIMSCALE
 40
1.0
  9
$DIMASZ
 40
0.18
  9
$DIMEXO
 40
0.0625
  9
$DIMDLI
 40
0.38
  9
$DIMRND
 40
0.0
  9
$DIMDLE
 40
0.0
  9
$DIMEXE
 40
0.18
  9
$DIMTP
 40
0.0
  9
$DIMTM
 40
0.0
  9
$DIMTXT
 40
0.18
  9
$DIMCEN
 40
0.09
  9
$DIMTSZ
 40
0.0
  9
$DIMTOL
 70
     0
  9
$DIMLIM
 70
     0
  9
$DIMTIH
 70
     1
  9
$DIMTOH
 70
     1
  9
$DIMSE1
 70
     0
  9
$DIMSE2
 70
     0
  9
$DIMTAD
 70
     0
  9
$DIMZIN
 70
     0
  9
$DIMBLK
  1

  9
$DIMASO
 70
     1
  9
$DIMSHO
 70
     1
  9
$DIMPOST
  1

  9
$DIMAPOST
  1

  9
$DIMALT
 70
     0
  9
$DIMALTD
 70
     2
  9
$DIMALTF
 40
25.4
  9
$DIMLFAC
 40
1.0
  9
$DIMTOFL
 70
     0
  9
$DIMTVP
 40
0.0
  9
$DIMTIX
 70
     0
  9
$DIMSOXD
 70
     0
  9
$DIMSAH
 70
     0
  9
$DIMBLK1
  1

  9
$DIMBLK2
  1

  9
$DIMSTYLE
  2
STANDARD
  9
$DIMCLRD
 70
     0
  9
$DIMCLRE
 70
     0
  9
$DIMCLRT
 70
     0
  9
$DIMTFAC
 40
1.0
  9
$DIMGAP
 40
0.09
  9
$LUNITS
 70
     2
  9
$LUPREC
 70
     4
  9
$AXISMODE
 70
     0
  9
$AXISUNIT
 10
0.0
 20
0.0
  9
$SKETCHINC
 40
0.1
  9
$FILLETRAD
 40
0.0
  9
$AUNITS
 70
     0
  9
$AUPREC
 70
     0
  9
$MENU
  1
acad
  9
$ELEVATION
 40
0.0
  9
$PELEVATION
 40
0.0
  9
$THICKNESS
 40
0.0
  9
$LIMCHECK
 70
     0
  9
$BLIPMODE
 70
     1
  9
$CHAMFERA
 40
0.0
  9
$CHAMFERB
 40
0.0
  9
$SKPOLY
 70
     0
  9
$TDCREATE
 40
0.000000000
  9
$TDUPDATE
 40
0.000000000
  9
$TDINDWG
 40
0.0000000000
  9
$TDUSRTIMER
 40
0.0000000000
  9
$USRTIMER
 70
     1
  9
$ANGBASE
 50
0.0
  9
$ANGDIR
 70
     0
  9
$PDMODE
 70
     0
  9
$PDSIZE
 40
0.0
  9
$PLINEWID
 40
0.0
  9
$COORDS
 70
     0
  9
$SPLFRAME
 70
     0
  9
$SPLINETYPE
 70
     6
  9
$SPLINESEGS
 70
     8
  9
$ATTDIA
 70
     0
  9
$ATTREQ
 70
     1
  9
$HANDLING
 70
     1
  9
$HANDSEED
  5
1C8
  9
$SURFTAB1
 70
     6
  9
$SURFTAB2
 70
     6
  9
$SURFTYPE
 70
     6
  9
$SURFU
 70
     6
  9
$SURFV
 70
     6
  9
$UCSNAME
  2

  9
$UCSORG
 10
0.0
 20
0.0
 30
0.0
  9
$UCSXDIR
 10
1.0
 20
0.0
 30
0.0
  9
$UCSYDIR
 10
0.0
 20
1.0
 30
0.0
  9
$PUCSNAME
  2

  9
$PUCSORG
 10
0.0
 20
0.0
 30
0.0
  9
$PUCSXDIR
 10
1.0
 20
0.0
 30
0.0
  9
$PUCSYDIR
 10
0.0
 20
1.0
 30
0.0
  9
$USERI1
 70
     0
  9
$USERI2
 70
     0
  9
$USERI3
 70
     0
  9
$USERI4
 70
     0
  9
$USERI5
 70
     0
  9
$USERR1
 40
0.0
  9
$USERR2
 40
0.0
  9
$USERR3
 40
0.0
  9
$USERR4
 40
0.0
  9
$USERR5
 40
0.0
  9
$WORLDVIEW
 70
     1
  9
$SHADEDGE
 70
     3
  9
$SHADEDIF
 70
    70
  9
$TILEMODE
 70
     1
  9
$MAXACTVP
 70
    16
  9
$PINSBASE
 10
0.0
 20
0.0
 30
0.0
  9
$PLIMCHECK
 70
     0
  9
$PEXTMIN
 10
1.000000E+20
 20
1.000000E+20
 30
1.000000E+20
  9
$PEXTMAX
 10
-1.000000E+20
 20
-1.000000E+20
 30
-1.000000E+20
  9
$PLIMMIN
 10
0.0
 20
0.0
  9
$PLIMMAX
 10
12.0
 20
9.0
  9
$UNITMODE
 70
     0
  9
$VISRETAIN
 70
     0
  9
$PLINEGEN
 70
     1
  9
$PSLTSCALE
 70
     0
  9
$TREEDEPTH
 70
  3020
  9
$DWGCODEPAGE
  3
dos850
  0
ENDSEC
  0
SECTION
  2
TABLES
  0
TABLE
  2
VPORT
 70
     1
  0
VPORT
  2
*ACTIVE
 70
     0
 10
0.0
 20
0.0
 11
1.0
 21
1.0
 12
6.591288
 22
4.579184
 13
0.0
 23
0.0
 14
1.0
 24
1.0
 15
0.0
 25
0.0
 16
0.0
 26
0.0
 36
1.0
 17
0.0
 27
0.0
 37
0.0
 40
9.158369
 41
0.688564
 42
50.0
 43
0.0
 44
0.0
 50
0.0
 51
0.0
 71
     0
 72
   100
 73
     1
 74
     1
 75
     0
 76
     0
 77
     0
 78
     0
  0
ENDTAB
  0
TABLE
  2
LTYPE
 70
     1
  0
LTYPE
  2
CONTINUOUS
 70
     0
  3
Solid line
 72
    65
 73
     0
 40
0.0
  0
ENDTAB
  0
TABLE
  2
LAYER
 70
     5
  0
LAYER
  2
0
 70
     0
 62
     7
  6
CONTINUOUS
  0
LAYER
  2
MERGE
 70
     0
 62
     7
  6
CONTINUOUS
  0
LAYER
  2
STANDARD
 70
     0
 62
     7
  6
CONTINUOUS
  0
LAYER
  2
hide
 70
     0
 62
    -7
  6
CONTINUOUS
  0
LAYER
  2
engrave
 70
     0
 62
     7
  6
CONTINUOUS
  0
ENDTAB
  0
TABLE
  2
STYLE
 70
     1
  0
STYLE
  2
STANDARD
 70
     0
 40
0.0
 41
1.0
 50
0.0
 71
     0
 42
0.0
  3
txt
  4

  0
ENDTAB
  0
TABLE
  2
VIEW
 70
     0
  0
ENDTAB
  0
TABLE
  2
UCS
 70
     0
  0
ENDTAB
  0
TABLE
  2
APPID
 70
     1
  0
APPID
  2
ACAD
 70
     0
  0
ENDTAB
  0
TABLE
  2
DIMSTYLE
 70
     1
  0
DIMSTYLE
  2
STANDARD
 70
     0
  3

  4

  5

  6

  7

 40
1.0
 41
0.18
 42
0.0625
 43
0.38
 44
0.18
 45
0.0
 46
0.0
 47
0.0
 48
0.0
140
0.18
141
0.09
142
0.0
143
25.4
144
1.0
145
0.0
146
1.0
147
0.09
 71
     0
 72
     0
 73
     1
 74
     1
 75
     0
 76
     0
 77
     0
 78
     0
170
     0
171
     2
172
     0
173
     0
174
     0
175
     0
176
     0
177
     0
178
     0
  0
ENDTAB
  0
ENDSEC
  0
SECTION
  2
BLOCKS
  0
ENDSEC
  0
SECTION
  2
ENTITIES
  0
LINE
  8
hide
 62
   250
  5
21
 10
0.487288
 20
7.015676
 30
0.0
 11
0.947288
 21
7.015676
 31
0.0
  0
LINE
  8
hide
 62
   250
  5
22
 10
0.947288
 20
7.015676
 30
0.0
 11
0.947288
 21
1.729677
 31
0.0
  0
LINE
  8
hide
 62
   250
  5
23
 10
1.133289
 20
2.365677
 30
0.0
 11
0.347288
 21
2.365677
 31
0.0
  0
LINE
  8
hide
 62
   250
  5
24
 10
0.487288
 20
2.365677
 30
0.0
 11
0.487288
 21
7.015676
 31
0.0
  0
LINE
  8
hide
 62
   250
  5
25
 10
0.760288
 20
2.658677
 30
0.0
 11
0.760288
 21
2.365677
 31
0.0
  0
ARC
  8
hide
 62
   250
  5
26
 10
-2.766737
 20
6.515676
 30
0.0
 40
0.5
 50
90.000003
 51
180.000005
  0
ARC
  8
hide
 62
   250
  5
27
 10
-2.766737
 20
2.865677
 30
0.0
 40
0.5
 50
180.000005
 51
270.000008
  0
LINE
  8
hide
 62
   250
  5
28
 10
-1.336736
 20
7.015676
 30
0.0
 11
-2.766736
 21
7.015676
 31
0.0
  0
ARC
  8
hide
 62
   250
  5
29
 10
-1.336736
 20
6.515676
 30
0.0
 40
0.5
 50
0.000003
 51
90.000006
  0
LINE
  8
hide
 62
   250
  5
2A
 10
-0.836736
 20
2.365677
 30
0.0
 11
-3.266737
 21
2.365677
 31
0.0
  0
ARC
  8
hide
 62
   250
  5
2B
 10
-1.336736
 20
2.865677
 30
0.0
 40
0.5
 50
270.000001
 51
360.000003
  0
LINE
  8
hide
 62
   250
  5
2C
 10
-2.051736
 20
7.015676
 30
0.0
 11
-2.051736
 21
0.245592
 31
0.0
  0
LINE
  8
hide
 62
   250
  5
2D
 10
-2.566736
 20
2.365676
 30
0.0
 11
-2.566736
 21
2.008677
 31
0.0
  0
LINE
  8
hide
 62
   250
  5
2E
 10
-1.536736
 20
2.365676
 30
0.0
 11
-1.536736
 21
2.008677
 31
0.0
  0
LINE
  8
hide
 62
   250
  5
2F
 10
0.667288
 20
2.658677
 30
0.0
 11
0.667288
 21
2.365677
 31
0.0
  0
LINE
  8
hide
 62
   250
  5
30
 10
0.713788
 20
3.156718
 30
0.0
 11
0.713788
 21
1.566182
 31
0.0
  0
LINE
  8
hide
 62
   250
  5
31
 10
0.823788
 20
2.365677
 30
0.0
 11
0.823788
 21
2.008677
 31
0.0
  0
LINE
  8
hide
 62
   250
  5
32
 10
0.603788
 20
2.365677
 30
0.0
 11
0.603788
 21
2.008677
 31
0.0
  0
LINE
  8
hide
 62
   250
  5
33
 10
1.133289
 20
2.272676
 30
0.0
 11
0.347288
 21
2.272676
 31
0.0
  0
LINE
  8
hide
 62
   250
  5
34
 10
1.133289
 20
2.008677
 30
0.0
 11
0.347288
 21
2.008677
 31
0.0
  0
LINE
  8
hide
 62
   250
  5
35
 10
0.760288
 20
2.658677
 30
0.0
 11
0.667288
 21
2.658677
 31
0.0
  0
LINE
  8
hide
 62
   250
  5
36
 10
0.788788
 20
2.008677
 30
0.0
 11
0.788788
 21
1.566182
 31
0.0
  0
LINE
  8
hide
 62
   250
  5
37
 10
0.638788
 20
2.008677
 30
0.0
 11
0.638788
 21
1.566182
 31
0.0
  0
LINE
  8
hide
 62
   250
  5
38
 10
-0.836736
 20
2.272676
 30
0.0
 11
-3.266737
 21
2.272676
 31
0.0
  0
LINE
  8
hide
 62
   250
  5
39
 10
-1.536736
 20
2.008677
 30
0.0
 11
-2.566736
 21
2.008677
 31
0.0
  0
LINE
  8
hide
 62
   250
  5
3A
 10
-1.976736
 20
2.008677
 30
0.0
 11
-1.976736
 21
0.245592
 31
0.0
  0
LINE
  8
hide
 62
   250
  5
3B
 10
-2.126736
 20
2.008677
 30
0.0
 11
-2.126736
 21
0.245592
 31
0.0
  0
LINE
  8
hide
 62
   250
  5
3C
 10
1.133289
 20
2.365676
 30
0.0
 11
1.133289
 21
2.272676
 31
0.0
  0
LINE
  8
hide
 62
   250
  5
3D
 10
1.028288
 20
2.179677
 30
0.0
 11
0.947288
 21
2.179677
 31
0.0
  0
LINE
  8
hide
 62
   250
  5
3E
 10
0.347288
 20
2.365677
 30
0.0
 11
0.347288
 21
2.272677
 31
0.0
  0
LINE
  8
hide
 62
   250
  5
3F
 10
0.347288
 20
2.008677
 30
0.0
 11
0.347288
 21
1.822677
 31
0.0
  0
LINE
  8
hide
 62
   250
  5
40
 10
1.133289
 20
1.915677
 30
0.0
 11
0.347288
 21
1.915677
 31
0.0
  0
LINE
  8
hide
 62
   250
  5
41
 10
1.133289
 20
1.822677
 30
0.0
 11
0.347288
 21
1.822677
 31
0.0
  0
LINE
  8
hide
 62
   250
  5
42
 10
-0.743736
 20
5.115677
 30
0.0
 11
-0.743736
 21
2.272676
 31
0.0
  0
LINE
  8
hide
 62
   250
  5
43
 10
-3.359736
 20
5.115677
 30
0.0
 11
-3.359736
 21
2.272676
 31
0.0
  0
LINE
  8
hide
 62
   250
  5
44
 10
1.133289
 20
2.008677
 30
0.0
 11
1.133289
 21
1.822677
 31
0.0
  0
LINE
  8
hide
 62
   250
  5
45
 10
1.028288
 20
1.729677
 30
0.0
 11
0.947288
 21
1.729677
 31
0.0
  0
LINE
  8
hide
 62
   250
  5
46
 10
0.394288
 20
2.365677
 30
0.0
 11
0.394288
 21
5.115677
 31
0.0
  0
LINE
  8
hide
 62
   250
  5
47
 10
0.394288
 20
5.115677
 30
0.0
 11
1.240288
 21
5.115677
 31
0.0
  0
LINE
  8
hide
 62
   250
  5
48
 10
-0.743736
 20
5.115677
 30
0.0
 11
-0.836736
 21
5.115677
 31
0.0
  0
LINE
  8
hide
 62
   250
  5
49
 10
-3.266737
 20
5.115677
 30
0.0
 11
-3.359736
 21
5.115677
 31
0.0
  0
LINE
  8
hide
 62
   250
  5
4A
 10
0.947288
 20
5.615677
 30
0.0
 11
1.028288
 21
5.615677
 31
0.0
  0
LINE
  8
hide
 62
   250
  5
4B
 10
-3.266737
 20
5.115677
 30
0.0
 11
-3.266737
 21
2.272676
 31
0.0
  0
ARC
  8
hide
 62
   250
  5
4C
 10
-2.766737
 20
5.115677
 30
0.0
 40
0.5
 50
90.000003
 51
179.999998
  0
LINE
  8
hide
 62
   250
  5
4D
 10
-1.336736
 20
5.615677
 30
0.0
 11
-2.766737
 21
5.615677
 31
0.0
  0
LINE
  8
hide
 62
   250
  5
4E
 10
-0.836736
 20
5.115676
 30
0.0
 11
-0.836736
 21
2.272676
 31
0.0
  0
ARC
  8
hide
 62
   250
  5
4F
 10
-1.336736
 20
5.115676
 30
0.0
 40
0.5
 50
0.000003
 51
90.000006
  0
LINE
  8
hide
 62
   250
  5
50
 10
-3.266737
 20
6.515676
 30
0.0
 11
-3.266737
 21
5.115677
 31
0.0
  0
LINE
  8
hide
 62
   250
  5
51
 10
-0.836736
 20
6.515676
 30
0.0
 11
-0.836736
 21
5.115676
 31
0.0
  0
LINE
  8
hide
 62
   250
  5
52
 10
1.061425
 20
0.9124
 30
0.0
 11
1.043427
 21
0.966062
 31
0.0
  0
ARC
  8
hide
 62
   250
  5
53
 10
1.517473
 20
1.125059
 30
0.0
 40
0.5
 50
115.000004
 51
198.541653
  0
LINE
  8
hide
 62
   250
  5
54
 10
3.747328
 20
2.256506
 30
0.0
 11
3.795114
 21
2.18714
 31
0.0
  0
LINE
  8
hide
 62
   250
  5
55
 10
1.306164
 20
1.578212
 30
0.0
 11
3.123906
 21
2.425839
 31
0.0
  0
ARC
  8
hide
 62
   250
  5
56
 10
3.335574
 20
1.972853
 30
0.0
 40
0.5
 50
34.562516
 51
115.045415
  0
LINE
  8
hide
 62
   250
  5
57
 10
0.605377
 20
0.699741
 30
0.0
 11
0.738747
 21
0.761933
 31
0.0
  0
LINE
  8
hide
 62
   250
  5
58
 10
0.928055
 20
0.850208
 30
0.0
 11
1.061425
 21
0.9124
 31
0.0
  0
LINE
  8
hide
 62
   250
  5
59
 10
0.394288
 20
2.365677
 30
0.0
 11
0.394288
 21
1.369907
 31
0.0
  0
LINE
  8
hide
 62
   250
  5
5A
 10
0.605377
 20
0.699741
 30
0.0
 11
0.407265
 21
1.290409
 31
0.0
  0
ARC
  8
hide
 62
   250
  5
5B
 10
0.644288
 20
1.369907
 30
0.0
 40
0.25
 50
180.000005
 51
198.541638
  0
LINE
  8
hide
 62
   250
  5
5C
 10
3.795114
 20
2.18714
 30
0.0
 11
3.930229
 21
2.250145
 31
0.0
  0
LINE
  8
hide
 62
   250
  5
5D
 10
4.119537
 20
2.338421
 30
0.0
 11
4.254653
 21
2.401426
 31
0.0
  0
LINE
  8
hide
 62
   250
  5
5E
 10
1.240288
 20
5.115677
 30
0.0
 11
1.240288
 21
3.111115
 31
0.0
  0
ARC
  8
hide
 62
   250
  5
5F
 10
1.490289
 20
3.111115
 30
0.0
 40
0.25
 50
180.000005
 51
273.040097
  0
LINE
  8
hide
 62
   250
  5
60
 10
1.503547
 20
2.861466
 30
0.0
 11
3.712075
 21
2.97876
 31
0.0
  0
LINE
  8
hide
 62
   250
  5
61
 10
3.931211
 20
2.870939
 30
0.0
 11
4.254653
 21
2.401426
 31
0.0
  0
ARC
  8
hide
 62
   250
  5
62
 10
3.725334
 20
2.729112
 30
0.0
 40
0.25
 50
34.562516
 51
93.040103
  0
ARC
  8
hide
 62
   250
  5
63
 10
0.833401
 20
0.806071
 30
0.0
 40
0.104439
 50
25.000019
 51
205.000024
  0
ARC
  8
hide
 62
   250
  5
64
 10
4.024883
 20
2.294283
 30
0.0
 40
0.104439
 50
25.000181
 51
205.000077
  0
LINE
  8
hide
 62
   250
  5
65
 10
1.734088
 20
2.623358
 30
0.0
 11
2.732681
 21
2.676393
 31
0.0
  0
LINE
  8
hide
 62
   250
  5
66
 10
1.734088
 20
2.623358
 30
0.0
 11
1.738384
 21
2.542472
 31
0.0
  0
LINE
  8
hide
 62
   250
  5
67
 10
2.732681
 20
2.676393
 30
0.0
 11
2.736977
 21
2.595507
 31
0.0
  0
LINE
  8
hide
 62
   250
  5
68
 10
0.947288
 20
4.865677
 30
0.0
 11
1.028288
 21
4.865677
 31
0.0
  0
LINE
  8
hide
 62
   250
  5
69
 10
0.947288
 20
4.365677
 30
0.0
 11
1.028288
 21
4.365677
 31
0.0
  0
LINE
  8
hide
 62
   250
  5
6A
 10
0.947288
 20
3.365677
 30
0.0
 11
1.028288
 21
3.365677
 31
0.0
  0
LINE
  8
hide
 62
   250
  5
6B
 10
0.947288
 20
2.865677
 30
0.0
 11
1.028288
 21
2.865677
 31
0.0
  0
LINE
  8
hide
 62
   250
  5
6C
 10
-0.743737
 20
4.865677
 30
0.0
 11
-0.836736
 21
4.865677
 31
0.0
  0
LINE
  8
hide
 62
   250
  5
6D
 10
-3.266737
 20
4.865677
 30
0.0
 11
-3.359736
 21
4.865677
 31
0.0
  0
LINE
  8
hide
 62
   250
  5
6E
 10
-0.743736
 20
4.365677
 30
0.0
 11
-0.836736
 21
4.365677
 31
0.0
  0
LINE
  8
hide
 62
   250
  5
6F
 10
-3.266737
 20
4.365677
 30
0.0
 11
-3.359737
 21
4.365677
 31
0.0
  0
LINE
  8
hide
 62
   250
  5
70
 10
-0.743736
 20
3.365677
 30
0.0
 11
-0.836736
 21
3.365677
 31
0.0
  0
LINE
  8
hide
 62
   250
  5
71
 10
-3.266737
 20
3.365677
 30
0.0
 11
-3.359737
 21
3.365677
 31
0.0
  0
LINE
  8
hide
 62
   250
  5
72
 10
-0.743737
 20
2.865677
 30
0.0
 11
-0.836736
 21
2.865677
 31
0.0
  0
LINE
  8
hide
 62
   250
  5
73
 10
-3.266737
 20
2.865677
 30
0.0
 11
-3.359737
 21
2.865677
 31
0.0
  0
LINE
  8
STANDARD
 62
     1
  5
74
 10
2.92799
 20
-5.468367
 30
0.0
 11
2.92799
 21
-5.968367
 31
0.0
  0
LINE
  8
STANDARD
 62
     1
  5
75
 10
2.833305
 20
-1.150447
 30
0.0
 11
2.833305
 21
-1.650447
 31
0.0
  0
LINE
  8
STANDARD
 62
     1
  5
76
 10
2.92799
 20
-6.968367
 30
0.0
 11
2.92799
 21
-7.468367
 31
0.0
  0
LINE
  8
STANDARD
 62
     1
  5
77
 10
2.833305
 20
-2.650447
 30
0.0
 11
2.833305
 21
-3.150447
 31
0.0
  0
LINE
  8
STANDARD
 62
     1
  5
78
 10
0.241989
 20
-5.468367
 30
0.0
 11
0.241989
 21
-5.968367
 31
0.0
  0
LINE
  8
STANDARD
 62
     1
  5
79
 10
0.147303
 20
-1.150447
 30
0.0
 11
0.147303
 21
-1.650447
 31
0.0
  0
LINE
  8
STANDARD
 62
     1
  5
7A
 10
0.241989
 20
-6.968367
 30
0.0
 11
0.241989
 21
-7.468367
 31
0.0
  0
LINE
  8
STANDARD
 62
     1
  5
7B
 10
0.147303
 20
-2.650447
 30
0.0
 11
0.147303
 21
-3.150447
 31
0.0
  0
LINE
  8
STANDARD
 62
     1
  5
7C
 10
0.334991
 20
-5.218367
 30
0.0
 11
0.334991
 21
-5.468367
 31
0.0
  0
LINE
  8
STANDARD
 62
     1
  5
7D
 10
0.240306
 20
-0.900447
 30
0.0
 11
0.240306
 21
-1.150447
 31
0.0
  0
LINE
  8
STANDARD
 62
     1
  5
7E
 10
0.334991
 20
-5.968367
 30
0.0
 11
0.334991
 21
-6.968367
 31
0.0
  0
LINE
  8
STANDARD
 62
     1
  5
7F
 10
0.240306
 20
-1.650447
 30
0.0
 11
0.240306
 21
-2.650447
 31
0.0
  0
LINE
  8
STANDARD
 62
     1
  5
80
 10
0.334991
 20
-7.468367
 30
0.0
 11
0.334991
 21
-7.968367
 31
0.0
  0
LINE
  8
STANDARD
 62
     1
  5
81
 10
0.240306
 20
-3.150447
 30
0.0
 11
0.240306
 21
-3.650447
 31
0.0
  0
ARC
  8
STANDARD
 62
     1
  5
82
 10
0.834991
 20
-5.218367
 30
0.0
 40
0.5
 50
90.000003
 51
179.999998
  0
ARC
  8
STANDARD
 62
     1
  5
83
 10
0.740306
 20
-0.900447
 30
0.0
 40
0.5
 50
90.000003
 51
179.999998
  0
LINE
  8
STANDARD
 62
     1
  5
84
 10
2.334991
 20
-4.718367
 30
0.0
 11
0.834991
 21
-4.718367
 31
0.0
  0
LINE
  8
STANDARD
 62
     1
  5
85
 10
2.240306
 20
-0.400447
 30
0.0
 11
0.740306
 21
-0.400447
 31
0.0
  0
LINE
  8
STANDARD
 62
     1
  5
86
 10
2.834991
 20
-5.218368
 30
0.0
 11
2.834991
 21
-5.468367
 31
0.0
  0
LINE
  8
STANDARD
 62
     1
  5
87
 10
2.740306
 20
-0.900448
 30
0.0
 11
2.740306
 21
-1.150447
 31
0.0
  0
LINE
  8
STANDARD
 62
     1
  5
88
 10
2.834991
 20
-5.968367
 30
0.0
 11
2.834991
 21
-6.968367
 31
0.0
  0
LINE
  8
STANDARD
 62
     1
  5
89
 10
2.740306
 20
-1.650447
 30
0.0
 11
2.740306
 21
-2.650447
 31
0.0
  0
LINE
  8
STANDARD
 62
     1
  5
8A
 10
2.834991
 20
-7.468367
 30
0.0
 11
2.834991
 21
-7.968367
 31
0.0
  0
LINE
  8
STANDARD
 62
     1
  5
8B
 10
2.740306
 20
-3.150447
 30
0.0
 11
2.740306
 21
-3.650447
 31
0.0
  0
ARC
  8
STANDARD
 62
     1
  5
8C
 10
2.334991
 20
-5.218368
 30
0.0
 40
0.5
 50
0.000003
 51
90.000006
  0
ARC
  8
STANDARD
 62
     1
  5
8D
 10
2.240306
 20
-0.900448
 30
0.0
 40
0.5
 50
0.000003
 51
90.000006
  0
LINE
  8
STANDARD
 62
     1
  5
8E
 10
2.92799
 20
-5.468367
 30
0.0
 11
2.834991
 21
-5.468367
 31
0.0
  0
LINE
  8
STANDARD
 62
     1
  5
8F
 10
2.833305
 20
-1.150447
 30
0.0
 11
2.740306
 21
-1.150447
 31
0.0
  0
LINE
  8
STANDARD
 62
     1
  5
90
 10
0.334991
 20
-5.468367
 30
0.0
 11
0.241989
 21
-5.468367
 31
0.0
  0
LINE
  8
STANDARD
 62
     1
  5
91
 10
0.240306
 20
-1.150447
 30
0.0
 11
0.147303
 21
-1.150447
 31
0.0
  0
LINE
  8
STANDARD
 62
     1
  5
92
 10
2.92799
 20
-5.968367
 30
0.0
 11
2.834991
 21
-5.968367
 31
0.0
  0
LINE
  8
STANDARD
 62
     1
  5
93
 10
2.833305
 20
-1.650447
 30
0.0
 11
2.740306
 21
-1.650447
 31
0.0
  0
LINE
  8
STANDARD
 62
     1
  5
94
 10
0.334991
 20
-5.968367
 30
0.0
 11
0.241989
 21
-5.968367
 31
0.0
  0
LINE
  8
STANDARD
 62
     1
  5
95
 10
0.240306
 20
-1.650447
 30
0.0
 11
0.147303
 21
-1.650447
 31
0.0
  0
LINE
  8
STANDARD
 62
     1
  5
96
 10
2.92799
 20
-6.968367
 30
0.0
 11
2.834991
 21
-6.968367
 31
0.0
  0
LINE
  8
STANDARD
 62
     1
  5
97
 10
2.833305
 20
-2.650447
 30
0.0
 11
2.740306
 21
-2.650447
 31
0.0
  0
LINE
  8
STANDARD
 62
     1
  5
98
 10
0.334991
 20
-6.968367
 30
0.0
 11
0.241989
 21
-6.968367
 31
0.0
  0
LINE
  8
STANDARD
 62
     1
  5
99
 10
0.240306
 20
-2.650447
 30
0.0
 11
0.147303
 21
-2.650447
 31
0.0
  0
LINE
  8
STANDARD
 62
     1
  5
9A
 10
2.92799
 20
-7.468367
 30
0.0
 11
2.834991
 21
-7.468367
 31
0.0
  0
LINE
  8
STANDARD
 62
     1
  5
9B
 10
2.833305
 20
-3.150447
 30
0.0
 11
2.740306
 21
-3.150447
 31
0.0
  0
LINE
  8
STANDARD
 62
     1
  5
9C
 10
0.334991
 20
-7.468367
 30
0.0
 11
0.241989
 21
-7.468367
 31
0.0
  0
LINE
  8
STANDARD
 62
     1
  5
9D
 10
0.240306
 20
-3.150447
 30
0.0
 11
0.147303
 21
-3.150447
 31
0.0
  0
LINE
  8
STANDARD
 62
     1
  5
9E
 10
2.834991
 20
-7.968367
 30
0.0
 11
2.084991
 21
-7.968367
 31
0.0
  0
LINE
  8
STANDARD
 62
     1
  5
9F
 10
2.740306
 20
-3.650447
 30
0.0
 11
1.990306
 21
-3.650447
 31
0.0
  0
LINE
  8
STANDARD
 62
     1
  5
A0
 10
1.084991
 20
-7.968367
 30
0.0
 11
0.334991
 21
-7.968367
 31
0.0
  0
LINE
  8
STANDARD
 62
     1
  5
A1
 10
0.990306
 20
-3.650447
 30
0.0
 11
0.240306
 21
-3.650447
 31
0.0
  0
LINE
  8
STANDARD
 62
     1
  5
A2
 10
1.084991
 20
-7.968367
 30
0.0
 11
1.084991
 21
-8.804367
 31
0.0
  0
LINE
  8
STANDARD
 62
     1
  5
A3
 10
0.990306
 20
-3.650447
 30
0.0
 11
0.990306
 21
-4.486447
 31
0.0
  0
LINE
  8
STANDARD
 62
     1
  5
A4
 10
2.084991
 20
-7.968367
 30
0.0
 11
2.084991
 21
-8.804367
 31
0.0
  0
LINE
  8
STANDARD
 62
     1
  5
A5
 10
1.990306
 20
-3.650447
 30
0.0
 11
1.990306
 21
-4.486447
 31
0.0
  0
LINE
  8
hide
 62
   250
  5
A6
 10
1.028288
 20
5.615677
 30
0.0
 11
1.028288
 21
1.729677
 31
0.0
  0
LINE
  8
hide
 62
   250
  5
A7
 10
1.738384
 20
2.542472
 30
0.0
 11
2.736977
 21
2.595507
 31
0.0
  0
LINE
  8
STANDARD
 62
     5
  5
A8
 10
2.875554
 20
-8.94477
 30
0.0
 11
3.375554
 21
-8.94477
 31
0.0
  0
LINE
  8
STANDARD
 62
     5
  5
A9
 10
4.375556
 20
-8.94477
 30
0.0
 11
4.875556
 21
-8.94477
 31
0.0
  0
LINE
  8
STANDARD
 62
     5
  5
AA
 10
5.375556
 20
-9.178269
 30
0.0
 11
5.375556
 21
-9.497769
 31
0.0
  0
LINE
  8
STANDARD
 62
     5
  5
AB
 10
5.375556
 20
-9.178269
 30
0.0
 11
5.456555
 21
-9.178269
 31
0.0
  0
LINE
  8
STANDARD
 62
     5
  5
AC
 10
5.745921
 20
-9.178269
 30
0.0
 11
5.885189
 21
-9.178269
 31
0.0
  0
LINE
  8
STANDARD
 62
     5
  5
AD
 10
5.732554
 20
-9.191636
 30
0.0
 11
5.732554
 21
-9.497769
 31
0.0
  0
LINE
  8
STANDARD
 62
     5
  5
AE
 10
6.828832
 20
-8.830634
 30
0.0
 11
6.77517
 21
-8.848632
 31
0.0
  0
ARC
  8
STANDARD
 62
     5
  5
AF
 10
6.616174
 20
-8.374583
 30
0.0
 40
0.5
 50
205.0
 51
288.541649
  0
LINE
  8
STANDARD
 62
     5
  5
B0
 10
5.484727
 20
-6.144729
 30
0.0
 11
5.554091
 21
-6.096942
 31
0.0
  0
LINE
  8
STANDARD
 62
     5
  5
B1
 10
6.16302
 20
-8.585895
 30
0.0
 11
5.315392
 21
-6.768153
 31
0.0
  0
ARC
  8
STANDARD
 62
     5
  5
B2
 10
5.768378
 20
-6.556483
 30
0.0
 40
0.5
 50
124.562515
 51
205.045414
  0
LINE
  8
STANDARD
 62
     5
  5
B3
 10
7.041492
 20
-9.286681
 30
0.0
 11
6.979299
 21
-9.153312
 31
0.0
  0
LINE
  8
STANDARD
 62
     5
  5
B4
 10
6.891023
 20
-8.964004
 30
0.0
 11
6.828832
 21
-8.830634
 31
0.0
  0
LINE
  8
STANDARD
 62
     5
  5
B5
 10
5.456555
 20
-9.497769
 30
0.0
 11
5.732554
 21
-9.497769
 31
0.0
  0
LINE
  8
STANDARD
 62
     5
  5
B6
 10
5.898555
 20
-9.497769
 30
0.0
 11
6.008554
 21
-9.497769
 31
0.0
  0
LINE
  8
STANDARD
 62
     5
  5
B7
 10
6.174555
 20
-9.497769
 30
0.0
 11
6.371325
 21
-9.497769
 31
0.0
  0
LINE
  8
STANDARD
 62
     5
  5
B8
 10
7.041492
 20
-9.286681
 30
0.0
 11
6.450824
 21
-9.484794
 31
0.0
  0
ARC
  8
STANDARD
 62
     5
  5
B9
 10
6.371325
 20
-9.247769
 30
0.0
 40
0.25
 50
270.000001
 51
288.541633
  0
LINE
  8
STANDARD
 62
     5
  5
BA
 10
5.554091
 20
-6.096942
 30
0.0
 11
5.491086
 21
-5.961829
 31
0.0
  0
LINE
  8
STANDARD
 62
     5
  5
BB
 10
5.40281
 20
-5.772521
 30
0.0
 11
5.339805
 21
-5.637404
 31
0.0
  0
ARC
  8
STANDARD
 62
     5
  5
BC
 10
4.630116
 20
-8.401771
 30
0.0
 40
0.25
 50
270.000001
 51
363.040093
  0
LINE
  8
STANDARD
 62
     5
  5
BD
 10
4.879766
 20
-8.388511
 30
0.0
 11
4.762471
 21
-6.17998
 31
0.0
  0
LINE
  8
STANDARD
 62
     5
  5
BE
 10
4.870294
 20
-5.960845
 30
0.0
 11
5.339805
 21
-5.637404
 31
0.0
  0
ARC
  8
STANDARD
 62
     5
  5
BF
 10
5.01212
 20
-6.166724
 30
0.0
 40
0.25
 50
124.562515
 51
183.040102
  0
ARC
  8
STANDARD
 62
     5
  5
C0
 10
6.935161
 20
-9.058658
 30
0.0
 40
0.104439
 50
115.000018
 51
295.000023
  0
ARC
  8
STANDARD
 62
     5
  5
C1
 10
5.446948
 20
-5.867175
 30
0.0
 40
0.104439
 50
115.000182
 51
295.000078
  0
LINE
  8
STANDARD
 62
     5
  5
C2
 10
5.117873
 20
-8.157969
 30
0.0
 11
5.064839
 21
-7.159377
 31
0.0
  0
LINE
  8
STANDARD
 62
     5
  5
C3
 10
5.117873
 20
-8.157969
 30
0.0
 11
5.19876
 21
-8.153674
 31
0.0
  0
LINE
  8
STANDARD
 62
     5
  5
C4
 10
5.064839
 20
-7.159377
 30
0.0
 11
5.145724
 21
-7.155082
 31
0.0
  0
LINE
  8
STANDARD
 62
     5
  5
C5
 10
2.875554
 20
-8.94477
 30
0.0
 11
2.875554
 21
-8.863769
 31
0.0
  0
LINE
  8
STANDARD
 62
     5
  5
C6
 10
3.375554
 20
-8.94477
 30
0.0
 11
3.375554
 21
-8.863769
 31
0.0
  0
LINE
  8
STANDARD
 62
     5
  5
C7
 10
4.375556
 20
-8.94477
 30
0.0
 11
4.375556
 21
-8.863769
 31
0.0
  0
LINE
  8
STANDARD
 62
     5
  5
C8
 10
4.875556
 20
-8.94477
 30
0.0
 11
4.875556
 21
-8.863769
 31
0.0
  0
LINE
  8
STANDARD
 62
     5
  5
C9
 10
2.875554
 20
-8.863769
 30
0.0
 11
3.375554
 21
-8.863769
 31
0.0
  0
LINE
  8
STANDARD
 62
     5
  5
CA
 10
4.375556
 20
-8.863769
 30
0.0
 11
4.875556
 21
-8.863769
 31
0.0
  0
LINE
  8
STANDARD
 62
     5
  5
CB
 10
5.19876
 20
-8.153674
 30
0.0
 11
5.145724
 21
-7.155082
 31
0.0
  0
LINE
  8
STANDARD
 62
   212
  5
CC
 10
6.022332
 20
-6.079729
 30
0.0
 11
7.158204
 21
-8.513737
 31
0.0
  0
LINE
  8
STANDARD
 62
   212
  5
CD
 10
5.349401
 20
-6.496393
 30
0.0
 11
6.406615
 21
-8.761848
 31
0.0
  0
LINE
  8
STANDARD
 62
   212
  5
CE
 10
5.690217
 20
-6.234716
 30
0.0
 11
5.729545
 21
-6.318991
 31
0.0
  0
LINE
  8
STANDARD
 62
   212
  5
CF
 10
6.786759
 20
-8.58445
 30
0.0
 11
6.826087
 21
-8.668724
 31
0.0
  0
LINE
  8
STANDARD
 62
   212
  5
D0
 10
5.987205
 20
-7.131232
 30
0.0
 11
6.329741
 21
-7.865241
 31
0.0
  0
LINE
  8
STANDARD
 62
   212
  5
D1
 10
6.186702
 20
-7.038491
 30
0.0
 11
6.529239
 21
-7.772498
 31
0.0
  0
ARC
  8
STANDARD
 62
   212
  5
D2
 10
6.086883
 20
-7.084715
 30
0.0
 40
0.11
 50
24.848259
 51
205.016901
  0
ARC
  8
STANDARD
 62
   212
  5
D3
 10
6.429421
 20
-7.818725
 30
0.0
 40
0.11
 50
205.016912
 51
384.848266
  0
LINE
  8
STANDARD
 62
   212
  5
D4
 10
3.360639
 20
-1.388876
 30
0.0
 11
4.46349
 21
-0.871916
 31
0.0
  0
LINE
  8
STANDARD
 62
   212
  5
D5
 10
4.689854
 20
-0.765808
 30
0.0
 11
5.792704
 21
-0.248848
 31
0.0
  0
LINE
  8
STANDARD
 62
   212
  5
D6
 10
3.778453
 20
-2.061095
 30
0.0
 11
6.042101
 21
-1.00001
 31
0.0
  0
LINE
  8
STANDARD
 62
   212
  5
D7
 10
3.516195
 20
-1.720727
 30
0.0
 11
3.600404
 21
-1.681255
 31
0.0
  0
LINE
  8
STANDARD
 62
   212
  5
D8
 10
5.86405
 20
-0.620171
 30
0.0
 11
5.948258
 21
-0.580699
 31
0.0
  0
LINE
  8
STANDARD
 62
   212
  5
D9
 10
4.845409
 20
-1.097659
 30
0.0
 11
4.689854
 21
-0.765808
 31
0.0
  0
LINE
  8
STANDARD
 62
   212
  5
DA
 10
4.619045
 20
-1.203767
 30
0.0
 11
4.46349
 21
-0.871916
 31
0.0
  0
ARC
  8
STANDARD
 62
   212
  5
DB
 10
4.732227
 20
-1.150712
 30
0.0
 40
0.125
 50
205.114829
 51
385.114848
  0
LINE
  8
STANDARD
 62
   212
  5
DC
 10
5.052887
 20
-5.507428
 30
0.0
 11
5.052887
 21
-2.821429
 31
0.0
  0
LINE
  8
STANDARD
 62
   212
  5
DD
 10
5.838886
 20
-5.414428
 30
0.0
 11
5.838886
 21
-4.539428
 31
0.0
  0
LINE
  8
STANDARD
 62
   212
  5
DE
 10
5.838886
 20
-3.789428
 30
0.0
 11
5.838886
 21
-2.914428
 31
0.0
  0
LINE
  8
STANDARD
 62
   212
  5
DF
 10
5.419386
 20
-5.507428
 30
0.0
 11
5.419386
 21
-5.414428
 31
0.0
  0
LINE
  8
STANDARD
 62
   212
  5
E0
 10
5.419386
 20
-2.914428
 30
0.0
 11
5.419386
 21
-2.821429
 31
0.0
  0
ARC
  8
STANDARD
 62
   212
  5
E1
 10
5.419386
 20
-4.164428
 30
0.0
 40
0.125
 50
90.000003
 51
269.999994
  0
LINE
  8
STANDARD
 62
   212
  5
E2
 10
5.419386
 20
-4.039428
 30
0.0
 11
5.652885
 21
-4.039428
 31
0.0
  0
LINE
  8
STANDARD
 62
   212
  5
E3
 10
5.419386
 20
-4.289428
 30
0.0
 11
5.652885
 21
-4.289428
 31
0.0
  0
LINE
  8
STANDARD
 62
     5
  5
E4
 10
5.456555
 20
-9.178269
 30
0.0
 11
5.456555
 21
-9.497769
 31
0.0
  0
LINE
  8
STANDARD
 62
   150
  5
E5
 10
4.519558
 20
-5.610986
 30
0.0
 11
4.519558
 21
-5.517985
 31
0.0
  0
LINE
  8
STANDARD
 62
   150
  5
E6
 10
4.519558
 20
-3.017985
 30
0.0
 11
4.519558
 21
-2.924986
 31
0.0
  0
LINE
  8
STANDARD
 62
   150
  5
E7
 10
3.519558
 20
-5.610986
 30
0.0
 11
3.519558
 21
-5.517985
 31
0.0
  0
LINE
  8
STANDARD
 62
   150
  5
E8
 10
3.519558
 20
-3.017985
 30
0.0
 11
3.519558
 21
-2.924986
 31
0.0
  0
LINE
  8
STANDARD
 62
   212
  5
E9
 10
5.835116
 20
-7.097373
 30
0.0
 11
6.258002
 21
-8.003554
 31
0.0
  0
LINE
  8
STANDARD
 62
   212
  5
EA
 10
6.178258
 20
-8.040771
 30
0.0
 11
6.258002
 21
-8.003554
 31
0.0
  0
LINE
  8
STANDARD
 62
   212
  5
EB
 10
5.755372
 20
-7.134585
 30
0.0
 11
5.835116
 21
-7.097373
 31
0.0
  0
LINE
  8
STANDARD
 62
   212
  5
EC
 10
4.378601
 20
-1.574355
 30
0.0
 11
5.284061
 21
-1.149921
 31
0.0
  0
LINE
  8
STANDARD
 62
   212
  5
ED
 10
4.412983
 20
-1.647697
 30
0.0
 11
5.318439
 21
-1.223262
 31
0.0
  0
LINE
  8
STANDARD
 62
   212
  5
EE
 10
5.318439
 20
-1.223262
 30
0.0
 11
5.284061
 21
-1.149921
 31
0.0
  0
LINE
  8
STANDARD
 62
   212
  5
EF
 10
4.412983
 20
-1.647697
 30
0.0
 11
4.378601
 21
-1.574355
 31
0.0
  0
LINE
  8
STANDARD
 62
   212
  5
F0
 10
5.652885
 20
-4.664428
 30
0.0
 11
5.652885
 21
-4.289428
 31
0.0
  0
LINE
  8
STANDARD
 62
   212
  5
F1
 10
5.652885
 20
-4.039428
 30
0.0
 11
5.652885
 21
-3.664428
 31
0.0
  0
LINE
  8
STANDARD
 62
   212
  5
F2
 10
5.733887
 20
-4.664428
 30
0.0
 11
5.733887
 21
-4.539428
 31
0.0
  0
LINE
  8
STANDARD
 62
   212
  5
F3
 10
5.733887
 20
-3.789428
 30
0.0
 11
5.733887
 21
-3.664428
 31
0.0
  0
LINE
  8
STANDARD
 62
   212
  5
F4
 10
5.733887
 20
-3.664428
 30
0.0
 11
5.652885
 21
-3.664428
 31
0.0
  0
LINE
  8
STANDARD
 62
   212
  5
F5
 10
5.733887
 20
-4.664428
 30
0.0
 11
5.652885
 21
-4.664428
 31
0.0
  0
LINE
  8
STANDARD
 62
   212
  5
F6
 10
5.838886
 20
-3.789428
 30
0.0
 11
5.733887
 21
-3.789428
 31
0.0
  0
LINE
  8
STANDARD
 62
   212
  5
F7
 10
5.838886
 20
-4.539428
 30
0.0
 11
5.733887
 21
-4.539428
 31
0.0
  0
LINE
  8
STANDARD
 62
   212
  5
F8
 10
5.755372
 20
-7.134585
 30
0.0
 11
6.178258
 21
-8.040771
 31
0.0
  0
ARC
  8
STANDARD
 62
   150
  5
F9
 10
3.551559
 20
-4.267985
 30
0.0
 40
0.07
 50
189.016729
 51
360.079227
  0
LINE
  8
STANDARD
 62
   150
  5
FA
 10
3.621559
 20
-4.267889
 30
0.0
 11
3.621559
 21
-3.931297
 31
0.0
  0
ARC
  8
STANDARD
 62
   150
  5
FB
 10
3.496559
 20
-3.931297
 30
0.0
 40
0.125
 50
0.000003
 51
83.32355
  0
LINE
  8
STANDARD
 62
   150
  5
FC
 10
3.482424
 20
-4.278956
 30
0.0
 11
3.469696
 21
-4.117527
 31
0.0
  0
ARC
  8
STANDARD
 62
   150
  5
FD
 10
3.345081
 20
-4.127352
 30
0.0
 40
0.125
 50
4.507969
 51
95.494223
  0
ARC
  8
STANDARD
 62
   150
  5
FE
 10
4.487558
 20
-4.267986
 30
0.0
 40
0.07
 50
9.016734
 51
180.079232
  0
LINE
  8
STANDARD
 62
   150
  5
FF
 10
4.417559
 20
-4.268083
 30
0.0
 11
4.417559
 21
-4.604674
 31
0.0
  0
ARC
  8
STANDARD
 62
   150
  5
100
 10
4.542559
 20
-4.604674
 30
0.0
 40
0.125
 50
180.000005
 51
263.323552
  0
LINE
  8
STANDARD
 62
   150
  5
101
 10
4.556694
 20
-4.257015
 30
0.0
 11
4.56942
 21
-4.418445
 31
0.0
  0
ARC
  8
STANDARD
 62
   150
  5
102
 10
4.694035
 20
-4.40862
 30
0.0
 40
0.125
 50
184.507971
 51
275.494225
  0
LINE
  8
STANDARD
 62
   150
  5
103
 10
3.176559
 20
-3.712375
 30
0.0
 11
3.176559
 21
-3.017985
 31
0.0
  0
LINE
  8
STANDARD
 62
   150
  5
104
 10
3.231792
 20
-3.774451
 30
0.0
 11
3.511091
 21
-3.807145
 31
0.0
  0
ARC
  8
STANDARD
 62
   150
  5
105
 10
3.239059
 20
-3.712375
 30
0.0
 40
0.0625
 50
180.000005
 51
263.323436
  0
LINE
  8
STANDARD
 62
   150
  5
106
 10
3.233074
 20
-4.012549
 30
0.0
 11
3.333115
 21
-4.002927
 31
0.0
  0
LINE
  8
STANDARD
 62
   150
  5
107
 10
3.176559
 20
-5.517985
 30
0.0
 11
3.176559
 21
-4.074763
 31
0.0
  0
ARC
  8
STANDARD
 62
   150
  5
108
 10
3.239059
 20
-4.074763
 30
0.0
 40
0.0625
 50
95.494377
 51
179.999998
  0
LINE
  8
STANDARD
 62
   150
  5
109
 10
4.806044
 20
-4.523422
 30
0.0
 11
4.706001
 21
-4.533045
 31
0.0
  0
LINE
  8
STANDARD
 62
   150
  5
10A
 10
4.862558
 20
-4.461209
 30
0.0
 11
4.862558
 21
-3.017985
 31
0.0
  0
ARC
  8
STANDARD
 62
   150
  5
10B
 10
4.80006
 20
-4.461209
 30
0.0
 40
0.0625
 50
275.494423
 51
360.000003
  0
LINE
  8
STANDARD
 62
   150
  5
10C
 10
4.807325
 20
-4.76152
 30
0.0
 11
4.528027
 21
-4.728827
 31
0.0
  0
LINE
  8
STANDARD
 62
   150
  5
10D
 10
4.862558
 20
-5.517985
 30
0.0
 11
4.862558
 21
-4.823597
 31
0.0
  0
ARC
  8
STANDARD
 62
   150
  5
10E
 10
4.800058
 20
-4.823597
 30
0.0
 40
0.0625
 50
0.000003
 51
83.323441
  0
LINE
  8
STANDARD
 62
     5
  5
10F
 10
5.375556
 20
-9.497769
 30
0.0
 11
2.750554
 21
-9.497769
 31
0.0
  0
ARC
  8
STANDARD
 62
     5
  5
110
 10
2.750554
 20
-9.372769
 30
0.0
 40
0.125
 50
180.000005
 51
270.000008
  0
LINE
  8
STANDARD
 62
     5
  5
111
 10
2.625554
 20
-9.372769
 30
0.0
 11
2.625554
 21
-8.776771
 31
0.0
  0
LINE
  8
STANDARD
 62
     5
  5
112
 10
2.750556
 20
-8.651771
 30
0.0
 11
4.630116
 21
-8.651771
 31
0.0
  0
ARC
  8
STANDARD
 62
     5
  5
113
 10
2.750556
 20
-8.776771
 30
0.0
 40
0.125
 50
90.000003
 51
180.000005
  0
LINE
  8
STANDARD
 62
     5
  5
114
 10
6.237028
 20
-4.54874
 30
0.0
 11
6.237028
 21
-4.04874
 31
0.0
  0
LINE
  8
STANDARD
 62
     5
  5
115
 10
6.237028
 20
-3.04874
 30
0.0
 11
6.237026
 21
-2.54874
 31
0.0
  0
LINE
  8
STANDARD
 62
     5
  5
116
 10
6.470528
 20
-2.04874
 30
0.0
 11
6.790028
 21
-2.04874
 31
0.0
  0
LINE
  8
STANDARD
 62
     5
  5
117
 10
6.470528
 20
-2.04874
 30
0.0
 11
6.470528
 21
-1.967741
 31
0.0
  0
LINE
  8
STANDARD
 62
     5
  5
118
 10
6.470528
 20
-1.678373
 30
0.0
 11
6.470528
 21
-1.539108
 31
0.0
  0
LINE
  8
STANDARD
 62
     5
  5
119
 10
6.483894
 20
-1.69174
 30
0.0
 11
6.790028
 21
-1.69174
 31
0.0
  0
LINE
  8
STANDARD
 62
     5
  5
11A
 10
6.12289
 20
-0.595463
 30
0.0
 11
6.140888
 21
-0.649126
 31
0.0
  0
ARC
  8
STANDARD
 62
     5
  5
11B
 10
5.666843
 20
-0.808122
 30
0.0
 40
0.5
 50
294.999996
 51
378.541645
  0
LINE
  8
STANDARD
 62
     5
  5
11C
 10
3.436989
 20
-1.939569
 30
0.0
 11
3.389202
 21
-1.870203
 31
0.0
  0
LINE
  8
STANDARD
 62
     5
  5
11D
 10
5.878151
 20
-1.261276
 30
0.0
 11
4.06041
 21
-2.108903
 31
0.0
  0
ARC
  8
STANDARD
 62
     5
  5
11E
 10
3.848742
 20
-1.655918
 30
0.0
 40
0.5
 50
214.562524
 51
295.045423
  0
LINE
  8
STANDARD
 62
     5
  5
11F
 10
6.578938
 20
-0.382804
 30
0.0
 11
6.445568
 21
-0.444997
 31
0.0
  0
LINE
  8
STANDARD
 62
     5
  5
120
 10
6.25626
 20
-0.533271
 30
0.0
 11
6.12289
 21
-0.595463
 31
0.0
  0
LINE
  8
STANDARD
 62
     5
  5
121
 10
6.790028
 20
-1.967741
 30
0.0
 11
6.790028
 21
-1.69174
 31
0.0
  0
LINE
  8
STANDARD
 62
     5
  5
122
 10
6.790028
 20
-1.525741
 30
0.0
 11
6.790028
 21
-1.41574
 31
0.0
  0
LINE
  8
STANDARD
 62
     5
  5
123
 10
6.790028
 20
-1.249741
 30
0.0
 11
6.790028
 21
-1.05297
 31
0.0
  0
LINE
  8
STANDARD
 62
     5
  5
124
 10
6.578938
 20
-0.382804
 30
0.0
 11
6.77705
 21
-0.973472
 31
0.0
  0
ARC
  8
STANDARD
 62
     5
  5
125
 10
6.540028
 20
-1.05297
 30
0.0
 40
0.25
 50
0.00001
 51
18.541643
  0
LINE
  8
STANDARD
 62
     5
  5
126
 10
3.389202
 20
-1.870203
 30
0.0
 11
3.254086
 21
-1.933209
 31
0.0
  0
LINE
  8
STANDARD
 62
     5
  5
127
 10
3.064777
 20
-2.021485
 30
0.0
 11
2.929661
 21
-2.08449
 31
0.0
  0
ARC
  8
STANDARD
 62
     5
  5
128
 10
5.694027
 20
-2.794178
 30
0.0
 40
0.25
 50
0.00001
 51
93.040102
  0
LINE
  8
STANDARD
 62
     5
  5
129
 10
5.680769
 20
-2.54453
 30
0.0
 11
3.47224
 21
-2.661825
 31
0.0
  0
LINE
  8
STANDARD
 62
     5
  5
12A
 10
3.253105
 20
-2.554002
 30
0.0
 11
2.929661
 21
-2.08449
 31
0.0
  0
ARC
  8
STANDARD
 62
     5
  5
12B
 10
3.458981
 20
-2.412176
 30
0.0
 40
0.25
 50
214.562524
 51
273.040111
  0
ARC
  8
STANDARD
 62
     5
  5
12C
 10
6.350914
 20
-0.489135
 30
0.0
 40
0.104439
 50
205.000027
 51
385.000032
  0
ARC
  8
STANDARD
 62
     5
  5
12D
 10
3.159431
 20
-1.977347
 30
0.0
 40
0.104439
 50
205.000191
 51
385.000087
  0
LINE
  8
STANDARD
 62
     5
  5
12E
 10
5.450228
 20
-2.306422
 30
0.0
 11
4.451635
 21
-2.359457
 31
0.0
  0
LINE
  8
STANDARD
 62
     5
  5
12F
 10
5.450228
 20
-2.306422
 30
0.0
 11
5.445932
 21
-2.225536
 31
0.0
  0
LINE
  8
STANDARD
 62
     5
  5
130
 10
4.451635
 20
-2.359457
 30
0.0
 11
4.44734
 21
-2.27857
 31
0.0
  0
LINE
  8
STANDARD
 62
     5
  5
131
 10
6.237028
 20
-4.54874
 30
0.0
 11
6.156029
 21
-4.54874
 31
0.0
  0
LINE
  8
STANDARD
 62
     5
  5
132
 10
6.237028
 20
-4.04874
 30
0.0
 11
6.156029
 21
-4.04874
 31
0.0
  0
LINE
  8
STANDARD
 62
     5
  5
133
 10
6.237028
 20
-3.04874
 30
0.0
 11
6.156029
 21
-3.04874
 31
0.0
  0
LINE
  8
STANDARD
 62
     5
  5
134
 10
6.237026
 20
-2.54874
 30
0.0
 11
6.156029
 21
-2.54874
 31
0.0
  0
LINE
  8
STANDARD
 62
     5
  5
135
 10
6.156029
 20
-4.54874
 30
0.0
 11
6.156029
 21
-4.04874
 31
0.0
  0
LINE
  8
STANDARD
 62
     5
  5
136
 10
6.156029
 20
-3.04874
 30
0.0
 11
6.156029
 21
-2.54874
 31
0.0
  0
LINE
  8
STANDARD
 62
     5
  5
137
 10
5.445932
 20
-2.225536
 30
0.0
 11
4.44734
 21
-2.27857
 31
0.0
  0
LINE
  8
STANDARD
 62
     5
  5
138
 10
6.470528
 20
-1.967741
 30
0.0
 11
6.790028
 21
-1.967741
 31
0.0
  0
LINE
  8
STANDARD
 62
     5
  5
139
 10
6.790028
 20
-2.04874
 30
0.0
 11
6.790028
 21
-4.67374
 31
0.0
  0
ARC
  8
STANDARD
 62
     5
  5
13A
 10
6.665028
 20
-4.67374
 30
0.0
 40
0.125
 50
270.000001
 51
360.000003
  0
LINE
  8
STANDARD
 62
     5
  5
13B
 10
6.665028
 20
-4.79874
 30
0.0
 11
6.069027
 21
-4.79874
 31
0.0
  0
LINE
  8
STANDARD
 62
     5
  5
13C
 10
5.944027
 20
-4.67374
 30
0.0
 11
5.944027
 21
-2.794178
 31
0.0
  0
ARC
  8
STANDARD
 62
     5
  5
13D
 10
6.069027
 20
-4.67374
 30
0.0
 40
0.125
 50
180.000005
 51
270.000008
  0
LINE
  8
hide
 62
   250
  5
13E
 10
-5.625
 20
-11.0
 30
0.0
 11
7.125
 21
-11.0
 31
0.0
  0
LINE
  8
hide
 62
   250
  5
13F
 10
7.125
 20
-11.0
 30
0.0
 11
7.125
 21
0.0
 31
0.0
  0
LINE
  8
hide
 62
   250
  5
140
 10
7.125
 20
0.0
 30
0.0
 11
0.0
 21
0.0
 31
0.0
  0
LINE
  8
hide
 62
   250
  5
141
 10
0.0
 20
0.0
 30
0.0
 11
0.0
 21
-5.75
 31
0.0
  0
LINE
  8
hide
 62
   250
  5
142
 10
0.0
 20
-5.75
 30
0.0
 11
3.0
 21
-5.75
 31
0.0
  0
LINE
  8
hide
 62
   250
  5
143
 10
3.0
 20
-5.75
 30
0.0
 11
3.0
 21
-7.75
 31
0.0
  0
LINE
  8
hide
 62
   250
  5
144
 10
3.0
 20
-7.75
 30
0.0
 11
-0.375
 21
-7.75
 31
0.0
  0
LINE
  8
hide
 62
   250
  5
145
 10
-0.375
 20
-7.75
 30
0.0
 11
-0.375
 21
-10.75
 31
0.0
  0
LINE
  8
hide
 62
   250
  5
146
 10
-0.375
 20
-10.75
 30
0.0
 11
-1.875
 21
-10.75
 31
0.0
  0
LINE
  8
hide
 62
   250
  5
147
 10
-1.875
 20
-10.75
 30
0.0
 11
-1.875
 21
-7.75
 31
0.0
  0
LINE
  8
hide
 62
   250
  5
148
 10
-1.875
 20
-7.75
 30
0.0
 11
-5.625
 21
-7.75
 31
0.0
  0
LINE
  8
hide
 62
   250
  5
149
 10
-5.625
 20
-11.0
 30
0.0
 11
-5.625
 21
-7.75
 31
0.0
  0
ARC
  8
engrave
 62
   250
  5
14A
 10
1.76431
 20
-5.522461
 30
0.0
 40
0.195094
 50
95.258797
 51
182.679707
  0
ARC
  8
engrave
 62
   250
  5
14B
 10
1.669625
 20
-1.204541
 30
0.0
 40
0.195094
 50
95.258797
 51
182.679707
  0
ARC
  8
engrave
 62
   250
  5
14C
 10
1.551764
 20
-5.337497
 30
0.0
 40
0.194887
 50
275.200589
 51
362.737932
  0
ARC
  8
engrave
 62
   250
  5
14D
 10
1.457079
 20
-1.019577
 30
0.0
 40
0.194887
 50
275.200589
 51
362.737932
  0
ARC
  8
engrave
 62
   250
  5
14E
 10
2.032046
 20
-5.805151
 30
0.0
 40
0.210792
 50
123.511718
 51
242.847922
  0
ARC
  8
engrave
 62
   250
  5
14F
 10
1.937361
 20
-1.487231
 30
0.0
 40
0.210792
 50
123.511718
 51
242.847922
  0
POLYLINE
  8
engrave
 62
   250
  5
150
 66
     1
 10
0.0
 20
0.0
 30
0.0
  0
VERTEX
  8
engrave
 62
   250
  5
151
 10
1.915666
 20
-5.629398
 30
0.0
  0
VERTEX
  8
engrave
 62
   250
  5
152
 10
1.870639
 20
-5.581267
 30
0.0
  0
VERTEX
  8
engrave
 62
   250
  5
153
 10
1.824061
 20
-5.553319
 30
0.0
  0
VERTEX
  8
engrave
 62
   250
  5
154
 10
1.766613
 20
-5.540898
 30
0.0
  0
VERTEX
  8
engrave
 62
   250
  5
155
 10
1.712271
 20
-5.545556
 30
0.0
  0
VERTEX
  8
engrave
 62
   250
  5
156
 10
1.648613
 20
-5.561082
 30
0.0
  0
VERTEX
  8
engrave
 62
   250
  5
157
 10
1.602035
 20
-5.579714
 30
0.0
  0
VERTEX
  8
engrave
 62
   250
  5
158
 10
1.564772
 20
-5.582819
 30
0.0
  0
VERTEX
  8
engrave
 62
   250
  5
159
 10
1.532166
 20
-5.573503
 30
0.0
  0
VERTEX
  8
engrave
 62
   250
  5
15A
 10
1.494903
 20
-5.553319
 30
0.0
  0
VERTEX
  8
engrave
 62
   250
  5
15B
 10
1.443666
 20
-5.540898
 30
0.0
  0
VERTEX
  8
engrave
 62
   250
  5
15C
 10
1.378456
 20
-5.545556
 30
0.0
  0
VERTEX
  8
engrave
 62
   250
  5
15D
 10
1.325667
 20
-5.56574
 30
0.0
  0
VERTEX
  8
engrave
 62
   250
  5
15E
 10
1.288404
 20
-5.590582
 30
0.0
  0
VERTEX
  8
engrave
 62
   250
  5
15F
 10
1.254246
 20
-5.63095
 30
0.0
  0
VERTEX
  8
engrave
 62
   250
  5
160
 10
1.226298
 20
-5.67753
 30
0.0
  0
VERTEX
  8
engrave
 62
   250
  5
161
 10
1.206114
 20
-5.725661
 30
0.0
  0
VERTEX
  8
engrave
 62
   250
  5
162
 10
1.193693
 20
-5.790872
 30
0.0
  0
VERTEX
  8
engrave
 62
   250
  5
163
 10
1.195246
 20
-5.863845
 30
0.0
  0
VERTEX
  8
engrave
 62
   250
  5
164
 10
1.206114
 20
-5.925951
 30
0.0
  0
VERTEX
  8
engrave
 62
   250
  5
165
 10
1.234061
 20
-6.011345
 30
0.0
  0
VERTEX
  8
engrave
 62
   250
  5
166
 10
1.277535
 20
-6.099844
 30
0.0
  0
VERTEX
  8
engrave
 62
   250
  5
167
 10
1.325667
 20
-6.169713
 30
0.0
  0
VERTEX
  8
engrave
 62
   250
  5
168
 10
1.367588
 20
-6.211634
 30
0.0
  0
VERTEX
  8
engrave
 62
   250
  5
169
 10
1.395535
 20
-6.231818
 30
0.0
  0
VERTEX
  8
engrave
 62
   250
  5
16A
 10
1.432798
 20
-6.244239
 30
0.0
  0
VERTEX
  8
engrave
 62
   250
  5
16B
 10
1.471614
 20
-6.242687
 30
0.0
  0
VERTEX
  8
engrave
 62
   250
  5
16C
 10
1.51043
 20
-6.225607
 30
0.0
  0
VERTEX
  8
engrave
 62
   250
  5
16D
 10
1.561666
 20
-6.208529
 30
0.0
  0
VERTEX
  8
engrave
 62
   250
  5
16E
 10
1.603587
 20
-6.205424
 30
0.0
  0
VERTEX
  8
engrave
 62
   250
  5
16F
 10
1.643956
 20
-6.211634
 30
0.0
  0
VERTEX
  8
engrave
 62
   250
  5
170
 10
1.69364
 20
-6.230266
 30
0.0
  0
VERTEX
  8
engrave
 62
   250
  5
171
 10
1.732455
 20
-6.242687
 30
0.0
  0
VERTEX
  8
engrave
 62
   250
  5
172
 10
1.796113
 20
-6.230266
 30
0.0
  0
VERTEX
  8
engrave
 62
   250
  5
173
 10
1.827166
 20
-6.203871
 30
0.0
  0
VERTEX
  8
engrave
 62
   250
  5
174
 10
1.878403
 20
-6.13866
 30
0.0
  0
VERTEX
  8
engrave
 62
   250
  5
175
 10
1.915666
 20
-6.068792
 30
0.0
  0
VERTEX
  8
engrave
 62
   250
  5
176
 10
1.931192
 20
-6.022213
 30
0.0
  0
VERTEX
  8
engrave
 62
   250
  5
177
 10
1.93585
 20
-5.992713
 30
0.0
  0
SEQEND
  8
0
  5
178
  0
POLYLINE
  8
engrave
 62
   250
  5
179
 66
     1
 10
0.0
 20
0.0
 30
0.0
  0
VERTEX
  8
engrave
 62
   250
  5
17A
 10
1.820981
 20
-1.311478
 30
0.0
  0
VERTEX
  8
engrave
 62
   250
  5
17B
 10
1.775954
 20
-1.263347
 30
0.0
  0
VERTEX
  8
engrave
 62
   250
  5
17C
 10
1.729375
 20
-1.235399
 30
0.0
  0
VERTEX
  8
engrave
 62
   250
  5
17D
 10
1.671928
 20
-1.222978
 30
0.0
  0
VERTEX
  8
engrave
 62
   250
  5
17E
 10
1.617586
 20
-1.227636
 30
0.0
  0
VERTEX
  8
engrave
 62
   250
  5
17F
 10
1.553928
 20
-1.243162
 30
0.0
  0
VERTEX
  8
engrave
 62
   250
  5
180
 10
1.507349
 20
-1.261794
 30
0.0
  0
VERTEX
  8
engrave
 62
   250
  5
181
 10
1.470086
 20
-1.264899
 30
0.0
  0
VERTEX
  8
engrave
 62
   250
  5
182
 10
1.437481
 20
-1.255584
 30
0.0
  0
VERTEX
  8
engrave
 62
   250
  5
183
 10
1.400218
 20
-1.235399
 30
0.0
  0
VERTEX
  8
engrave
 62
   250
  5
184
 10
1.348981
 20
-1.222978
 30
0.0
  0
VERTEX
  8
engrave
 62
   250
  5
185
 10
1.283771
 20
-1.227636
 30
0.0
  0
VERTEX
  8
engrave
 62
   250
  5
186
 10
1.230981
 20
-1.24782
 30
0.0
  0
VERTEX
  8
engrave
 62
   250
  5
187
 10
1.193718
 20
-1.272662
 30
0.0
  0
VERTEX
  8
engrave
 62
   250
  5
188
 10
1.15956
 20
-1.313031
 30
0.0
  0
VERTEX
  8
engrave
 62
   250
  5
189
 10
1.131613
 20
-1.35961
 30
0.0
  0
VERTEX
  8
engrave
 62
   250
  5
18A
 10
1.111429
 20
-1.407741
 30
0.0
  0
VERTEX
  8
engrave
 62
   250
  5
18B
 10
1.099008
 20
-1.472952
 30
0.0
  0
VERTEX
  8
engrave
 62
   250
  5
18C
 10
1.100561
 20
-1.545925
 30
0.0
  0
VERTEX
  8
engrave
 62
   250
  5
18D
 10
1.111429
 20
-1.60803
 30
0.0
  0
VERTEX
  8
engrave
 62
   250
  5
18E
 10
1.139376
 20
-1.693425
 30
0.0
  0
VERTEX
  8
engrave
 62
   250
  5
18F
 10
1.18285
 20
-1.781925
 30
0.0
  0
VERTEX
  8
engrave
 62
   250
  5
190
 10
1.230981
 20
-1.851793
 30
0.0
  0
VERTEX
  8
engrave
 62
   250
  5
191
 10
1.272902
 20
-1.893714
 30
0.0
  0
VERTEX
  8
engrave
 62
   250
  5
192
 10
1.30085
 20
-1.913898
 30
0.0
  0
VERTEX
  8
engrave
 62
   250
  5
193
 10
1.338113
 20
-1.926319
 30
0.0
  0
VERTEX
  8
engrave
 62
   250
  5
194
 10
1.376929
 20
-1.924767
 30
0.0
  0
VERTEX
  8
engrave
 62
   250
  5
195
 10
1.415744
 20
-1.907688
 30
0.0
  0
VERTEX
  8
engrave
 62
   250
  5
196
 10
1.466981
 20
-1.890609
 30
0.0
  0
VERTEX
  8
engrave
 62
   250
  5
197
 10
1.508902
 20
-1.887504
 30
0.0
  0
VERTEX
  8
engrave
 62
   250
  5
198
 10
1.54927
 20
-1.893714
 30
0.0
  0
VERTEX
  8
engrave
 62
   250
  5
199
 10
1.598955
 20
-1.912346
 30
0.0
  0
VERTEX
  8
engrave
 62
   250
  5
19A
 10
1.63777
 20
-1.924767
 30
0.0
  0
VERTEX
  8
engrave
 62
   250
  5
19B
 10
1.701428
 20
-1.912346
 30
0.0
  0
VERTEX
  8
engrave
 62
   250
  5
19C
 10
1.732481
 20
-1.885951
 30
0.0
  0
VERTEX
  8
engrave
 62
   250
  5
19D
 10
1.783717
 20
-1.82074
 30
0.0
  0
VERTEX
  8
engrave
 62
   250
  5
19E
 10
1.820981
 20
-1.750872
 30
0.0
  0
VERTEX
  8
engrave
 62
   250
  5
19F
 10
1.836507
 20
-1.704293
 30
0.0
  0
VERTEX
  8
engrave
 62
   250
  5
1A0
 10
1.841165
 20
-1.674793
 30
0.0
  0
SEQEND
  8
0
  5
1A1
  0
LINE
  8
STANDARD
 62
     5
  5
1A2
 10
6.483894
 20
-1.525741
 30
0.0
 11
6.790028
 21
-1.525741
 31
0.0
  0
LINE
  8
STANDARD
 62
     5
  5
1A3
 10
5.898555
 20
-9.191636
 30
0.0
 11
5.898555
 21
-9.497769
 31
0.0
  0
LINE
  8
STANDARD
 62
     5
  5
1A4
 10
6.470528
 20
-1.402373
 30
0.0
 11
6.470528
 21
-1.263108
 31
0.0
  0
LINE
  8
STANDARD
 62
     5
  5
1A5
 10
6.483894
 20
-1.41574
 30
0.0
 11
6.790028
 21
-1.41574
 31
0.0
  0
LINE
  8
STANDARD
 62
     5
  5
1A6
 10
6.483894
 20
-1.249741
 30
0.0
 11
6.790028
 21
-1.249741
 31
0.0
  0
LINE
  8
STANDARD
 62
     5
  5
1A7
 10
6.021921
 20
-9.178269
 30
0.0
 11
6.161189
 21
-9.178269
 31
0.0
  0
LINE
  8
STANDARD
 62
     5
  5
1A8
 10
6.008554
 20
-9.191636
 30
0.0
 11
6.008554
 21
-9.497769
 31
0.0
  0
LINE
  8
STANDARD
 62
     5
  5
1A9
 10
6.174555
 20
-9.191636
 30
0.0
 11
6.174555
 21
-9.497769
 31
0.0
  0
ARC
  8
STANDARD
 62
     5
  5
1AA
 10
6.470528
 20
-1.249741
 30
0.0
 40
0.013367
 50
360.00001
 51
630.000011
  0
ARC
  8
STANDARD
 62
     5
  5
1AB
 10
6.470528
 20
-1.41574
 30
0.0
 40
0.013367
 50
89.999996
 51
359.999996
  0
ARC
  8
STANDARD
 62
     5
  5
1AC
 10
6.470528
 20
-1.525741
 30
0.0
 40
0.013367
 50
0.000001
 51
270.000001
  0
ARC
  8
STANDARD
 62
     5
  5
1AD
 10
6.470528
 20
-1.69174
 30
0.0
 40
0.013367
 50
90.000003
 51
360.000003
  0
ARC
  8
STANDARD
 62
     5
  5
1AE
 10
6.174555
 20
-9.178269
 30
0.0
 40
0.013367
 50
270.000001
 51
540.000001
  0
ARC
  8
STANDARD
 62
     5
  5
1AF
 10
6.008554
 20
-9.178269
 30
0.0
 40
0.013367
 50
0.000001
 51
269.999975
  0
ARC
  8
STANDARD
 62
     5
  5
1B0
 10
5.898555
 20
-9.178269
 30
0.0
 40
0.013367
 50
270.000001
 51
540.000001
  0
ARC
  8
STANDARD
 62
     5
  5
1B1
 10
5.732554
 20
-9.178269
 30
0.0
 40
0.013367
 50
0.00001
 51
269.999983
  0
LINE
  8
STANDARD
 62
     5
  5
1B2
 10
1.990306
 20
-4.486447
 30
0.0
 11
0.990306
 21
-4.486447
 31
0.0
  0
LINE
  8
STANDARD
 62
     5
  5
1B3
 10
2.084991
 20
-8.804367
 30
0.0
 11
1.084991
 21
-8.804367
 31
0.0
  0
LINE
  8
STANDARD
 62
     6
  5
1B4
 10
3.360639
 20
-1.388876
 30
0.0
 11
3.516195
 21
-1.720727
 31
0.0
  0
LINE
  8
STANDARD
 62
     6
  5
1B5
 10
3.600404
 20
-1.681255
 30
0.0
 11
3.778453
 21
-2.061095
 31
0.0
  0
LINE
  8
STANDARD
 62
     6
  5
1B6
 10
5.86405
 20
-0.620171
 30
0.0
 11
6.042101
 21
-1.00001
 31
0.0
  0
LINE
  8
STANDARD
 62
     6
  5
1B7
 10
5.792704
 20
-0.248848
 30
0.0
 11
5.948258
 21
-0.580699
 31
0.0
  0
LINE
  8
STANDARD
 62
     6
  5
1B8
 10
5.052887
 20
-2.821429
 30
0.0
 11
5.419386
 21
-2.821429
 31
0.0
  0
LINE
  8
STANDARD
 62
     6
  5
1B9
 10
5.419386
 20
-2.914428
 30
0.0
 11
5.838886
 21
-2.914428
 31
0.0
  0
LINE
  8
STANDARD
 62
     6
  5
1BA
 10
5.419386
 20
-5.414428
 30
0.0
 11
5.838886
 21
-5.414428
 31
0.0
  0
LINE
  8
STANDARD
 62
     6
  5
1BB
 10
5.052887
 20
-5.507428
 30
0.0
 11
5.419386
 21
-5.507428
 31
0.0
  0
LINE
  8
STANDARD
 62
     6
  5
1BC
 10
5.729545
 20
-6.318991
 30
0.0
 11
5.349401
 21
-6.496393
 31
0.0
  0
LINE
  8
STANDARD
 62
     6
  5
1BD
 10
6.022332
 20
-6.079729
 30
0.0
 11
5.690217
 21
-6.234716
 31
0.0
  0
LINE
  8
STANDARD
 62
     6
  5
1BE
 10
7.158204
 20
-8.513737
 30
0.0
 11
6.826087
 21
-8.668724
 31
0.0
  0
LINE
  8
STANDARD
 62
     6
  5
1BF
 10
6.786759
 20
-8.58445
 30
0.0
 11
6.406615
 21
-8.761848
 31
0.0
  0
LINE
  8
STANDARD
 62
   150
  5
1C0
 10
3.176559
 20
-5.517985
 30
0.0
 11
3.519558
 21
-5.517985
 31
0.0
  0
LINE
  8
STANDARD
 62
   150
  5
1C1
 10
3.519558
 20
-5.610986
 30
0.0
 11
4.519558
 21
-5.610986
 31
0.0
  0
LINE
  8
STANDARD
 62
   150
  5
1C2
 10
4.862558
 20
-5.517985
 30
0.0
 11
4.519558
 21
-5.517985
 31
0.0
  0
LINE
  8
STANDARD
 62
   150
  5
1C3
 10
4.862558
 20
-3.017985
 30
0.0
 11
4.519558
 21
-3.017985
 31
0.0
  0
LINE
  8
STANDARD
 62
   150
  5
1C4
 10
3.519558
 20
-2.924986
 30
0.0
 11
4.519558
 21
-2.924986
 31
0.0
  0
LINE
  8
STANDARD
 62
   150
  5
1C5
 10
3.176559
 20
-3.017985
 30
0.0
 11
3.519558
 21
-3.017985
 31
0.0
  0
ENDSEC
  0
EOF
