  0
SECTION
  2
HEADER
  9
$ACADVER
  1
AC1024
  9
$ACADMAINTVER
 70
6
  9
$DWGCODEPAGE
  3
ansi_1252
  9
$LASTSAVEDBY
  1

  9
$INSBASE
 10
0
 20
0
 30
0
  9
$EXTMIN
 10
1E-07
 20
1E-07
 30
0
  9
$EXTMAX
 10
900.0000001
 20
600.0000001
 30
0
  9
$LIMMIN
 10
0
 20
0
  9
$LIMMAX
 10
12
 20
9
  9
$ORTHOMODE
 70
0
  9
$REGENMODE
 70
1
  9
$FILLMODE
 70
1
  9
$QTEXTMODE
 70
0
  9
$MIRRTEXT
 70
1
  9
$LTSCALE
 40
1
  9
$ATTMODE
 70
1
  9
$TEXTSIZE
 40
0.2
  9
$TRACEWID
 40
0.05
  9
$TEXTSTYLE
  7
Standard
  9
$CLAYER
  8
0
  9
$CELTYPE
  6
ByLayer
  9
$CECOLOR
 62
256
  9
$CELTSCALE
 40
1
  9
$DISPSILH
 70
0
  9
$DIMSCALE
 40
1
  9
$DIMASZ
 40
0.18
  9
$DIMEXO
 40
0.0625
  9
$DIMDLI
 40
0.38
  9
$DIMRND
 40
0
  9
$DIMDLE
 40
0
  9
$DIMEXE
 40
0.18
  9
$DIMTP
 40
0
  9
$DIMTM
 40
0
  9
$DIMTXT
 40
0.18
  9
$DIMCEN
 40
0.09
  9
$DIMTSZ
 40
0
  9
$DIMTOL
 70
0
  9
$DIMLIM
 70
0
  9
$DIMTIH
 70
1
  9
$DIMTOH
 70
1
  9
$DIMSE1
 70
0
  9
$DIMSE2
 70
0
  9
$DIMTAD
 70
0
  9
$DIMZIN
 70
0
  9
$DIMBLK
  1

  9
$DIMASO
 70
1
  9
$DIMSHO
 70
1
  9
$DIMPOST
  1

  9
$DIMAPOST
  1

  9
$DIMALT
 70
0
  9
$DIMALTD
 70
2
  9
$DIMALTF
 40
1
  9
$DIMLFAC
 40
1
  9
$DIMTOFL
 70
0
  9
$DIMTVP
 40
0
  9
$DIMTIX
 70
0
  9
$DIMSOXD
 70
0
  9
$DIMSAH
 70
0
  9
$DIMBLK1
  1

  9
$DIMBLK2
  1

  9
$DIMSTYLE
  2
Standard
  9
$DIMCLRD
 70
0
  9
$DIMCLRE
 70
0
  9
$DIMCLRT
 70
0
  9
$DIMTFAC
 40
1
  9
$DIMGAP
 40
0.09
  9
$DIMJUST
 70
0
  9
$DIMSD1
 70
0
  9
$DIMSD2
 70
0
  9
$DIMTOLJ
 70
1
  9
$DIMTZIN
 70
0
  9
$DIMALTZ
 70
0
  9
$DIMALTTZ
 70
0
  9
$DIMUPT
 70
0
  9
$DIMDEC
 70
4
  9
$DIMTDEC
 70
4
  9
$DIMALTU
 70
2
  9
$DIMALTTD
 70
0
  9
$DIMTXSTY
  7
Standard
  9
$DIMAUNIT
 70
0
  9
$DIMADEC
 70
0
  9
$DIMALTRND
 40
0
  9
$DIMAZIN
 70
0
  9
$DIMDSEP
 70
46
  9
$DIMATFIT
 70
0
  9
$DIMFRAC
 70
0
  9
$DIMLDRBLK
  1

  9
$DIMLUNIT
 70
2
  9
$DIMLWD
 70
-2
  9
$DIMLWE
 70
-2
  9
$LUNITS
 70
2
  9
$LUPREC
 70
4
  9
$SKETCHINC
 40
0.1
  9
$FILLETRAD
 40
0
  9
$AUNITS
 70
0
  9
$AUPREC
 70
0
  9
$MENU
  1
.
  9
$ELEVATION
 40
0
  9
$PELEVATION
 40
0
  9
$THICKNESS
 40
0
  9
$LIMCHECK
 70
0
  9
$CHAMFERA
 40
0.5
  9
$CHAMFERB
 40
0.5
  9
$CHAMFERC
 40
0
  9
$CHAMFERD
 40
0
  9
$SKPOLY
 70
0
  9
$TDCREATE
 40
2457306.2630874072
  9
$TDUCREATE
 40
2457306.1797540742
  9
$TDUPDATE
 40
2457306.2630874072
  9
$TDUUPDATE
 40
2457306.1797540742
  9
$TDINDWG
 40
1.1574074074074074E-08
  9
$TDUSRTIMER
 40
1.1574074074074074E-08
  9
$USRTIMER
 70
1
  9
$ANGBASE
 50
0
  9
$ANGDIR
 70
1
  9
$PDMODE
 70
0
  9
$PDSIZE
 40
0
  9
$PLINEWID
 40
0
  9
$SPLFRAME
 70
0
  9
$SPLINETYPE
 70
6
  9
$SPLINESEGS
 70
8
  9
$HANDSEED
  5
33D
  9
$SURFTAB1
 70
6
  9
$SURFTAB2
 70
6
  9
$SURFTYPE
 70
6
  9
$SURFU
 70
6
  9
$SURFV
 70
6
  9
$UCSORG
 10
0
 20
0
 30
0
  9
$UCSXDIR
 10
1
 20
0
 30
0
  9
$UCSYDIR
 10
0
 20
1
 30
0
  9
$UCSORTHOREF
  2

  9
$UCSORTHOVIEW
 70
0
  9
$UCSORGTOP
 10
0
 20
0
 30
0
  9
$UCSORGBOTTOM
 10
0
 20
0
 30
0
  9
$UCSORGLEFT
 10
0
 20
0
 30
0
  9
$UCSORGRIGHT
 10
0
 20
0
 30
0
  9
$UCSORGFRONT
 10
0
 20
0
 30
0
  9
$UCSORGBACK
 10
0
 20
0
 30
0
  9
$PUCSORG
 10
0
 20
0
 30
0
  9
$PUCSXDIR
 10
1
 20
0
 30
0
  9
$PUCSYDIR
 10
0
 20
1
 30
0
  9
$PUCSORTHOREF
  2

  9
$PUCSORTHOVIEW
 70
0
  9
$PUCSORGTOP
 10
0
 20
0
 30
0
  9
$PUCSORGBOTTOM
 10
0
 20
0
 30
0
  9
$PUCSORGLEFT
 10
0
 20
0
 30
0
  9
$PUCSORGRIGHT
 10
0
 20
0
 30
0
  9
$PUCSORGFRONT
 10
0
 20
0
 30
0
  9
$PUCSORGBACK
 10
0
 20
0
 30
0
  9
$USERI1
 70
0
  9
$USERI2
 70
0
  9
$USERI3
 70
0
  9
$USERI4
 70
0
  9
$USERI5
 70
0
  9
$USERR1
 40
0
  9
$USERR2
 40
0
  9
$USERR3
 40
0
  9
$USERR4
 40
0
  9
$USERR5
 40
0
  9
$WORLDVIEW
 70
1
  9
$SHADEDGE
 70
3
  9
$SHADEDIF
 70
70
  9
$TILEMODE
 70
1
  9
$MAXACTVP
 70
48
  9
$PINSBASE
 10
0
 20
0
 30
0
  9
$PLIMCHECK
 70
0
  9
$PEXTMIN
 10
1E+20
 20
1E+20
 30
1E+20
  9
$PEXTMAX
 10
-1E+20
 20
-1E+20
 30
-1E+20
  9
$PLIMMAX
 10
0
 20
0
  9
$PLIMMIN
 10
0
 20
0
  9
$UNITMODE
 70
0
  9
$VISRETAIN
 70
1
  9
$PLINEGEN
 70
1
  9
$PSLTSCALE
 70
1
  9
$TREEDEPTH
 70
3020
  9
$CMLSTYLE
  2
STANDARD
  9
$CMLJUST
 70
0
  9
$CMLSCALE
 40
1
  9
$PROXYGRAPHICS
 70
1
  9
$MEASUREMENT
 70
1
  9
$CELWEIGHT
370
-1
  9
$ENDCAPS
280
0
  9
$JOINSTYLE
280
0
  9
$LWDISPLAY
290
1
  9
$INSUNITS
 70
1
  9
$HYPERLINKBASE
  1

  9
$XEDIT
290
1
  9
$CEPSNTYPE
380
0
  9
$PSTYLEMODE
290
0
  9
$FINGERPRINTGUID
  2

  9
$VERSIONGUID
  2

  9
$EXTNAMES
290
1
  9
$PSVPSCALE
 40
0
  9
$CSHADOW
280
0
  9
$SHADOWPLANELOCATION
 40
0
  9
$SORTENTS
280
127
  9
$INDEXCTL
280
0
  9
$XCLIPFRAME
280
1
  9
$HALOGAP
280
0
  9
$OBSCOLOR
 70
0
  9
$OBSLTYPE
280
0
  9
$INTERSECTIONDISPLAY
280
0
  9
$INTERSECTIONCOLOR
 70
0
  9
$PROJECTNAME
  1

  9
$INTERFERECOLOR
 62
1
  0
ENDSEC
  0
SECTION
  2
CLASSES
  0
CLASS
  1
TABLESTYLE
  2
AcDbTableStyle
  3
ObjectDBX Classes
 90
4095
 91
1
280
0
281
0
  0
CLASS
  1
CELLSTYLEMAP
  2
AcDbCellStyleMap
  3
ObjectDBX Classes
 90
1152
 91
1
280
0
281
0
  0
CLASS
  1
RASTERVARIABLES
  2
AcDbRasterVariables
  3
ISM
 90
0
 91
1
280
0
281
0
  0
CLASS
  1
IMAGEDEF
  2
AcDbRasterImageDef
  3
ISM
 90
0
 91
1
280
0
281
0
  0
CLASS
  1
IMAGEDEF_REACTOR
  2
AcDbRasterImageDefReactor
  3
ISM
 90
1
 91
1
280
0
281
0
  0
CLASS
  1
IMAGE
  2
AcDbRasterImage
  3
ISM
 90
127
 91
1
280
0
281
1
  0
ENDSEC
  0
SECTION
  2
TABLES
  0
TABLE
  2
VPORT
  5
8
330
0
100
AcDbSymbolTable
 70
1
  0
VPORT
  5
32F
100
AcDbSymbolTableRecord
100
AcDbViewportTableRecord
  2
*Active
 70
64
 10
0
 20
0
 11
1
 21
1
 12
300.0000001
 22
300.00000009999997
 13
0
 23
0
 14
1
 24
1
 15
0
 25
0
 16
0
 26
0
 36
1
 17
0
 27
0
 37
0
 40
612
 41
1
 42
50
 43
0
 44
0
 50
0
 51
0
 71
0
 72
1000
 73
0
 74
1
 75
0
 76
0
 77
0
 78
0
281
0
 65
1
110
0
120
0
130
0
111
1
121
0
131
0
112
0
122
1
132
0
 79
0
146
0
 60
2
 61
5
292
1
282
1
141
0
142
0
 63
250
421
3355443
  0
ENDTAB
  0
TABLE
  2
LTYPE
  5
5
100
AcDbSymbolTable
 70
3
  0
LTYPE
  5
16
100
AcDbSymbolTableRecord
100
AcDbLinetypeTableRecord
  2
Continuous
  3
Solid line
 70
64
 72
65
 73
0
 40
0
  0
LTYPE
  5
14
100
AcDbSymbolTableRecord
100
AcDbLinetypeTableRecord
  2
ByBlock
  3

 70
64
 72
65
 73
0
 40
0
  0
LTYPE
  5
15
100
AcDbSymbolTableRecord
100
AcDbLinetypeTableRecord
  2
ByLayer
  3

 70
64
 72
65
 73
0
 40
0
  0
ENDTAB
  0
TABLE
  2
LAYER
  5
2
100
AcDbSymbolTable
 70
2
  0
LAYER
  5
10
100
AcDbSymbolTableRecord
100
AcDbLayerTableRecord
 70
64
  2
0
 62
7
  6
Continuous
370
-3
390
F
  0
LAYER
  5
27
100
AcDbSymbolTableRecord
100
AcDbLayerTableRecord
 70
64
  2
sheet
 62
22
420
10824234
  6
Continuous
370
-3
390
F
  0
ENDTAB
  0
TABLE
  2
STYLE
  5
3
100
AcDbSymbolTable
 70
1
  0
STYLE
  5
11
100
AcDbSymbolTableRecord
100
AcDbTextStyleTableRecord
  2
Standard
 70
64
 40
0
 41
1
 50
0
 71
0
 42
0.2
  3
txt.shx
  0
ENDTAB
  0
TABLE
  2
VIEW
  5
6
100
AcDbSymbolTable
 70
0
  0
ENDTAB
  0
TABLE
  2
UCS
  5
7
100
AcDbSymbolTable
 70
0
  0
ENDTAB
  0
TABLE
  2
APPID
  5
9
330
0
100
AcDbSymbolTable
 70
2
  0
APPID
  5
12
100
AcDbSymbolTableRecord
100
AcDbRegAppTableRecord
  2
ACAD
 70
64
  0
APPID
  5
33B
100
AcDbSymbolTableRecord
100
AcDbRegAppTableRecord
  2
ACAD_MLEADERVER
 70
64
  0
ENDTAB
  0
TABLE
  2
DIMSTYLE
  5
A
330
0
100
AcDbSymbolTable
 70
1
100
AcDbDimStyleTable
 71
0
  0
DIMSTYLE
105
32E
100
AcDbSymbolTableRecord
100
AcDbDimStyleTableRecord
  2
Standard
 70
64
  3

  4

 40
1
 41
0.18
 42
0.0625
 43
0.38
 44
0.18
 45
0
 46
0
 47
0
 48
0
140
0.18
141
0.09
142
0
143
1
144
1
145
0
146
1
147
0.09
148
0
 71
0
 72
0
 73
1
 74
1
 75
0
 76
0
 77
0
 78
0
 79
0
170
0
171
2
172
0
173
0
174
0
175
0
179
0
271
4
272
4
273
2
274
0
275
0
276
0
277
2
278
46
279
0
280
0
281
0
282
0
283
1
284
0
285
0
286
0
288
0
289
0
340
11
371
-2
372
-2
  0
ENDTAB
  0
TABLE
  2
BLOCK_RECORD
  5
1
330
0
100
AcDbSymbolTable
 70
3
  0
BLOCK_RECORD
  5
1F
330
1
100
AcDbSymbolTableRecord
100
AcDbBlockTableRecord
  2
*Model_Space
340
22
  0
BLOCK_RECORD
  5
32B
330
1
100
AcDbSymbolTableRecord
100
AcDbBlockTableRecord
  2
*Paper_Space
340
1E
  0
ENDTAB
  0
ENDSEC
  0
SECTION
  2
BLOCKS
  0
BLOCK
  5
20
330
1F
100
AcDbEntity
  8
0
100
AcDbBlockBegin
  2
*Model_Space
 70
64
 10
0
 20
0
 30
0
  3
*Model_Space
  0
ENDBLK
  5
21
330
1F
100
AcDbEntity
  8
0
100
AcDbBlockEnd
  0
BLOCK
  5
32C
330
32B
100
AcDbEntity
  8
0
 67
1
100
AcDbBlockBegin
  2
*Paper_Space
 70
64
 10
0
 20
0
 30
0
  3
*Paper_Space
  0
ENDBLK
  5
32D
330
32B
100
AcDbEntity
  8
0
100
AcDbBlockEnd
  0
ENDSEC
  0
SECTION
  2
ENTITIES
  0
POLYLINE
  5
28
330
1F
100
AcDbEntity
  8
sheet
 62
22
420
11674146
100
AcDb2dPolyline
 66
1
 70
1
 10
0
 20
0
 30
0
  0
VERTEX
  5
2A
330
28
100
AcDbEntity
  8
sheet
 62
22
420
11674146
100
AcDbVertex
100
AcDb2dVertex
 10
1E-07
 20
1E-07
 70
0
  0
VERTEX
  5
2B
330
28
100
AcDbEntity
  8
sheet
 62
22
420
11674146
100
AcDbVertex
100
AcDb2dVertex
 10
900.0000001
 20
1E-07
 70
0
  0
VERTEX
  5
2C
330
28
100
AcDbEntity
  8
sheet
 62
22
420
11674146
100
AcDbVertex
100
AcDb2dVertex
 10
900.0000001
 20
600.0000001
 70
0
  0
VERTEX
  5
2D
330
28
100
AcDbEntity
  8
sheet
 62
22
420
11674146
100
AcDbVertex
100
AcDb2dVertex
 10
1E-07
 20
600.0000001
 70
0
  0
SEQEND
  5
29
100
AcDbEntity
  8
0
  0
POLYLINE
  5
2E
330
1F
100
AcDbEntity
  8
0
 62
7
100
AcDb2dPolyline
 66
1
 70
1
 10
0
 20
0
 30
0
  0
VERTEX
  5
30
330
2E
100
AcDbEntity
  8
0
 62
7
100
AcDbVertex
100
AcDb2dVertex
 10
33.8029584504078
 20
293.20392221114639
 70
0
  0
VERTEX
  5
31
330
2E
100
AcDbEntity
  8
0
 62
7
100
AcDbVertex
100
AcDb2dVertex
 10
22.6982462326078
 20
297.84771095674637
 42
0.037186704460308521
 70
0
  0
VERTEX
  5
32
330
2E
100
AcDbEntity
  8
0
 62
7
100
AcDbVertex
100
AcDb2dVertex
 10
10.014418084749401
 20
259.79517782346238
 42
0.20403580124343571
 70
0
  0
VERTEX
  5
33
330
2E
100
AcDbEntity
  8
0
 62
7
100
AcDbVertex
100
AcDb2dVertex
 10
46.0990463386246
 20
29.074931443441358
 42
0.27322327722214623
 70
0
  0
VERTEX
  5
34
330
2E
100
AcDbEntity
  8
0
 62
7
100
AcDbVertex
100
AcDb2dVertex
 10
100.23116563283931
 20
0.91519671768736544
 42
-0.026108437335201705
 70
0
  0
VERTEX
  5
35
330
2E
100
AcDbEntity
  8
0
 62
7
100
AcDbVertex
100
AcDb2dVertex
 10
627.13160979008376
 20
1.7279885635053915
 42
0.31630142190099203
 70
0
  0
VERTEX
  5
36
330
2E
100
AcDbEntity
  8
0
 62
7
100
AcDbVertex
100
AcDb2dVertex
 10
668.50416023410162
 20
27.783419646982395
 70
0
  0
VERTEX
  5
37
330
2E
100
AcDbEntity
  8
0
 62
7
100
AcDbVertex
100
AcDb2dVertex
 10
656.97220067380772
 20
32.60587546314639
 70
0
  0
VERTEX
  5
38
330
2E
100
AcDbEntity
  8
0
 62
7
100
AcDbVertex
100
AcDb2dVertex
 10
654.65736389110771
 20
27.070396200246364
 70
0
  0
VERTEX
  5
39
330
2E
100
AcDbEntity
  8
0
 62
7
100
AcDbVertex
100
AcDb2dVertex
 10
643.12540433080767
 20
31.892852016446341
 42
-0.22763470232217131
 70
0
  0
VERTEX
  5
3A
330
2E
100
AcDbEntity
  8
0
 62
7
100
AcDbVertex
100
AcDb2dVertex
 10
628.3469879299048
 20
25.697194974551394
 70
0
  0
VERTEX
  5
3B
330
2E
100
AcDbEntity
  8
0
 62
7
100
AcDbVertex
100
AcDb2dVertex
 10
607.35919565110771
 20
26.71782249704637
 70
0
  0
VERTEX
  5
3C
330
2E
100
AcDbEntity
  8
0
 62
7
100
AcDbVertex
100
AcDb2dVertex
 10
602.42995345760778
 20
14.930504208246362
 70
0
  0
VERTEX
  5
3D
330
2E
100
AcDbEntity
  8
0
 62
7
100
AcDbVertex
100
AcDb2dVertex
 10
596.89447419470775
 20
17.245340990846387
 70
0
  0
VERTEX
  5
3E
330
2E
100
AcDbEntity
  8
0
 62
7
100
AcDbVertex
100
AcDb2dVertex
 10
600.97823425330762
 20
27.010854174346377
 42
0.0028398570373277944
 70
0
  0
VERTEX
  5
3F
330
2E
100
AcDbEntity
  8
0
 62
7
100
AcDbVertex
100
AcDb2dVertex
 10
543.40025517700974
 20
29.291054161510374
 70
0
  0
VERTEX
  5
40
330
2E
100
AcDbEntity
  8
0
 62
7
100
AcDbVertex
100
AcDb2dVertex
 10
538.44771297370789
 20
17.448018468046371
 70
0
  0
VERTEX
  5
41
330
2E
100
AcDbEntity
  8
0
 62
7
100
AcDbVertex
100
AcDb2dVertex
 10
532.9122337109078
 20
19.762855250746384
 70
0
  0
VERTEX
  5
42
330
2E
100
AcDbEntity
  8
0
 62
7
100
AcDbVertex
100
AcDb2dVertex
 10
536.9860240968078
 20
29.504527912746369
 42
0.0030654096159129711
 70
0
  0
VERTEX
  5
43
330
2E
100
AcDbEntity
  8
0
 62
7
100
AcDbVertex
100
AcDb2dVertex
 10
474.80818980503977
 20
31.152975735473376
 70
0
  0
VERTEX
  5
44
330
2E
100
AcDbEntity
  8
0
 62
7
100
AcDbVertex
100
AcDb2dVertex
 10
469.82953461140778
 20
19.247495930246373
 70
0
  0
VERTEX
  5
45
330
2E
100
AcDbEntity
  8
0
 62
7
100
AcDbVertex
100
AcDb2dVertex
 10
464.29405534850781
 20
21.562332712946386
 70
0
  0
VERTEX
  5
46
330
2E
100
AcDbEntity
  8
0
 62
7
100
AcDbVertex
100
AcDb2dVertex
 10
468.35793812200779
 20
31.280313258346382
 42
0.0032950041138633058
 70
0
  0
VERTEX
  5
47
330
2E
100
AcDbEntity
  8
0
 62
7
100
AcDbVertex
100
AcDb2dVertex
 10
401.50492656905482
 20
32.116890978710387
 70
0
  0
VERTEX
  5
48
330
2E
100
AcDbEntity
  8
0
 62
7
100
AcDbVertex
100
AcDb2dVertex
 10
396.49704216370782
 20
20.14151523084638
 70
0
  0
VERTEX
  5
49
330
2E
100
AcDbEntity
  8
0
 62
7
100
AcDbVertex
100
AcDb2dVertex
 10
390.96156290080779
 20
22.456352013546393
 70
0
  0
VERTEX
  5
4A
330
2E
100
AcDbEntity
  8
0
 62
7
100
AcDbVertex
100
AcDb2dVertex
 10
395.01576217080782
 20
32.151176354646395
 42
0.0035292437829306119
 70
0
  0
VERTEX
  5
4B
330
2E
100
AcDbEntity
  8
0
 62
7
100
AcDbVertex
100
AcDb2dVertex
 10
323.40493113582181
 20
31.978261267373341
 70
0
  0
VERTEX
  5
4C
330
2E
100
AcDbEntity
  8
0
 62
7
100
AcDbVertex
100
AcDb2dVertex
 10
318.36435460800777
 20
19.924708706546369
 70
0
  0
VERTEX
  5
4D
330
2E
100
AcDbEntity
  8
0
 62
7
100
AcDbVertex
100
AcDb2dVertex
 10
312.8288753451078
 20
22.239545489246382
 70
0
  0
VERTEX
  5
4E
330
2E
100
AcDbEntity
  8
0
 62
7
100
AcDbVertex
100
AcDb2dVertex
 10
316.87379702690782
 20
31.912184293646362
 42
0.003768821664082028
 70
0
  0
VERTEX
  5
4F
330
2E
100
AcDbEntity
  8
0
 62
7
100
AcDbVertex
100
AcDb2dVertex
 10
240.41447565915979
 20
30.512954812521343
 70
0
  0
VERTEX
  5
50
330
2E
100
AcDbEntity
  8
0
 62
7
100
AcDbVertex
100
AcDb2dVertex
 10
235.3373462588078
 20
18.371993196846347
 70
0
  0
VERTEX
  5
51
330
2E
100
AcDbEntity
  8
0
 62
7
100
AcDbVertex
100
AcDb2dVertex
 10
229.8018669959078
 20
20.68682997954636
 70
0
  0
VERTEX
  5
52
330
2E
100
AcDbEntity
  8
0
 62
7
100
AcDbVertex
100
AcDb2dVertex
 10
233.83812190640779
 20
30.338743895846392
 42
0.004014537271856836
 70
0
  0
VERTEX
  5
53
330
2E
100
AcDbEntity
  8
0
 62
7
100
AcDbVertex
100
AcDb2dVertex
 10
152.4307563753878
 20
27.475136499099392
 70
0
  0
VERTEX
  5
54
330
2E
100
AcDbEntity
  8
0
 62
7
100
AcDbVertex
100
AcDb2dVertex
 10
147.3127547136078
 20
15.236436869346392
 70
0
  0
VERTEX
  5
55
330
2E
100
AcDbEntity
  8
0
 62
7
100
AcDbVertex
100
AcDb2dVertex
 10
141.77727545080779
 20
17.55127365194636
 70
0
  0
VERTEX
  5
56
330
2E
100
AcDbEntity
  8
0
 62
7
100
AcDbVertex
100
AcDb2dVertex
 10
145.8057066407078
 20
27.184478671346369
 70
0
  0
VERTEX
  5
57
330
2E
100
AcDbEntity
  8
0
 62
7
100
AcDbVertex
100
AcDb2dVertex
 10
98.9418440964078
 20
24.880539401946351
 42
-0.2155623183833493
 70
0
  0
VERTEX
  5
58
330
2E
100
AcDbEntity
  8
0
 62
7
100
AcDbVertex
100
AcDb2dVertex
 10
71.2960017467442
 20
35.631326338393364
 70
0
  0
VERTEX
  5
59
330
2E
100
AcDbEntity
  8
0
 62
7
100
AcDbVertex
100
AcDb2dVertex
 10
67.4052808380078
 20
26.327428513146344
 70
0
  0
VERTEX
  5
5A
330
2E
100
AcDbEntity
  8
0
 62
7
100
AcDbVertex
100
AcDb2dVertex
 10
61.8698015751078
 20
28.64226529574637
 70
0
  0
VERTEX
  5
5B
330
2E
100
AcDbEntity
  8
0
 62
7
100
AcDbVertex
100
AcDb2dVertex
 10
67.0078293862078
 20
40.928853539546367
 42
-0.0069987668754355479
 70
0
  0
VERTEX
  5
5C
330
2E
100
AcDbEntity
  8
0
 62
7
100
AcDbVertex
100
AcDb2dVertex
 10
66.4625725198898
 20
41.776380237405363
 42
-0.11247244376887024
 70
0
  0
VERTEX
  5
5D
330
2E
100
AcDbEntity
  8
0
 62
7
100
AcDbVertex
100
AcDb2dVertex
 10
26.586208608241581
 20
156.81043898111736
 70
0
  0
VERTEX
  5
5E
330
2E
100
AcDbEntity
  8
0
 62
7
100
AcDbVertex
100
AcDb2dVertex
 10
21.8749673170078
 20
145.54442719754636
 70
0
  0
VERTEX
  5
5F
330
2E
100
AcDbEntity
  8
0
 62
7
100
AcDbVertex
100
AcDb2dVertex
 10
16.3394880541078
 20
147.85926398014638
 70
0
  0
VERTEX
  5
60
330
2E
100
AcDbEntity
  8
0
 62
7
100
AcDbVertex
100
AcDb2dVertex
 10
25.4738429973078
 20
169.70228667034638
 42
-0.077621158006639754
 70
0
  0
VERTEX
  5
61
330
2E
100
AcDbEntity
  8
0
 62
7
100
AcDbVertex
100
AcDb2dVertex
 10
33.28365719101
 20
253.91789006347557
 42
-0.031082183420292828
 70
0
  0
VERTEX
  5
62
330
2E
100
AcDbEntity
  8
0
 62
7
100
AcDbVertex
100
AcDb2dVertex
 10
42.592833885511396
 20
283.02465420274484
 70
0
  0
VERTEX
  5
63
330
2E
100
AcDbEntity
  8
0
 62
7
100
AcDbVertex
100
AcDb2dVertex
 10
31.4881216677078
 20
287.66844294824637
 70
0
  0
SEQEND
  5
2F
100
AcDbEntity
  8
0
  0
POLYLINE
  5
64
330
1F
100
AcDbEntity
  8
0
 62
7
100
AcDb2dPolyline
 66
1
 70
1
 10
0
 20
0
 30
0
  0
VERTEX
  5
66
330
64
100
AcDbEntity
  8
0
 62
7
100
AcDbVertex
100
AcDb2dVertex
 10
95.530099968543936
 20
212.37076069930151
 70
0
  0
VERTEX
  5
67
330
64
100
AcDbEntity
  8
0
 62
7
100
AcDbVertex
100
AcDb2dVertex
 10
92.33795582424392
 20
217.4511362525015
 70
0
  0
VERTEX
  5
68
330
64
100
AcDbEntity
  8
0
 62
7
100
AcDbVertex
100
AcDb2dVertex
 10
82.173910110243924
 20
211.06477786850149
 42
-0.15397435780034618
 70
0
  0
VERTEX
  5
69
330
64
100
AcDbEntity
  8
0
 62
7
100
AcDbVertex
100
AcDb2dVertex
 10
1.9785510694818811
 20
532.44291224746939
 42
-0.46394877443697652
 70
0
  0
VERTEX
  5
6A
330
64
100
AcDbEntity
  8
0
 62
7
100
AcDbVertex
100
AcDb2dVertex
 10
87.6556105308139
 20
596.36690365380389
 42
0.11502923173153945
 70
0
  0
VERTEX
  5
6B
330
64
100
AcDbEntity
  8
0
 62
7
100
AcDbVertex
100
AcDb2dVertex
 10
632.5851214841839
 20
597.058274770362
 42
-0.28154777642092815
 70
0
  0
VERTEX
  5
6C
330
64
100
AcDbEntity
  8
0
 62
7
100
AcDbVertex
100
AcDb2dVertex
 10
674.49448922170393
 20
583.23660815382891
 70
0
  0
VERTEX
  5
6D
330
64
100
AcDbEntity
  8
0
 62
7
100
AcDbVertex
100
AcDb2dVertex
 10
664.27285673664392
 20
576.81406636710153
 70
0
  0
VERTEX
  5
6E
330
64
100
AcDbEntity
  8
0
 62
7
100
AcDbVertex
100
AcDb2dVertex
 10
667.465000880944
 20
571.7336908139016
 70
0
  0
VERTEX
  5
6F
330
64
100
AcDbEntity
  8
0
 62
7
100
AcDbVertex
100
AcDb2dVertex
 10
657.7273492524439
 20
565.61524793500155
 42
0.32036268881732277
 70
0
  0
VERTEX
  5
70
330
64
100
AcDbEntity
  8
0
 62
7
100
AcDbVertex
100
AcDb2dVertex
 10
638.06407092897291
 20
573.69203602769312
 42
-0.0042555019636016786
 70
0
  0
VERTEX
  5
71
330
64
100
AcDbEntity
  8
0
 62
7
100
AcDbVertex
100
AcDb2dVertex
 10
617.739937391831
 20
569.10853305925627
 70
0
  0
VERTEX
  5
72
330
64
100
AcDbEntity
  8
0
 62
7
100
AcDbVertex
100
AcDb2dVertex
 10
610.94036966424392
 20
579.93021155910151
 70
0
  0
VERTEX
  5
73
330
64
100
AcDbEntity
  8
0
 62
7
100
AcDbVertex
100
AcDb2dVertex
 10
605.85999411104387
 20
576.73806741470162
 70
0
  0
VERTEX
  5
74
330
64
100
AcDbEntity
  8
0
 62
7
100
AcDbVertex
100
AcDb2dVertex
 10
611.493252717144
 20
567.77259843430159
 42
-0.011862422703787196
 70
0
  0
VERTEX
  5
75
330
64
100
AcDbEntity
  8
0
 62
7
100
AcDbVertex
100
AcDb2dVertex
 10
554.40703091450882
 20
557.12754207417618
 70
0
  0
VERTEX
  5
76
330
64
100
AcDbEntity
  8
0
 62
7
100
AcDbVertex
100
AcDb2dVertex
 10
547.46207240484387
 20
568.18061356250155
 70
0
  0
VERTEX
  5
77
330
64
100
AcDbEntity
  8
0
 62
7
100
AcDbVertex
100
AcDb2dVertex
 10
542.38169685164394
 20
564.98846941810154
 70
0
  0
VERTEX
  5
78
330
64
100
AcDbEntity
  8
0
 62
7
100
AcDbVertex
100
AcDb2dVertex
 10
547.96565498564382
 20
556.10146334600154
 42
-0.01304570345989578
 70
0
  0
VERTEX
  5
79
330
64
100
AcDbEntity
  8
0
 62
7
100
AcDbVertex
100
AcDb2dVertex
 10
484.63713173380194
 20
547.87272508502224
 70
0
  0
VERTEX
  5
7A
330
64
100
AcDbEntity
  8
0
 62
7
100
AcDbVertex
100
AcDb2dVertex
 10
477.50236810754387
 20
559.22787606540157
 70
0
  0
VERTEX
  5
7B
330
64
100
AcDbEntity
  8
0
 62
7
100
AcDbVertex
100
AcDb2dVertex
 10
472.4219925542439
 20
556.03573192110161
 70
0
  0
VERTEX
  5
7C
330
64
100
AcDbEntity
  8
0
 62
7
100
AcDbVertex
100
AcDb2dVertex
 10
477.97281870074386
 20
547.20145621820154
 42
-0.014371104101381805
 70
0
  0
VERTEX
  5
7D
330
64
100
AcDbEntity
  8
0
 62
7
100
AcDbVertex
100
AcDb2dVertex
 10
407.79338309678286
 20
542.3576552108575
 70
0
  0
VERTEX
  5
7E
330
64
100
AcDbEntity
  8
0
 62
7
100
AcDbVertex
100
AcDb2dVertex
 10
400.4088462939439
 20
554.1103263159016
 70
0
  0
VERTEX
  5
7F
330
64
100
AcDbEntity
  8
0
 62
7
100
AcDbVertex
100
AcDb2dVertex
 10
395.32847074064392
 20
550.91818217160153
 70
0
  0
VERTEX
  5
80
330
64
100
AcDbEntity
  8
0
 62
7
100
AcDbVertex
100
AcDb2dVertex
 10
400.86980978814387
 20
542.09900541890158
 42
-0.015897479051691785
 70
0
  0
VERTEX
  5
81
330
64
100
AcDbEntity
  8
0
 62
7
100
AcDbVertex
100
AcDb2dVertex
 10
323.05570579077192
 20
541.88750859297943
 70
0
  0
VERTEX
  5
82
330
64
100
AcDbEntity
  8
0
 62
7
100
AcDbVertex
100
AcDb2dVertex
 10
315.33740408594389
 20
554.1713747090015
 70
0
  0
VERTEX
  5
83
330
64
100
AcDbEntity
  8
0
 62
7
100
AcDbVertex
100
AcDb2dVertex
 10
310.2570285327439
 20
550.97923056470154
 70
0
  0
VERTEX
  5
84
330
64
100
AcDbEntity
  8
0
 62
7
100
AcDbVertex
100
AcDb2dVertex
 10
315.82402576654391
 20
542.11921818030157
 42
-0.017717929069644523
 70
0
  0
VERTEX
  5
85
330
64
100
AcDbEntity
  8
0
 62
7
100
AcDbVertex
100
AcDb2dVertex
 10
229.31918651222588
 20
548.22078180130734
 70
0
  0
VERTEX
  5
86
330
64
100
AcDbEntity
  8
0
 62
7
100
AcDbVertex
100
AcDb2dVertex
 10
221.1434401092439
 20
561.23268235350156
 70
0
  0
VERTEX
  5
87
330
64
100
AcDbEntity
  8
0
 62
7
100
AcDbVertex
100
AcDb2dVertex
 10
216.06306455604391
 20
558.04053820920149
 70
0
  0
VERTEX
  5
88
330
64
100
AcDbEntity
  8
0
 62
7
100
AcDbVertex
100
AcDb2dVertex
 10
221.70999834864392
 20
549.05330483450143
 42
-0.019991105054084388
 70
0
  0
VERTEX
  5
89
330
64
100
AcDbEntity
  8
0
 62
7
100
AcDbVertex
100
AcDb2dVertex
 10
125.00188426438589
 20
563.8751726604894
 70
0
  0
VERTEX
  5
8A
330
64
100
AcDbEntity
  8
0
 62
7
100
AcDbVertex
100
AcDb2dVertex
 10
116.17333173854391
 20
577.92603013980147
 70
0
  0
VERTEX
  5
8B
330
64
100
AcDbEntity
  8
0
 62
7
100
AcDbVertex
100
AcDb2dVertex
 10
111.09295618534389
 20
574.73388599550151
 70
0
  0
VERTEX
  5
8C
330
64
100
AcDbEntity
  8
0
 62
7
100
AcDbVertex
100
AcDb2dVertex
 10
116.90922895754389
 20
565.47714548920158
 42
-0.0072465367788740586
 70
0
  0
VERTEX
  5
8D
330
64
100
AcDbEntity
  8
0
 62
7
100
AcDbVertex
100
AcDb2dVertex
 10
82.235969757676884
 20
572.986837488585
 42
0.281615875731197
 70
0
  0
VERTEX
  5
8E
330
64
100
AcDbEntity
  8
0
 62
7
100
AcDbVertex
100
AcDb2dVertex
 10
36.681990586665904
 20
557.82852488377694
 70
0
  0
VERTEX
  5
8F
330
64
100
AcDbEntity
  8
0
 62
7
100
AcDbVertex
100
AcDb2dVertex
 10
31.130037795543927
 20
566.66459366920151
 70
0
  0
VERTEX
  5
90
330
64
100
AcDbEntity
  8
0
 62
7
100
AcDbVertex
100
AcDb2dVertex
 10
26.049662242343885
 20
563.47244952490155
 70
0
  0
VERTEX
  5
91
330
64
100
AcDbEntity
  8
0
 62
7
100
AcDbVertex
100
AcDb2dVertex
 10
32.874841226043856
 20
552.61001008380151
 42
0.12540193495517435
 70
0
  0
VERTEX
  5
92
330
64
100
AcDbEntity
  8
0
 62
7
100
AcDbVertex
100
AcDb2dVertex
 10
25.9339021106629
 20
530.97964313621139
 42
0.0652604255266139
 70
0
  0
VERTEX
  5
93
330
64
100
AcDbEntity
  8
0
 62
7
100
AcDbVertex
100
AcDb2dVertex
 10
35.415317184002873
 20
394.43840218592948
 70
0
  0
VERTEX
  5
94
330
64
100
AcDbEntity
  8
0
 62
7
100
AcDbVertex
100
AcDb2dVertex
 10
27.249171015943858
 20
407.43502372960148
 70
0
  0
VERTEX
  5
95
330
64
100
AcDbEntity
  8
0
 62
7
100
AcDbVertex
100
AcDb2dVertex
 10
22.16879546274393
 20
404.24287958530152
 70
0
  0
VERTEX
  5
96
330
64
100
AcDbEntity
  8
0
 62
7
100
AcDbVertex
100
AcDb2dVertex
 10
39.232821268643931
 20
377.08506476740149
 42
0.0820782107675044
 70
0
  0
VERTEX
  5
97
330
64
100
AcDbEntity
  8
0
 62
7
100
AcDbVertex
100
AcDb2dVertex
 10
105.65987246882693
 20
218.73558425071451
 70
0
  0
SEQEND
  5
65
100
AcDbEntity
  8
0
  0
CIRCLE
  5
98
330
1F
100
AcDbEntity
  8
0
 62
7
100
AcDbCircle
 10
661.080712592344
 20
581.89444192030157
 30
0
 40
1.99999999999995
  0
CIRCLE
  5
99
330
1F
100
AcDbEntity
  8
0
 62
7
100
AcDbCircle
 10
89.172412881143913
 20
222.4891753428015
 30
0
 40
2.00000000000002
  0
POLYLINE
  5
9A
330
1F
100
AcDbEntity
  8
0
 62
7
100
AcDb2dPolyline
 66
1
 70
1
 10
0
 20
0
 30
0
  0
VERTEX
  5
9C
330
9A
100
AcDbEntity
  8
0
 62
7
100
AcDbVertex
100
AcDb2dVertex
 10
138.15122149297122
 20
184.44657763157329
 70
0
  0
VERTEX
  5
9D
330
9A
100
AcDbEntity
  8
0
 62
7
100
AcDbVertex
100
AcDb2dVertex
 10
202.49279164208127
 20
183.12105078942929
 70
0
  0
VERTEX
  5
9E
330
9A
100
AcDbEntity
  8
0
 62
7
100
AcDbVertex
100
AcDb2dVertex
 10
207.99205636440524
 20
171.05246733953729
 70
0
  0
VERTEX
  5
9F
330
9A
100
AcDbEntity
  8
0
 62
7
100
AcDbVertex
100
AcDb2dVertex
 10
213.45194444270527
 20
173.54036246833729
 70
0
  0
VERTEX
  5
A0
330
9A
100
AcDbEntity
  8
0
 62
7
100
AcDbVertex
100
AcDb2dVertex
 10
209.14996867690525
 20
182.9813979545373
 70
0
  0
VERTEX
  5
A1
330
9A
100
AcDbEntity
  8
0
 62
7
100
AcDbVertex
100
AcDb2dVertex
 10
277.89881976891428
 20
181.6304437420583
 70
0
  0
VERTEX
  5
A2
330
9A
100
AcDbEntity
  8
0
 62
7
100
AcDbVertex
100
AcDb2dVertex
 10
283.23183063660525
 20
169.92671789273732
 70
0
  0
VERTEX
  5
A3
330
9A
100
AcDbEntity
  8
0
 62
7
100
AcDbVertex
100
AcDb2dVertex
 10
288.69171871490528
 20
172.41461302163731
 70
0
  0
VERTEX
  5
A4
330
9A
100
AcDbEntity
  8
0
 62
7
100
AcDbVertex
100
AcDb2dVertex
 10
284.54809870860527
 20
181.50812392213729
 70
0
  0
VERTEX
  5
A5
330
9A
100
AcDbEntity
  8
0
 62
7
100
AcDbVertex
100
AcDb2dVertex
 10
357.66278231312725
 20
180.2227039558253
 70
0
  0
VERTEX
  5
A6
330
9A
100
AcDbEntity
  8
0
 62
7
100
AcDbVertex
100
AcDb2dVertex
 10
362.94692263350527
 20
168.6262288089373
 70
0
  0
VERTEX
  5
A7
330
9A
100
AcDbEntity
  8
0
 62
7
100
AcDbVertex
100
AcDb2dVertex
 10
368.40681071180524
 20
171.1141239377373
 70
0
  0
VERTEX
  5
A8
330
9A
100
AcDbEntity
  8
0
 62
7
100
AcDbVertex
100
AcDb2dVertex
 10
364.30770334990524
 20
180.1099482223373
 70
0
  0
VERTEX
  5
A9
330
9A
100
AcDbEntity
  8
0
 62
7
100
AcDbVertex
100
AcDb2dVertex
 10
441.80609314527828
 20
178.85083784121531
 70
0
  0
VERTEX
  5
AA
330
9A
100
AcDbEntity
  8
0
 62
7
100
AcDbVertex
100
AcDb2dVertex
 10
447.08569423970528
 20
167.26432412963729
 70
0
  0
VERTEX
  5
AB
330
9A
100
AcDbEntity
  8
0
 62
7
100
AcDbVertex
100
AcDb2dVertex
 10
452.54558231800524
 20
169.75221925843729
 70
0
  0
VERTEX
  5
AC
330
9A
100
AcDbEntity
  8
0
 62
7
100
AcDbVertex
100
AcDb2dVertex
 10
448.44557064840524
 20
178.75002811963731
 70
0
  0
VERTEX
  5
AD
330
9A
100
AcDbEntity
  8
0
 62
7
100
AcDbVertex
100
AcDb2dVertex
 10
530.24301775287529
 20
177.7029959303573
 70
0
  0
VERTEX
  5
AE
330
9A
100
AcDbEntity
  8
0
 62
7
100
AcDbVertex
100
AcDb2dVertex
 10
535.51154561930525
 20
166.14078329723731
 70
0
  0
VERTEX
  5
AF
330
9A
100
AcDbEntity
  8
0
 62
7
100
AcDbVertex
100
AcDb2dVertex
 10
540.97143369770527
 20
168.6286784261373
 70
0
  0
VERTEX
  5
B0
330
9A
100
AcDbEntity
  8
0
 62
7
100
AcDbVertex
100
AcDb2dVertex
 10
536.86474688120529
 20
177.64113643963731
 70
0
  0
VERTEX
  5
B1
330
9A
100
AcDbEntity
  8
0
 62
7
100
AcDbVertex
100
AcDb2dVertex
 10
581.66691416217827
 20
177.45211900209031
 42
0.164343673599824
 70
0
  0
VERTEX
  5
B2
330
9A
100
AcDbEntity
  8
0
 62
7
100
AcDbVertex
100
AcDb2dVertex
 10
610.42747530880683
 20
189.8425092548093
 70
0
  0
VERTEX
  5
B3
330
9A
100
AcDbEntity
  8
0
 62
7
100
AcDbVertex
100
AcDb2dVertex
 10
614.50872560810524
 20
180.88587376863731
 70
0
  0
VERTEX
  5
B4
330
9A
100
AcDbEntity
  8
0
 62
7
100
AcDbVertex
100
AcDb2dVertex
 10
619.96861368640521
 20
183.37376889743729
 70
0
  0
VERTEX
  5
B5
330
9A
100
AcDbEntity
  8
0
 62
7
100
AcDbVertex
100
AcDb2dVertex
 10
614.82880892650519
 20
194.65348821033732
 42
0.044083396347283782
 70
0
  0
VERTEX
  5
B6
330
9A
100
AcDbEntity
  8
0
 62
7
100
AcDbVertex
100
AcDb2dVertex
 10
624.90734322268872
 20
212.90960770394531
 42
0.09837608488673906
 70
0
  0
VERTEX
  5
B7
330
9A
100
AcDbEntity
  8
0
 62
7
100
AcDbVertex
100
AcDb2dVertex
 10
649.8027055285811
 20
315.65796119098957
 70
0
  0
VERTEX
  5
B8
330
9A
100
AcDbEntity
  8
0
 62
7
100
AcDbVertex
100
AcDb2dVertex
 10
654.65456183880531
 20
305.01016815273732
 70
0
  0
VERTEX
  5
B9
330
9A
100
AcDbEntity
  8
0
 62
7
100
AcDbVertex
100
AcDb2dVertex
 10
660.11444991710528
 20
307.49806328153727
 70
0
  0
VERTEX
  5
BA
330
9A
100
AcDbEntity
  8
0
 62
7
100
AcDbVertex
100
AcDb2dVertex
 10
650.18918457200527
 20
329.27986481463734
 42
0.087338381984722477
 70
0
  0
VERTEX
  5
BB
330
9A
100
AcDbEntity
  8
0
 62
7
100
AcDbVertex
100
AcDb2dVertex
 10
631.7374054337231
 20
437.9704338395909
 70
0
  0
VERTEX
  5
BC
330
9A
100
AcDbEntity
  8
0
 62
7
100
AcDbVertex
100
AcDb2dVertex
 10
652.73366484270525
 20
447.53775294173732
 42
-0.14982217752877353
 70
0
  0
VERTEX
  5
BD
330
9A
100
AcDbEntity
  8
0
 62
7
100
AcDbVertex
100
AcDb2dVertex
 10
663.5827617182764
 20
252.9033392118713
 42
-0.069574765827021337
 70
0
  0
VERTEX
  5
BE
330
9A
100
AcDbEntity
  8
0
 62
7
100
AcDbVertex
100
AcDb2dVertex
 10
635.88389075187592
 20
184.6170464388143
 42
-0.17986364631688306
 70
0
  0
VERTEX
  5
BF
330
9A
100
AcDbEntity
  8
0
 62
7
100
AcDbVertex
100
AcDb2dVertex
 10
597.74705005295959
 20
157.20420140121729
 42
-0.083778715595520387
 70
0
  0
VERTEX
  5
C0
330
9A
100
AcDbEntity
  8
0
 62
7
100
AcDbVertex
100
AcDb2dVertex
 10
573.0524404948253
 20
154.3719480704633
 42
-0.0024921664561979736
 70
0
  0
VERTEX
  5
C1
330
9A
100
AcDbEntity
  8
0
 62
7
100
AcDbVertex
100
AcDb2dVertex
 10
317.32830765211327
 20
157.82129786811331
 42
0.00733061339918153
 70
0
  0
VERTEX
  5
C2
330
9A
100
AcDbEntity
  8
0
 62
7
100
AcDbVertex
100
AcDb2dVertex
 10
117.53360656260031
 20
158.68582623463729
 42
0.011217837166697388
 70
0
  0
VERTEX
  5
C3
330
9A
100
AcDbEntity
  8
0
 62
7
100
AcDbVertex
100
AcDb2dVertex
 10
44.670804692214233
 20
155.81270163305629
 42
-0.11788262741570493
 70
0
  0
VERTEX
  5
C4
330
9A
100
AcDbEntity
  8
0
 62
7
100
AcDbVertex
100
AcDb2dVertex
 10
23.484113316107255
 20
160.8090010677183
 70
0
  0
VERTEX
  5
C5
330
9A
100
AcDbEntity
  8
0
 62
7
100
AcDbVertex
100
AcDb2dVertex
 10
67.296285796005236
 20
180.7727968329373
 70
0
  0
VERTEX
  5
C6
330
9A
100
AcDbEntity
  8
0
 62
7
100
AcDbVertex
100
AcDb2dVertex
 10
72.578965071705284
 20
169.17952778213731
 70
0
  0
VERTEX
  5
C7
330
9A
100
AcDbEntity
  8
0
 62
7
100
AcDbVertex
100
AcDb2dVertex
 10
78.038853150005252
 20
171.66742291103731
 70
0
  0
VERTEX
  5
C8
330
9A
100
AcDbEntity
  8
0
 62
7
100
AcDbVertex
100
AcDb2dVertex
 10
72.7561738743052
 20
183.2606919618373
 70
0
  0
VERTEX
  5
C9
330
9A
100
AcDbEntity
  8
0
 62
7
100
AcDbVertex
100
AcDb2dVertex
 10
76.117853126605269
 20
184.79250091403731
 42
-0.00994749535886055
 70
0
  0
VERTEX
  5
CA
330
9A
100
AcDbEntity
  8
0
 62
7
100
AcDbVertex
100
AcDb2dVertex
 10
131.50515095481023
 20
184.56185625424331
 70
0
  0
VERTEX
  5
CB
330
9A
100
AcDbEntity
  8
0
 62
7
100
AcDbVertex
100
AcDb2dVertex
 10
137.32972362780527
 20
171.77935814553729
 70
0
  0
VERTEX
  5
CC
330
9A
100
AcDbEntity
  8
0
 62
7
100
AcDbVertex
100
AcDb2dVertex
 10
142.78961170610523
 20
174.26725327433729
 70
0
  0
SEQEND
  5
9B
100
AcDbEntity
  8
0
  0
POLYLINE
  5
CD
330
1F
100
AcDbEntity
  8
0
 62
7
100
AcDb2dPolyline
 66
1
 70
1
 10
0
 20
0
 30
0
  0
VERTEX
  5
CF
330
CD
100
AcDbEntity
  8
0
 62
7
100
AcDbVertex
100
AcDb2dVertex
 10
340.96897219541836
 20
415.9233583245836
 42
0.030963195518357637
 70
0
  0
VERTEX
  5
D0
330
CD
100
AcDbEntity
  8
0
 62
7
100
AcDbVertex
100
AcDb2dVertex
 10
387.96954206248938
 20
430.58048569754669
 70
0
  0
VERTEX
  5
D1
330
CD
100
AcDbEntity
  8
0
 62
7
100
AcDbVertex
100
AcDb2dVertex
 10
383.68182425714036
 20
442.36089354877697
 70
0
  0
VERTEX
  5
D2
330
CD
100
AcDbEntity
  8
0
 62
7
100
AcDbVertex
100
AcDb2dVertex
 10
389.31997998184039
 20
444.41301440877703
 70
0
  0
VERTEX
  5
D3
330
CD
100
AcDbEntity
  8
0
 62
7
100
AcDbVertex
100
AcDb2dVertex
 10
393.55942836574036
 20
432.765225703077
 42
0.03441191841528999
 70
0
  0
VERTEX
  5
D4
330
CD
100
AcDbEntity
  8
0
 62
7
100
AcDbVertex
100
AcDb2dVertex
 10
441.91488867719738
 20
456.08218192793481
 70
0
  0
VERTEX
  5
D5
330
CD
100
AcDbEntity
  8
0
 62
7
100
AcDbVertex
100
AcDb2dVertex
 10
435.24720498534037
 20
467.630948850977
 70
0
  0
VERTEX
  5
D6
330
CD
100
AcDbEntity
  8
0
 62
7
100
AcDbVertex
100
AcDb2dVertex
 10
440.44335740804036
 20
470.630948850977
 70
0
  0
VERTEX
  5
D7
330
CD
100
AcDbEntity
  8
0
 62
7
100
AcDbVertex
100
AcDb2dVertex
 10
434.36746977114035
 20
481.15469493917703
 42
-0.17400025753597284
 70
0
  0
VERTEX
  5
D8
330
CD
100
AcDbEntity
  8
0
 62
7
100
AcDbVertex
100
AcDb2dVertex
 10
188.83404329130838
 20
434.3475469603485
 42
-0.059721850106857551
 70
0
  0
VERTEX
  5
D9
330
CD
100
AcDbEntity
  8
0
 62
7
100
AcDbVertex
100
AcDb2dVertex
 10
107.99910663943197
 20
456.40970760307
 42
-0.15637406981627203
 70
0
  0
VERTEX
  5
DA
330
CD
100
AcDbEntity
  8
0
 62
7
100
AcDbVertex
100
AcDb2dVertex
 10
45.457019775064794
 20
511.92042121726547
 70
0
  0
VERTEX
  5
DB
330
CD
100
AcDbEntity
  8
0
 62
7
100
AcDbVertex
100
AcDb2dVertex
 10
34.346027739940382
 20
505.505486974777
 70
0
  0
VERTEX
  5
DC
330
CD
100
AcDbEntity
  8
0
 62
7
100
AcDbVertex
100
AcDb2dVertex
 10
37.346027739940382
 20
500.309334552077
 70
0
  0
VERTEX
  5
DD
330
CD
100
AcDbEntity
  8
0
 62
7
100
AcDbVertex
100
AcDb2dVertex
 10
26.3531226793404
 20
493.962577856177
 42
0.12253390735228535
 70
0
  0
VERTEX
  5
DE
330
CD
100
AcDbEntity
  8
0
 62
7
100
AcDbVertex
100
AcDb2dVertex
 10
82.050646146692884
 20
440.83322112677462
 70
0
  0
VERTEX
  5
DF
330
CD
100
AcDbEntity
  8
0
 62
7
100
AcDbVertex
100
AcDb2dVertex
 10
90.928403424140384
 20
451.413320256377
 70
0
  0
VERTEX
  5
E0
330
CD
100
AcDbEntity
  8
0
 62
7
100
AcDbVertex
100
AcDb2dVertex
 10
95.524670082840373
 20
447.556594598177
 70
0
  0
VERTEX
  5
E1
330
CD
100
AcDbEntity
  8
0
 62
7
100
AcDbVertex
100
AcDb2dVertex
 10
87.426054800940392
 20
437.905040740877
 42
0.042723254407348026
 70
0
  0
VERTEX
  5
E2
330
CD
100
AcDbEntity
  8
0
 62
7
100
AcDbVertex
100
AcDb2dVertex
 10
124.50600086550838
 20
423.33400790899543
 70
0
  0
VERTEX
  5
E3
330
CD
100
AcDbEntity
  8
0
 62
7
100
AcDbVertex
100
AcDb2dVertex
 10
128.31454688847839
 20
422.1474087572181
 70
0
  0
VERTEX
  5
E4
330
CD
100
AcDbEntity
  8
0
 62
7
100
AcDbVertex
100
AcDb2dVertex
 10
135.32000640904039
 20
434.281220577077
 70
0
  0
VERTEX
  5
E5
330
CD
100
AcDbEntity
  8
0
 62
7
100
AcDbVertex
100
AcDb2dVertex
 10
140.51615883174037
 20
431.281220577077
 70
0
  0
VERTEX
  5
E6
330
CD
100
AcDbEntity
  8
0
 62
7
100
AcDbVertex
100
AcDb2dVertex
 10
134.22614231714039
 20
420.386592393377
 42
0.028049080663424018
 70
0
  0
VERTEX
  5
E7
330
CD
100
AcDbEntity
  8
0
 62
7
100
AcDbVertex
100
AcDb2dVertex
 10
178.48022613749939
 20
410.23697028460168
 70
0
  0
VERTEX
  5
E8
330
CD
100
AcDbEntity
  8
0
 62
7
100
AcDbVertex
100
AcDb2dVertex
 10
183.12209921994037
 20
422.990411762677
 70
0
  0
VERTEX
  5
E9
330
CD
100
AcDbEntity
  8
0
 62
7
100
AcDbVertex
100
AcDb2dVertex
 10
188.76025494464037
 20
420.938290902677
 70
0
  0
VERTEX
  5
EA
330
CD
100
AcDbEntity
  8
0
 62
7
100
AcDbVertex
100
AcDb2dVertex
 10
184.50802411144036
 20
409.255382705977
 42
0.028468484667318238
 70
0
  0
VERTEX
  5
EB
330
CD
100
AcDbEntity
  8
0
 62
7
100
AcDbVertex
100
AcDb2dVertex
 10
230.37260198194738
 20
404.815858461527
 70
0
  0
VERTEX
  5
EC
330
CD
100
AcDbEntity
  8
0
 62
7
100
AcDbVertex
100
AcDb2dVertex
 10
232.66286186204039
 20
417.804567681677
 70
0
  0
VERTEX
  5
ED
330
CD
100
AcDbEntity
  8
0
 62
7
100
AcDbVertex
100
AcDb2dVertex
 10
238.57170838014037
 20
416.76267861567703
 70
0
  0
VERTEX
  5
EE
330
CD
100
AcDbEntity
  8
0
 62
7
100
AcDbVertex
100
AcDb2dVertex
 10
236.43139938634039
 20
404.624383131177
 42
0.028796288386062324
 70
0
  0
VERTEX
  5
EF
330
CD
100
AcDbEntity
  8
0
 62
7
100
AcDbVertex
100
AcDb2dVertex
 10
282.9057518777484
 20
406.203426603907
 70
0
  0
VERTEX
  5
F0
330
CD
100
AcDbEntity
  8
0
 62
7
100
AcDbVertex
100
AcDb2dVertex
 10
282.90575187774039
 20
419.069160096677
 70
0
  0
VERTEX
  5
F1
330
CD
100
AcDbEntity
  8
0
 62
7
100
AcDbVertex
100
AcDb2dVertex
 10
288.90575187774039
 20
419.069160096677
 70
0
  0
VERTEX
  5
F2
330
CD
100
AcDbEntity
  8
0
 62
7
100
AcDbVertex
100
AcDb2dVertex
 10
288.90575187774039
 20
406.802756173077
 42
0.029146570555417469
 70
0
  0
VERTEX
  5
F3
330
CD
100
AcDbEntity
  8
0
 62
7
100
AcDbVertex
100
AcDb2dVertex
 10
335.12043565754436
 20
414.53943436433281
 70
0
  0
VERTEX
  5
F4
330
CD
100
AcDbEntity
  8
0
 62
7
100
AcDbVertex
100
AcDb2dVertex
 10
332.92870766864036
 20
426.969341461377
 70
0
  0
VERTEX
  5
F5
330
CD
100
AcDbEntity
  8
0
 62
7
100
AcDbVertex
100
AcDb2dVertex
 10
338.83755418674036
 20
428.011230527377
 70
0
  0
SEQEND
  5
CE
100
AcDbEntity
  8
0
  0
POLYLINE
  5
F6
330
1F
100
AcDbEntity
  8
0
 62
7
100
AcDb2dPolyline
 66
1
 70
1
 10
0
 20
0
 30
0
  0
VERTEX
  5
F8
330
F6
100
AcDbEntity
  8
0
 62
7
100
AcDbVertex
100
AcDb2dVertex
 10
397.55218525370975
 20
528.35493751833144
 42
-0.19105381067102137
 70
0
  0
VERTEX
  5
F9
330
F6
100
AcDbEntity
  8
0
 62
7
100
AcDbVertex
100
AcDb2dVertex
 10
179.60924859672176
 20
484.4610570143584
 42
-0.0594959694858608
 70
0
  0
VERTEX
  5
FA
330
F6
100
AcDbEntity
  8
0
 62
7
100
AcDbVertex
100
AcDb2dVertex
 10
109.92289444914474
 20
505.23485617104637
 42
-0.16532862162805925
 70
0
  0
VERTEX
  5
FB
330
F6
100
AcDbEntity
  8
0
 62
7
100
AcDbVertex
100
AcDb2dVertex
 10
53.710442952075653
 20
560.03516892324535
 70
0
  0
VERTEX
  5
FC
330
F6
100
AcDbEntity
  8
0
 62
7
100
AcDbVertex
100
AcDb2dVertex
 10
39.333547168435757
 20
551.73466427247615
 70
0
  0
VERTEX
  5
FD
330
F6
100
AcDbEntity
  8
0
 62
7
100
AcDbVertex
100
AcDb2dVertex
 10
42.327424524735761
 20
546.53497693977624
 70
0
  0
VERTEX
  5
FE
330
F6
100
AcDbEntity
  8
0
 62
7
100
AcDbVertex
100
AcDb2dVertex
 10
27.996213233535741
 20
538.26084824297618
 42
0.11020860386815348
 70
0
  0
VERTEX
  5
FF
330
F6
100
AcDbEntity
  8
0
 62
7
100
AcDbVertex
100
AcDb2dVertex
 10
74.142498408978554
 20
490.69843048212476
 70
0
  0
VERTEX
  5
100
330
F6
100
AcDbEntity
  8
0
 62
7
100
AcDbVertex
100
AcDb2dVertex
 10
84.173714061735723
 20
502.65316777447617
 70
0
  0
VERTEX
  5
101
330
F6
100
AcDbEntity
  8
0
 62
7
100
AcDbVertex
100
AcDb2dVertex
 10
88.769980720535727
 20
498.79644211637617
 70
0
  0
VERTEX
  5
102
330
F6
100
AcDbEntity
  8
0
 62
7
100
AcDbVertex
100
AcDb2dVertex
 10
79.286369594035762
 20
487.49431448557618
 42
0.054668795829644075
 70
0
  0
VERTEX
  5
103
330
F6
100
AcDbEntity
  8
0
 62
7
100
AcDbVertex
100
AcDb2dVertex
 10
114.72524010964474
 20
471.91765200962521
 70
0
  0
VERTEX
  5
104
330
F6
100
AcDbEntity
  8
0
 62
7
100
AcDbVertex
100
AcDb2dVertex
 10
122.41921993953571
 20
485.24370072397619
 70
0
  0
VERTEX
  5
105
330
F6
100
AcDbEntity
  8
0
 62
7
100
AcDbVertex
100
AcDb2dVertex
 10
127.61537236223575
 20
482.24370072397619
 70
0
  0
VERTEX
  5
106
330
F6
100
AcDbEntity
  8
0
 62
7
100
AcDbVertex
100
AcDb2dVertex
 10
120.53954486463573
 20
469.98800799257617
 42
0.027812276317506261
 70
0
  0
VERTEX
  5
107
330
F6
100
AcDbEntity
  8
0
 62
7
100
AcDbVertex
100
AcDb2dVertex
 10
160.18020157607873
 20
459.60933661043862
 70
0
  0
VERTEX
  5
108
330
F6
100
AcDbEntity
  8
0
 62
7
100
AcDbVertex
100
AcDb2dVertex
 10
165.16113000473575
 20
473.29468167197621
 70
0
  0
VERTEX
  5
109
330
F6
100
AcDbEntity
  8
0
 62
7
100
AcDbVertex
100
AcDb2dVertex
 10
170.79928572943575
 20
471.2425608119762
 70
0
  0
VERTEX
  5
10A
330
F6
100
AcDbEntity
  8
0
 62
7
100
AcDbVertex
100
AcDb2dVertex
 10
166.14525551743574
 20
458.45571789507619
 42
0.029470332318570294
 70
0
  0
VERTEX
  5
10B
330
F6
100
AcDbEntity
  8
0
 62
7
100
AcDbVertex
100
AcDb2dVertex
 10
207.97122356035973
 20
453.27810822735762
 70
0
  0
VERTEX
  5
10C
330
F6
100
AcDbEntity
  8
0
 62
7
100
AcDbVertex
100
AcDb2dVertex
 10
210.39040654623574
 20
466.99829756307622
 70
0
  0
VERTEX
  5
10D
330
F6
100
AcDbEntity
  8
0
 62
7
100
AcDbVertex
100
AcDb2dVertex
 10
216.29925306423576
 20
465.95640849707621
 70
0
  0
VERTEX
  5
10E
330
F6
100
AcDbEntity
  8
0
 62
7
100
AcDbVertex
100
AcDb2dVertex
 10
214.00552017293575
 20
452.94800285167616
 42
0.030851375188665937
 70
0
  0
VERTEX
  5
10F
330
F6
100
AcDbEntity
  8
0
 62
7
100
AcDbVertex
100
AcDb2dVertex
 10
256.96164664413874
 20
453.6429052078758
 70
0
  0
VERTEX
  5
110
330
F6
100
AcDbEntity
  8
0
 62
7
100
AcDbVertex
100
AcDb2dVertex
 10
256.96165194803575
 20
467.10771335007621
 70
0
  0
VERTEX
  5
111
330
F6
100
AcDbEntity
  8
0
 62
7
100
AcDbVertex
100
AcDb2dVertex
 10
262.96165194803575
 20
467.10771335007621
 70
0
  0
VERTEX
  5
112
330
F6
100
AcDbEntity
  8
0
 62
7
100
AcDbVertex
100
AcDb2dVertex
 10
262.96165194803575
 20
454.16994708087623
 42
0.032022436689187653
 70
0
  0
VERTEX
  5
113
330
F6
100
AcDbEntity
  8
0
 62
7
100
AcDbVertex
100
AcDb2dVertex
 10
305.95996839157573
 20
461.15115849844756
 70
0
  0
VERTEX
  5
114
330
F6
100
AcDbEntity
  8
0
 62
7
100
AcDbVertex
100
AcDb2dVertex
 10
303.67873778093576
 20
474.08866018677622
 70
0
  0
VERTEX
  5
115
330
F6
100
AcDbEntity
  8
0
 62
7
100
AcDbVertex
100
AcDb2dVertex
 10
309.58758429903577
 20
475.13054925277618
 70
0
  0
VERTEX
  5
116
330
F6
100
AcDbEntity
  8
0
 62
7
100
AcDbVertex
100
AcDb2dVertex
 10
311.80588647793576
 20
462.54993243527622
 42
0.034490458815467522
 70
0
  0
VERTEX
  5
117
330
F6
100
AcDbEntity
  8
0
 62
7
100
AcDbVertex
100
AcDb2dVertex
 10
355.55761870424874
 20
476.7214830551946
 70
0
  0
VERTEX
  5
118
330
F6
100
AcDbEntity
  8
0
 62
7
100
AcDbVertex
100
AcDb2dVertex
 10
351.12361591893574
 20
488.90380558577618
 70
0
  0
VERTEX
  5
119
330
F6
100
AcDbEntity
  8
0
 62
7
100
AcDbVertex
100
AcDb2dVertex
 10
356.76177164363577
 20
490.9559264456762
 70
0
  0
VERTEX
  5
11A
330
F6
100
AcDbEntity
  8
0
 62
7
100
AcDbVertex
100
AcDb2dVertex
 10
361.10748004943576
 20
479.01619072917617
 42
0.038130960443691769
 70
0
  0
VERTEX
  5
11B
330
F6
100
AcDbEntity
  8
0
 62
7
100
AcDbVertex
100
AcDb2dVertex
 10
405.75836087340275
 20
502.14142440911991
 70
0
  0
VERTEX
  5
11C
330
F6
100
AcDbEntity
  8
0
 62
7
100
AcDbVertex
100
AcDb2dVertex
 10
399.00487126503572
 20
513.83881153927621
 70
0
  0
VERTEX
  5
11D
330
F6
100
AcDbEntity
  8
0
 62
7
100
AcDbVertex
100
AcDb2dVertex
 10
404.20102368773576
 20
516.83881153927621
 70
0
  0
SEQEND
  5
F7
100
AcDbEntity
  8
0
  0
POLYLINE
  5
11E
330
1F
100
AcDbEntity
  8
0
 62
7
100
AcDb2dPolyline
 66
1
 70
1
 10
0
 20
0
 30
0
  0
VERTEX
  5
120
330
11E
100
AcDbEntity
  8
0
 62
7
100
AcDbVertex
100
AcDb2dVertex
 10
22.780254607883563
 20
22.045407685048588
 42
-0.024836046648203141
 70
0
  0
VERTEX
  5
121
330
11E
100
AcDbEntity
  8
0
 62
7
100
AcDbVertex
100
AcDb2dVertex
 10
20.829000919327569
 20
0.76858521197559071
 70
0
  0
VERTEX
  5
122
330
11E
100
AcDbEntity
  8
0
 62
7
100
AcDbVertex
100
AcDb2dVertex
 10
14.853481046880546
 20
6.744105084466554
 70
0
  0
VERTEX
  5
123
330
11E
100
AcDbEntity
  8
0
 62
7
100
AcDbVertex
100
AcDb2dVertex
 10
10.610840359680566
 20
2.5014643973665613
 70
0
  0
VERTEX
  5
124
330
11E
100
AcDbEntity
  8
0
 62
7
100
AcDbVertex
100
AcDb2dVertex
 10
1.5765085901805662
 20
11.535796166866561
 42
0.066663059273637415
 70
0
  0
VERTEX
  5
125
330
11E
100
AcDbEntity
  8
0
 62
7
100
AcDbVertex
100
AcDb2dVertex
 10
1.3353355561735327
 20
46.0463767905226
 70
0
  0
VERTEX
  5
126
330
11E
100
AcDbEntity
  8
0
 62
7
100
AcDbVertex
100
AcDb2dVertex
 10
10.372559876580539
 20
55.0836011110666
 70
0
  0
VERTEX
  5
127
330
11E
100
AcDbEntity
  8
0
 62
7
100
AcDbVertex
100
AcDb2dVertex
 10
14.615200563680531
 20
50.840960423966607
 70
0
  0
VERTEX
  5
128
330
11E
100
AcDbEntity
  8
0
 62
7
100
AcDbVertex
100
AcDb2dVertex
 10
21.034384969680531
 20
57.260144829966606
 42
-0.0265343679933602
 70
0
  0
VERTEX
  5
129
330
11E
100
AcDbEntity
  8
0
 62
7
100
AcDbVertex
100
AcDb2dVertex
 10
22.271916189355522
 20
48.3276957506846
 70
0
  0
VERTEX
  5
12A
330
11E
100
AcDbEntity
  8
0
 62
7
100
AcDbVertex
100
AcDb2dVertex
 10
20.293021597980527
 20
49.250469452366588
 70
0
  0
VERTEX
  5
12B
330
11E
100
AcDbEntity
  8
0
 62
7
100
AcDbVertex
100
AcDb2dVertex
 10
17.757312027480538
 20
43.812622730166595
 70
0
  0
VERTEX
  5
12C
330
11E
100
AcDbEntity
  8
0
 62
7
100
AcDbVertex
100
AcDb2dVertex
 10
22.714284535680548
 20
41.50114848826658
 70
0
  0
VERTEX
  5
12D
330
11E
100
AcDbEntity
  8
0
 62
7
100
AcDbVertex
100
AcDb2dVertex
 10
22.959688077946566
 20
29.244298777692592
 70
0
  0
VERTEX
  5
12E
330
11E
100
AcDbEntity
  8
0
 62
7
100
AcDbVertex
100
AcDb2dVertex
 10
15.78547304378057
 20
34.2677087593666
 70
0
  0
VERTEX
  5
12F
330
11E
100
AcDbEntity
  8
0
 62
7
100
AcDbVertex
100
AcDb2dVertex
 10
12.34401442568057
 20
29.352796493666602
 70
0
  0
SEQEND
  5
11F
100
AcDbEntity
  8
0
  0
POLYLINE
  5
130
330
1F
100
AcDbEntity
  8
0
 62
7
100
AcDb2dPolyline
 66
1
 70
1
 10
0
 20
0
 30
0
  0
VERTEX
  5
132
330
130
100
AcDbEntity
  8
0
 62
7
100
AcDbVertex
100
AcDb2dVertex
 10
686.3470259278464
 20
420.33243986159334
 42
-0.12664080725592389
 70
0
  0
VERTEX
  5
133
330
130
100
AcDbEntity
  8
0
 62
7
100
AcDbVertex
100
AcDb2dVertex
 10
702.6805458775126
 20
237.13994397587794
 42
-0.07692565923451343
 70
0
  0
VERTEX
  5
134
330
130
100
AcDbEntity
  8
0
 62
7
100
AcDbVertex
100
AcDb2dVertex
 10
678.24248216156911
 20
162.39263462452266
 42
-0.17232869166573542
 70
0
  0
VERTEX
  5
135
330
130
100
AcDbEntity
  8
0
 62
7
100
AcDbVertex
100
AcDb2dVertex
 10
642.97952394406559
 20
132.74021033468466
 42
-0.10185835623293554
 70
0
  0
VERTEX
  5
136
330
130
100
AcDbEntity
  8
0
 62
7
100
AcDbVertex
100
AcDb2dVertex
 10
610.77251464371716
 20
126.87294032386274
 42
-0.011206947163023817
 70
0
  0
VERTEX
  5
137
330
130
100
AcDbEntity
  8
0
 62
7
100
AcDbVertex
100
AcDb2dVertex
 10
424.94029834052026
 20
128.47651034118564
 42
0.003894151781575234
 70
0
  0
VERTEX
  5
138
330
130
100
AcDbEntity
  8
0
 62
7
100
AcDbVertex
100
AcDb2dVertex
 10
240.13685362798719
 20
132.77169117925467
 42
0.01880025972574758
 70
0
  0
VERTEX
  5
139
330
130
100
AcDbEntity
  8
0
 62
7
100
AcDbVertex
100
AcDb2dVertex
 10
122.28057268629823
 20
130.35593888533663
 42
0.0142618100485009
 70
0
  0
VERTEX
  5
13A
330
130
100
AcDbEntity
  8
0
 62
7
100
AcDbVertex
100
AcDb2dVertex
 10
81.5087041728741
 20
126.41152697504566
 70
0
  0
VERTEX
  5
13B
330
130
100
AcDbEntity
  8
0
 62
7
100
AcDbVertex
100
AcDb2dVertex
 10
108.50143573392711
 20
139.52863284673566
 70
0
  0
VERTEX
  5
13C
330
130
100
AcDbEntity
  8
0
 62
7
100
AcDbVertex
100
AcDb2dVertex
 10
110.89193646902709
 20
134.60939644873565
 70
0
  0
VERTEX
  5
13D
330
130
100
AcDbEntity
  8
0
 62
7
100
AcDbVertex
100
AcDb2dVertex
 10
116.28848635642726
 20
137.23184746133563
 70
0
  0
VERTEX
  5
13E
330
130
100
AcDbEntity
  8
0
 62
7
100
AcDbVertex
100
AcDb2dVertex
 10
113.89798562122724
 20
142.15108385933564
 70
0
  0
VERTEX
  5
13F
330
130
100
AcDbEntity
  8
0
 62
7
100
AcDbVertex
100
AcDb2dVertex
 10
144.86263738852722
 20
157.19834258503568
 70
0
  0
VERTEX
  5
140
330
130
100
AcDbEntity
  8
0
 62
7
100
AcDbVertex
100
AcDb2dVertex
 10
166.44652471392533
 20
157.56383592258567
 70
0
  0
VERTEX
  5
141
330
130
100
AcDbEntity
  8
0
 62
7
100
AcDbVertex
100
AcDb2dVertex
 10
172.50968433362709
 20
145.08690377723565
 70
0
  0
VERTEX
  5
142
330
130
100
AcDbEntity
  8
0
 62
7
100
AcDbVertex
100
AcDb2dVertex
 10
177.90623422102726
 20
147.70935478973564
 70
0
  0
VERTEX
  5
143
330
130
100
AcDbEntity
  8
0
 62
7
100
AcDbVertex
100
AcDb2dVertex
 10
173.09852811502719
 20
157.60278109973564
 42
-0.0072539509368935145
 70
0
  0
VERTEX
  5
144
330
130
100
AcDbEntity
  8
0
 62
7
100
AcDbVertex
100
AcDb2dVertex
 10
237.94283489891723
 20
156.86471718146868
 70
0
  0
VERTEX
  5
145
330
130
100
AcDbEntity
  8
0
 62
7
100
AcDbVertex
100
AcDb2dVertex
 10
243.82202645412713
 20
144.76635943413567
 70
0
  0
VERTEX
  5
146
330
130
100
AcDbEntity
  8
0
 62
7
100
AcDbVertex
100
AcDb2dVertex
 10
249.21857634142725
 20
147.38881044673565
 70
0
  0
VERTEX
  5
147
330
130
100
AcDbEntity
  8
0
 62
7
100
AcDbVertex
100
AcDb2dVertex
 10
244.6877109081272
 20
156.71254661053575
 70
0
  0
VERTEX
  5
148
330
130
100
AcDbEntity
  8
0
 62
7
100
AcDbVertex
100
AcDb2dVertex
 10
314.56297425864227
 20
154.77338948678863
 70
0
  0
VERTEX
  5
149
330
130
100
AcDbEntity
  8
0
 62
7
100
AcDbVertex
100
AcDb2dVertex
 10
320.30492894422719
 20
142.95744144313562
 70
0
  0
VERTEX
  5
14A
330
130
100
AcDbEntity
  8
0
 62
7
100
AcDbVertex
100
AcDb2dVertex
 10
325.70147883152708
 20
145.57989245563567
 70
0
  0
VERTEX
  5
14B
330
130
100
AcDbEntity
  8
0
 62
7
100
AcDbVertex
100
AcDb2dVertex
 10
321.33452063432719
 20
154.56633592183567
 70
0
  0
VERTEX
  5
14C
330
130
100
AcDbEntity
  8
0
 62
7
100
AcDbVertex
100
AcDb2dVertex
 10
395.81431775185115
 20
152.30358980131763
 70
0
  0
VERTEX
  5
14D
330
130
100
AcDbEntity
  8
0
 62
7
100
AcDbVertex
100
AcDb2dVertex
 10
401.48997315632721
 20
140.62407423503566
 70
0
  0
VERTEX
  5
14E
330
130
100
AcDbEntity
  8
0
 62
7
100
AcDbVertex
100
AcDb2dVertex
 10
406.88652304372727
 20
143.24652524763553
 70
0
  0
VERTEX
  5
14F
330
130
100
AcDbEntity
  8
0
 62
7
100
AcDbVertex
100
AcDb2dVertex
 10
402.57963502192729
 20
152.10935469883555
 70
0
  0
VERTEX
  5
150
330
130
100
AcDbEntity
  8
0
 62
7
100
AcDbVertex
100
AcDb2dVertex
 10
481.33193518018822
 20
150.20628138167365
 70
0
  0
VERTEX
  5
151
330
130
100
AcDbEntity
  8
0
 62
7
100
AcDbVertex
100
AcDb2dVertex
 10
486.97092360432725
 20
138.60222006683563
 70
0
  0
VERTEX
  5
152
330
130
100
AcDbEntity
  8
0
 62
7
100
AcDbVertex
100
AcDb2dVertex
 10
492.36747349162715
 20
141.22467107943567
 70
0
  0
VERTEX
  5
153
330
130
100
AcDbEntity
  8
0
 62
7
100
AcDbVertex
100
AcDb2dVertex
 10
488.06143348402725
 20
150.08575546453562
 42
0.004721578968372879
 70
0
  0
VERTEX
  5
154
330
130
100
AcDbEntity
  8
0
 62
7
100
AcDbVertex
100
AcDb2dVertex
 10
570.63918039716725
 20
149.46231925650056
 70
0
  0
VERTEX
  5
155
330
130
100
AcDbEntity
  8
0
 62
7
100
AcDbVertex
100
AcDb2dVertex
 10
576.22267969132724
 20
137.97244500163566
 70
0
  0
VERTEX
  5
156
330
130
100
AcDbEntity
  8
0
 62
7
100
AcDbVertex
100
AcDb2dVertex
 10
581.61922957872719
 20
140.59489601423564
 70
0
  0
VERTEX
  5
157
330
130
100
AcDbEntity
  8
0
 62
7
100
AcDbVertex
100
AcDb2dVertex
 10
577.2926550997272
 20
149.49823678413566
 42
0.0048706647003015522
 70
0
  0
VERTEX
  5
158
330
130
100
AcDbEntity
  8
0
 62
7
100
AcDbVertex
100
AcDb2dVertex
 10
618.99474261734224
 20
150.19026872967265
 42
0.15657679962969981
 70
0
  0
VERTEX
  5
159
330
130
100
AcDbEntity
  8
0
 62
7
100
AcDbVertex
100
AcDb2dVertex
 10
650.334936593217
 20
163.92126462894265
 70
0
  0
VERTEX
  5
15A
330
130
100
AcDbEntity
  8
0
 62
7
100
AcDbVertex
100
AcDb2dVertex
 10
654.69875441922727
 20
154.94128352503566
 70
0
  0
VERTEX
  5
15B
330
130
100
AcDbEntity
  8
0
 62
7
100
AcDbVertex
100
AcDb2dVertex
 10
660.09530430652717
 20
157.56373453763564
 70
0
  0
VERTEX
  5
15C
330
130
100
AcDbEntity
  8
0
 62
7
100
AcDbVertex
100
AcDb2dVertex
 10
654.7304782116272
 20
168.60361727313563
 42
0.06243221726580913
 70
0
  0
VERTEX
  5
15D
330
130
100
AcDbEntity
  8
0
 62
7
100
AcDbVertex
100
AcDb2dVertex
 10
662.83316211346676
 20
183.37872408502864
 42
0.08164150483712386
 70
0
  0
VERTEX
  5
15E
330
130
100
AcDbEntity
  8
0
 62
7
100
AcDbVertex
100
AcDb2dVertex
 10
683.18803647808943
 20
265.01294214206615
 42
0.02286192241101024
 70
0
  0
VERTEX
  5
15F
330
130
100
AcDbEntity
  8
0
 62
7
100
AcDbVertex
100
AcDb2dVertex
 10
684.57786274286877
 20
294.79361997809531
 70
0
  0
VERTEX
  5
160
330
130
100
AcDbEntity
  8
0
 62
7
100
AcDbVertex
100
AcDb2dVertex
 10
689.85898675602721
 20
283.92598162703564
 70
0
  0
VERTEX
  5
161
330
130
100
AcDbEntity
  8
0
 62
7
100
AcDbVertex
100
AcDb2dVertex
 10
695.25553664332722
 20
286.54843263953563
 70
0
  0
VERTEX
  5
162
330
130
100
AcDbEntity
  8
0
 62
7
100
AcDbVertex
100
AcDb2dVertex
 10
684.31672701262721
 20
309.05860789063564
 42
0.072390587138353266
 70
0
  0
VERTEX
  5
163
330
130
100
AcDbEntity
  8
0
 62
7
100
AcDbVertex
100
AcDb2dVertex
 10
665.52360294654761
 20
410.21330674461956
 70
0
  0
SEQEND
  5
131
100
AcDbEntity
  8
0
  0
POLYLINE
  5
164
330
1F
100
AcDbEntity
  8
0
 62
7
100
AcDb2dPolyline
 66
1
 70
1
 10
0
 20
0
 30
0
  0
VERTEX
  5
166
330
164
100
AcDbEntity
  8
0
 62
7
100
AcDbVertex
100
AcDb2dVertex
 10
110.96188534807794
 20
274.09790221743754
 42
-0.17241463278115415
 70
0
  0
VERTEX
  5
167
330
164
100
AcDbEntity
  8
0
 62
7
100
AcDbVertex
100
AcDb2dVertex
 10
80.25860692040294
 20
363.86163463449554
 42
-0.059510830440256339
 70
0
  0
VERTEX
  5
168
330
164
100
AcDbEntity
  8
0
 62
7
100
AcDbVertex
100
AcDb2dVertex
 10
84.318130884822949
 20
398.44158560345852
 42
-0.14361417405804303
 70
0
  0
VERTEX
  5
169
330
164
100
AcDbEntity
  8
0
 62
7
100
AcDbVertex
100
AcDb2dVertex
 10
100.83341912848698
 20
424.10487771230862
 70
0
  0
VERTEX
  5
16A
330
164
100
AcDbEntity
  8
0
 62
7
100
AcDbVertex
100
AcDb2dVertex
 10
91.002785000126948
 20
433.9355118406686
 70
0
  0
VERTEX
  5
16B
330
164
100
AcDbEntity
  8
0
 62
7
100
AcDbVertex
100
AcDb2dVertex
 10
86.744164550726964
 20
429.70885091576861
 70
0
  0
VERTEX
  5
16C
330
164
100
AcDbEntity
  8
0
 62
7
100
AcDbVertex
100
AcDb2dVertex
 10
76.825175035226948
 20
439.62784043136855
 70
0
  0
VERTEX
  5
16D
330
164
100
AcDbEntity
  8
0
 62
7
100
AcDbVertex
100
AcDb2dVertex
 10
72.330093190583966
 20
434.61465460584054
 70
0
  0
VERTEX
  5
16E
330
164
100
AcDbEntity
  8
0
 62
7
100
AcDbVertex
100
AcDb2dVertex
 10
80.64708399782694
 20
430.73637809966863
 70
0
  0
VERTEX
  5
16F
330
164
100
AcDbEntity
  8
0
 62
7
100
AcDbVertex
100
AcDb2dVertex
 10
78.11137442732695
 20
425.29853137736859
 70
0
  0
VERTEX
  5
170
330
164
100
AcDbEntity
  8
0
 62
7
100
AcDbVertex
100
AcDb2dVertex
 10
68.612353304426961
 20
429.72799767196852
 42
0.031744439501896961
 70
0
  0
VERTEX
  5
171
330
164
100
AcDbEntity
  8
0
 62
7
100
AcDbVertex
100
AcDb2dVertex
 10
63.382856904125958
 20
421.14917695329757
 70
0
  0
VERTEX
  5
172
330
164
100
AcDbEntity
  8
0
 62
7
100
AcDbVertex
100
AcDb2dVertex
 10
75.509033330926968
 20
417.89995877666854
 70
0
  0
VERTEX
  5
173
330
164
100
AcDbEntity
  8
0
 62
7
100
AcDbVertex
100
AcDb2dVertex
 10
73.956119060326955
 20
412.10440381896854
 70
0
  0
VERTEX
  5
174
330
164
100
AcDbEntity
  8
0
 62
7
100
AcDbVertex
100
AcDb2dVertex
 10
60.768668093126962
 20
415.63797065586857
 42
0.048061799369574824
 70
0
  0
VERTEX
  5
175
330
164
100
AcDbEntity
  8
0
 62
7
100
AcDbVertex
100
AcDb2dVertex
 10
56.426609368063964
 20
401.93445146518854
 70
0
  0
VERTEX
  5
176
330
164
100
AcDbEntity
  8
0
 62
7
100
AcDbVertex
100
AcDb2dVertex
 10
69.167787546826958
 20
400.81974282076862
 70
0
  0
VERTEX
  5
177
330
164
100
AcDbEntity
  8
0
 62
7
100
AcDbVertex
100
AcDb2dVertex
 10
68.644853090326933
 20
394.84257463226857
 70
0
  0
VERTEX
  5
178
330
164
100
AcDbEntity
  8
0
 62
7
100
AcDbVertex
100
AcDb2dVertex
 10
55.322336729426979
 20
396.00814378346854
 42
0.023794919415995854
 70
0
  0
VERTEX
  5
179
330
164
100
AcDbEntity
  8
0
 62
7
100
AcDbVertex
100
AcDb2dVertex
 10
53.223344681577942
 20
378.5605247473776
 70
0
  0
VERTEX
  5
17A
330
164
100
AcDbEntity
  8
0
 62
7
100
AcDbVertex
100
AcDb2dVertex
 10
65.671142698827
 20
379.64956595976855
 70
0
  0
VERTEX
  5
17B
330
164
100
AcDbEntity
  8
0
 62
7
100
AcDbVertex
100
AcDb2dVertex
 10
66.194077155326966
 20
373.67239777116856
 70
0
  0
VERTEX
  5
17C
330
164
100
AcDbEntity
  8
0
 62
7
100
AcDbVertex
100
AcDb2dVertex
 10
52.88775567912694
 20
372.50824548876858
 42
0.027959114444476154
 70
0
  0
VERTEX
  5
17D
330
164
100
AcDbEntity
  8
0
 62
7
100
AcDbVertex
100
AcDb2dVertex
 10
53.246828708311909
 20
352.1876669364276
 70
0
  0
VERTEX
  5
17E
330
164
100
AcDbEntity
  8
0
 62
7
100
AcDbVertex
100
AcDb2dVertex
 10
65.086489760226925
 20
355.36009455396857
 70
0
  0
VERTEX
  5
17F
330
164
100
AcDbEntity
  8
0
 62
7
100
AcDbVertex
100
AcDb2dVertex
 10
66.639404030826938
 20
349.56453959616863
 70
0
  0
VERTEX
  5
180
330
164
100
AcDbEntity
  8
0
 62
7
100
AcDbVertex
100
AcDb2dVertex
 10
53.804547130626929
 20
346.12545005476858
 42
0.032351117480801272
 70
0
  0
VERTEX
  5
181
330
164
100
AcDbEntity
  8
0
 62
7
100
AcDbVertex
100
AcDb2dVertex
 10
57.735762766840935
 20
323.77315247684157
 70
0
  0
VERTEX
  5
182
330
164
100
AcDbEntity
  8
0
 62
7
100
AcDbVertex
100
AcDb2dVertex
 10
68.660064036426888
 20
328.8672378188686
 70
0
  0
VERTEX
  5
183
330
164
100
AcDbEntity
  8
0
 62
7
100
AcDbVertex
100
AcDb2dVertex
 10
71.195773606826947
 20
323.42939109666861
 70
0
  0
VERTEX
  5
184
330
164
100
AcDbEntity
  8
0
 62
7
100
AcDbVertex
100
AcDb2dVertex
 10
59.28916073792692
 20
317.87724633326866
 42
0.039767805979187172
 70
0
  0
VERTEX
  5
185
330
164
100
AcDbEntity
  8
0
 62
7
100
AcDbVertex
100
AcDb2dVertex
 10
68.565068476456929
 20
292.85057249415263
 70
0
  0
VERTEX
  5
186
330
164
100
AcDbEntity
  8
0
 62
7
100
AcDbVertex
100
AcDb2dVertex
 10
78.322757863626919
 20
299.68298015866867
 70
0
  0
VERTEX
  5
187
330
164
100
AcDbEntity
  8
0
 62
7
100
AcDbVertex
100
AcDb2dVertex
 10
81.764216481726919
 20
294.76806789286866
 70
0
  0
VERTEX
  5
188
330
164
100
AcDbEntity
  8
0
 62
7
100
AcDbVertex
100
AcDb2dVertex
 10
71.228018891726947
 20
287.3905429162686
 42
0.04999360849003593
 70
0
  0
VERTEX
  5
189
330
164
100
AcDbEntity
  8
0
 62
7
100
AcDbVertex
100
AcDb2dVertex
 10
88.68338355872595
 20
260.30468180232356
 70
0
  0
VERTEX
  5
18A
330
164
100
AcDbEntity
  8
0
 62
7
100
AcDbVertex
100
AcDb2dVertex
 10
97.467998024526935
 20
269.08929626806855
 70
0
  0
VERTEX
  5
18B
330
164
100
AcDbEntity
  8
0
 62
7
100
AcDbVertex
100
AcDb2dVertex
 10
101.71063871162693
 20
264.84665558096856
 70
0
  0
SEQEND
  5
165
100
AcDbEntity
  8
0
  0
POLYLINE
  5
18C
330
1F
100
AcDbEntity
  8
0
 62
7
100
AcDb2dPolyline
 66
1
 70
1
 10
0
 20
0
 30
0
  0
VERTEX
  5
18E
330
18C
100
AcDbEntity
  8
0
 62
7
100
AcDbVertex
100
AcDb2dVertex
 10
12.492397688194206
 20
598.90024211048694
 42
-0.0054661382309885284
 70
0
  0
VERTEX
  5
18F
330
18C
100
AcDbEntity
  8
0
 62
7
100
AcDbVertex
100
AcDb2dVertex
 10
0.992397688194206
 20
598.45318081038693
 70
0
  0
VERTEX
  5
190
330
18C
100
AcDbEntity
  8
0
 62
7
100
AcDbVertex
100
AcDb2dVertex
 10
0.99239768865821887
 20
574.24092320295381
 42
0.0052254971634488612
 70
0
  0
VERTEX
  5
191
330
18C
100
AcDbEntity
  8
0
 62
7
100
AcDbVertex
100
AcDb2dVertex
 10
12.492397688194206
 20
574.668301993187
 70
0
  0
SEQEND
  5
18D
100
AcDbEntity
  8
0
  0
CIRCLE
  5
192
330
1F
100
AcDbEntity
  8
0
 62
7
100
AcDbCircle
 10
6.9423976881941947
 20
586.24481418398693
 30
0
 40
2
  0
POLYLINE
  5
193
330
1F
100
AcDbEntity
  8
0
 62
7
100
AcDb2dPolyline
 66
1
 70
1
 10
0
 20
0
 30
0
  0
VERTEX
  5
195
330
193
100
AcDbEntity
  8
0
 62
7
100
AcDbVertex
100
AcDb2dVertex
 10
118.31035457642747
 20
125.65882380477703
 42
0.029824715514107276
 70
0
  0
VERTEX
  5
196
330
193
100
AcDbEntity
  8
0
 62
7
100
AcDbVertex
100
AcDb2dVertex
 10
85.16506543291348
 20
117.55817329541327
 70
0
  0
VERTEX
  5
197
330
193
100
AcDbEntity
  8
0
 62
7
100
AcDbVertex
100
AcDb2dVertex
 10
93.273379303447484
 20
95.280764026468077
 70
0
  0
VERTEX
  5
198
330
193
100
AcDbEntity
  8
0
 62
7
100
AcDbVertex
100
AcDb2dVertex
 10
87.635223578747514
 20
93.228643166568077
 70
0
  0
VERTEX
  5
199
330
193
100
AcDbEntity
  8
0
 62
7
100
AcDbVertex
100
AcDb2dVertex
 10
79.448470327847474
 20
115.72156286186807
 42
0.035581763456104636
 70
0
  0
VERTEX
  5
19A
330
193
100
AcDbEntity
  8
0
 62
7
100
AcDbVertex
100
AcDb2dVertex
 10
43.28335328950152
 20
100.72826549648677
 70
0
  0
VERTEX
  5
19B
330
193
100
AcDbEntity
  8
0
 62
7
100
AcDbVertex
100
AcDb2dVertex
 10
54.980634536447496
 20
80.467980078668077
 70
0
  0
VERTEX
  5
19C
330
193
100
AcDbEntity
  8
0
 62
7
100
AcDbVertex
100
AcDb2dVertex
 10
49.784482113747515
 20
77.467980078668077
 70
0
  0
VERTEX
  5
19D
330
193
100
AcDbEntity
  8
0
 62
7
100
AcDbVertex
100
AcDb2dVertex
 10
59.2254417375475
 20
61.115758338068055
 42
-0.13771902049241619
 70
0
  0
VERTEX
  5
19E
330
193
100
AcDbEntity
  8
0
 62
7
100
AcDbVertex
100
AcDb2dVertex
 10
191.29738291289351
 20
76.030820637268562
 42
-0.049988470929699248
 70
0
  0
VERTEX
  5
19F
330
193
100
AcDbEntity
  8
0
 62
7
100
AcDbVertex
100
AcDb2dVertex
 10
233.7824972895155
 20
65.409713772123354
 42
-0.11317882957311522
 70
0
  0
VERTEX
  5
1A0
330
193
100
AcDbEntity
  8
0
 62
7
100
AcDbVertex
100
AcDb2dVertex
 10
268.76345752439346
 20
41.279569173141923
 70
0
  0
VERTEX
  5
1A1
330
193
100
AcDbEntity
  8
0
 62
7
100
AcDbVertex
100
AcDb2dVertex
 10
294.6979421050475
 20
56.252850827068031
 70
0
  0
VERTEX
  5
1A2
330
193
100
AcDbEntity
  8
0
 62
7
100
AcDbVertex
100
AcDb2dVertex
 10
291.6979421050475
 20
61.449003249768033
 70
0
  0
VERTEX
  5
1A3
330
193
100
AcDbEntity
  8
0
 62
7
100
AcDbVertex
100
AcDb2dVertex
 10
318.80991384264752
 20
77.102107430768044
 42
0.080327503490919883
 70
0
  0
VERTEX
  5
1A4
330
193
100
AcDbEntity
  8
0
 62
7
100
AcDbVertex
100
AcDb2dVertex
 10
290.73298555682851
 20
102.41211035706284
 70
0
  0
VERTEX
  5
1A5
330
193
100
AcDbEntity
  8
0
 62
7
100
AcDbVertex
100
AcDb2dVertex
 10
270.78204883994749
 20
78.63549624616806
 70
0
  0
VERTEX
  5
1A6
330
193
100
AcDbEntity
  8
0
 62
7
100
AcDbVertex
100
AcDb2dVertex
 10
266.18578218124748
 20
82.49222190426805
 70
0
  0
VERTEX
  5
1A7
330
193
100
AcDbEntity
  8
0
 62
7
100
AcDbVertex
100
AcDb2dVertex
 10
285.56120842954749
 20
105.58295574376805
 42
0.049734794113916653
 70
0
  0
VERTEX
  5
1A8
330
193
100
AcDbEntity
  8
0
 62
7
100
AcDbVertex
100
AcDb2dVertex
 10
263.50158950058449
 20
115.57588941593454
 70
0
  0
VERTEX
  5
1A9
330
193
100
AcDbEntity
  8
0
 62
7
100
AcDbVertex
100
AcDb2dVertex
 10
248.36657969124752
 20
89.361283453068054
 70
0
  0
VERTEX
  5
1AA
330
193
100
AcDbEntity
  8
0
 62
7
100
AcDbVertex
100
AcDb2dVertex
 10
243.17042726854749
 20
92.361283453068054
 70
0
  0
VERTEX
  5
1AB
330
193
100
AcDbEntity
  8
0
 62
7
100
AcDbVertex
100
AcDb2dVertex
 10
257.64278279454749
 20
117.42813852926804
 42
0.022115068376515563
 70
0
  0
VERTEX
  5
1AC
330
193
100
AcDbEntity
  8
0
 62
7
100
AcDbVertex
100
AcDb2dVertex
 10
231.39687471802148
 20
124.1020966062713
 70
0
  0
VERTEX
  5
1AD
330
193
100
AcDbEntity
  8
0
 62
7
100
AcDbVertex
100
AcDb2dVertex
 10
221.5442233157475
 20
97.03215935686805
 70
0
  0
VERTEX
  5
1AE
330
193
100
AcDbEntity
  8
0
 62
7
100
AcDbVertex
100
AcDb2dVertex
 10
215.90606759104747
 20
99.08428021676805
 70
0
  0
VERTEX
  5
1AF
330
193
100
AcDbEntity
  8
0
 62
7
100
AcDbVertex
100
AcDb2dVertex
 10
225.43848529314749
 20
125.27438260596806
 42
0.0235871763554296
 70
0
  0
VERTEX
  5
1B0
330
193
100
AcDbEntity
  8
0
 62
7
100
AcDbVertex
100
AcDb2dVertex
 10
197.04424327508349
 20
129.17714425421443
 70
0
  0
VERTEX
  5
1B1
330
193
100
AcDbEntity
  8
0
 62
7
100
AcDbVertex
100
AcDb2dVertex
 10
192.27103242934749
 20
102.10692036306806
 70
0
  0
VERTEX
  5
1B2
330
193
100
AcDbEntity
  8
0
 62
7
100
AcDbVertex
100
AcDb2dVertex
 10
186.36218591124754
 20
103.14880942906805
 70
0
  0
VERTEX
  5
1B3
330
193
100
AcDbEntity
  8
0
 62
7
100
AcDbVertex
100
AcDb2dVertex
 10
191.03521450494753
 20
129.65087153456807
 42
0.0251540714868348
 70
0
  0
VERTEX
  5
1B4
330
193
100
AcDbEntity
  8
0
 62
7
100
AcDbVertex
100
AcDb2dVertex
 10
161.1114226828405
 20
130.19946395532892
 70
0
  0
VERTEX
  5
1B5
330
193
100
AcDbEntity
  8
0
 62
7
100
AcDbVertex
100
AcDb2dVertex
 10
161.11142268284749
 20
103.96545109376805
 70
0
  0
VERTEX
  5
1B6
330
193
100
AcDbEntity
  8
0
 62
7
100
AcDbVertex
100
AcDb2dVertex
 10
155.11142268284749
 20
103.96545109376805
 70
0
  0
VERTEX
  5
1B7
330
193
100
AcDbEntity
  8
0
 62
7
100
AcDbVertex
100
AcDb2dVertex
 10
155.11142268284749
 20
129.94514015086807
 42
0.026298972708691856
 70
0
  0
VERTEX
  5
1B8
330
193
100
AcDbEntity
  8
0
 62
7
100
AcDbVertex
100
AcDb2dVertex
 10
124.22443246321751
 20
126.67104429655514
 70
0
  0
VERTEX
  5
1B9
330
193
100
AcDbEntity
  8
0
 62
7
100
AcDbVertex
100
AcDb2dVertex
 10
128.56518270844748
 20
102.05342635596807
 70
0
  0
VERTEX
  5
1BA
330
193
100
AcDbEntity
  8
0
 62
7
100
AcDbVertex
100
AcDb2dVertex
 10
122.65633619034747
 20
101.01153728996806
 70
0
  0
SEQEND
  5
194
100
AcDbEntity
  8
0
  0
POLYLINE
  5
1BB
330
1F
100
AcDbEntity
  8
0
 62
7
100
AcDb2dPolyline
 66
1
 70
1
 10
0
 20
0
 30
0
  0
VERTEX
  5
1BD
330
1BB
100
AcDbEntity
  8
0
 62
7
100
AcDbVertex
100
AcDb2dVertex
 10
601.10478287899184
 20
477.65049984271968
 42
-0.11186393418302208
 70
0
  0
VERTEX
  5
1BE
330
1BB
100
AcDbEntity
  8
0
 62
7
100
AcDbVertex
100
AcDb2dVertex
 10
622.03693819904993
 20
300.36316625960865
 42
-0.0745117223729249
 70
0
  0
VERTEX
  5
1BF
330
1BB
100
AcDbEntity
  8
0
 62
7
100
AcDbVertex
100
AcDb2dVertex
 10
602.67455883159766
 20
225.0890342046786
 42
-0.17878232164942218
 70
0
  0
VERTEX
  5
1C0
330
1BB
100
AcDbEntity
  8
0
 62
7
100
AcDbVertex
100
AcDb2dVertex
 10
568.02347240912991
 20
191.87749112161467
 42
-0.11256169349000486
 70
0
  0
VERTEX
  5
1C1
330
1BB
100
AcDbEntity
  8
0
 62
7
100
AcDbVertex
100
AcDb2dVertex
 10
531.16620253895883
 20
184.0255986449906
 42
-0.014090354822353863
 70
0
  0
VERTEX
  5
1C2
330
1BB
100
AcDbEntity
  8
0
 62
7
100
AcDbVertex
100
AcDb2dVertex
 10
372.20460292300891
 20
184.71362442542258
 42
0.0035942678293469869
 70
0
  0
VERTEX
  5
1C3
330
1BB
100
AcDbEntity
  8
0
 62
7
100
AcDbVertex
100
AcDb2dVertex
 10
206.27498059660979
 20
188.86578497418967
 42
0.020271098143924172
 70
0
  0
VERTEX
  5
1C4
330
1BB
100
AcDbEntity
  8
0
 62
7
100
AcDbVertex
100
AcDb2dVertex
 10
77.352970275186863
 20
186.04971748954873
 42
0.010695126553815585
 70
0
  0
VERTEX
  5
1C5
330
1BB
100
AcDbEntity
  8
0
 62
7
100
AcDbVertex
100
AcDb2dVertex
 10
38.526463452954886
 20
182.4453814520447
 70
0
  0
VERTEX
  5
1C6
330
1BB
100
AcDbEntity
  8
0
 62
7
100
AcDbVertex
100
AcDb2dVertex
 10
38.105677639228816
 20
183.25007472585767
 70
0
  0
VERTEX
  5
1C7
330
1BB
100
AcDbEntity
  8
0
 62
7
100
AcDbVertex
100
AcDb2dVertex
 10
85.958171832128983
 20
208.27284030785771
 70
0
  0
VERTEX
  5
1C8
330
1BB
100
AcDbEntity
  8
0
 62
7
100
AcDbVertex
100
AcDb2dVertex
 10
91.455606843428768
 20
197.75977467185774
 70
0
  0
VERTEX
  5
1C9
330
1BB
100
AcDbEntity
  8
0
 62
7
100
AcDbVertex
100
AcDb2dVertex
 10
96.772550662228923
 20
200.54008196905758
 70
0
  0
VERTEX
  5
1CA
330
1BB
100
AcDbEntity
  8
0
 62
7
100
AcDbVertex
100
AcDb2dVertex
 10
91.27511565092891
 20
211.05314760495767
 70
0
  0
VERTEX
  5
1CB
330
1BB
100
AcDbEntity
  8
0
 62
7
100
AcDbVertex
100
AcDb2dVertex
 10
92.029941907628881
 20
211.44785723915769
 42
-0.011667231473015719
 70
0
  0
VERTEX
  5
1CC
330
1BB
100
AcDbEntity
  8
0
 62
7
100
AcDbVertex
100
AcDb2dVertex
 10
155.82762917169998
 20
212.77148237589458
 70
0
  0
VERTEX
  5
1CD
330
1BB
100
AcDbEntity
  8
0
 62
7
100
AcDbVertex
100
AcDb2dVertex
 10
162.03492404152871
 20
200.90105948245767
 70
0
  0
VERTEX
  5
1CE
330
1BB
100
AcDbEntity
  8
0
 62
7
100
AcDbVertex
100
AcDb2dVertex
 10
167.35186784932898
 20
203.68136677385772
 70
0
  0
VERTEX
  5
1CF
330
1BB
100
AcDbEntity
  8
0
 62
7
100
AcDbVertex
100
AcDb2dVertex
 10
162.60024952072877
 20
212.7681636641577
 42
-0.0059812454242090538
 70
0
  0
VERTEX
  5
1D0
330
1BB
100
AcDbEntity
  8
0
 62
7
100
AcDbVertex
100
AcDb2dVertex
 10
233.09790678036381
 20
211.74951529978259
 70
0
  0
VERTEX
  5
1D1
330
1BB
100
AcDbEntity
  8
0
 62
7
100
AcDbVertex
100
AcDb2dVertex
 10
239.2551510263288
 20
199.9746844725577
 70
0
  0
VERTEX
  5
1D2
330
1BB
100
AcDbEntity
  8
0
 62
7
100
AcDbVertex
100
AcDb2dVertex
 10
244.57209482752887
 20
202.75499176045767
 70
0
  0
VERTEX
  5
1D3
330
1BB
100
AcDbEntity
  8
0
 62
7
100
AcDbVertex
100
AcDb2dVertex
 10
239.95647856832886
 20
211.58170396035771
 70
0
  0
VERTEX
  5
1D4
330
1BB
100
AcDbEntity
  8
0
 62
7
100
AcDbVertex
100
AcDb2dVertex
 10
315.58788021668181
 20
209.37772392705475
 70
0
  0
VERTEX
  5
1D5
330
1BB
100
AcDbEntity
  8
0
 62
7
100
AcDbVertex
100
AcDb2dVertex
 10
321.70877827622883
 20
197.67231220295767
 70
0
  0
VERTEX
  5
1D6
330
1BB
100
AcDbEntity
  8
0
 62
7
100
AcDbVertex
100
AcDb2dVertex
 10
327.02572210232881
 20
200.45261950385773
 70
0
  0
VERTEX
  5
1D7
330
1BB
100
AcDbEntity
  8
0
 62
7
100
AcDbVertex
100
AcDb2dVertex
 10
322.46952930332884
 20
209.1656927547576
 42
0.001856790789607455
 70
0
  0
VERTEX
  5
1D8
330
1BB
100
AcDbEntity
  8
0
 62
7
100
AcDbVertex
100
AcDb2dVertex
 10
402.59543088736291
 20
206.99884272024568
 70
0
  0
VERTEX
  5
1D9
330
1BB
100
AcDbEntity
  8
0
 62
7
100
AcDbVertex
100
AcDb2dVertex
 10
408.67490263352886
 20
195.37256795145757
 70
0
  0
VERTEX
  5
1DA
330
1BB
100
AcDbEntity
  8
0
 62
7
100
AcDbVertex
100
AcDb2dVertex
 10
413.99184643412889
 20
198.15287523905758
 70
0
  0
VERTEX
  5
1DB
330
1BB
100
AcDbEntity
  8
0
 62
7
100
AcDbVertex
100
AcDb2dVertex
 10
409.43783273462884
 20
206.86178127085773
 42
0.0065702649758618064
 70
0
  0
VERTEX
  5
1DC
330
1BB
100
AcDbEntity
  8
0
 62
7
100
AcDbVertex
100
AcDb2dVertex
 10
493.20722568517283
 20
206.35933153459874
 70
0
  0
VERTEX
  5
1DD
330
1BB
100
AcDbEntity
  8
0
 62
7
100
AcDbVertex
100
AcDb2dVertex
 10
499.20237610852882
 20
194.8943873391577
 70
0
  0
VERTEX
  5
1DE
330
1BB
100
AcDbEntity
  8
0
 62
7
100
AcDbVertex
100
AcDb2dVertex
 10
504.51931992642881
 20
197.67469463575779
 70
0
  0
VERTEX
  5
1DF
330
1BB
100
AcDbEntity
  8
0
 62
7
100
AcDbVertex
100
AcDb2dVertex
 10
499.93436669172888
 20
206.44276814545768
 42
0.0065645458946341833
 70
0
  0
VERTEX
  5
1E0
330
1BB
100
AcDbEntity
  8
0
 62
7
100
AcDbVertex
100
AcDb2dVertex
 10
539.75749624743094
 20
207.5421206242647
 42
0.15975827998819761
 70
0
  0
VERTEX
  5
1E1
330
1BB
100
AcDbEntity
  8
0
 62
7
100
AcDbVertex
100
AcDb2dVertex
 10
572.76811472595182
 20
222.5370520433577
 70
0
  0
VERTEX
  5
1E2
330
1BB
100
AcDbEntity
  8
0
 62
7
100
AcDbVertex
100
AcDb2dVertex
 10
577.43637916202886
 20
213.60965766375759
 70
0
  0
VERTEX
  5
1E3
330
1BB
100
AcDbEntity
  8
0
 62
7
100
AcDbVertex
100
AcDb2dVertex
 10
582.75332295772887
 20
216.38996494875769
 70
0
  0
VERTEX
  5
1E4
330
1BB
100
AcDbEntity
  8
0
 62
7
100
AcDbVertex
100
AcDb2dVertex
 10
577.06925854722886
 20
227.25993287085771
 42
0.082006292684524751
 70
0
  0
VERTEX
  5
1E5
330
1BB
100
AcDbEntity
  8
0
 62
7
100
AcDbVertex
100
AcDb2dVertex
 10
584.41155111078194
 20
241.2870660669897
 42
0.074335945010490831
 70
0
  0
VERTEX
  5
1E6
330
1BB
100
AcDbEntity
  8
0
 62
7
100
AcDbVertex
100
AcDb2dVertex
 10
600.38807497531445
 20
315.85476116987132
 42
0.030721518476439117
 70
0
  0
VERTEX
  5
1E7
330
1BB
100
AcDbEntity
  8
0
 62
7
100
AcDbVertex
100
AcDb2dVertex
 10
600.94617958117669
 20
358.55756115816587
 70
0
  0
VERTEX
  5
1E8
330
1BB
100
AcDbEntity
  8
0
 62
7
100
AcDbVertex
100
AcDb2dVertex
 10
606.71486646272888
 20
347.52576474885768
 70
0
  0
VERTEX
  5
1E9
330
1BB
100
AcDbEntity
  8
0
 62
7
100
AcDbVertex
100
AcDb2dVertex
 10
612.0318102638289
 20
350.30607203675766
 70
0
  0
VERTEX
  5
1EA
330
1BB
100
AcDbEntity
  8
0
 62
7
100
AcDbVertex
100
AcDb2dVertex
 10
599.9931936893289
 20
373.32822072115766
 42
0.060895773927431528
 70
0
  0
VERTEX
  5
1EB
330
1BB
100
AcDbEntity
  8
0
 62
7
100
AcDbVertex
100
AcDb2dVertex
 10
580.51883323602351
 20
466.88580719948163
 70
0
  0
SEQEND
  5
1BC
100
AcDbEntity
  8
0
  0
POLYLINE
  5
1EC
330
1F
100
AcDbEntity
  8
0
 62
7
100
AcDb2dPolyline
 66
1
 70
1
 10
0
 20
0
 30
0
  0
VERTEX
  5
1EE
330
1EC
100
AcDbEntity
  8
0
 62
7
100
AcDbVertex
100
AcDb2dVertex
 10
87.44678381735946
 20
562.15789596873924
 42
0.20868011643533665
 70
0
  0
VERTEX
  5
1EF
330
1EC
100
AcDbEntity
  8
0
 62
7
100
AcDbVertex
100
AcDb2dVertex
 10
217.18215069901345
 20
511.16736423815723
 42
0.055935941948111356
 70
0
  0
VERTEX
  5
1F0
330
1EC
100
AcDbEntity
  8
0
 62
7
100
AcDbVertex
100
AcDb2dVertex
 10
253.63501758431744
 20
515.98769373479422
 42
0.16149188271762885
 70
0
  0
VERTEX
  5
1F1
330
1EC
100
AcDbEntity
  8
0
 62
7
100
AcDbVertex
100
AcDb2dVertex
 10
290.45575320473245
 20
541.96373906635927
 70
0
  0
VERTEX
  5
1F2
330
1EC
100
AcDbEntity
  8
0
 62
7
100
AcDbVertex
100
AcDb2dVertex
 10
300.80876518004743
 20
531.61072709094424
 70
0
  0
VERTEX
  5
1F3
330
1EC
100
AcDbEntity
  8
0
 62
7
100
AcDbVertex
100
AcDb2dVertex
 10
296.56612449294744
 20
527.36808640384425
 70
0
  0
VERTEX
  5
1F4
330
1EC
100
AcDbEntity
  8
0
 62
7
100
AcDbVertex
100
AcDb2dVertex
 10
307.1828334846474
 20
516.75137741224421
 42
-0.0586679401761886
 70
0
  0
VERTEX
  5
1F5
330
1EC
100
AcDbEntity
  8
0
 62
7
100
AcDbVertex
100
AcDb2dVertex
 10
289.76958292467248
 20
501.37949859539611
 70
0
  0
VERTEX
  5
1F6
330
1EC
100
AcDbEntity
  8
0
 62
7
100
AcDbVertex
100
AcDb2dVertex
 10
284.16193708314745
 20
513.40513391034426
 70
0
  0
VERTEX
  5
1F7
330
1EC
100
AcDbEntity
  8
0
 62
7
100
AcDbVertex
100
AcDb2dVertex
 10
278.72409036094746
 20
510.8694243399442
 70
0
  0
VERTEX
  5
1F8
330
1EC
100
AcDbEntity
  8
0
 62
7
100
AcDbVertex
100
AcDb2dVertex
 10
284.67692820474747
 20
498.10352238714421
 42
-0.049447919459450276
 70
0
  0
VERTEX
  5
1F9
330
1EC
100
AcDbEntity
  8
0
 62
7
100
AcDbVertex
100
AcDb2dVertex
 10
268.21388357287447
 20
490.33800877789065
 70
0
  0
VERTEX
  5
1FA
330
1EC
100
AcDbEntity
  8
0
 62
7
100
AcDbVertex
100
AcDb2dVertex
 10
264.70440563554746
 20
503.43555874794424
 70
0
  0
VERTEX
  5
1FB
330
1EC
100
AcDbEntity
  8
0
 62
7
100
AcDbVertex
100
AcDb2dVertex
 10
258.90885067784745
 20
501.88264447724418
 70
0
  0
VERTEX
  5
1FC
330
1EC
100
AcDbEntity
  8
0
 62
7
100
AcDbVertex
100
AcDb2dVertex
 10
262.48773253714745
 20
488.52607554424424
 42
-0.040708772410221306
 70
0
  0
VERTEX
  5
1FD
330
1EC
100
AcDbEntity
  8
0
 62
7
100
AcDbVertex
100
AcDb2dVertex
 10
240.64668258234343
 20
484.56845579638093
 70
0
  0
VERTEX
  5
1FE
330
1EC
100
AcDbEntity
  8
0
 62
7
100
AcDbVertex
100
AcDb2dVertex
 10
239.47167326054745
 20
497.99887380084419
 70
0
  0
VERTEX
  5
1FF
330
1EC
100
AcDbEntity
  8
0
 62
7
100
AcDbVertex
100
AcDb2dVertex
 10
233.49450507194743
 20
497.47593934434423
 70
0
  0
VERTEX
  5
200
330
1EC
100
AcDbEntity
  8
0
 62
7
100
AcDbVertex
100
AcDb2dVertex
 10
234.67960539404743
 20
483.9301806791442
 42
-0.028813606668132645
 70
0
  0
VERTEX
  5
201
330
1EC
100
AcDbEntity
  8
0
 62
7
100
AcDbVertex
100
AcDb2dVertex
 10
209.63041925209643
 20
483.05751557968642
 70
0
  0
VERTEX
  5
202
330
1EC
100
AcDbEntity
  8
0
 62
7
100
AcDbVertex
100
AcDb2dVertex
 10
210.77363500314743
 20
496.12453140714422
 70
0
  0
VERTEX
  5
203
330
1EC
100
AcDbEntity
  8
0
 62
7
100
AcDbVertex
100
AcDb2dVertex
 10
204.79646681454744
 20
496.64746586364424
 70
0
  0
VERTEX
  5
204
330
1EC
100
AcDbEntity
  8
0
 62
7
100
AcDbVertex
100
AcDb2dVertex
 10
203.62736473134743
 20
483.2845679049442
 42
-0.032493160077044107
 70
0
  0
VERTEX
  5
205
330
1EC
100
AcDbEntity
  8
0
 62
7
100
AcDbVertex
100
AcDb2dVertex
 10
176.44118499921743
 20
486.4874157173993
 70
0
  0
VERTEX
  5
206
330
1EC
100
AcDbEntity
  8
0
 62
7
100
AcDbVertex
100
AcDb2dVertex
 10
179.76017862764743
 20
498.87406856864425
 70
0
  0
VERTEX
  5
207
330
1EC
100
AcDbEntity
  8
0
 62
7
100
AcDbVertex
100
AcDb2dVertex
 10
173.96462366984744
 20
500.4269828392442
 70
0
  0
VERTEX
  5
208
330
1EC
100
AcDbEntity
  8
0
 62
7
100
AcDbVertex
100
AcDb2dVertex
 10
170.54583680714745
 20
487.66789656704424
 42
-0.03559371317196567
 70
0
  0
VERTEX
  5
209
330
1EC
100
AcDbEntity
  8
0
 62
7
100
AcDbVertex
100
AcDb2dVertex
 10
142.48014898579942
 20
495.85183980834904
 70
0
  0
VERTEX
  5
20A
330
1EC
100
AcDbEntity
  8
0
 62
7
100
AcDbVertex
100
AcDb2dVertex
 10
147.80115441824745
 20
507.26277278224421
 70
0
  0
VERTEX
  5
20B
330
1EC
100
AcDbEntity
  8
0
 62
7
100
AcDbVertex
100
AcDb2dVertex
 10
142.36330769594741
 20
509.79848235264421
 70
0
  0
VERTEX
  5
20C
330
1EC
100
AcDbEntity
  8
0
 62
7
100
AcDbVertex
100
AcDb2dVertex
 10
136.87537690944743
 20
498.02957680164423
 42
-0.040610671923057881
 70
0
  0
VERTEX
  5
20D
330
1EC
100
AcDbEntity
  8
0
 62
7
100
AcDbVertex
100
AcDb2dVertex
 10
107.71443734465646
 20
512.73315308855626
 70
0
  0
VERTEX
  5
20E
330
1EC
100
AcDbEntity
  8
0
 62
7
100
AcDbVertex
100
AcDb2dVertex
 10
114.86235130654745
 20
522.94143216554426
 70
0
  0
VERTEX
  5
20F
330
1EC
100
AcDbEntity
  8
0
 62
7
100
AcDbVertex
100
AcDb2dVertex
 10
109.94743904074744
 20
526.38289078364426
 70
0
  0
VERTEX
  5
210
330
1EC
100
AcDbEntity
  8
0
 62
7
100
AcDbVertex
100
AcDb2dVertex
 10
102.63798571224743
 20
515.94390958214422
 42
-0.0473405503393193
 70
0
  0
VERTEX
  5
211
330
1EC
100
AcDbEntity
  8
0
 62
7
100
AcDbVertex
100
AcDb2dVertex
 10
73.217836123847462
 20
539.44366690098923
 70
0
  0
VERTEX
  5
212
330
1EC
100
AcDbEntity
  8
0
 62
7
100
AcDbVertex
100
AcDb2dVertex
 10
82.44981682804746
 20
548.67564760524419
 70
0
  0
VERTEX
  5
213
330
1EC
100
AcDbEntity
  8
0
 62
7
100
AcDbVertex
100
AcDb2dVertex
 10
78.207176140947411
 20
552.91828829234419
 70
0
  0
SEQEND
  5
1ED
100
AcDbEntity
  8
0
  0
POLYLINE
  5
214
330
1F
100
AcDbEntity
  8
0
 62
7
100
AcDb2dPolyline
 66
1
 70
1
 10
0
 20
0
 30
0
  0
VERTEX
  5
216
330
214
100
AcDbEntity
  8
0
 62
7
100
AcDbVertex
100
AcDb2dVertex
 10
444.58238831514672
 20
105.81795688823328
 42
0.091312497882543822
 70
0
  0
VERTEX
  5
217
330
214
100
AcDbEntity
  8
0
 62
7
100
AcDbVertex
100
AcDb2dVertex
 10
613.13204330969415
 20
76.960393653669371
 42
0.062635747974353229
 70
0
  0
VERTEX
  5
218
330
214
100
AcDbEntity
  8
0
 62
7
100
AcDbVertex
100
AcDb2dVertex
 10
685.24883772805867
 20
86.802628663464077
 42
0.20655221546280012
 70
0
  0
VERTEX
  5
219
330
214
100
AcDbEntity
  8
0
 62
7
100
AcDbVertex
100
AcDb2dVertex
 10
726.66002757294473
 20
123.65692381051628
 42
0.12420358799739535
 70
0
  0
VERTEX
  5
21A
330
214
100
AcDbEntity
  8
0
 62
7
100
AcDbVertex
100
AcDb2dVertex
 10
734.79968281931565
 20
162.40313957252727
 42
0.00956593801873122
 70
0
  0
VERTEX
  5
21B
330
214
100
AcDbEntity
  8
0
 62
7
100
AcDbVertex
100
AcDb2dVertex
 10
732.20562786828577
 20
303.31867517258831
 42
-0.010363407637505895
 70
0
  0
VERTEX
  5
21C
330
214
100
AcDbEntity
  8
0
 62
7
100
AcDbVertex
100
AcDb2dVertex
 10
729.63667069005578
 20
459.22896207688132
 42
-0.020379321699726345
 70
0
  0
VERTEX
  5
21D
330
214
100
AcDbEntity
  8
0
 62
7
100
AcDbVertex
100
AcDb2dVertex
 10
735.96297407715679
 20
589.99069593303329
 70
0
  0
VERTEX
  5
21E
330
214
100
AcDbEntity
  8
0
 62
7
100
AcDbVertex
100
AcDb2dVertex
 10
709.39885101246773
 20
545.85040363820235
 70
0
  0
VERTEX
  5
21F
330
214
100
AcDbEntity
  8
0
 62
7
100
AcDbVertex
100
AcDb2dVertex
 10
720.61543973436778
 20
539.10013471870229
 70
0
  0
VERTEX
  5
220
330
214
100
AcDbEntity
  8
0
 62
7
100
AcDbVertex
100
AcDb2dVertex
 10
717.52162147126774
 20
533.95928959810226
 70
0
  0
VERTEX
  5
221
330
214
100
AcDbEntity
  8
0
 62
7
100
AcDbVertex
100
AcDb2dVertex
 10
708.50670160366781
 20
539.38456950290231
 42
0.0070223113583112945
 70
0
  0
VERTEX
  5
222
330
214
100
AcDbEntity
  8
0
 62
7
100
AcDbVertex
100
AcDb2dVertex
 10
706.6729487806922
 20
468.12649939422829
 70
0
  0
VERTEX
  5
223
330
214
100
AcDbEntity
  8
0
 62
7
100
AcDbVertex
100
AcDb2dVertex
 10
718.13125501226773
 20
461.23076216590232
 70
0
  0
VERTEX
  5
224
330
214
100
AcDbEntity
  8
0
 62
7
100
AcDbVertex
100
AcDb2dVertex
 10
715.03743674916768
 20
456.08991704520224
 70
0
  0
VERTEX
  5
225
330
214
100
AcDbEntity
  8
0
 62
7
100
AcDbVertex
100
AcDb2dVertex
 10
706.58747964126769
 20
461.17519602350228
 42
0.0080346274801394845
 70
0
  0
VERTEX
  5
226
330
214
100
AcDbEntity
  8
0
 62
7
100
AcDbVertex
100
AcDb2dVertex
 10
707.05521127858492
 20
383.86357364375033
 70
0
  0
VERTEX
  5
227
330
214
100
AcDbEntity
  8
0
 62
7
100
AcDbVertex
100
AcDb2dVertex
 10
718.70540474006771
 20
376.85235652780227
 70
0
  0
VERTEX
  5
228
330
214
100
AcDbEntity
  8
0
 62
7
100
AcDbVertex
100
AcDb2dVertex
 10
715.61158647696766
 20
371.71151140710231
 70
0
  0
VERTEX
  5
229
330
214
100
AcDbEntity
  8
0
 62
7
100
AcDbVertex
100
AcDb2dVertex
 10
707.19792718596773
 20
376.77494595210226
 70
0
  0
VERTEX
  5
22A
330
214
100
AcDbEntity
  8
0
 62
7
100
AcDbVertex
100
AcDb2dVertex
 10
709.451502342647
 20
293.72008982131126
 70
0
  0
VERTEX
  5
22B
330
214
100
AcDbEntity
  8
0
 62
7
100
AcDbVertex
100
AcDb2dVertex
 10
721.18899617316765
 20
286.65633434660231
 70
0
  0
VERTEX
  5
22C
330
214
100
AcDbEntity
  8
0
 62
7
100
AcDbVertex
100
AcDb2dVertex
 10
718.09517791006772
 20
281.51548922590223
 70
0
  0
VERTEX
  5
22D
330
214
100
AcDbEntity
  8
0
 62
7
100
AcDbVertex
100
AcDb2dVertex
 10
709.6603916592677
 20
286.59163821230231
 42
-0.003829258643110389
 70
0
  0
VERTEX
  5
22E
330
214
100
AcDbEntity
  8
0
 62
7
100
AcDbVertex
100
AcDb2dVertex
 10
711.52380441773607
 20
199.10309306703832
 70
0
  0
VERTEX
  5
22F
330
214
100
AcDbEntity
  8
0
 62
7
100
AcDbVertex
100
AcDb2dVertex
 10
723.18310489796772
 20
192.08639524510224
 70
0
  0
VERTEX
  5
230
330
214
100
AcDbEntity
  8
0
 62
7
100
AcDbVertex
100
AcDb2dVertex
 10
720.08928663486768
 20
186.94555012440227
 70
0
  0
VERTEX
  5
231
330
214
100
AcDbEntity
  8
0
 62
7
100
AcDbVertex
100
AcDb2dVertex
 10
711.56936639006767
 20
192.0729337034023
 42
-0.011443197867445687
 70
0
  0
VERTEX
  5
232
330
214
100
AcDbEntity
  8
0
 62
7
100
AcDbVertex
100
AcDb2dVertex
 10
711.18731698202782
 20
153.40937397674426
 42
-0.18295430666448406
 70
0
  0
VERTEX
  5
233
330
214
100
AcDbEntity
  8
0
 62
7
100
AcDbVertex
100
AcDb2dVertex
 10
694.1984178398942
 20
118.49408952610028
 70
0
  0
VERTEX
  5
234
330
214
100
AcDbEntity
  8
0
 62
7
100
AcDbVertex
100
AcDb2dVertex
 10
702.96230837496773
 20
113.21988187900229
 70
0
  0
VERTEX
  5
235
330
214
100
AcDbEntity
  8
0
 62
7
100
AcDbVertex
100
AcDb2dVertex
 10
699.86849011176764
 20
108.07903675840228
 70
0
  0
VERTEX
  5
236
330
214
100
AcDbEntity
  8
0
 62
7
100
AcDbVertex
100
AcDb2dVertex
 10
689.2161466920677
 20
114.48973652530228
 42
-0.10392171037042644
 70
0
  0
VERTEX
  5
237
330
214
100
AcDbEntity
  8
0
 62
7
100
AcDbVertex
100
AcDb2dVertex
 10
670.82875326241856
 20
107.05996359680228
 42
-0.065901196733595874
 70
0
  0
VERTEX
  5
238
330
214
100
AcDbEntity
  8
0
 62
7
100
AcDbVertex
100
AcDb2dVertex
 10
591.44266442459775
 20
100.18659081492928
 42
-0.026217379381341891
 70
0
  0
VERTEX
  5
239
330
214
100
AcDbEntity
  8
0
 62
7
100
AcDbVertex
100
AcDb2dVertex
 10
547.67544472137581
 20
103.96641010367327
 70
0
  0
VERTEX
  5
23A
330
214
100
AcDbEntity
  8
0
 62
7
100
AcDbVertex
100
AcDb2dVertex
 10
559.00700828536765
 20
97.1469480388023
 70
0
  0
VERTEX
  5
23B
330
214
100
AcDbEntity
  8
0
 62
7
100
AcDbVertex
100
AcDb2dVertex
 10
555.91319002216767
 20
92.006102918202288
 70
0
  0
VERTEX
  5
23C
330
214
100
AcDbEntity
  8
0
 62
7
100
AcDbVertex
100
AcDb2dVertex
 10
532.03303338976775
 20
106.37744906490229
 42
-0.041603492130191273
 70
0
  0
VERTEX
  5
23D
330
214
100
AcDbEntity
  8
0
 62
7
100
AcDbVertex
100
AcDb2dVertex
 10
456.66346927975871
 20
125.89249289742327
 70
0
  0
SEQEND
  5
215
100
AcDbEntity
  8
0
  0
POLYLINE
  5
23E
330
1F
100
AcDbEntity
  8
0
 62
7
100
AcDb2dPolyline
 66
1
 70
1
 10
0
 20
0
 30
0
  0
VERTEX
  5
240
330
23E
100
AcDbEntity
  8
0
 62
7
100
AcDbVertex
100
AcDb2dVertex
 10
471.0368775372051
 20
528.35493751833144
 42
-0.072659927165811072
 70
0
  0
VERTEX
  5
241
330
23E
100
AcDbEntity
  8
0
 62
7
100
AcDbVertex
100
AcDb2dVertex
 10
507.95428599419938
 20
374.321164155862
 42
-0.0420988592340123
 70
0
  0
VERTEX
  5
242
330
23E
100
AcDbEntity
  8
0
 62
7
100
AcDbVertex
100
AcDb2dVertex
 10
508.21327754421759
 20
313.41617064786971
 42
-0.30688842612821426
 70
0
  0
VERTEX
  5
243
330
23E
100
AcDbEntity
  8
0
 62
7
100
AcDbVertex
100
AcDb2dVertex
 10
455.93340091358709
 20
255.27773195875841
 42
-0.081916939529231431
 70
0
  0
VERTEX
  5
244
330
23E
100
AcDbEntity
  8
0
 62
7
100
AcDbVertex
100
AcDb2dVertex
 10
429.12151528606205
 20
253.36346605575341
 42
0.007549131298590318
 70
0
  0
VERTEX
  5
245
330
23E
100
AcDbEntity
  8
0
 62
7
100
AcDbVertex
100
AcDb2dVertex
 10
271.28317548111204
 20
259.04834942929745
 42
0.02656412664210606
 70
0
  0
VERTEX
  5
246
330
23E
100
AcDbEntity
  8
0
 62
7
100
AcDbVertex
100
AcDb2dVertex
 10
101.50896378094512
 20
253.54808465356541
 70
0
  0
VERTEX
  5
247
330
23E
100
AcDbEntity
  8
0
 62
7
100
AcDbVertex
100
AcDb2dVertex
 10
87.580747140531116
 20
252.18036973844943
 70
0
  0
VERTEX
  5
248
330
23E
100
AcDbEntity
  8
0
 62
7
100
AcDbVertex
100
AcDb2dVertex
 10
116.10835896408412
 20
272.7266597586954
 70
0
  0
VERTEX
  5
249
330
23E
100
AcDbEntity
  8
0
 62
7
100
AcDbVertex
100
AcDb2dVertex
 10
122.23371935388411
 20
264.22186870859542
 70
0
  0
VERTEX
  5
24A
330
23E
100
AcDbEntity
  8
0
 62
7
100
AcDbVertex
100
AcDb2dVertex
 10
127.1024066478841
 20
267.72841744389541
 70
0
  0
VERTEX
  5
24B
330
23E
100
AcDbEntity
  8
0
 62
7
100
AcDbVertex
100
AcDb2dVertex
 10
120.97704625818415
 20
276.23320849399545
 70
0
  0
VERTEX
  5
24C
330
23E
100
AcDbEntity
  8
0
 62
7
100
AcDbVertex
100
AcDb2dVertex
 10
124.63193945048408
 20
278.86555276409541
 42
-0.0125256613342671
 70
0
  0
VERTEX
  5
24D
330
23E
100
AcDbEntity
  8
0
 62
7
100
AcDbVertex
100
AcDb2dVertex
 10
198.15919453190111
 20
282.00077567966122
 70
0
  0
VERTEX
  5
24E
330
23E
100
AcDbEntity
  8
0
 62
7
100
AcDbVertex
100
AcDb2dVertex
 10
206.39108052248412
 20
270.57116730959547
 70
0
  0
VERTEX
  5
24F
330
23E
100
AcDbEntity
  8
0
 62
7
100
AcDbVertex
100
AcDb2dVertex
 10
211.2597678164841
 20
274.07771604489545
 70
0
  0
VERTEX
  5
250
330
23E
100
AcDbEntity
  8
0
 62
7
100
AcDbVertex
100
AcDb2dVertex
 10
205.46182642228405
 20
282.12790035099545
 42
-0.010130411075256933
 70
0
  0
VERTEX
  5
251
330
23E
100
AcDbEntity
  8
0
 62
7
100
AcDbVertex
100
AcDb2dVertex
 10
292.06080872645612
 20
281.66494802388115
 70
0
  0
VERTEX
  5
252
330
23E
100
AcDbEntity
  8
0
 62
7
100
AcDbVertex
100
AcDb2dVertex
 10
300.50260266638406
 20
269.94389181749546
 70
0
  0
VERTEX
  5
253
330
23E
100
AcDbEntity
  8
0
 62
7
100
AcDbVertex
100
AcDb2dVertex
 10
305.37128996048409
 20
273.45044055279544
 70
0
  0
VERTEX
  5
254
330
23E
100
AcDbEntity
  8
0
 62
7
100
AcDbVertex
100
AcDb2dVertex
 10
299.58599581528415
 20
281.48306471489542
 42
-0.0049352584187241973
 70
0
  0
VERTEX
  5
255
330
23E
100
AcDbEntity
  8
0
 62
7
100
AcDbVertex
100
AcDb2dVertex
 10
393.18512352823711
 20
278.14505782789053
 70
0
  0
VERTEX
  5
256
330
23E
100
AcDbEntity
  8
0
 62
7
100
AcDbVertex
100
AcDb2dVertex
 10
401.80775138318404
 20
266.17292173409544
 70
0
  0
VERTEX
  5
257
330
23E
100
AcDbEntity
  8
0
 62
7
100
AcDbVertex
100
AcDb2dVertex
 10
406.67643867718414
 20
269.67947046939543
 70
0
  0
VERTEX
  5
258
330
23E
100
AcDbEntity
  8
0
 62
7
100
AcDbVertex
100
AcDb2dVertex
 10
400.80575447908404
 20
277.83065493039544
 42
0.0023336382135008098
 70
0
  0
VERTEX
  5
259
330
23E
100
AcDbEntity
  8
0
 62
7
100
AcDbVertex
100
AcDb2dVertex
 10
438.73267308889808
 20
276.44672522671323
 42
0.22780125783201896
 70
0
  0
VERTEX
  5
25A
330
23E
100
AcDbEntity
  8
0
 62
7
100
AcDbVertex
100
AcDb2dVertex
 10
476.56062216207408
 20
295.84644282323586
 70
0
  0
VERTEX
  5
25B
330
23E
100
AcDbEntity
  8
0
 62
7
100
AcDbVertex
100
AcDb2dVertex
 10
482.54776679168413
 20
287.53355822189542
 70
0
  0
VERTEX
  5
25C
330
23E
100
AcDbEntity
  8
0
 62
7
100
AcDbVertex
100
AcDb2dVertex
 10
487.41645408568411
 20
291.04010695709542
 70
0
  0
VERTEX
  5
25D
330
23E
100
AcDbEntity
  8
0
 62
7
100
AcDbVertex
100
AcDb2dVertex
 10
480.05295830648413
 20
301.26399404559544
 42
0.12452458380550183
 70
0
  0
VERTEX
  5
25E
330
23E
100
AcDbEntity
  8
0
 62
7
100
AcDbVertex
100
AcDb2dVertex
 10
485.72403046137413
 20
324.22079629612222
 42
0.060506177444688912
 70
0
  0
VERTEX
  5
25F
330
23E
100
AcDbEntity
  8
0
 62
7
100
AcDbVertex
100
AcDb2dVertex
 10
477.8898533280971
 20
423.21507951704393
 42
0.015274477638155582
 70
0
  0
VERTEX
  5
260
330
23E
100
AcDbEntity
  8
0
 62
7
100
AcDbVertex
100
AcDb2dVertex
 10
470.8965146160441
 20
454.28621092337494
 70
0
  0
VERTEX
  5
261
330
23E
100
AcDbEntity
  8
0
 62
7
100
AcDbVertex
100
AcDb2dVertex
 10
479.12161472408411
 20
442.86602446039547
 70
0
  0
VERTEX
  5
262
330
23E
100
AcDbEntity
  8
0
 62
7
100
AcDbVertex
100
AcDb2dVertex
 10
483.99030201808409
 20
446.37257319569545
 70
0
  0
VERTEX
  5
263
330
23E
100
AcDbEntity
  8
0
 62
7
100
AcDbVertex
100
AcDb2dVertex
 10
466.3736696860841
 20
470.83248534099545
 42
0.020442212742727658
 70
0
  0
VERTEX
  5
264
330
23E
100
AcDbEntity
  8
0
 62
7
100
AcDbVertex
100
AcDb2dVertex
 10
451.73749576848513
 20
514.45504651155238
 70
0
  0
SEQEND
  5
23F
100
AcDbEntity
  8
0
  0
POLYLINE
  5
265
330
1F
100
AcDbEntity
  8
0
 62
7
100
AcDb2dPolyline
 66
1
 70
1
 10
0
 20
0
 30
0
  0
VERTEX
  5
267
330
265
100
AcDbEntity
  8
0
 62
7
100
AcDbVertex
100
AcDb2dVertex
 10
365.21892064897185
 20
421.80213370726324
 42
-0.23178354883558031
 70
0
  0
VERTEX
  5
268
330
265
100
AcDbEntity
  8
0
 62
7
100
AcDbVertex
100
AcDb2dVertex
 10
181.30456364448182
 20
347.54863437523994
 42
-0.046356881170903662
 70
0
  0
VERTEX
  5
269
330
265
100
AcDbEntity
  8
0
 62
7
100
AcDbVertex
100
AcDb2dVertex
 10
148.79065591260383
 20
352.20783329862923
 42
-0.1635994173930222
 70
0
  0
VERTEX
  5
26A
330
265
100
AcDbEntity
  8
0
 62
7
100
AcDbVertex
100
AcDb2dVertex
 10
99.56470467499355
 20
386.11437148387557
 70
0
  0
VERTEX
  5
26B
330
265
100
AcDbEntity
  8
0
 62
7
100
AcDbVertex
100
AcDb2dVertex
 10
88.617754478784832
 20
375.16742128766725
 70
0
  0
VERTEX
  5
26C
330
265
100
AcDbEntity
  8
0
 62
7
100
AcDbVertex
100
AcDb2dVertex
 10
92.860395165884825
 20
370.92478060056726
 70
0
  0
VERTEX
  5
26D
330
265
100
AcDbEntity
  8
0
 62
7
100
AcDbVertex
100
AcDb2dVertex
 10
81.657688597284846
 20
359.72207403186724
 42
0.088720895759767451
 70
0
  0
VERTEX
  5
26E
330
265
100
AcDbEntity
  8
0
 62
7
100
AcDbVertex
100
AcDb2dVertex
 10
115.41187548750884
 20
333.32777319214688
 70
0
  0
VERTEX
  5
26F
330
265
100
AcDbEntity
  8
0
 62
7
100
AcDbVertex
100
AcDb2dVertex
 10
121.46836145698484
 20
346.31594926756725
 70
0
  0
VERTEX
  5
270
330
265
100
AcDbEntity
  8
0
 62
7
100
AcDbVertex
100
AcDb2dVertex
 10
126.90620817918483
 20
343.78023969716725
 70
0
  0
VERTEX
  5
271
330
265
100
AcDbEntity
  8
0
 62
7
100
AcDbVertex
100
AcDb2dVertex
 10
120.80190717008483
 20
330.68952393836724
 42
0.062164363072288412
 70
0
  0
VERTEX
  5
272
330
265
100
AcDbEntity
  8
0
 62
7
100
AcDbVertex
100
AcDb2dVertex
 10
147.16726025407084
 20
322.39635293688173
 70
0
  0
VERTEX
  5
273
330
265
100
AcDbEntity
  8
0
 62
7
100
AcDbVertex
100
AcDb2dVertex
 10
150.96791741598483
 20
336.58059856716727
 70
0
  0
VERTEX
  5
274
330
265
100
AcDbEntity
  8
0
 62
7
100
AcDbVertex
100
AcDb2dVertex
 10
156.76347237368483
 20
335.02768429656726
 70
0
  0
VERTEX
  5
275
330
265
100
AcDbEntity
  8
0
 62
7
100
AcDbVertex
100
AcDb2dVertex
 10
153.12523571948483
 20
321.44960025326725
 42
0.028055484430478925
 70
0
  0
VERTEX
  5
276
330
265
100
AcDbEntity
  8
0
 62
7
100
AcDbVertex
100
AcDb2dVertex
 10
184.14990480653384
 20
318.71591125404632
 70
0
  0
VERTEX
  5
277
330
265
100
AcDbEntity
  8
0
 62
7
100
AcDbVertex
100
AcDb2dVertex
 10
185.37927685638482
 20
332.76769808396728
 70
0
  0
VERTEX
  5
278
330
265
100
AcDbEntity
  8
0
 62
7
100
AcDbVertex
100
AcDb2dVertex
 10
191.35644504498484
 20
332.24476362746725
 70
0
  0
VERTEX
  5
279
330
265
100
AcDbEntity
  8
0
 62
7
100
AcDbVertex
100
AcDb2dVertex
 10
190.16250066758482
 20
318.59791694766727
 42
0.03114291892237811
 70
0
  0
VERTEX
  5
27A
330
265
100
AcDbEntity
  8
0
 62
7
100
AcDbVertex
100
AcDb2dVertex
 10
223.47319167110084
 20
320.40046338713074
 70
0
  0
VERTEX
  5
27B
330
265
100
AcDbEntity
  8
0
 62
7
100
AcDbVertex
100
AcDb2dVertex
 10
222.28485888448483
 20
333.98316929096723
 70
0
  0
VERTEX
  5
27C
330
265
100
AcDbEntity
  8
0
 62
7
100
AcDbVertex
100
AcDb2dVertex
 10
228.26202707308482
 20
334.50610374746725
 70
0
  0
VERTEX
  5
27D
330
265
100
AcDbEntity
  8
0
 62
7
100
AcDbVertex
100
AcDb2dVertex
 10
229.42877666778483
 20
321.17009485536727
 42
0.033461024184878667
 70
0
  0
VERTEX
  5
27E
330
265
100
AcDbEntity
  8
0
 62
7
100
AcDbVertex
100
AcDb2dVertex
 10
263.72161076454984
 20
328.38280417735047
 70
0
  0
VERTEX
  5
27F
330
265
100
AcDbEntity
  8
0
 62
7
100
AcDbVertex
100
AcDb2dVertex
 10
260.28724775988485
 20
341.20002140226723
 70
0
  0
VERTEX
  5
280
330
265
100
AcDbEntity
  8
0
 62
7
100
AcDbVertex
100
AcDb2dVertex
 10
266.08280271768484
 20
342.75293567286724
 70
0
  0
VERTEX
  5
281
330
265
100
AcDbEntity
  8
0
 62
7
100
AcDbVertex
100
AcDb2dVertex
 10
269.47847511788484
 20
330.08011374936723
 42
0.035422060570161673
 70
0
  0
VERTEX
  5
282
330
265
100
AcDbEntity
  8
0
 62
7
100
AcDbVertex
100
AcDb2dVertex
 10
303.34064380178086
 20
343.19234814130095
 70
0
  0
VERTEX
  5
283
330
265
100
AcDbEntity
  8
0
 62
7
100
AcDbVertex
100
AcDb2dVertex
 10
297.84695812638483
 20
354.97359509136726
 70
0
  0
VERTEX
  5
284
330
265
100
AcDbEntity
  8
0
 62
7
100
AcDbVertex
100
AcDb2dVertex
 10
303.28480484858483
 20
357.50930466186725
 70
0
  0
VERTEX
  5
285
330
265
100
AcDbEntity
  8
0
 62
7
100
AcDbVertex
100
AcDb2dVertex
 10
308.73726380298484
 20
345.81646870026725
 42
0.038606912133461034
 70
0
  0
VERTEX
  5
286
330
265
100
AcDbEntity
  8
0
 62
7
100
AcDbVertex
100
AcDb2dVertex
 10
342.32301787127381
 20
366.03697914401982
 70
0
  0
VERTEX
  5
287
330
265
100
AcDbEntity
  8
0
 62
7
100
AcDbVertex
100
AcDb2dVertex
 10
334.94934708548482
 20
376.56767237916722
 70
0
  0
VERTEX
  5
288
330
265
100
AcDbEntity
  8
0
 62
7
100
AcDbVertex
100
AcDb2dVertex
 10
339.86425935118484
 20
380.00913099726722
 70
0
  0
VERTEX
  5
289
330
265
100
AcDbEntity
  8
0
 62
7
100
AcDbVertex
100
AcDb2dVertex
 10
347.16728385528484
 20
369.57933110856726
 42
0.043104243866522993
 70
0
  0
VERTEX
  5
28A
330
265
100
AcDbEntity
  8
0
 62
7
100
AcDbVertex
100
AcDb2dVertex
 10
379.78668723998885
 20
398.74908574200725
 70
0
  0
VERTEX
  5
28B
330
265
100
AcDbEntity
  8
0
 62
7
100
AcDbVertex
100
AcDb2dVertex
 10
370.30327727858486
 20
408.23249570336725
 70
0
  0
VERTEX
  5
28C
330
265
100
AcDbEntity
  8
0
 62
7
100
AcDbVertex
100
AcDb2dVertex
 10
374.54591796578484
 20
412.47513639046724
 70
0
  0
SEQEND
  5
266
100
AcDbEntity
  8
0
  0
POLYLINE
  5
28D
330
1F
100
AcDbEntity
  8
0
 62
7
100
AcDb2dPolyline
 66
1
 70
1
 10
0
 20
0
 30
0
  0
VERTEX
  5
28F
330
28D
100
AcDbEntity
  8
0
 62
7
100
AcDbVertex
100
AcDb2dVertex
 10
0.73484692283500408
 20
49.96959075277681
 70
0
  0
VERTEX
  5
290
330
28D
100
AcDbEntity
  8
0
 62
7
100
AcDbVertex
100
AcDb2dVertex
 10
0.73484692283500785
 20
78.4752462161768
 42
-0.071187043145570075
 70
0
  0
VERTEX
  5
291
330
28D
100
AcDbEntity
  8
0
 62
7
100
AcDbVertex
100
AcDb2dVertex
 10
12.234846922841033
 20
81.838078717510882
 70
0
  0
VERTEX
  5
292
330
28D
100
AcDbEntity
  8
0
 62
7
100
AcDbVertex
100
AcDb2dVertex
 10
12.234846922835004
 20
57.253778248976857
 42
0.1747329035258901
 70
0
  0
VERTEX
  5
293
330
28D
100
AcDbEntity
  8
0
 62
7
100
AcDbVertex
100
AcDb2dVertex
 10
2.590163557222013
 20
49.45148511201586
 42
-0.75900509002774463
 70
0
  0
SEQEND
  5
28E
100
AcDbEntity
  8
0
  0
CIRCLE
  5
294
330
1F
100
AcDbEntity
  8
0
 62
7
100
AcDbCircle
 10
6.2348469228350076
 20
69.76617689297683
 30
0
 40
2
  0
POLYLINE
  5
295
330
1F
100
AcDbEntity
  8
0
 62
7
100
AcDb2dPolyline
 66
1
 70
1
 10
0
 20
0
 30
0
  0
VERTEX
  5
297
330
295
100
AcDbEntity
  8
0
 62
7
100
AcDbVertex
100
AcDb2dVertex
 10
88.181630740194407
 20
68.340763823650661
 42
0.048548050478892733
 70
0
  0
VERTEX
  5
298
330
295
100
AcDbEntity
  8
0
 62
7
100
AcDbVertex
100
AcDb2dVertex
 10
62.9418002678064
 20
56.854027305506662
 70
0
  0
VERTEX
  5
299
330
295
100
AcDbEntity
  8
0
 62
7
100
AcDbVertex
100
AcDb2dVertex
 10
71.050476215875449
 20
48.745351357482662
 70
0
  0
VERTEX
  5
29A
330
295
100
AcDbEntity
  8
0
 62
7
100
AcDbVertex
100
AcDb2dVertex
 10
66.807835528675412
 20
44.502710670382669
 70
0
  0
VERTEX
  5
29B
330
295
100
AcDbEntity
  8
0
 62
7
100
AcDbVertex
100
AcDb2dVertex
 10
76.472843747075444
 20
34.837702451982665
 42
-0.15055069095972568
 70
0
  0
VERTEX
  5
29C
330
295
100
AcDbEntity
  8
0
 62
7
100
AcDbVertex
100
AcDb2dVertex
 10
151.35116977852943
 20
49.088030612061658
 42
-0.065187272878563157
 70
0
  0
VERTEX
  5
29D
330
295
100
AcDbEntity
  8
0
 62
7
100
AcDbVertex
100
AcDb2dVertex
 10
169.7801648971174
 20
45.432104253088653
 42
-0.0731766466321695
 70
0
  0
VERTEX
  5
29E
330
295
100
AcDbEntity
  8
0
 62
7
100
AcDbVertex
100
AcDb2dVertex
 10
180.98138374993141
 20
39.139914125237652
 70
0
  0
VERTEX
  5
29F
330
295
100
AcDbEntity
  8
0
 62
7
100
AcDbVertex
100
AcDb2dVertex
 10
190.5519500623754
 20
48.710480437682662
 70
0
  0
VERTEX
  5
2A0
330
295
100
AcDbEntity
  8
0
 62
7
100
AcDbVertex
100
AcDb2dVertex
 10
186.3093093752754
 20
52.953121124882671
 70
0
  0
VERTEX
  5
2A1
330
295
100
AcDbEntity
  8
0
 62
7
100
AcDbVertex
100
AcDb2dVertex
 10
192.00411187867542
 20
58.647923628282655
 70
0
  0
VERTEX
  5
2A2
330
295
100
AcDbEntity
  8
0
 62
7
100
AcDbVertex
100
AcDb2dVertex
 10
192.8808870783754
 20
61.920093220282666
 70
0
  0
VERTEX
  5
2A3
330
295
100
AcDbEntity
  8
0
 62
7
100
AcDbVertex
100
AcDb2dVertex
 10
187.08533212067539
 20
63.473007490882651
 70
0
  0
VERTEX
  5
2A4
330
295
100
AcDbEntity
  8
0
 62
7
100
AcDbVertex
100
AcDb2dVertex
 10
187.96230309707539
 20
66.745907731582662
 42
0.028210115843619231
 70
0
  0
VERTEX
  5
2A5
330
295
100
AcDbEntity
  8
0
 62
7
100
AcDbVertex
100
AcDb2dVertex
 10
181.04861528032541
 20
70.064714541099647
 70
0
  0
VERTEX
  5
2A6
330
295
100
AcDbEntity
  8
0
 62
7
100
AcDbVertex
100
AcDb2dVertex
 10
180.04460021297541
 20
58.588769808282649
 70
0
  0
VERTEX
  5
2A7
330
295
100
AcDbEntity
  8
0
 62
7
100
AcDbVertex
100
AcDb2dVertex
 10
174.06743202437542
 20
59.111704264782645
 70
0
  0
VERTEX
  5
2A8
330
295
100
AcDbEntity
  8
0
 62
7
100
AcDbVertex
100
AcDb2dVertex
 10
175.20842667587539
 20
72.153332808782665
 42
0.039654604192540514
 70
0
  0
VERTEX
  5
2A9
330
295
100
AcDbEntity
  8
0
 62
7
100
AcDbVertex
100
AcDb2dVertex
 10
164.4136847430164
 20
74.529609072985664
 70
0
  0
VERTEX
  5
2AA
330
295
100
AcDbEntity
  8
0
 62
7
100
AcDbVertex
100
AcDb2dVertex
 10
165.44742234597538
 20
62.713934203282662
 70
0
  0
VERTEX
  5
2AB
330
295
100
AcDbEntity
  8
0
 62
7
100
AcDbVertex
100
AcDb2dVertex
 10
159.47025415747538
 20
62.190999746782666
 70
0
  0
VERTEX
  5
2AC
330
295
100
AcDbEntity
  8
0
 62
7
100
AcDbVertex
100
AcDb2dVertex
 10
158.31605412267538
 20
75.38356651198265
 42
0.020931407433392338
 70
0
  0
VERTEX
  5
2AD
330
295
100
AcDbEntity
  8
0
 62
7
100
AcDbVertex
100
AcDb2dVertex
 10
144.34899639240939
 20
76.477271284144649
 70
0
  0
VERTEX
  5
2AE
330
295
100
AcDbEntity
  8
0
 62
7
100
AcDbVertex
100
AcDb2dVertex
 10
147.37264766897539
 20
65.19285109568267
 70
0
  0
VERTEX
  5
2AF
330
295
100
AcDbEntity
  8
0
 62
7
100
AcDbVertex
100
AcDb2dVertex
 10
141.57709271127538
 20
63.639936825082657
 70
0
  0
VERTEX
  5
2B0
330
295
100
AcDbEntity
  8
0
 62
7
100
AcDbVertex
100
AcDb2dVertex
 10
138.10983162537542
 20
76.57993136068265
 42
0.025883693547739089
 70
0
  0
VERTEX
  5
2B1
330
295
100
AcDbEntity
  8
0
 62
7
100
AcDbVertex
100
AcDb2dVertex
 10
121.3459100279544
 20
75.65959898689465
 70
0
  0
VERTEX
  5
2B2
330
295
100
AcDbEntity
  8
0
 62
7
100
AcDbVertex
100
AcDb2dVertex
 10
126.22129472837543
 20
65.204302756582649
 70
0
  0
VERTEX
  5
2B3
330
295
100
AcDbEntity
  8
0
 62
7
100
AcDbVertex
100
AcDb2dVertex
 10
120.78344800617543
 20
62.668593186182648
 70
0
  0
VERTEX
  5
2B4
330
295
100
AcDbEntity
  8
0
 62
7
100
AcDbVertex
100
AcDb2dVertex
 10
115.09861252087541
 20
74.859762226482644
 42
0.03462100629468
 70
0
  0
VERTEX
  5
2B5
330
295
100
AcDbEntity
  8
0
 62
7
100
AcDbVertex
100
AcDb2dVertex
 10
94.1697978668904
 20
70.249455651354651
 70
0
  0
VERTEX
  5
2B6
330
295
100
AcDbEntity
  8
0
 62
7
100
AcDbVertex
100
AcDb2dVertex
 10
100.70391073517544
 20
60.917775382682663
 70
0
  0
VERTEX
  5
2B7
330
295
100
AcDbEntity
  8
0
 62
7
100
AcDbVertex
100
AcDb2dVertex
 10
95.788998469375429
 20
57.476316764582663
 70
0
  0
SEQEND
  5
296
100
AcDbEntity
  8
0
  0
POLYLINE
  5
2B8
330
1F
100
AcDbEntity
  8
0
 62
7
100
AcDb2dPolyline
 66
1
 70
1
 10
0
 20
0
 30
0
  0
VERTEX
  5
2BA
330
2B8
100
AcDbEntity
  8
0
 62
7
100
AcDbVertex
100
AcDb2dVertex
 10
538.64279443802081
 20
498.96106060493332
 42
-0.083073554213157444
 70
0
  0
VERTEX
  5
2BB
330
2B8
100
AcDbEntity
  8
0
 62
7
100
AcDbVertex
100
AcDb2dVertex
 10
571.63170537804876
 20
336.14819524892857
 42
-0.05153933406154633
 70
0
  0
VERTEX
  5
2BC
330
2B8
100
AcDbEntity
  8
0
 62
7
100
AcDbVertex
100
AcDb2dVertex
 10
566.7823302663744
 20
268.49653578098531
 42
-0.23560668418534186
 70
0
  0
VERTEX
  5
2BD
330
2B8
100
AcDbEntity
  8
0
 62
7
100
AcDbVertex
100
AcDb2dVertex
 10
526.62660444802077
 20
220.38638203285424
 42
-0.12360466108519118
 70
0
  0
VERTEX
  5
2BE
330
2B8
100
AcDbEntity
  8
0
 62
7
100
AcDbVertex
100
AcDb2dVertex
 10
489.63960955588277
 20
213.62454844162633
 42
-0.0026609766176461853
 70
0
  0
VERTEX
  5
2BF
330
2B8
100
AcDbEntity
  8
0
 62
7
100
AcDbVertex
100
AcDb2dVertex
 10
343.81107382231471
 20
217.79537078619333
 42
0.013892982739746625
 70
0
  0
VERTEX
  5
2C0
330
2B8
100
AcDbEntity
  8
0
 62
7
100
AcDbVertex
100
AcDb2dVertex
 10
185.95294632213779
 20
218.67741139660527
 42
0.015433184821265029
 70
0
  0
VERTEX
  5
2C1
330
2B8
100
AcDbEntity
  8
0
 62
7
100
AcDbVertex
100
AcDb2dVertex
 10
100.18608242949074
 20
213.56560078846738
 70
0
  0
VERTEX
  5
2C2
330
2B8
100
AcDbEntity
  8
0
 62
7
100
AcDbVertex
100
AcDb2dVertex
 10
110.88047005420776
 20
220.52667491508535
 70
0
  0
VERTEX
  5
2C3
330
2B8
100
AcDbEntity
  8
0
 62
7
100
AcDbVertex
100
AcDb2dVertex
 10
112.72848622920776
 20
217.68754392008535
 70
0
  0
VERTEX
  5
2C4
330
2B8
100
AcDbEntity
  8
0
 62
7
100
AcDbVertex
100
AcDb2dVertex
 10
117.75705802260779
 20
220.96068701468525
 70
0
  0
VERTEX
  5
2C5
330
2B8
100
AcDbEntity
  8
0
 62
7
100
AcDbVertex
100
AcDb2dVertex
 10
115.90904184770773
 20
223.79981800978536
 70
0
  0
VERTEX
  5
2C6
330
2B8
100
AcDbEntity
  8
0
 62
7
100
AcDbVertex
100
AcDb2dVertex
 10
141.3001772992078
 20
240.32713890368527
 42
-0.0058371045011404252
 70
0
  0
VERTEX
  5
2C7
330
2B8
100
AcDbEntity
  8
0
 62
7
100
AcDbVertex
100
AcDb2dVertex
 10
178.20144820676876
 20
241.75142008142993
 70
0
  0
VERTEX
  5
2C8
330
2B8
100
AcDbEntity
  8
0
 62
7
100
AcDbVertex
100
AcDb2dVertex
 10
185.64912003720781
 20
230.30946617548537
 70
0
  0
VERTEX
  5
2C9
330
2B8
100
AcDbEntity
  8
0
 62
7
100
AcDbVertex
100
AcDb2dVertex
 10
190.67769183070777
 20
233.58260927018537
 70
0
  0
VERTEX
  5
2CA
330
2B8
100
AcDbEntity
  8
0
 62
7
100
AcDbVertex
100
AcDb2dVertex
 10
185.24424030230784
 20
241.93009066848535
 42
-0.008753044825323639
 70
0
  0
VERTEX
  5
2CB
330
2B8
100
AcDbEntity
  8
0
 62
7
100
AcDbVertex
100
AcDb2dVertex
 10
263.71500889050378
 20
242.35906866907718
 70
0
  0
VERTEX
  5
2CC
330
2B8
100
AcDbEntity
  8
0
 62
7
100
AcDbVertex
100
AcDb2dVertex
 10
271.25836037130784
 20
230.77012088978526
 70
0
  0
VERTEX
  5
2CD
330
2B8
100
AcDbEntity
  8
0
 62
7
100
AcDbVertex
100
AcDb2dVertex
 10
276.28693216470776
 20
234.04326398448526
 70
0
  0
VERTEX
  5
2CE
330
2B8
100
AcDbEntity
  8
0
 62
7
100
AcDbVertex
100
AcDb2dVertex
 10
270.92323771240785
 20
242.28357669048538
 42
-0.004239688315817493
 70
0
  0
VERTEX
  5
2CF
330
2B8
100
AcDbEntity
  8
0
 62
7
100
AcDbVertex
100
AcDb2dVertex
 10
355.56579965893877
 20
240.56315098125518
 70
0
  0
VERTEX
  5
2D0
330
2B8
100
AcDbEntity
  8
0
 62
7
100
AcDbVertex
100
AcDb2dVertex
 10
363.2343634959077
 20
228.78183782398523
 70
0
  0
VERTEX
  5
2D1
330
2B8
100
AcDbEntity
  8
0
 62
7
100
AcDbVertex
100
AcDb2dVertex
 10
368.26293528930773
 20
232.05498091858536
 70
0
  0
VERTEX
  5
2D2
330
2B8
100
AcDbEntity
  8
0
 62
7
100
AcDbVertex
100
AcDb2dVertex
 10
362.8579850483078
 20
240.35867542308526
 70
0
  0
VERTEX
  5
2D3
330
2B8
100
AcDbEntity
  8
0
 62
7
100
AcDbVertex
100
AcDb2dVertex
 10
452.84122580856581
 20
237.76569790577028
 70
0
  0
VERTEX
  5
2D4
330
2B8
100
AcDbEntity
  8
0
 62
7
100
AcDbVertex
100
AcDb2dVertex
 10
460.56125909640775
 20
225.90531159538537
 70
0
  0
VERTEX
  5
2D5
330
2B8
100
AcDbEntity
  8
0
 62
7
100
AcDbVertex
100
AcDb2dVertex
 10
465.58983088990772
 20
229.17845468998544
 70
0
  0
VERTEX
  5
2D6
330
2B8
100
AcDbEntity
  8
0
 62
7
100
AcDbVertex
100
AcDb2dVertex
 10
460.10862205780779
 20
237.59930624758536
 42
0.0070221443598212857
 70
0
  0
VERTEX
  5
2D7
330
2B8
100
AcDbEntity
  8
0
 62
7
100
AcDbVertex
100
AcDb2dVertex
 10
497.9781366280738
 20
237.15406299313244
 42
0.20274600142538923
 70
0
  0
VERTEX
  5
2D8
330
2B8
100
AcDbEntity
  8
0
 62
7
100
AcDbVertex
100
AcDb2dVertex
 10
534.52732488149377
 20
255.25212751252181
 70
0
  0
VERTEX
  5
2D9
330
2B8
100
AcDbEntity
  8
0
 62
7
100
AcDbVertex
100
AcDb2dVertex
 10
540.16356953920774
 20
246.59309243938534
 70
0
  0
VERTEX
  5
2DA
330
2B8
100
AcDbEntity
  8
0
 62
7
100
AcDbVertex
100
AcDb2dVertex
 10
545.19214133270782
 20
249.86623553408529
 70
0
  0
VERTEX
  5
2DB
330
2B8
100
AcDbEntity
  8
0
 62
7
100
AcDbVertex
100
AcDb2dVertex
 10
538.32929282000782
 20
260.40971788598529
 42
0.1155861344371666
 70
0
  0
VERTEX
  5
2DC
330
2B8
100
AcDbEntity
  8
0
 62
7
100
AcDbVertex
100
AcDb2dVertex
 10
545.25952977194777
 20
281.04649033947203
 42
0.0628983264262977
 70
0
  0
VERTEX
  5
2DD
330
2B8
100
AcDbEntity
  8
0
 62
7
100
AcDbVertex
100
AcDb2dVertex
 10
546.40643997179177
 20
367.66224925764209
 42
0.021507638255390753
 70
0
  0
VERTEX
  5
2DE
330
2B8
100
AcDbEntity
  8
0
 62
7
100
AcDbVertex
100
AcDb2dVertex
 10
540.64657324486984
 20
407.16388510067293
 70
0
  0
VERTEX
  5
2DF
330
2B8
100
AcDbEntity
  8
0
 62
7
100
AcDbVertex
100
AcDb2dVertex
 10
548.09240617160776
 20
395.72475629898531
 70
0
  0
VERTEX
  5
2E0
330
2B8
100
AcDbEntity
  8
0
 62
7
100
AcDbVertex
100
AcDb2dVertex
 10
553.1209779650078
 20
398.99789939368532
 70
0
  0
VERTEX
  5
2E1
330
2B8
100
AcDbEntity
  8
0
 62
7
100
AcDbVertex
100
AcDb2dVertex
 10
537.33104834830783
 20
423.2561711511853
 42
0.032562232175433935
 70
0
  0
VERTEX
  5
2E2
330
2B8
100
AcDbEntity
  8
0
 62
7
100
AcDbVertex
100
AcDb2dVertex
 10
518.8867843329698
 20
486.10169402746328
 70
0
  0
SEQEND
  5
2B9
100
AcDbEntity
  8
0
  0
POLYLINE
  5
2E3
330
1F
100
AcDbEntity
  8
0
 62
7
100
AcDb2dPolyline
 66
1
 70
1
 10
0
 20
0
 30
0
  0
VERTEX
  5
2E5
330
2E3
100
AcDbEntity
  8
0
 62
7
100
AcDbVertex
100
AcDb2dVertex
 10
152.8481599496703
 20
413.71881755607876
 42
-0.04049144116549331
 70
0
  0
VERTEX
  5
2E6
330
2E3
100
AcDbEntity
  8
0
 62
7
100
AcDbVertex
100
AcDb2dVertex
 10
176.3333332891483
 20
407.64267034909778
 70
0
  0
VERTEX
  5
2E7
330
2E3
100
AcDbEntity
  8
0
 62
7
100
AcDbVertex
100
AcDb2dVertex
 10
169.16924405391529
 20
400.47858111390872
 70
0
  0
VERTEX
  5
2E8
330
2E3
100
AcDbEntity
  8
0
 62
7
100
AcDbVertex
100
AcDb2dVertex
 10
173.41188474101529
 20
396.23594042670874
 70
0
  0
VERTEX
  5
2E9
330
2E3
100
AcDbEntity
  8
0
 62
7
100
AcDbVertex
100
AcDb2dVertex
 10
164.33484864231534
 20
387.15890432800876
 42
0.14227203880499811
 70
0
  0
VERTEX
  5
2EA
330
2E3
100
AcDbEntity
  8
0
 62
7
100
AcDbVertex
100
AcDb2dVertex
 10
97.402211730732319
 20
387.80036500310075
 70
0
  0
VERTEX
  5
2EB
330
2E3
100
AcDbEntity
  8
0
 62
7
100
AcDbVertex
100
AcDb2dVertex
 10
88.171750257515356
 20
397.03082647640872
 70
0
  0
VERTEX
  5
2EC
330
2E3
100
AcDbEntity
  8
0
 62
7
100
AcDbVertex
100
AcDb2dVertex
 10
92.414390944615349
 20
401.27346716350871
 70
0
  0
VERTEX
  5
2ED
330
2E3
100
AcDbEntity
  8
0
 62
7
100
AcDbVertex
100
AcDb2dVertex
 10
89.854244219115316
 20
403.83361388900875
 70
0
  0
VERTEX
  5
2EE
330
2E3
100
AcDbEntity
  8
0
 62
7
100
AcDbVertex
100
AcDb2dVertex
 10
90.29452500481537
 20
408.86604629720875
 70
0
  0
VERTEX
  5
2EF
330
2E3
100
AcDbEntity
  8
0
 62
7
100
AcDbVertex
100
AcDb2dVertex
 10
96.271693193315315
 20
408.34311184070873
 70
0
  0
VERTEX
  5
2F0
330
2E3
100
AcDbEntity
  8
0
 62
7
100
AcDbVertex
100
AcDb2dVertex
 10
96.711976106615367
 20
413.37556856690878
 42
-0.030823338209868632
 70
0
  0
VERTEX
  5
2F1
330
2E3
100
AcDbEntity
  8
0
 62
7
100
AcDbVertex
100
AcDb2dVertex
 10
105.12434717190232
 20
414.81016429177475
 70
0
  0
VERTEX
  5
2F2
330
2E3
100
AcDbEntity
  8
0
 62
7
100
AcDbVertex
100
AcDb2dVertex
 10
102.64831687851532
 20
405.56949343720873
 70
0
  0
VERTEX
  5
2F3
330
2E3
100
AcDbEntity
  8
0
 62
7
100
AcDbVertex
100
AcDb2dVertex
 10
108.44387183631537
 20
404.01657916660872
 70
0
  0
VERTEX
  5
2F4
330
2E3
100
AcDbEntity
  8
0
 62
7
100
AcDbVertex
100
AcDb2dVertex
 10
111.51446113431533
 20
415.47617443610875
 70
0
  0
VERTEX
  5
2F5
330
2E3
100
AcDbEntity
  8
0
 62
7
100
AcDbVertex
100
AcDb2dVertex
 10
122.94584401835536
 20
416.04436083380176
 70
0
  0
VERTEX
  5
2F6
330
2E3
100
AcDbEntity
  8
0
 62
7
100
AcDbVertex
100
AcDb2dVertex
 10
118.24960361631534
 20
405.97321201480872
 70
0
  0
VERTEX
  5
2F7
330
2E3
100
AcDbEntity
  8
0
 62
7
100
AcDbVertex
100
AcDb2dVertex
 10
123.68745033861532
 20
403.43750244440878
 70
0
  0
VERTEX
  5
2F8
330
2E3
100
AcDbEntity
  8
0
 62
7
100
AcDbVertex
100
AcDb2dVertex
 10
129.55012855741532
 20
416.01005645740872
 42
-0.025597262557097253
 70
0
  0
VERTEX
  5
2F9
330
2E3
100
AcDbEntity
  8
0
 62
7
100
AcDbVertex
100
AcDb2dVertex
 10
146.22692344127231
 20
414.72342567847272
 70
0
  0
VERTEX
  5
2FA
330
2E3
100
AcDbEntity
  8
0
 62
7
100
AcDbVertex
100
AcDb2dVertex
 10
139.87612666831532
 20
405.65349986080878
 70
0
  0
VERTEX
  5
2FB
330
2E3
100
AcDbEntity
  8
0
 62
7
100
AcDbVertex
100
AcDb2dVertex
 10
144.79103893401535
 20
402.21204124270878
 70
0
  0
SEQEND
  5
2E4
100
AcDbEntity
  8
0
  0
POLYLINE
  5
2FC
330
1F
100
AcDbEntity
  8
0
 62
7
100
AcDb2dPolyline
 66
1
 70
1
 10
0
 20
0
 30
0
  0
VERTEX
  5
2FE
330
2FC
100
AcDbEntity
  8
0
 62
7
100
AcDbVertex
100
AcDb2dVertex
 10
468.09748984586531
 20
61.727141518136079
 42
0.10049683770745871
 70
0
  0
VERTEX
  5
2FF
330
2FC
100
AcDbEntity
  8
0
 62
7
100
AcDbVertex
100
AcDb2dVertex
 10
641.05849975258457
 20
37.209955378164466
 42
0.069362878263218283
 70
0
  0
VERTEX
  5
300
330
2FC
100
AcDbEntity
  8
0
 62
7
100
AcDbVertex
100
AcDb2dVertex
 10
715.31845294482264
 20
51.94169235137656
 42
0.19192723965672004
 70
0
  0
VERTEX
  5
301
330
2FC
100
AcDbEntity
  8
0
 62
7
100
AcDbVertex
100
AcDb2dVertex
 10
752.49203389102433
 20
87.89021661992706
 42
0.11792028604529217
 70
0
  0
VERTEX
  5
302
330
2FC
100
AcDbEntity
  8
0
 62
7
100
AcDbVertex
100
AcDb2dVertex
 10
760.61321488416638
 20
125.63910093595507
 42
0.013436412232430089
 70
0
  0
VERTEX
  5
303
330
2FC
100
AcDbEntity
  8
0
 62
7
100
AcDbVertex
100
AcDb2dVertex
 10
759.07562371642234
 20
270.4864424385691
 42
-0.0057390438627071307
 70
0
  0
VERTEX
  5
304
330
2FC
100
AcDbEntity
  8
0
 62
7
100
AcDbVertex
100
AcDb2dVertex
 10
755.01026697936732
 20
428.29180076652904
 42
-0.027050611527465067
 70
0
  0
VERTEX
  5
305
330
2FC
100
AcDbEntity
  8
0
 62
7
100
AcDbVertex
100
AcDb2dVertex
 10
761.48025977734335
 20
587.94002968474217
 70
0
  0
VERTEX
  5
306
330
2FC
100
AcDbEntity
  8
0
 62
7
100
AcDbVertex
100
AcDb2dVertex
 10
750.41900725546429
 20
568.10050864663219
 70
0
  0
VERTEX
  5
307
330
2FC
100
AcDbEntity
  8
0
 62
7
100
AcDbVertex
100
AcDb2dVertex
 10
754.83123349986431
 20
565.640532491932
 70
0
  0
VERTEX
  5
308
330
2FC
100
AcDbEntity
  8
0
 62
7
100
AcDbVertex
100
AcDb2dVertex
 10
751.90944736876429
 20
560.400001430732
 70
0
  0
VERTEX
  5
309
330
2FC
100
AcDbEntity
  8
0
 62
7
100
AcDbVertex
100
AcDb2dVertex
 10
747.49722112436439
 20
562.8599775853321
 70
0
  0
VERTEX
  5
30A
330
2FC
100
AcDbEntity
  8
0
 62
7
100
AcDbVertex
100
AcDb2dVertex
 10
733.5388968711643
 20
537.824253364232
 70
0
  0
VERTEX
  5
30B
330
2FC
100
AcDbEntity
  8
0
 62
7
100
AcDbVertex
100
AcDb2dVertex
 10
732.37553681294833
 20
504.88538502819108
 70
0
  0
VERTEX
  5
30C
330
2FC
100
AcDbEntity
  8
0
 62
7
100
AcDbVertex
100
AcDb2dVertex
 10
743.94200804956438
 20
498.4366541094322
 70
0
  0
VERTEX
  5
30D
330
2FC
100
AcDbEntity
  8
0
 62
7
100
AcDbVertex
100
AcDb2dVertex
 10
741.02022191846436
 20
493.19612304813211
 70
0
  0
VERTEX
  5
30E
330
2FC
100
AcDbEntity
  8
0
 62
7
100
AcDbVertex
100
AcDb2dVertex
 10
732.19039480696438
 20
498.11907190443219
 42
0.009803426815544667
 70
0
  0
VERTEX
  5
30F
330
2FC
100
AcDbEntity
  8
0
 62
7
100
AcDbVertex
100
AcDb2dVertex
 10
731.82193716255836
 20
427.3393282317121
 70
0
  0
VERTEX
  5
310
330
2FC
100
AcDbEntity
  8
0
 62
7
100
AcDbVertex
100
AcDb2dVertex
 10
743.48820110126439
 20
420.83496290693211
 70
0
  0
VERTEX
  5
311
330
2FC
100
AcDbEntity
  8
0
 62
7
100
AcDbVertex
100
AcDb2dVertex
 10
740.56641497016437
 20
415.59443184573212
 70
0
  0
VERTEX
  5
312
330
2FC
100
AcDbEntity
  8
0
 62
7
100
AcDbVertex
100
AcDb2dVertex
 10
731.9074623252643
 20
420.42211198963207
 42
0.0048368221070599566
 70
0
  0
VERTEX
  5
313
330
2FC
100
AcDbEntity
  8
0
 62
7
100
AcDbVertex
100
AcDb2dVertex
 10
733.71940151134629
 20
343.84711266941912
 70
0
  0
VERTEX
  5
314
330
2FC
100
AcDbEntity
  8
0
 62
7
100
AcDbVertex
100
AcDb2dVertex
 10
745.43540820146438
 20
337.31493076063208
 70
0
  0
VERTEX
  5
315
330
2FC
100
AcDbEntity
  8
0
 62
7
100
AcDbVertex
100
AcDb2dVertex
 10
742.51362207036436
 20
332.07439969943209
 70
0
  0
VERTEX
  5
316
330
2FC
100
AcDbEntity
  8
0
 62
7
100
AcDbVertex
100
AcDb2dVertex
 10
733.93643504796432
 20
336.85649254323209
 70
0
  0
VERTEX
  5
317
330
2FC
100
AcDbEntity
  8
0
 62
7
100
AcDbVertex
100
AcDb2dVertex
 10
736.50465731547331
 20
255.27996900661611
 70
0
  0
VERTEX
  5
318
330
2FC
100
AcDbEntity
  8
0
 62
7
100
AcDbVertex
100
AcDb2dVertex
 10
748.1971133627643
 20
248.76109787343211
 70
0
  0
VERTEX
  5
319
330
2FC
100
AcDbEntity
  8
0
 62
7
100
AcDbVertex
100
AcDb2dVertex
 10
745.27532723166428
 20
243.52056681223212
 70
0
  0
VERTEX
  5
31A
330
2FC
100
AcDbEntity
  8
0
 62
7
100
AcDbVertex
100
AcDb2dVertex
 10
736.69693594346427
 20
248.30333107793211
 42
-0.0061582007885667058
 70
0
  0
VERTEX
  5
31B
330
2FC
100
AcDbEntity
  8
0
 62
7
100
AcDbVertex
100
AcDb2dVertex
 10
737.92078481078329
 20
162.89674714993106
 70
0
  0
VERTEX
  5
31C
330
2FC
100
AcDbEntity
  8
0
 62
7
100
AcDbVertex
100
AcDb2dVertex
 10
749.45801878046427
 20
156.46432674313206
 70
0
  0
VERTEX
  5
31D
330
2FC
100
AcDbEntity
  8
0
 62
7
100
AcDbVertex
100
AcDb2dVertex
 10
746.53623264936436
 20
151.22379568183206
 70
0
  0
VERTEX
  5
31E
330
2FC
100
AcDbEntity
  8
0
 62
7
100
AcDbVertex
100
AcDb2dVertex
 10
737.88766229266434
 20
156.04568732353206
 42
-0.014566154384282087
 70
0
  0
VERTEX
  5
31F
330
2FC
100
AcDbEntity
  8
0
 62
7
100
AcDbVertex
100
AcDb2dVertex
 10
736.95914779598434
 20
116.41377671298207
 42
-0.16675204101041785
 70
0
  0
VERTEX
  5
320
330
2FC
100
AcDbEntity
  8
0
 62
7
100
AcDbVertex
100
AcDb2dVertex
 10
721.07880533955472
 20
82.982841135095072
 70
0
  0
VERTEX
  5
321
330
2FC
100
AcDbEntity
  8
0
 62
7
100
AcDbVertex
100
AcDb2dVertex
 10
729.94256908396437
 20
78.040971375032058
 70
0
  0
VERTEX
  5
322
330
2FC
100
AcDbEntity
  8
0
 62
7
100
AcDbVertex
100
AcDb2dVertex
 10
727.02078295286435
 20
72.80044031383207
 70
0
  0
VERTEX
  5
323
330
2FC
100
AcDbEntity
  8
0
 62
7
100
AcDbVertex
100
AcDb2dVertex
 10
716.25544910696431
 20
78.802504371832072
 42
-0.09350881556248
 70
0
  0
VERTEX
  5
324
330
2FC
100
AcDbEntity
  8
0
 62
7
100
AcDbVertex
100
AcDb2dVertex
 10
700.13710376015365
 20
71.222917427623059
 42
-0.069264937515790173
 70
0
  0
VERTEX
  5
325
330
2FC
100
AcDbEntity
  8
0
 62
7
100
AcDbVertex
100
AcDb2dVertex
 10
625.63881782972408
 20
59.524691755989579
 42
-0.030193174112247624
 70
0
  0
VERTEX
  5
326
330
2FC
100
AcDbEntity
  8
0
 62
7
100
AcDbVertex
100
AcDb2dVertex
 10
579.901659670347
 20
60.941072390268062
 70
0
  0
VERTEX
  5
327
330
2FC
100
AcDbEntity
  8
0
 62
7
100
AcDbVertex
100
AcDb2dVertex
 10
591.10393703056434
 20
54.695396475832069
 70
0
  0
VERTEX
  5
328
330
2FC
100
AcDbEntity
  8
0
 62
7
100
AcDbVertex
100
AcDb2dVertex
 10
588.18215089946432
 20
49.454865414632081
 70
0
  0
VERTEX
  5
329
330
2FC
100
AcDbEntity
  8
0
 62
7
100
AcDbVertex
100
AcDb2dVertex
 10
564.67750937596429
 20
62.559555534232061
 42
-0.050629298218421916
 70
0
  0
VERTEX
  5
32A
330
2FC
100
AcDbEntity
  8
0
 62
7
100
AcDbVertex
100
AcDb2dVertex
 10
479.45360666058235
 20
82.095532711748092
 70
0
  0
SEQEND
  5
2FD
100
AcDbEntity
  8
0
  0
ENDSEC
  0
SECTION
  2
OBJECTS
  0
DICTIONARY
  5
C
330
0
100
AcDbDictionary
280
0
281
1
  3
ACAD_COLOR
350
330
  3
ACAD_GROUP
350
D
  3
ACAD_IMAGE_DICT
350
331
  3
ACAD_LAYOUT
350
1A
  3
ACAD_MLEADERSTYLE
350
332
  3
ACAD_MLINESTYLE
350
17
  3
ACAD_PLOTSETTINGS
350
19
  3
ACAD_PLOTSTYLENAME
350
E
  3
ACAD_TABLESTYLE
350
333
  3
ACDB_RECOMPOSE_DATA
350
337
  3
AcDbVariableDictionary
350
338
  0
DICTIONARY
  5
330
102
{ACAD_REACTORS
330
C
102
}
330
C
100
AcDbDictionary
280
0
281
1
  0
DICTIONARY
  5
D
102
{ACAD_REACTORS
330
C
102
}
330
C
100
AcDbDictionary
280
0
281
1
  0
DICTIONARY
  5
331
102
{ACAD_REACTORS
330
C
102
}
330
C
100
AcDbDictionary
280
0
281
1
  0
DICTIONARY
  5
1A
102
{ACAD_REACTORS
330
C
102
}
330
C
100
AcDbDictionary
280
0
281
1
  3
Layout1
350
1E
  3
Model
350
22
  0
LAYOUT
  5
1E
102
{ACAD_REACTORS
330
1A
102
}
330
1A
100
AcDbPlotSettings
  1

  2
C:\Program Files\AutoCAD 2002\plotters\DWF ePlot (optimized for plotting).pc3
  4

  6

 40
0
 41
0
 42
0
 43
0
 44
0
 45
0
 46
0
 47
0
 48
0
 49
0
140
0
141
0
142
1
143
1
 70
688
 72
1
 73
1
 74
1
  7

 75
16
 76
0
 77
0
 78
0
147
1
148
0
149
0
100
AcDbLayout
  1
Layout1
 70
1
 71
1
 10
0
 20
0
 11
420
 21
297
 12
0
 22
0
 32
0
 14
0
 24
0
 34
0
 15
0
 25
0
 35
0
146
0
 13
0
 23
0
 33
0
 16
1
 26
0
 36
0
 17
0
 27
1
 37
0
 76
0
330
32B
  0
LAYOUT
  5
22
102
{ACAD_REACTORS
330
1A
102
}
330
1A
100
AcDbPlotSettings
  1

  2
C:\Program Files\AutoCAD 2002\plotters\DWF ePlot (optimized for plotting).pc3
  4

  6

 40
0
 41
0
 42
0
 43
0
 44
0
 45
0
 46
0
 47
0
 48
0
 49
0
140
0
141
0
142
1
143
1
 70
1712
 72
1
 73
1
 74
0
  7

 75
0
 76
0
 77
0
 78
0
147
1
148
0
149
0
100
AcDbLayout
  1
Model
 70
1
 71
0
 10
0
 20
0
 11
12
 21
9
 12
0
 22
0
 32
0
 14
0
 24
0
 34
0
 15
0
 25
0
 35
0
146
0
 13
0
 23
0
 33
0
 16
1
 26
0
 36
0
 17
0
 27
1
 37
0
 76
0
330
1F
  0
DICTIONARY
  5
332
102
{ACAD_REACTORS
330
C
102
}
330
C
100
AcDbDictionary
280
0
281
1
  0
DICTIONARY
  5
17
102
{ACAD_REACTORS
330
C
102
}
330
C
100
AcDbDictionary
280
0
281
1
  3
STANDARD
350
18
  0
MLINESTYLE
  5
18
102
{ACAD_REACTORS
330
17
102
}
330
17
100
AcDbMlineStyle
  2
STANDARD
 70
0
  3

 51
90
 52
90
 71
2
 49
0.5
 62
0
  6
ByLayer
 49
-0.5
 62
0
  6
ByLayer
  0
DICTIONARY
  5
19
102
{ACAD_REACTORS
330
C
102
}
330
C
100
AcDbDictionary
280
0
281
1
  0
ACDBDICTIONARYWDFLT
  5
E
102
{ACAD_REACTORS
330
C
102
}
330
C
100
AcDbDictionary
280
0
281
1
  3
Normal
350
F
100
AcDbDictionaryWithDefault
340
F
  0
ACDBPLACEHOLDER
  5
F
102
{ACAD_REACTORS
330
E
102
}
330
E
  0
DICTIONARY
  5
333
102
{ACAD_REACTORS
330
C
102
}
330
C
100
AcDbDictionary
280
0
281
1
  3
Standard
350
334
  0
TABLESTYLE
  5
334
102
{ACAD_XDICTIONARY
360
335
102
}
102
{ACAD_REACTORS
330
333
102
}
330
333
100
AcDbTableStyle
  3

 70
0
 71
0
 40
0.06
 41
0.06
280
0
281
0
  7
Standard
140
0.18
170
1
 62
0
283
0
 90
512
 91
0
274
-1
275
-1
276
-1
277
-1
278
-1
279
-1
284
1
285
1
286
1
287
1
288
1
289
1
 64
0
 65
0
 66
0
 67
0
 68
0
 69
0
  7
Standard
140
0.18
170
1
 62
0
283
0
 90
512
 91
0
274
-1
275
-1
276
-1
277
-1
278
-1
279
-1
284
1
285
1
286
1
287
1
288
1
289
1
 64
0
 65
0
 66
0
 67
0
 68
0
 69
0
  7
Standard
140
0.18
170
1
 62
0
283
0
 90
512
 91
0
274
-1
275
-1
276
-1
277
-1
278
-1
279
-1
284
1
285
1
286
1
287
1
288
1
289
1
 64
0
 65
0
 66
0
 67
0
 68
0
 69
0
  0
XRECORD
  5
337
102
{ACAD_REACTORS
330
C
102
}
330
C
100
AcDbXrecord
280
1
 90
1
330
334
  0
DICTIONARY
  5
338
102
{ACAD_REACTORS
330
C
102
}
330
C
100
AcDbDictionary
280
0
281
1
  3
DIMASSOC
350
339
  3
HIDETEXT
350
33A
  0
DICTIONARYVAR
  5
339
102
{ACAD_REACTORS
330
338
102
}
330
338
100
DictionaryVariables
280
0
  1
1
  0
DICTIONARYVAR
  5
33A
102
{ACAD_REACTORS
330
338
102
}
330
338
100
DictionaryVariables
280
0
  1
2
  0
DICTIONARY
  5
335
330
334
100
AcDbDictionary
280
0
281
1
  3
ACAD_ROUNDTRIP_2008_TABLESTYLE_CELLSTYLEMAP
360
336
  0
CELLSTYLEMAP
  5
336
102
{ACAD_REACTORS
330
335
102
}
330
335
100
AcDbCellStyleMap
 90
3
300
CELLSTYLE
  1
TABLEFORMAT_BEGIN
 90
5
170
0
 91
0
 92
0
 62
257
 93
1
300
CONTENTFORMAT
  1
CONTENTFORMAT_BEGIN
 90
0
 91
0
 92
512
 93
0
300

 40
0
140
1
 94
1
 62
0
340
11
144
0.18
309
CONTENTFORMAT_END
171
0
 94
0
309
TABLEFORMAT_END
  1
CELLSTYLE_BEGIN
 90
3
 91
2
300
_DATA
309
CELLSTYLE_END
300
CELLSTYLE
  1
TABLEFORMAT_BEGIN
 90
5
170
0
 91
0
 92
0
 62
257
 93
1
300
CONTENTFORMAT
  1
CONTENTFORMAT_BEGIN
 90
0
 91
0
 92
512
 93
0
300

 40
0
140
1
 94
1
 62
0
340
11
144
0.18
309
CONTENTFORMAT_END
171
0
 94
0
309
TABLEFORMAT_END
  1
CELLSTYLE_BEGIN
 90
2
 91
2
300
_HEADER
309
CELLSTYLE_END
300
CELLSTYLE
  1
TABLEFORMAT_BEGIN
 90
5
170
0
 91
0
 92
0
 62
257
 93
1
300
CONTENTFORMAT
  1
CONTENTFORMAT_BEGIN
 90
0
 91
0
 92
512
 93
0
300

 40
0
140
1
 94
1
 62
0
340
11
144
0.18
309
CONTENTFORMAT_END
171
0
 94
0
309
TABLEFORMAT_END
  1
CELLSTYLE_BEGIN
 90
1
 91
2
300
_TITLE
309
CELLSTYLE_END
  0
ENDSEC
999
Created By CadLib version 4.0.34.49
999
CadLib website: www.woutware.com
  0
EOF
