  0
SECTION
  2
HEADER
  9
$ACADVER
  1
AC1024
  9
$ACADMAINTVER
 70
     6
  9
$DWGCODEPAGE
  3
ANSI_1252
  9
$INSBASE
 10
0.0
 20
0.0
 30
0.0
  9
$EXTMIN
 10
0.0
 20
0.0
 30
0.0
  9
$EXTMAX
 10
594.0
 20
420.0
 30
0.0
  9
$LIMMIN
 10
0.0
 20
0.0
  9
$LIMMAX
 10
594.0
 20
420.0
  9
$ORTHOMODE
 70
     0
  9
$REGENMODE
 70
     1
  9
$FILLMODE
 70
     1
  9
$QTEXTMODE
 70
     0
  9
$MIRRTEXT
 70
     1
  9
$LTSCALE
 40
1.0
  9
$ATTMODE
 70
     1
  9
$TEXTSIZE
 40
3.5
  9
$TRACEWID
 40
1.0
  9
$TEXTSTYLE
  7
Standard
  9
$CLAYER
  8
0
  9
$CELTYPE
  6
ByLayer
  9
$CECOLOR
 62
     1
  9
$CELTSCALE
 40
1.0
  9
$DISPSILH
 70
     0
  9
$DIMSCALE
 40
1.0
  9
$DIMASZ
 40
3.302
  9
$DIMEXO
 40
1.0
  9
$DIMDLI
 40
3.75
  9
$DIMRND
 40
0.0
  9
$DIMDLE
 40
0.0
  9
$DIMEXE
 40
1.0
  9
$DIMTP
 40
0.0
  9
$DIMTM
 40
0.0
  9
$DIMTXT
 40
3.5
  9
$DIMCEN
 40
2.5
  9
$DIMTSZ
 40
0.0
  9
$DIMTOL
 70
     0
  9
$DIMLIM
 70
     0
  9
$DIMTIH
 70
     1
  9
$DIMTOH
 70
     1
  9
$DIMSE1
 70
     0
  9
$DIMSE2
 70
     0
  9
$DIMTAD
 70
     1
  9
$DIMZIN
 70
     0
  9
$DIMBLK
  1

  9
$DIMASO
 70
     1
  9
$DIMSHO
 70
     1
  9
$DIMPOST
  1

  9
$DIMAPOST
  1

  9
$DIMALT
 70
     0
  9
$DIMALTD
 70
     3
  9
$DIMALTF
 40
0.0393700787401575
  9
$DIMLFAC
 40
2.0
  9
$DIMTOFL
 70
     1
  9
$DIMTVP
 40
0.0
  9
$DIMTIX
 70
     0
  9
$DIMSOXD
 70
     0
  9
$DIMSAH
 70
     0
  9
$DIMBLK1
  1

  9
$DIMBLK2
  1

  9
$DIMSTYLE
  2
ISO-25
  9
$DIMCLRD
 70
     0
  9
$DIMCLRE
 70
     0
  9
$DIMCLRT
 70
     0
  9
$DIMTFAC
 40
1.0
  9
$DIMGAP
 40
1.524
  9
$DIMJUST
 70
     0
  9
$DIMSD1
 70
     0
  9
$DIMSD2
 70
     0
  9
$DIMTOLJ
 70
     0
  9
$DIMTZIN
 70
     0
  9
$DIMALTZ
 70
     0
  9
$DIMALTTZ
 70
     0
  9
$DIMUPT
 70
     0
  9
$DIMDEC
 70
     2
  9
$DIMTDEC
 70
     2
  9
$DIMALTU
 70
     2
  9
$DIMALTTD
 70
     3
  9
$DIMTXSTY
  7
Standard
  9
$DIMAUNIT
 70
     0
  9
$DIMADEC
 70
     2
  9
$DIMALTRND
 40
0.0
  9
$DIMAZIN
 70
     0
  9
$DIMDSEP
 70
    44
  9
$DIMATFIT
 70
     3
  9
$DIMFRAC
 70
     0
  9
$DIMLDRBLK
  1

  9
$DIMLUNIT
 70
     2
  9
$DIMLWD
 70
    -2
  9
$DIMLWE
 70
    -2
  9
$DIMTMOVE
 70
     0
  9
$DIMFXL
 40
1.0
  9
$DIMFXLON
 70
     0
  9
$DIMJOGANG
 40
0.7853981633974483
  9
$DIMTFILL
 70
     0
  9
$DIMTFILLCLR
 70
     0
  9
$DIMARCSYM
 70
     0
  9
$DIMLTYPE
  6

  9
$DIMLTEX1
  6

  9
$DIMLTEX2
  6

  9
$DIMTXTDIRECTION
 70
     0
  9
$LUNITS
 70
     2
  9
$LUPREC
 70
     2
  9
$SKETCHINC
 40
1.0
  9
$FILLETRAD
 40
10.0
  9
$AUNITS
 70
     0
  9
$AUPREC
 70
     2
  9
$MENU
  1
.
  9
$ELEVATION
 40
0.0
  9
$PELEVATION
 40
0.0
  9
$THICKNESS
 40
0.0
  9
$LIMCHECK
 70
     0
  9
$CHAMFERA
 40
0.0
  9
$CHAMFERB
 40
0.0
  9
$CHAMFERC
 40
0.0
  9
$CHAMFERD
 40
0.0
  9
$SKPOLY
 70
     0
  9
$TDCREATE
 40
2459198.961372662
  9
$TDUCREATE
 40
2459198.815539329
  9
$TDUPDATE
 40
2459266.702465278
  9
$TDUUPDATE
 40
2459266.556631945
  9
$TDINDWG
 40
0.0000000116
  9
$TDUSRTIMER
 40
0.0000000116
  9
$USRTIMER
 70
     1
  9
$ANGBASE
 50
0.0
  9
$ANGDIR
 70
     0
  9
$PDMODE
 70
     0
  9
$PDSIZE
 40
-1.0
  9
$PLINEWID
 40
0.0
  9
$SPLFRAME
 70
     0
  9
$SPLINETYPE
 70
     6
  9
$SPLINESEGS
 70
     8
  9
$HANDSEED
  5
C56
  9
$SURFTAB1
 70
     6
  9
$SURFTAB2
 70
     6
  9
$SURFTYPE
 70
     6
  9
$SURFU
 70
     6
  9
$SURFV
 70
     6
  9
$UCSBASE
  2

  9
$UCSNAME
  2

  9
$UCSORG
 10
0.0
 20
0.0
 30
0.0
  9
$UCSXDIR
 10
1.0
 20
0.0
 30
0.0
  9
$UCSYDIR
 10
0.0
 20
1.0
 30
0.0
  9
$UCSORTHOREF
  2

  9
$UCSORTHOVIEW
 70
     0
  9
$UCSORGTOP
 10
0.0
 20
0.0
 30
0.0
  9
$UCSORGBOTTOM
 10
0.0
 20
0.0
 30
0.0
  9
$UCSORGLEFT
 10
0.0
 20
0.0
 30
0.0
  9
$UCSORGRIGHT
 10
0.0
 20
0.0
 30
0.0
  9
$UCSORGFRONT
 10
0.0
 20
0.0
 30
0.0
  9
$UCSORGBACK
 10
0.0
 20
0.0
 30
0.0
  9
$PUCSBASE
  2

  9
$PUCSNAME
  2

  9
$PUCSORG
 10
0.0
 20
0.0
 30
0.0
  9
$PUCSXDIR
 10
1.0
 20
0.0
 30
0.0
  9
$PUCSYDIR
 10
0.0
 20
1.0
 30
0.0
  9
$PUCSORTHOREF
  2

  9
$PUCSORTHOVIEW
 70
     0
  9
$PUCSORGTOP
 10
0.0
 20
0.0
 30
0.0
  9
$PUCSORGBOTTOM
 10
0.0
 20
0.0
 30
0.0
  9
$PUCSORGLEFT
 10
0.0
 20
0.0
 30
0.0
  9
$PUCSORGRIGHT
 10
0.0
 20
0.0
 30
0.0
  9
$PUCSORGFRONT
 10
0.0
 20
0.0
 30
0.0
  9
$PUCSORGBACK
 10
0.0
 20
0.0
 30
0.0
  9
$USERI1
 70
     0
  9
$USERI2
 70
     0
  9
$USERI3
 70
     0
  9
$USERI4
 70
     0
  9
$USERI5
 70
     0
  9
$USERR1
 40
0.0
  9
$USERR2
 40
0.0
  9
$USERR3
 40
0.0
  9
$USERR4
 40
0.0
  9
$USERR5
 40
0.0
  9
$WORLDVIEW
 70
     1
  9
$SHADEDGE
 70
     3
  9
$SHADEDIF
 70
    70
  9
$TILEMODE
 70
     1
  9
$MAXACTVP
 70
    64
  9
$PINSBASE
 10
0.0
 20
0.0
 30
0.0
  9
$PLIMCHECK
 70
     0
  9
$PEXTMIN
 10
1.000000000000000E+20
 20
1.000000000000000E+20
 30
1.000000000000000E+20
  9
$PEXTMAX
 10
-1.000000000000000E+20
 20
-1.000000000000000E+20
 30
-1.000000000000000E+20
  9
$PLIMMIN
 10
0.0
 20
0.0
  9
$PLIMMAX
 10
420.0
 20
297.0
  9
$UNITMODE
 70
     0
  9
$VISRETAIN
 70
     1
  9
$PLINEGEN
 70
     0
  9
$PSLTSCALE
 70
     1
  9
$TREEDEPTH
 70
  3020
  9
$CMLSTYLE
  2
Standard
  9
$CMLJUST
 70
     0
  9
$CMLSCALE
 40
20.0
  9
$PROXYGRAPHICS
 70
     1
  9
$MEASUREMENT
 70
     1
  9
$CELWEIGHT
370
    -1
  9
$ENDCAPS
280
     0
  9
$JOINSTYLE
280
     0
  9
$LWDISPLAY
290
     1
  9
$INSUNITS
 70
     4
  9
$HYPERLINKBASE
  1

  9
$STYLESHEET
  1

  9
$XEDIT
290
     1
  9
$CEPSNTYPE
380
     0
  9
$PSTYLEMODE
290
     1
  9
$FINGERPRINTGUID
  2
{8645EE63-9B8C-4F7F-A80E-2BA676FF653D}
  9
$VERSIONGUID
  2
{FAEB1C32-E019-11D5-929B-00C0DF256EC4}
  9
$EXTNAMES
290
     1
  9
$PSVPSCALE
 40
0.0
  9
$OLESTARTUP
290
     0
  9
$SORTENTS
280
   127
  9
$INDEXCTL
280
     0
  9
$HIDETEXT
280
     1
  9
$XCLIPFRAME
280
     2
  9
$HALOGAP
280
     0
  9
$OBSCOLOR
 70
   257
  9
$OBSLTYPE
280
     0
  9
$INTERSECTIONDISPLAY
280
     0
  9
$INTERSECTIONCOLOR
 70
   257
  9
$DIMASSOC
280
     2
  9
$PROJECTNAME
  1

  9
$CAMERADISPLAY
290
     0
  9
$LENSLENGTH
 40
50.0
  9
$CAMERAHEIGHT
 40
0.0
  9
$STEPSPERSEC
 40
2.0
  9
$STEPSIZE
 40
6.0
  9
$3DDWFPREC
 40
2.0
  9
$PSOLWIDTH
 40
0.25
  9
$PSOLHEIGHT
 40
4.0
  9
$LOFTANG1
 40
1.570796326794897
  9
$LOFTANG2
 40
1.570796326794897
  9
$LOFTMAG1
 40
0.0
  9
$LOFTMAG2
 40
0.0
  9
$LOFTPARAM
 70
     7
  9
$LOFTNORMALS
280
     1
  9
$LATITUDE
 40
37.795
  9
$LONGITUDE
 40
-122.394
  9
$NORTHDIRECTION
 40
0.0
  9
$TIMEZONE
 70
 -8000
  9
$LIGHTGLYPHDISPLAY
280
     1
  9
$TILEMODELIGHTSYNCH
280
     1
  9
$SOLIDHIST
280
     1
  9
$SHOWHIST
280
     1
  9
$DWFFRAME
280
     2
  9
$DGNFRAME
280
     2
  9
$REALWORLDSCALE
290
     1
  9
$INTERFERECOLOR
 62
   256
  9
$CSHADOW
280
     0
  9
$SHADOWPLANELOCATION
 40
0.0
  0
ENDSEC
  0
SECTION
  2
CLASSES
  0
CLASS
  1
ACDBDICTIONARYWDFLT
  2
AcDbDictionaryWithDefault
  3
ObjectDBX Classes
 90
        0
 91
        4
280
     0
281
     0
  0
CLASS
  1
VISUALSTYLE
  2
AcDbVisualStyle
  3
ObjectDBX Classes
 90
     4095
 91
        4
280
     0
281
     0
  0
CLASS
  1
MATERIAL
  2
AcDbMaterial
  3
ObjectDBX Classes
 90
     1153
 91
        4
280
     0
281
     0
  0
CLASS
  1
SCALE
  2
AcDbScale
  3
ObjectDBX Classes
 90
     1153
 91
        4
280
     0
281
     0
  0
CLASS
  1
TABLESTYLE
  2
AcDbTableStyle
  3
ObjectDBX Classes
 90
     4095
 91
        4
280
     0
281
     0
  0
CLASS
  1
MLEADERSTYLE
  2
AcDbMLeaderStyle
  3
ACDB_MLEADERSTYLE_CLASS
 90
     4095
 91
        4
280
     0
281
     0
  0
CLASS
  1
SUN
  2
AcDbSun
  3
SCENEOE
 90
     1153
 91
        4
280
     0
281
     0
  0
CLASS
  1
ACDBPLACEHOLDER
  2
AcDbPlaceHolder
  3
ObjectDBX Classes
 90
        0
 91
        1
280
     0
281
     0
  0
CLASS
  1
LAYOUT
  2
AcDbLayout
  3
ObjectDBX Classes
 90
        0
 91
        1
280
     0
281
     0
  0
CLASS
  1
DICTIONARYVAR
  2
AcDbDictionaryVar
  3
ObjectDBX Classes
 90
        0
 91
        4
280
     0
281
     0
  0
ENDSEC
  0
SECTION
  2
TABLES
  0
TABLE
  2
VPORT
  5
8
330
0
100
AcDbSymbolTable
 70
     1
  0
VPORT
  5
29
330
8
100
AcDbSymbolTableRecord
100
AcDbViewportTableRecord
  2
*Active
 70
     0
 10
0.0
 20
0.0
 11
1.0
 21
1.0
 12
193.5910392243554
 22
-220.4891933791175
 13
0.0
 23
0.0
 14
10.0
 24
10.0
 15
10.0
 25
10.0
 16
0.0
 26
0.0
 36
1.0
 17
0.0
 27
0.0
 37
0.0
 40
947.0777933653053
 41
0.5844155844155844
 42
50.0
 43
0.0
 44
0.0
 50
0.0
 51
0.0
 71
     0
 72
  2000
 73
     1
 74
     3
 75
     0
 76
     0
 77
     0
 78
     0
281
     0
 65
     1
110
0.0
120
0.0
130
0.0
111
1.0
121
0.0
131
0.0
112
0.0
122
1.0
132
0.0
 79
     0
146
0.0
348
3FC
 60
     3
 61
     5
292
     1
282
     1
141
0.0
142
0.0
 63
   256
361
414
  0
ENDTAB
  0
TABLE
  2
LTYPE
  5
5
330
0
100
AcDbSymbolTable
 70
     6
  0
LTYPE
  5
14
330
5
100
AcDbSymbolTableRecord
100
AcDbLinetypeTableRecord
  2
ByBlock
 70
     0
  3

 72
    65
 73
     0
 40
0.0
  0
LTYPE
  5
15
330
5
100
AcDbSymbolTableRecord
100
AcDbLinetypeTableRecord
  2
ByLayer
 70
     0
  3

 72
    65
 73
     0
 40
0.0
  0
LTYPE
  5
16
330
5
100
AcDbSymbolTableRecord
100
AcDbLinetypeTableRecord
  2
Continuous
 70
     0
  3
Solid line
 72
    65
 73
     0
 40
0.0
  0
LTYPE
  5
6E
330
5
100
AcDbSymbolTableRecord
100
AcDbLinetypeTableRecord
  2
HIDDEN
 70
     0
  3
Hidden __ __ __ __ __ __ __ __ __ __ __ __ __ __
 72
    65
 73
     2
 40
1.905
 49
1.27
 74
     0
 49
-0.635
 74
     0
  0
LTYPE
  5
6F
330
5
100
AcDbSymbolTableRecord
100
AcDbLinetypeTableRecord
  2
PHANTOM
 70
     0
  3
Phantom ______  __  __  ______  __  __  ______
 72
    65
 73
     6
 40
12.7
 49
6.35
 74
     0
 49
-1.27
 74
     0
 49
1.27
 74
     0
 49
-1.27
 74
     0
 49
1.27
 74
     0
 49
-1.27
 74
     0
  0
LTYPE
  5
70
330
5
100
AcDbSymbolTableRecord
100
AcDbLinetypeTableRecord
  2
CENTER
 70
     0
  3
Center ____ _ ____ _ ____ _ ____ _ ____ _ ____
 72
    65
 73
     4
 40
10.16
 49
6.35
 74
     0
 49
-1.27
 74
     0
 49
1.27
 74
     0
 49
-1.27
 74
     0
  0
LTYPE
  5
71
330
5
100
AcDbSymbolTableRecord
100
AcDbLinetypeTableRecord
  2
CENTERX2
 70
     0
  3
Center (2x) ________  __  ________  __  _____
 72
    65
 73
     4
 40
20.32
 49
12.7
 74
     0
 49
-2.54
 74
     0
 49
2.54
 74
     0
 49
-2.54
 74
     0
  0
LTYPE
  5
72
330
5
100
AcDbSymbolTableRecord
100
AcDbLinetypeTableRecord
  2
DOT2
 70
     0
  3
Dot (.5x) ........................................
 72
    65
 73
     2
 40
0.635
 49
0.0
 74
     0
 49
-0.635
 74
     0
  0
ENDTAB
  0
TABLE
  2
LAYER
  5
2
330
0
100
AcDbSymbolTable
 70
     4
  0
LAYER
  5
10
330
2
100
AcDbSymbolTableRecord
100
AcDbLayerTableRecord
  2
0
 70
     0
 62
     7
  6
Continuous
370
    -3
390
F
347
413
  0
LAYER
  5
73
330
2
100
AcDbSymbolTableRecord
100
AcDbLayerTableRecord
  2
FORMAT
 70
     0
 62
     7
  6
Continuous
370
    -3
390
F
347
413
  0
LAYER
  5
804
330
2
100
AcDbSymbolTableRecord
100
AcDbLayerTableRecord
  2
gcad_dimension
 70
     0
 62
     7
  6
Continuous
370
    -3
390
F
347
413
  0
LAYER
  5
805
330
2
100
AcDbSymbolTableRecord
100
AcDbLayerTableRecord
  2
Defpoints
 70
     0
 62
     7
  6
Continuous
290
     0
370
    -3
390
F
347
413
  0
ENDTAB
  0
TABLE
  2
STYLE
  5
3
330
0
100
AcDbSymbolTable
 70
     5
  0
STYLE
  5
11
330
3
100
AcDbSymbolTableRecord
100
AcDbTextStyleTableRecord
  2
Standard
 70
     0
 40
0.0
 41
1.0
 50
0.0
 71
     0
 42
3.5
  3
txt
  4

  0
STYLE
  5
BE
330
3
100
AcDbSymbolTableRecord
100
AcDbTextStyleTableRecord
  2
SLDTEXTSTYLE0
 70
     0
 40
0.0
 41
0.75
 50
0.0
 71
     0
 42
3.5
  3
TXT
  4

  0
STYLE
  5
E7
330
3
100
AcDbSymbolTableRecord
100
AcDbTextStyleTableRecord
  2
SLDTEXTSTYLE1
 70
     0
 40
0.0
 41
0.6864493305940874
 50
0.0
 71
     0
 42
3.5
  3
TXT
  4

  0
STYLE
  5
108
330
3
100
AcDbSymbolTableRecord
100
AcDbTextStyleTableRecord
  2
SLDTEXTSTYLE2
 70
     0
 40
0.0
 41
0.6875
 50
0.0
 71
     0
 42
3.5
  3
TXT
  4

  0
STYLE
  5
803
330
3
100
AcDbSymbolTableRecord
100
AcDbTextStyleTableRecord
  2
gcad_textstyle
 70
     0
 40
0.0
 41
1.0
 50
0.0
 71
     0
 42
3.5
  3
txt
  4

  0
ENDTAB
  0
TABLE
  2
VIEW
  5
6
330
0
100
AcDbSymbolTable
 70
     0
  0
ENDTAB
  0
TABLE
  2
UCS
  5
7
330
0
100
AcDbSymbolTable
 70
     0
  0
ENDTAB
  0
TABLE
  2
APPID
  5
9
330
0
100
AcDbSymbolTable
 70
     1
  0
APPID
  5
12
330
9
100
AcDbSymbolTableRecord
100
AcDbRegAppTableRecord
  2
ACAD
 70
     0
  0
ENDTAB
  0
TABLE
  2
DIMSTYLE
  5
A
330
0
100
AcDbSymbolTable
 70
     2
100
AcDbDimStyleTable
  0
DIMSTYLE
105
27
330
A
100
AcDbSymbolTableRecord
100
AcDbDimStyleTableRecord
  2
ISO-25
 70
     0
 41
2.5
 42
0.625
 43
3.75
 44
1.25
 73
     0
 74
     0
 77
     1
 78
     8
140
2.5
141
2.5
143
0.03937007874016
147
0.625
171
     3
172
     1
178
     0
271
     2
272
     2
274
     3
278
    44
283
     0
284
     8
340
11
  0
DIMSTYLE
105
802
330
A
100
AcDbSymbolTableRecord
100
AcDbDimStyleTableRecord
  2
gcad_dim
 70
     0
 41
2.5
 42
0.0
 43
3.75
 44
1.25
 73
     0
 74
     0
 77
     1
 78
     8
140
2.5
141
0.0
143
0.03937007874016
147
0.625
171
     3
172
     1
178
     0
179
     2
271
     2
272
     2
274
     3
278
    44
283
     0
284
     8
340
803
  0
ENDTAB
  0
TABLE
  2
BLOCK_RECORD
  5
1
330
0
100
AcDbSymbolTable
 70
    21
  0
BLOCK_RECORD
  5
1F
330
1
100
AcDbSymbolTableRecord
100
AcDbBlockTableRecord
  2
*Model_Space
340
22
 70
     0
280
     1
281
     0
  0
BLOCK_RECORD
  5
1B
330
1
100
AcDbSymbolTableRecord
100
AcDbBlockTableRecord
  2
*Paper_Space
340
1E
 70
     0
280
     1
281
     0
  0
BLOCK_RECORD
  5
23
330
1
100
AcDbSymbolTableRecord
100
AcDbBlockTableRecord
  2
*Paper_Space0
340
26
 70
     0
280
     1
281
     0
  0
BLOCK_RECORD
  5
ED
330
1
100
AcDbSymbolTableRecord
100
AcDbBlockTableRecord
  2
SW_NOTE_0
340
0
 70
     0
280
     1
281
     0
  0
BLOCK_RECORD
  5
F8
330
1
100
AcDbSymbolTableRecord
100
AcDbBlockTableRecord
  2
SW_NOTE_1
340
0
 70
     0
280
     1
281
     0
  0
BLOCK_RECORD
  5
2EE
330
1
100
AcDbSymbolTableRecord
100
AcDbBlockTableRecord
  2
SW_CENTERMARKSYMBOL_0
340
0
 70
     0
280
     1
281
     0
  0
BLOCK_RECORD
  5
2FA
330
1
100
AcDbSymbolTableRecord
100
AcDbBlockTableRecord
  2
SW_CENTERMARKSYMBOL_1
340
0
 70
     0
280
     1
281
     0
  0
BLOCK_RECORD
  5
306
330
1
100
AcDbSymbolTableRecord
100
AcDbBlockTableRecord
  2
SW_CENTERMARKSYMBOL_2
340
0
 70
     0
280
     1
281
     0
  0
BLOCK_RECORD
  5
312
330
1
100
AcDbSymbolTableRecord
100
AcDbBlockTableRecord
  2
SW_CENTERMARKSYMBOL_3
340
0
 70
     0
280
     1
281
     0
  0
BLOCK_RECORD
  5
344
330
1
100
AcDbSymbolTableRecord
100
AcDbBlockTableRecord
  2
SW_CENTERMARKSYMBOL_4
340
0
 70
     0
280
     1
281
     0
  0
BLOCK_RECORD
  5
350
330
1
100
AcDbSymbolTableRecord
100
AcDbBlockTableRecord
  2
SW_CENTERMARKSYMBOL_5
340
0
 70
     0
280
     1
281
     0
  0
BLOCK_RECORD
  5
35C
330
1
100
AcDbSymbolTableRecord
100
AcDbBlockTableRecord
  2
SW_CENTERMARKSYMBOL_6
340
0
 70
     0
280
     1
281
     0
  0
BLOCK_RECORD
  5
368
330
1
100
AcDbSymbolTableRecord
100
AcDbBlockTableRecord
  2
SW_CENTERMARKSYMBOL_7
340
0
 70
     0
280
     1
281
     0
  0
BLOCK_RECORD
  5
37C
330
1
100
AcDbSymbolTableRecord
100
AcDbBlockTableRecord
  2
SW_CENTERMARKSYMBOL_8
340
0
 70
     0
280
     1
281
     0
  0
BLOCK_RECORD
  5
388
330
1
100
AcDbSymbolTableRecord
100
AcDbBlockTableRecord
  2
SW_CENTERMARKSYMBOL_9
340
0
 70
     0
280
     1
281
     0
  0
BLOCK_RECORD
  5
394
330
1
100
AcDbSymbolTableRecord
100
AcDbBlockTableRecord
  2
SW_CENTERMARKSYMBOL_10
340
0
 70
     0
280
     1
281
     0
  0
BLOCK_RECORD
  5
3A0
330
1
100
AcDbSymbolTableRecord
100
AcDbBlockTableRecord
  2
SW_CENTERMARKSYMBOL_11
340
0
 70
     0
280
     1
281
     0
  0
BLOCK_RECORD
  5
3B4
330
1
100
AcDbSymbolTableRecord
100
AcDbBlockTableRecord
  2
SW_CENTERMARKSYMBOL_12
340
0
 70
     0
280
     1
281
     0
  0
BLOCK_RECORD
  5
3C0
330
1
100
AcDbSymbolTableRecord
100
AcDbBlockTableRecord
  2
SW_CENTERMARKSYMBOL_13
340
0
 70
     0
280
     1
281
     0
  0
BLOCK_RECORD
  5
3CC
330
1
100
AcDbSymbolTableRecord
100
AcDbBlockTableRecord
  2
SW_CENTERMARKSYMBOL_14
340
0
 70
     0
280
     1
281
     0
  0
BLOCK_RECORD
  5
3D8
330
1
100
AcDbSymbolTableRecord
100
AcDbBlockTableRecord
  2
SW_CENTERMARKSYMBOL_15
340
0
 70
     0
280
     1
281
     0
  0
BLOCK_RECORD
  5
807
330
1
100
AcDbSymbolTableRecord
100
AcDbBlockTableRecord
  2
*D19
340
0
 70
     0
280
     1
281
     0
  0
BLOCK_RECORD
  5
814
330
1
100
AcDbSymbolTableRecord
100
AcDbBlockTableRecord
  2
*D20
340
0
 70
     0
280
     1
281
     0
  0
ENDTAB
  0
ENDSEC
  0
SECTION
  2
BLOCKS
  0
BLOCK
  5
20
330
1F
100
AcDbEntity
  8
0
100
AcDbBlockBegin
  2
*Model_Space
 70
     0
 10
0.0
 20
0.0
 30
0.0
  3
*Model_Space
  1
*Model_Space
  0
ENDBLK
  5
21
330
1F
100
AcDbEntity
  8
0
100
AcDbBlockEnd
  0
BLOCK
  5
1C
330
1B
100
AcDbEntity
 67
     1
  8
0
100
AcDbBlockBegin
  2
*Paper_Space
 70
     0
 10
0.0
 20
0.0
 30
0.0
  3
*Paper_Space
  1
*Paper_Space
  0
ENDBLK
  5
1D
330
1B
100
AcDbEntity
 67
     1
  8
0
100
AcDbBlockEnd
  0
BLOCK
  5
24
330
23
100
AcDbEntity
  8
0
100
AcDbBlockBegin
  2
*Paper_Space0
 70
     0
 10
0.0
 20
0.0
 30
0.0
  3
*Paper_Space0
  1
*Paper_Space0
  0
ENDBLK
  5
25
330
23
100
AcDbEntity
  8
0
100
AcDbBlockEnd
  0
BLOCK
  5
EE
330
ED
100
AcDbEntity
  8
0
100
AcDbBlockBegin
  2
SW_NOTE_0
 70
     0
 10
0.0
 20
0.0
 30
0.0
  3
SW_NOTE_0
  1
SW_NOTE_0
  0
MTEXT
  5
F0
330
ED
100
AcDbEntity
  8
0
  6
Continuous
 62
     0
370
     0
100
AcDbMText
 10
0.0
 20
1.933601609657942
 30
0.0
 40
1.5
 41
0.0
 46
0.0
 71
     1
 72
     1
  1
UNLESS OTHERWISE SPECIFIED:
  7
SLDTEXTSTYLE0
 73
     1
 44
1.0
  0
MTEXT
  5
F1
330
ED
100
AcDbEntity
  8
0
  6
Continuous
 62
     0
370
     0
100
AcDbMText
 10
0.0
 20
-0.5663983344626964
 30
0.0
 40
1.5
 41
0.0
 46
0.0
 71
     1
 72
     1
  1
DIMENSIONS ARE IN MILLIMETERS
  7
SLDTEXTSTYLE0
 73
     1
 44
1.0
  0
MTEXT
  5
F2
330
ED
100
AcDbEntity
  8
0
  6
Continuous
 62
     0
370
     0
100
AcDbMText
 10
0.0
 20
-3.066398278583342
 30
0.0
 40
1.5
 41
0.0
 46
0.0
 71
     1
 72
     1
  1
SURFACE FINISH:
  7
SLDTEXTSTYLE0
 73
     1
 44
1.0
  0
MTEXT
  5
F3
330
ED
100
AcDbEntity
  8
0
  6
Continuous
 62
     0
370
     0
100
AcDbMText
 10
0.0
 20
-5.566398222703987
 30
0.0
 40
1.5
 41
0.0
 46
0.0
 71
     1
 72
     1
  1
TOLERANCES:
  7
SLDTEXTSTYLE0
 73
     1
 44
1.0
  0
MTEXT
  5
F4
330
ED
100
AcDbEntity
  8
0
  6
Continuous
 62
     0
370
     0
100
AcDbMText
 10
1.687500000000008
 20
-8.066398166824634
 30
0.0
 40
1.5
 41
0.0
 46
0.0
 71
     1
 72
     1
  1
LINEAR:
  7
SLDTEXTSTYLE0
 73
     1
 44
1.0
  0
MTEXT
  5
F5
330
ED
100
AcDbEntity
  8
0
  6
Continuous
 62
     0
370
     0
100
AcDbMText
 10
1.687500000000008
 20
-10.56639811094528
 30
0.0
 40
1.5
 41
0.0
 46
0.0
 71
     1
 72
     1
  1
ANGULAR:
  7
SLDTEXTSTYLE0
 73
     1
 44
1.0
  0
ENDBLK
  5
EF
330
ED
100
AcDbEntity
  8
0
100
AcDbBlockEnd
  0
BLOCK
  5
F9
330
F8
100
AcDbEntity
  8
0
100
AcDbBlockBegin
  2
SW_NOTE_1
 70
     0
 10
0.0
 20
0.0
 30
0.0
  3
SW_NOTE_1
  1
SW_NOTE_1
  0
MTEXT
  5
FB
330
F8
100
AcDbEntity
  8
0
  6
Continuous
 62
     0
370
     0
100
AcDbMText
 10
0.0
 20
1.933601609657942
 30
0.0
 40
1.5
 41
0.0
 46
0.0
 71
     1
 72
     1
  1
DEBURR AND
  7
SLDTEXTSTYLE0
 73
     1
 44
1.0
  0
MTEXT
  5
FC
330
F8
100
AcDbEntity
  8
0
  6
Continuous
 62
     0
370
     0
100
AcDbMText
 10
0.0
 20
-0.5663983344626964
 30
0.0
 40
1.5
 41
0.0
 46
0.0
 71
     1
 72
     1
  1
BREAK SHARP
  7
SLDTEXTSTYLE0
 73
     1
 44
1.0
  0
MTEXT
  5
FD
330
F8
100
AcDbEntity
  8
0
  6
Continuous
 62
     0
370
     0
100
AcDbMText
 10
0.0
 20
-3.066398278583342
 30
0.0
 40
1.5
 41
0.0
 46
0.0
 71
     1
 72
     1
  1
EDGES
  7
SLDTEXTSTYLE0
 73
     1
 44
1.0
  0
ENDBLK
  5
FA
330
F8
100
AcDbEntity
  8
0
100
AcDbBlockEnd
  0
BLOCK
  5
2EF
330
2EE
100
AcDbEntity
  8
0
100
AcDbBlockBegin
  2
SW_CENTERMARKSYMBOL_0
 70
     0
 10
0.0
 20
0.0
 30
0.0
  3
SW_CENTERMARKSYMBOL_0
  1
SW_CENTERMARKSYMBOL_0
  0
LINE
  5
2F1
330
2EE
100
AcDbEntity
  8
0
  6
Continuous
 62
     0
370
     0
100
AcDbLine
 10
0.0
 20
0.0
 30
0.0
 11
-2.500000000000002
 21
-0.0000000000000104
 31
0.0
  0
LINE
  5
2F2
330
2EE
100
AcDbEntity
  8
0
  6
Continuous
 62
     0
370
     0
100
AcDbLine
 10
0.0
 20
0.0
 30
0.0
 11
0.0
 21
-2.499999999999999
 31
0.0
  0
LINE
  5
2F3
330
2EE
100
AcDbEntity
  8
0
  6
Continuous
 62
     0
370
     0
100
AcDbLine
 10
0.0
 20
0.0
 30
0.0
 11
2.499999999999974
 21
0.0000000000000069
 31
0.0
  0
LINE
  5
2F4
330
2EE
100
AcDbEntity
  8
0
  6
Continuous
 62
     0
370
     0
100
AcDbLine
 10
0.0
 20
0.0
 30
0.0
 11
-0.0000000000000278
 21
2.499999999999995
 31
0.0
  0
LINE
  5
2F5
330
2EE
100
AcDbEntity
  8
0
  6
Continuous
 62
     0
370
     0
100
AcDbLine
 10
-2.500000000000002
 20
-0.0000000000000104
 30
0.0
 11
-4.000000000000004
 21
-0.0000000000000139
 31
0.0
  0
LINE
  5
2F6
330
2EE
100
AcDbEntity
  8
0
  6
Continuous
 62
     0
370
     0
100
AcDbLine
 10
0.0
 20
-2.499999999999999
 30
0.0
 11
0.0
 21
-4.0
 31
0.0
  0
LINE
  5
2F7
330
2EE
100
AcDbEntity
  8
0
  6
Continuous
 62
     0
370
     0
100
AcDbLine
 10
2.499999999999974
 20
0.0000000000000069
 30
0.0
 11
3.999999999999976
 21
0.0000000000000139
 31
0.0
  0
LINE
  5
2F8
330
2EE
100
AcDbEntity
  8
0
  6
Continuous
 62
     0
370
     0
100
AcDbLine
 10
-0.0000000000000278
 20
2.499999999999995
 30
0.0
 11
-0.0000000000000278
 21
3.999999999999996
 31
0.0
  0
ENDBLK
  5
2F0
330
2EE
100
AcDbEntity
  8
0
100
AcDbBlockEnd
  0
BLOCK
  5
2FB
330
2FA
100
AcDbEntity
  8
0
100
AcDbBlockBegin
  2
SW_CENTERMARKSYMBOL_1
 70
     0
 10
0.0
 20
0.0
 30
0.0
  3
SW_CENTERMARKSYMBOL_1
  1
SW_CENTERMARKSYMBOL_1
  0
LINE
  5
2FD
330
2FA
100
AcDbEntity
  8
0
  6
Continuous
 62
     0
370
     0
100
AcDbLine
 10
0.0
 20
0.0
 30
0.0
 11
-2.500000000000002
 21
0.0
 31
0.0
  0
LINE
  5
2FE
330
2FA
100
AcDbEntity
  8
0
  6
Continuous
 62
     0
370
     0
100
AcDbLine
 10
0.0
 20
0.0
 30
0.0
 11
0.0
 21
-2.499999999999988
 31
0.0
  0
LINE
  5
2FF
330
2FA
100
AcDbEntity
  8
0
  6
Continuous
 62
     0
370
     0
100
AcDbLine
 10
0.0
 20
0.0
 30
0.0
 11
2.500000000000002
 21
0.0000000000000139
 31
0.0
  0
LINE
  5
300
330
2FA
100
AcDbEntity
  8
0
  6
Continuous
 62
     0
370
     0
100
AcDbLine
 10
0.0
 20
0.0
 30
0.0
 11
0.0
 21
2.500000000000002
 31
0.0
  0
LINE
  5
301
330
2FA
100
AcDbEntity
  8
0
  6
Continuous
 62
     0
370
     0
100
AcDbLine
 10
-2.500000000000002
 20
0.0
 30
0.0
 11
-4.000000000000004
 21
0.0
 31
0.0
  0
LINE
  5
302
330
2FA
100
AcDbEntity
  8
0
  6
Continuous
 62
     0
370
     0
100
AcDbLine
 10
0.0
 20
-2.499999999999988
 30
0.0
 11
0.0000000000000278
 21
-4.000000000000004
 31
0.0
  0
LINE
  5
303
330
2FA
100
AcDbEntity
  8
0
  6
Continuous
 62
     0
370
     0
100
AcDbLine
 10
2.500000000000002
 20
0.0000000000000139
 30
0.0
 11
4.000000000000004
 21
0.0000000000000278
 31
0.0
  0
LINE
  5
304
330
2FA
100
AcDbEntity
  8
0
  6
Continuous
 62
     0
370
     0
100
AcDbLine
 10
0.0
 20
2.500000000000002
 30
0.0
 11
0.0
 21
4.000000000000004
 31
0.0
  0
ENDBLK
  5
2FC
330
2FA
100
AcDbEntity
  8
0
100
AcDbBlockEnd
  0
BLOCK
  5
307
330
306
100
AcDbEntity
  8
0
100
AcDbBlockBegin
  2
SW_CENTERMARKSYMBOL_2
 70
     0
 10
0.0
 20
0.0
 30
0.0
  3
SW_CENTERMARKSYMBOL_2
  1
SW_CENTERMARKSYMBOL_2
  0
LINE
  5
309
330
306
100
AcDbEntity
  8
0
  6
Continuous
 62
     0
370
     0
100
AcDbLine
 10
0.0
 20
0.0
 30
0.0
 11
-2.500000000000002
 21
-0.0000000000000104
 31
0.0
  0
LINE
  5
30A
330
306
100
AcDbEntity
  8
0
  6
Continuous
 62
     0
370
     0
100
AcDbLine
 10
0.0
 20
0.0
 30
0.0
 11
0.0
 21
-2.499999999999999
 31
0.0
  0
LINE
  5
30B
330
306
100
AcDbEntity
  8
0
  6
Continuous
 62
     0
370
     0
100
AcDbLine
 10
0.0
 20
0.0
 30
0.0
 11
2.499999999999974
 21
0.0000000000000069
 31
0.0
  0
LINE
  5
30C
330
306
100
AcDbEntity
  8
0
  6
Continuous
 62
     0
370
     0
100
AcDbLine
 10
0.0
 20
0.0
 30
0.0
 11
-0.0000000000000278
 21
2.499999999999995
 31
0.0
  0
LINE
  5
30D
330
306
100
AcDbEntity
  8
0
  6
Continuous
 62
     0
370
     0
100
AcDbLine
 10
-2.500000000000002
 20
-0.0000000000000104
 30
0.0
 11
-4.000000000000004
 21
-0.0000000000000139
 31
0.0
  0
LINE
  5
30E
330
306
100
AcDbEntity
  8
0
  6
Continuous
 62
     0
370
     0
100
AcDbLine
 10
0.0
 20
-2.499999999999999
 30
0.0
 11
0.0
 21
-4.0
 31
0.0
  0
LINE
  5
30F
330
306
100
AcDbEntity
  8
0
  6
Continuous
 62
     0
370
     0
100
AcDbLine
 10
2.499999999999974
 20
0.0000000000000069
 30
0.0
 11
3.999999999999976
 21
0.0000000000000139
 31
0.0
  0
LINE
  5
310
330
306
100
AcDbEntity
  8
0
  6
Continuous
 62
     0
370
     0
100
AcDbLine
 10
-0.0000000000000278
 20
2.499999999999995
 30
0.0
 11
-0.0000000000000278
 21
3.999999999999996
 31
0.0
  0
ENDBLK
  5
308
330
306
100
AcDbEntity
  8
0
100
AcDbBlockEnd
  0
BLOCK
  5
313
330
312
100
AcDbEntity
  8
0
100
AcDbBlockBegin
  2
SW_CENTERMARKSYMBOL_3
 70
     0
 10
0.0
 20
0.0
 30
0.0
  3
SW_CENTERMARKSYMBOL_3
  1
SW_CENTERMARKSYMBOL_3
  0
LINE
  5
315
330
312
100
AcDbEntity
  8
0
  6
Continuous
 62
     0
370
     0
100
AcDbLine
 10
0.0
 20
0.0
 30
0.0
 11
-2.500000000000002
 21
0.0
 31
0.0
  0
LINE
  5
316
330
312
100
AcDbEntity
  8
0
  6
Continuous
 62
     0
370
     0
100
AcDbLine
 10
0.0
 20
0.0
 30
0.0
 11
0.0
 21
-2.499999999999988
 31
0.0
  0
LINE
  5
317
330
312
100
AcDbEntity
  8
0
  6
Continuous
 62
     0
370
     0
100
AcDbLine
 10
0.0
 20
0.0
 30
0.0
 11
2.500000000000002
 21
0.0000000000000139
 31
0.0
  0
LINE
  5
318
330
312
100
AcDbEntity
  8
0
  6
Continuous
 62
     0
370
     0
100
AcDbLine
 10
0.0
 20
0.0
 30
0.0
 11
0.0
 21
2.500000000000002
 31
0.0
  0
LINE
  5
319
330
312
100
AcDbEntity
  8
0
  6
Continuous
 62
     0
370
     0
100
AcDbLine
 10
-2.500000000000002
 20
0.0
 30
0.0
 11
-4.000000000000004
 21
0.0
 31
0.0
  0
LINE
  5
31A
330
312
100
AcDbEntity
  8
0
  6
Continuous
 62
     0
370
     0
100
AcDbLine
 10
0.0
 20
-2.499999999999988
 30
0.0
 11
0.0000000000000278
 21
-4.000000000000004
 31
0.0
  0
LINE
  5
31B
330
312
100
AcDbEntity
  8
0
  6
Continuous
 62
     0
370
     0
100
AcDbLine
 10
2.500000000000002
 20
0.0000000000000139
 30
0.0
 11
4.000000000000004
 21
0.0000000000000278
 31
0.0
  0
LINE
  5
31C
330
312
100
AcDbEntity
  8
0
  6
Continuous
 62
     0
370
     0
100
AcDbLine
 10
0.0
 20
2.500000000000002
 30
0.0
 11
0.0
 21
4.000000000000004
 31
0.0
  0
ENDBLK
  5
314
330
312
100
AcDbEntity
  8
0
100
AcDbBlockEnd
  0
BLOCK
  5
345
330
344
100
AcDbEntity
  8
0
100
AcDbBlockBegin
  2
SW_CENTERMARKSYMBOL_4
 70
     0
 10
0.0
 20
0.0
 30
0.0
  3
SW_CENTERMARKSYMBOL_4
  1
SW_CENTERMARKSYMBOL_4
  0
LINE
  5
347
330
344
100
AcDbEntity
  8
0
  6
Continuous
 62
     0
370
     0
100
AcDbLine
 10
0.0
 20
0.0
 30
0.0
 11
0.0
 21
2.500000000000002
 31
0.0
  0
LINE
  5
348
330
344
100
AcDbEntity
  8
0
  6
Continuous
 62
     0
370
     0
100
AcDbLine
 10
0.0
 20
0.0
 30
0.0
 11
-2.500000000000002
 21
0.0
 31
0.0
  0
LINE
  5
349
330
344
100
AcDbEntity
  8
0
  6
Continuous
 62
     0
370
     0
100
AcDbLine
 10
0.0
 20
0.0
 30
0.0
 11
0.0
 21
-2.500000000000002
 31
0.0
  0
LINE
  5
34A
330
344
100
AcDbEntity
  8
0
  6
Continuous
 62
     0
370
     0
100
AcDbLine
 10
0.0
 20
0.0
 30
0.0
 11
2.500000000000002
 21
0.0
 31
0.0
  0
LINE
  5
34B
330
344
100
AcDbEntity
  8
0
  6
Continuous
 62
     0
370
     0
100
AcDbLine
 10
0.0
 20
2.500000000000002
 30
0.0
 11
0.0
 21
4.000000000000004
 31
0.0
  0
LINE
  5
34C
330
344
100
AcDbEntity
  8
0
  6
Continuous
 62
     0
370
     0
100
AcDbLine
 10
-2.500000000000002
 20
0.0
 30
0.0
 11
-4.000000000000004
 21
0.0
 31
0.0
  0
LINE
  5
34D
330
344
100
AcDbEntity
  8
0
  6
Continuous
 62
     0
370
     0
100
AcDbLine
 10
0.0
 20
-2.500000000000002
 30
0.0
 11
0.0
 21
-4.000000000000004
 31
0.0
  0
LINE
  5
34E
330
344
100
AcDbEntity
  8
0
  6
Continuous
 62
     0
370
     0
100
AcDbLine
 10
2.500000000000002
 20
0.0
 30
0.0
 11
4.000000000000004
 21
0.0
 31
0.0
  0
ENDBLK
  5
346
330
344
100
AcDbEntity
  8
0
100
AcDbBlockEnd
  0
BLOCK
  5
351
330
350
100
AcDbEntity
  8
0
100
AcDbBlockBegin
  2
SW_CENTERMARKSYMBOL_5
 70
     0
 10
0.0
 20
0.0
 30
0.0
  3
SW_CENTERMARKSYMBOL_5
  1
SW_CENTERMARKSYMBOL_5
  0
LINE
  5
353
330
350
100
AcDbEntity
  8
0
  6
Continuous
 62
     0
370
     0
100
AcDbLine
 10
0.0
 20
0.0
 30
0.0
 11
0.0
 21
2.500000000000002
 31
0.0
  0
LINE
  5
354
330
350
100
AcDbEntity
  8
0
  6
Continuous
 62
     0
370
     0
100
AcDbLine
 10
0.0
 20
0.0
 30
0.0
 11
-2.500000000000058
 21
0.0
 31
0.0
  0
LINE
  5
355
330
350
100
AcDbEntity
  8
0
  6
Continuous
 62
     0
370
     0
100
AcDbLine
 10
0.0
 20
0.0
 30
0.0
 11
0.0
 21
-2.500000000000002
 31
0.0
  0
LINE
  5
356
330
350
100
AcDbEntity
  8
0
  6
Continuous
 62
     0
370
     0
100
AcDbLine
 10
0.0
 20
0.0
 30
0.0
 11
2.499999999999947
 21
0.0
 31
0.0
  0
LINE
  5
357
330
350
100
AcDbEntity
  8
0
  6
Continuous
 62
     0
370
     0
100
AcDbLine
 10
0.0
 20
2.500000000000002
 30
0.0
 11
0.0
 21
4.000000000000004
 31
0.0
  0
LINE
  5
358
330
350
100
AcDbEntity
  8
0
  6
Continuous
 62
     0
370
     0
100
AcDbLine
 10
-2.500000000000058
 20
0.0
 30
0.0
 11
-4.000000000000004
 21
0.0
 31
0.0
  0
LINE
  5
359
330
350
100
AcDbEntity
  8
0
  6
Continuous
 62
     0
370
     0
100
AcDbLine
 10
0.0
 20
-2.500000000000002
 30
0.0
 11
0.0
 21
-4.000000000000004
 31
0.0
  0
LINE
  5
35A
330
350
100
AcDbEntity
  8
0
  6
Continuous
 62
     0
370
     0
100
AcDbLine
 10
2.499999999999947
 20
0.0
 30
0.0
 11
4.000000000000004
 21
0.0
 31
0.0
  0
ENDBLK
  5
352
330
350
100
AcDbEntity
  8
0
100
AcDbBlockEnd
  0
BLOCK
  5
35D
330
35C
100
AcDbEntity
  8
0
100
AcDbBlockBegin
  2
SW_CENTERMARKSYMBOL_6
 70
     0
 10
0.0
 20
0.0
 30
0.0
  3
SW_CENTERMARKSYMBOL_6
  1
SW_CENTERMARKSYMBOL_6
  0
LINE
  5
35F
330
35C
100
AcDbEntity
  8
0
  6
Continuous
 62
     0
370
     0
100
AcDbLine
 10
0.0
 20
0.0
 30
0.0
 11
0.0
 21
2.500000000000002
 31
0.0
  0
LINE
  5
360
330
35C
100
AcDbEntity
  8
0
  6
Continuous
 62
     0
370
     0
100
AcDbLine
 10
0.0
 20
0.0
 30
0.0
 11
-2.500000000000002
 21
0.0
 31
0.0
  0
LINE
  5
361
330
35C
100
AcDbEntity
  8
0
  6
Continuous
 62
     0
370
     0
100
AcDbLine
 10
0.0
 20
0.0
 30
0.0
 11
0.0
 21
-2.500000000000002
 31
0.0
  0
LINE
  5
362
330
35C
100
AcDbEntity
  8
0
  6
Continuous
 62
     0
370
     0
100
AcDbLine
 10
0.0
 20
0.0
 30
0.0
 11
2.500000000000002
 21
0.0
 31
0.0
  0
LINE
  5
363
330
35C
100
AcDbEntity
  8
0
  6
Continuous
 62
     0
370
     0
100
AcDbLine
 10
0.0
 20
2.500000000000002
 30
0.0
 11
0.0
 21
4.000000000000004
 31
0.0
  0
LINE
  5
364
330
35C
100
AcDbEntity
  8
0
  6
Continuous
 62
     0
370
     0
100
AcDbLine
 10
-2.500000000000002
 20
0.0
 30
0.0
 11
-4.000000000000004
 21
0.0
 31
0.0
  0
LINE
  5
365
330
35C
100
AcDbEntity
  8
0
  6
Continuous
 62
     0
370
     0
100
AcDbLine
 10
0.0
 20
-2.500000000000002
 30
0.0
 11
0.0
 21
-4.000000000000004
 31
0.0
  0
LINE
  5
366
330
35C
100
AcDbEntity
  8
0
  6
Continuous
 62
     0
370
     0
100
AcDbLine
 10
2.500000000000002
 20
0.0
 30
0.0
 11
4.000000000000004
 21
0.0
 31
0.0
  0
ENDBLK
  5
35E
330
35C
100
AcDbEntity
  8
0
100
AcDbBlockEnd
  0
BLOCK
  5
369
330
368
100
AcDbEntity
  8
0
100
AcDbBlockBegin
  2
SW_CENTERMARKSYMBOL_7
 70
     0
 10
0.0
 20
0.0
 30
0.0
  3
SW_CENTERMARKSYMBOL_7
  1
SW_CENTERMARKSYMBOL_7
  0
LINE
  5
36B
330
368
100
AcDbEntity
  8
0
  6
Continuous
 62
     0
370
     0
100
AcDbLine
 10
0.0
 20
0.0
 30
0.0
 11
0.0
 21
2.500000000000002
 31
0.0
  0
LINE
  5
36C
330
368
100
AcDbEntity
  8
0
  6
Continuous
 62
     0
370
     0
100
AcDbLine
 10
0.0
 20
0.0
 30
0.0
 11
-2.500000000000058
 21
0.0
 31
0.0
  0
LINE
  5
36D
330
368
100
AcDbEntity
  8
0
  6
Continuous
 62
     0
370
     0
100
AcDbLine
 10
0.0
 20
0.0
 30
0.0
 11
0.0
 21
-2.500000000000002
 31
0.0
  0
LINE
  5
36E
330
368
100
AcDbEntity
  8
0
  6
Continuous
 62
     0
370
     0
100
AcDbLine
 10
0.0
 20
0.0
 30
0.0
 11
2.499999999999947
 21
0.0
 31
0.0
  0
LINE
  5
36F
330
368
100
AcDbEntity
  8
0
  6
Continuous
 62
     0
370
     0
100
AcDbLine
 10
0.0
 20
2.500000000000002
 30
0.0
 11
0.0
 21
4.000000000000004
 31
0.0
  0
LINE
  5
370
330
368
100
AcDbEntity
  8
0
  6
Continuous
 62
     0
370
     0
100
AcDbLine
 10
-2.500000000000058
 20
0.0
 30
0.0
 11
-4.000000000000004
 21
0.0
 31
0.0
  0
LINE
  5
371
330
368
100
AcDbEntity
  8
0
  6
Continuous
 62
     0
370
     0
100
AcDbLine
 10
0.0
 20
-2.500000000000002
 30
0.0
 11
0.0
 21
-4.000000000000004
 31
0.0
  0
LINE
  5
372
330
368
100
AcDbEntity
  8
0
  6
Continuous
 62
     0
370
     0
100
AcDbLine
 10
2.499999999999947
 20
0.0
 30
0.0
 11
4.000000000000004
 21
0.0
 31
0.0
  0
ENDBLK
  5
36A
330
368
100
AcDbEntity
  8
0
100
AcDbBlockEnd
  0
BLOCK
  5
37D
330
37C
100
AcDbEntity
  8
0
100
AcDbBlockBegin
  2
SW_CENTERMARKSYMBOL_8
 70
     0
 10
0.0
 20
0.0
 30
0.0
  3
SW_CENTERMARKSYMBOL_8
  1
SW_CENTERMARKSYMBOL_8
  0
LINE
  5
37F
330
37C
100
AcDbEntity
  8
0
  6
Continuous
 62
     0
370
     0
100
AcDbLine
 10
0.0
 20
0.0
 30
0.0
 11
0.0
 21
2.500000000000002
 31
0.0
  0
LINE
  5
380
330
37C
100
AcDbEntity
  8
0
  6
Continuous
 62
     0
370
     0
100
AcDbLine
 10
0.0
 20
0.0
 30
0.0
 11
-2.500000000000002
 21
0.0
 31
0.0
  0
LINE
  5
381
330
37C
100
AcDbEntity
  8
0
  6
Continuous
 62
     0
370
     0
100
AcDbLine
 10
0.0
 20
0.0
 30
0.0
 11
0.0
 21
-2.500000000000002
 31
0.0
  0
LINE
  5
382
330
37C
100
AcDbEntity
  8
0
  6
Continuous
 62
     0
370
     0
100
AcDbLine
 10
0.0
 20
0.0
 30
0.0
 11
2.500000000000002
 21
0.0
 31
0.0
  0
LINE
  5
383
330
37C
100
AcDbEntity
  8
0
  6
Continuous
 62
     0
370
     0
100
AcDbLine
 10
0.0
 20
2.500000000000002
 30
0.0
 11
0.0
 21
4.000000000000018
 31
0.0
  0
LINE
  5
384
330
37C
100
AcDbEntity
  8
0
  6
Continuous
 62
     0
370
     0
100
AcDbLine
 10
-2.500000000000002
 20
0.0
 30
0.0
 11
-4.000000000000004
 21
0.0
 31
0.0
  0
LINE
  5
385
330
37C
100
AcDbEntity
  8
0
  6
Continuous
 62
     0
370
     0
100
AcDbLine
 10
0.0
 20
-2.500000000000002
 30
0.0
 11
0.0
 21
-4.000000000000018
 31
0.0
  0
LINE
  5
386
330
37C
100
AcDbEntity
  8
0
  6
Continuous
 62
     0
370
     0
100
AcDbLine
 10
2.500000000000002
 20
0.0
 30
0.0
 11
4.000000000000031
 21
0.0
 31
0.0
  0
ENDBLK
  5
37E
330
37C
100
AcDbEntity
  8
0
100
AcDbBlockEnd
  0
BLOCK
  5
389
330
388
100
AcDbEntity
  8
0
100
AcDbBlockBegin
  2
SW_CENTERMARKSYMBOL_9
 70
     0
 10
0.0
 20
0.0
 30
0.0
  3
SW_CENTERMARKSYMBOL_9
  1
SW_CENTERMARKSYMBOL_9
  0
LINE
  5
38B
330
388
100
AcDbEntity
  8
0
  6
Continuous
 62
     0
370
     0
100
AcDbLine
 10
0.0
 20
0.0
 30
0.0
 11
0.0
 21
2.500000000000002
 31
0.0
  0
LINE
  5
38C
330
388
100
AcDbEntity
  8
0
  6
Continuous
 62
     0
370
     0
100
AcDbLine
 10
0.0
 20
0.0
 30
0.0
 11
-2.500000000000002
 21
0.0
 31
0.0
  0
LINE
  5
38D
330
388
100
AcDbEntity
  8
0
  6
Continuous
 62
     0
370
     0
100
AcDbLine
 10
0.0
 20
0.0
 30
0.0
 11
0.0
 21
-2.500000000000002
 31
0.0
  0
LINE
  5
38E
330
388
100
AcDbEntity
  8
0
  6
Continuous
 62
     0
370
     0
100
AcDbLine
 10
0.0
 20
0.0
 30
0.0
 11
2.499999999999974
 21
0.0
 31
0.0
  0
LINE
  5
38F
330
388
100
AcDbEntity
  8
0
  6
Continuous
 62
     0
370
     0
100
AcDbLine
 10
0.0
 20
2.500000000000002
 30
0.0
 11
0.0
 21
4.000000000000024
 31
0.0
  0
LINE
  5
390
330
388
100
AcDbEntity
  8
0
  6
Continuous
 62
     0
370
     0
100
AcDbLine
 10
-2.500000000000002
 20
0.0
 30
0.0
 11
-4.000000000000031
 21
0.0
 31
0.0
  0
LINE
  5
391
330
388
100
AcDbEntity
  8
0
  6
Continuous
 62
     0
370
     0
100
AcDbLine
 10
0.0
 20
-2.500000000000002
 30
0.0
 11
0.0
 21
-4.000000000000024
 31
0.0
  0
LINE
  5
392
330
388
100
AcDbEntity
  8
0
  6
Continuous
 62
     0
370
     0
100
AcDbLine
 10
2.499999999999974
 20
0.0
 30
0.0
 11
4.000000000000004
 21
0.0
 31
0.0
  0
ENDBLK
  5
38A
330
388
100
AcDbEntity
  8
0
100
AcDbBlockEnd
  0
BLOCK
  5
395
330
394
100
AcDbEntity
  8
0
100
AcDbBlockBegin
  2
SW_CENTERMARKSYMBOL_10
 70
     0
 10
0.0
 20
0.0
 30
0.0
  3
SW_CENTERMARKSYMBOL_10
  1
SW_CENTERMARKSYMBOL_10
  0
LINE
  5
397
330
394
100
AcDbEntity
  8
0
  6
Continuous
 62
     0
370
     0
100
AcDbLine
 10
0.0
 20
0.0
 30
0.0
 11
0.0
 21
2.500000000000002
 31
0.0
  0
LINE
  5
398
330
394
100
AcDbEntity
  8
0
  6
Continuous
 62
     0
370
     0
100
AcDbLine
 10
0.0
 20
0.0
 30
0.0
 11
-2.500000000000002
 21
0.0
 31
0.0
  0
LINE
  5
399
330
394
100
AcDbEntity
  8
0
  6
Continuous
 62
     0
370
     0
100
AcDbLine
 10
0.0
 20
0.0
 30
0.0
 11
0.0
 21
-2.500000000000002
 31
0.0
  0
LINE
  5
39A
330
394
100
AcDbEntity
  8
0
  6
Continuous
 62
     0
370
     0
100
AcDbLine
 10
0.0
 20
0.0
 30
0.0
 11
2.500000000000002
 21
0.0
 31
0.0
  0
LINE
  5
39B
330
394
100
AcDbEntity
  8
0
  6
Continuous
 62
     0
370
     0
100
AcDbLine
 10
0.0
 20
2.500000000000002
 30
0.0
 11
0.0
 21
4.000000000000018
 31
0.0
  0
LINE
  5
39C
330
394
100
AcDbEntity
  8
0
  6
Continuous
 62
     0
370
     0
100
AcDbLine
 10
-2.500000000000002
 20
0.0
 30
0.0
 11
-4.000000000000004
 21
0.0
 31
0.0
  0
LINE
  5
39D
330
394
100
AcDbEntity
  8
0
  6
Continuous
 62
     0
370
     0
100
AcDbLine
 10
0.0
 20
-2.500000000000002
 30
0.0
 11
0.0
 21
-4.000000000000018
 31
0.0
  0
LINE
  5
39E
330
394
100
AcDbEntity
  8
0
  6
Continuous
 62
     0
370
     0
100
AcDbLine
 10
2.500000000000002
 20
0.0
 30
0.0
 11
4.000000000000031
 21
0.0
 31
0.0
  0
ENDBLK
  5
396
330
394
100
AcDbEntity
  8
0
100
AcDbBlockEnd
  0
BLOCK
  5
3A1
330
3A0
100
AcDbEntity
  8
0
100
AcDbBlockBegin
  2
SW_CENTERMARKSYMBOL_11
 70
     0
 10
0.0
 20
0.0
 30
0.0
  3
SW_CENTERMARKSYMBOL_11
  1
SW_CENTERMARKSYMBOL_11
  0
LINE
  5
3A3
330
3A0
100
AcDbEntity
  8
0
  6
Continuous
 62
     0
370
     0
100
AcDbLine
 10
0.0
 20
0.0
 30
0.0
 11
0.0
 21
2.500000000000002
 31
0.0
  0
LINE
  5
3A4
330
3A0
100
AcDbEntity
  8
0
  6
Continuous
 62
     0
370
     0
100
AcDbLine
 10
0.0
 20
0.0
 30
0.0
 11
-2.500000000000002
 21
0.0
 31
0.0
  0
LINE
  5
3A5
330
3A0
100
AcDbEntity
  8
0
  6
Continuous
 62
     0
370
     0
100
AcDbLine
 10
0.0
 20
0.0
 30
0.0
 11
0.0
 21
-2.500000000000002
 31
0.0
  0
LINE
  5
3A6
330
3A0
100
AcDbEntity
  8
0
  6
Continuous
 62
     0
370
     0
100
AcDbLine
 10
0.0
 20
0.0
 30
0.0
 11
2.499999999999974
 21
0.0
 31
0.0
  0
LINE
  5
3A7
330
3A0
100
AcDbEntity
  8
0
  6
Continuous
 62
     0
370
     0
100
AcDbLine
 10
0.0
 20
2.500000000000002
 30
0.0
 11
0.0
 21
4.000000000000024
 31
0.0
  0
LINE
  5
3A8
330
3A0
100
AcDbEntity
  8
0
  6
Continuous
 62
     0
370
     0
100
AcDbLine
 10
-2.500000000000002
 20
0.0
 30
0.0
 11
-4.000000000000031
 21
0.0
 31
0.0
  0
LINE
  5
3A9
330
3A0
100
AcDbEntity
  8
0
  6
Continuous
 62
     0
370
     0
100
AcDbLine
 10
0.0
 20
-2.500000000000002
 30
0.0
 11
0.0
 21
-4.000000000000024
 31
0.0
  0
LINE
  5
3AA
330
3A0
100
AcDbEntity
  8
0
  6
Continuous
 62
     0
370
     0
100
AcDbLine
 10
2.499999999999974
 20
0.0
 30
0.0
 11
4.000000000000004
 21
0.0
 31
0.0
  0
ENDBLK
  5
3A2
330
3A0
100
AcDbEntity
  8
0
100
AcDbBlockEnd
  0
BLOCK
  5
3B5
330
3B4
100
AcDbEntity
  8
0
100
AcDbBlockBegin
  2
SW_CENTERMARKSYMBOL_12
 70
     0
 10
0.0
 20
0.0
 30
0.0
  3
SW_CENTERMARKSYMBOL_12
  1
SW_CENTERMARKSYMBOL_12
  0
LINE
  5
3B7
330
3B4
100
AcDbEntity
  8
0
  6
Continuous
 62
     0
370
     0
100
AcDbLine
 10
0.0
 20
0.0
 30
0.0
 11
0.0000000000000278
 21
-2.500000000000002
 31
0.0
  0
LINE
  5
3B8
330
3B4
100
AcDbEntity
  8
0
  6
Continuous
 62
     0
370
     0
100
AcDbLine
 10
0.0
 20
0.0
 30
0.0
 11
2.500000000000002
 21
0.0000000000000208
 31
0.0
  0
LINE
  5
3B9
330
3B4
100
AcDbEntity
  8
0
  6
Continuous
 62
     0
370
     0
100
AcDbLine
 10
0.0
 20
0.0
 30
0.0
 11
-0.0000000000000278
 21
2.500000000000002
 31
0.0
  0
LINE
  5
3BA
330
3B4
100
AcDbEntity
  8
0
  6
Continuous
 62
     0
370
     0
100
AcDbLine
 10
0.0
 20
0.0
 30
0.0
 11
-2.500000000000002
 21
-0.0000000000000139
 31
0.0
  0
LINE
  5
3BB
330
3B4
100
AcDbEntity
  8
0
  6
Continuous
 62
     0
370
     0
100
AcDbLine
 10
0.0000000000000278
 20
-2.500000000000002
 30
0.0
 11
0.0000000000000278
 21
-4.000000000000018
 31
0.0
  0
LINE
  5
3BC
330
3B4
100
AcDbEntity
  8
0
  6
Continuous
 62
     0
370
     0
100
AcDbLine
 10
2.500000000000002
 20
0.0000000000000208
 30
0.0
 11
4.000000000000004
 21
0.0000000000000278
 31
0.0
  0
LINE
  5
3BD
330
3B4
100
AcDbEntity
  8
0
  6
Continuous
 62
     0
370
     0
100
AcDbLine
 10
-0.0000000000000278
 20
2.500000000000002
 30
0.0
 11
-0.0000000000000278
 21
4.000000000000018
 31
0.0
  0
LINE
  5
3BE
330
3B4
100
AcDbEntity
  8
0
  6
Continuous
 62
     0
370
     0
100
AcDbLine
 10
-2.500000000000002
 20
-0.0000000000000139
 30
0.0
 11
-4.000000000000004
 21
-0.0000000000000278
 31
0.0
  0
ENDBLK
  5
3B6
330
3B4
100
AcDbEntity
  8
0
100
AcDbBlockEnd
  0
BLOCK
  5
3C1
330
3C0
100
AcDbEntity
  8
0
100
AcDbBlockBegin
  2
SW_CENTERMARKSYMBOL_13
 70
     0
 10
0.0
 20
0.0
 30
0.0
  3
SW_CENTERMARKSYMBOL_13
  1
SW_CENTERMARKSYMBOL_13
  0
LINE
  5
3C3
330
3C0
100
AcDbEntity
  8
0
  6
Continuous
 62
     0
370
     0
100
AcDbLine
 10
0.0
 20
0.0
 30
0.0
 11
0.0
 21
-2.500000000000002
 31
0.0
  0
LINE
  5
3C4
330
3C0
100
AcDbEntity
  8
0
  6
Continuous
 62
     0
370
     0
100
AcDbLine
 10
0.0
 20
0.0
 30
0.0
 11
2.500000000000002
 21
0.0000000000000139
 31
0.0
  0
LINE
  5
3C5
330
3C0
100
AcDbEntity
  8
0
  6
Continuous
 62
     0
370
     0
100
AcDbLine
 10
0.0
 20
0.0
 30
0.0
 11
-0.0000000000000278
 21
2.500000000000002
 31
0.0
  0
LINE
  5
3C6
330
3C0
100
AcDbEntity
  8
0
  6
Continuous
 62
     0
370
     0
100
AcDbLine
 10
0.0
 20
0.0
 30
0.0
 11
-2.500000000000002
 21
-0.0000000000000208
 31
0.0
  0
LINE
  5
3C7
330
3C0
100
AcDbEntity
  8
0
  6
Continuous
 62
     0
370
     0
100
AcDbLine
 10
0.0
 20
-2.500000000000002
 30
0.0
 11
0.0000000000000278
 21
-4.000000000000024
 31
0.0
  0
LINE
  5
3C8
330
3C0
100
AcDbEntity
  8
0
  6
Continuous
 62
     0
370
     0
100
AcDbLine
 10
2.500000000000002
 20
0.0000000000000139
 30
0.0
 11
4.000000000000031
 21
0.0000000000000278
 31
0.0
  0
LINE
  5
3C9
330
3C0
100
AcDbEntity
  8
0
  6
Continuous
 62
     0
370
     0
100
AcDbLine
 10
-0.0000000000000278
 20
2.500000000000002
 30
0.0
 11
-0.0000000000000278
 21
4.000000000000024
 31
0.0
  0
LINE
  5
3CA
330
3C0
100
AcDbEntity
  8
0
  6
Continuous
 62
     0
370
     0
100
AcDbLine
 10
-2.500000000000002
 20
-0.0000000000000208
 30
0.0
 11
-4.000000000000031
 21
-0.0000000000000278
 31
0.0
  0
ENDBLK
  5
3C2
330
3C0
100
AcDbEntity
  8
0
100
AcDbBlockEnd
  0
BLOCK
  5
3CD
330
3CC
100
AcDbEntity
  8
0
100
AcDbBlockBegin
  2
SW_CENTERMARKSYMBOL_14
 70
     0
 10
0.0
 20
0.0
 30
0.0
  3
SW_CENTERMARKSYMBOL_14
  1
SW_CENTERMARKSYMBOL_14
  0
LINE
  5
3CF
330
3CC
100
AcDbEntity
  8
0
  6
Continuous
 62
     0
370
     0
100
AcDbLine
 10
0.0
 20
0.0
 30
0.0
 11
0.0000000000000278
 21
-2.500000000000002
 31
0.0
  0
LINE
  5
3D0
330
3CC
100
AcDbEntity
  8
0
  6
Continuous
 62
     0
370
     0
100
AcDbLine
 10
0.0
 20
0.0
 30
0.0
 11
2.500000000000002
 21
0.0000000000000208
 31
0.0
  0
LINE
  5
3D1
330
3CC
100
AcDbEntity
  8
0
  6
Continuous
 62
     0
370
     0
100
AcDbLine
 10
0.0
 20
0.0
 30
0.0
 11
-0.0000000000000278
 21
2.500000000000002
 31
0.0
  0
LINE
  5
3D2
330
3CC
100
AcDbEntity
  8
0
  6
Continuous
 62
     0
370
     0
100
AcDbLine
 10
0.0
 20
0.0
 30
0.0
 11
-2.500000000000002
 21
-0.0000000000000139
 31
0.0
  0
LINE
  5
3D3
330
3CC
100
AcDbEntity
  8
0
  6
Continuous
 62
     0
370
     0
100
AcDbLine
 10
0.0000000000000278
 20
-2.500000000000002
 30
0.0
 11
0.0000000000000278
 21
-4.000000000000018
 31
0.0
  0
LINE
  5
3D4
330
3CC
100
AcDbEntity
  8
0
  6
Continuous
 62
     0
370
     0
100
AcDbLine
 10
2.500000000000002
 20
0.0000000000000208
 30
0.0
 11
4.000000000000004
 21
0.0000000000000278
 31
0.0
  0
LINE
  5
3D5
330
3CC
100
AcDbEntity
  8
0
  6
Continuous
 62
     0
370
     0
100
AcDbLine
 10
-0.0000000000000278
 20
2.500000000000002
 30
0.0
 11
-0.0000000000000278
 21
4.000000000000018
 31
0.0
  0
LINE
  5
3D6
330
3CC
100
AcDbEntity
  8
0
  6
Continuous
 62
     0
370
     0
100
AcDbLine
 10
-2.500000000000002
 20
-0.0000000000000139
 30
0.0
 11
-4.000000000000004
 21
-0.0000000000000278
 31
0.0
  0
ENDBLK
  5
3CE
330
3CC
100
AcDbEntity
  8
0
100
AcDbBlockEnd
  0
BLOCK
  5
3D9
330
3D8
100
AcDbEntity
  8
0
100
AcDbBlockBegin
  2
SW_CENTERMARKSYMBOL_15
 70
     0
 10
0.0
 20
0.0
 30
0.0
  3
SW_CENTERMARKSYMBOL_15
  1
SW_CENTERMARKSYMBOL_15
  0
LINE
  5
3DB
330
3D8
100
AcDbEntity
  8
0
  6
Continuous
 62
     0
370
     0
100
AcDbLine
 10
0.0
 20
0.0
 30
0.0
 11
0.0
 21
-2.500000000000002
 31
0.0
  0
LINE
  5
3DC
330
3D8
100
AcDbEntity
  8
0
  6
Continuous
 62
     0
370
     0
100
AcDbLine
 10
0.0
 20
0.0
 30
0.0
 11
2.500000000000002
 21
0.0000000000000139
 31
0.0
  0
LINE
  5
3DD
330
3D8
100
AcDbEntity
  8
0
  6
Continuous
 62
     0
370
     0
100
AcDbLine
 10
0.0
 20
0.0
 30
0.0
 11
-0.0000000000000278
 21
2.500000000000002
 31
0.0
  0
LINE
  5
3DE
330
3D8
100
AcDbEntity
  8
0
  6
Continuous
 62
     0
370
     0
100
AcDbLine
 10
0.0
 20
0.0
 30
0.0
 11
-2.500000000000002
 21
-0.0000000000000208
 31
0.0
  0
LINE
  5
3DF
330
3D8
100
AcDbEntity
  8
0
  6
Continuous
 62
     0
370
     0
100
AcDbLine
 10
0.0
 20
-2.500000000000002
 30
0.0
 11
0.0000000000000278
 21
-4.000000000000024
 31
0.0
  0
LINE
  5
3E0
330
3D8
100
AcDbEntity
  8
0
  6
Continuous
 62
     0
370
     0
100
AcDbLine
 10
2.500000000000002
 20
0.0000000000000139
 30
0.0
 11
4.000000000000031
 21
0.0000000000000278
 31
0.0
  0
LINE
  5
3E1
330
3D8
100
AcDbEntity
  8
0
  6
Continuous
 62
     0
370
     0
100
AcDbLine
 10
-0.0000000000000278
 20
2.500000000000002
 30
0.0
 11
-0.0000000000000278
 21
4.000000000000024
 31
0.0
  0
LINE
  5
3E2
330
3D8
100
AcDbEntity
  8
0
  6
Continuous
 62
     0
370
     0
100
AcDbLine
 10
-2.500000000000002
 20
-0.0000000000000208
 30
0.0
 11
-4.000000000000031
 21
-0.0000000000000278
 31
0.0
  0
ENDBLK
  5
3DA
330
3D8
100
AcDbEntity
  8
0
100
AcDbBlockEnd
  0
BLOCK
  5
808
330
807
100
AcDbEntity
  8
0
100
AcDbBlockBegin
  2
*D19
 70
     1
 10
0.0
 20
0.0
 30
0.0
  3
*D19
  1
*D19
  0
LINE
  5
80A
330
807
100
AcDbEntity
  8
gcad_dimension
 62
     0
370
    -2
100
AcDbLine
 10
291.3544101068109
 20
148.1531411699431
 30
0.0
 11
291.3544101068109
 21
159.1731780697943
 31
0.0
  0
LINE
  5
80B
330
807
100
AcDbEntity
  8
gcad_dimension
 62
     0
370
    -2
100
AcDbLine
 10
23.48087632637674
 20
148.1531411699431
 30
0.0
 11
23.48087632637674
 21
159.1731780697943
 31
0.0
  0
LINE
  5
80C
330
807
100
AcDbEntity
  8
gcad_dimension
 62
     0
370
    -2
100
AcDbLine
 10
287.2730278412146
 20
157.1324869369961
 30
0.0
 11
27.56225859197311
 21
157.1324869369961
 31
0.0
  0
SOLID
  5
80D
330
807
100
AcDbEntity
  8
gcad_dimension
 62
     0
100
AcDbTrace
 10
287.2730278412146
 20
156.4522565593967
 30
0.0
 11
287.2730278412146
 21
157.8127173145955
 31
0.0
 12
291.3544101068109
 22
157.1324869369961
 32
0.0
 13
291.3544101068109
 23
157.1324869369961
 33
0.0
  0
SOLID
  5
80E
330
807
100
AcDbEntity
  8
gcad_dimension
 62
     0
100
AcDbTrace
 10
27.56225859197311
 20
157.8127173145955
 30
0.0
 11
27.56225859197311
 21
156.4522565593967
 31
0.0
 12
23.48087632637674
 22
157.1324869369961
 32
0.0
 13
23.48087632637674
 23
157.1324869369961
 33
0.0
  0
MTEXT
  5
80F
330
807
100
AcDbEntity
  8
gcad_dimension
 62
     0
100
AcDbMText
 10
157.4176432165938
 20
161.7254974729926
 30
0.0
 40
6.802303775993931
 41
0.0
 46
0.0
 71
     5
 72
     1
  1
267,87
  7
gcad_textstyle
 73
     1
 44
1.0
  0
POINT
  5
810
330
807
100
AcDbEntity
  8
Defpoints
 62
     0
100
AcDbPoint
 10
291.3544101068109
 20
148.1531411699431
 30
0.0
  0
POINT
  5
811
330
807
100
AcDbEntity
  8
Defpoints
 62
     0
100
AcDbPoint
 10
23.48087632637674
 20
148.1531411699431
 30
0.0
  0
POINT
  5
812
330
807
100
AcDbEntity
  8
Defpoints
 62
     0
100
AcDbPoint
 10
23.48087632637674
 20
157.1324869369961
 30
0.0
  0
ENDBLK
  5
809
330
807
100
AcDbEntity
  8
0
100
AcDbBlockEnd
  0
BLOCK
  5
815
330
814
100
AcDbEntity
  8
0
100
AcDbBlockBegin
  2
*D20
 70
     1
 10
0.0
 20
0.0
 30
0.0
  3
*D20
  1
*D20
  0
LINE
  5
817
330
814
100
AcDbEntity
  8
gcad_dimension
 62
     0
370
    -2
100
AcDbLine
 10
291.3544101068109
 20
14.4577017876364
 30
0.0
 11
309.0432802538609
 21
14.4577017876364
 31
0.0
  0
LINE
  5
818
330
814
100
AcDbEntity
  8
gcad_dimension
 62
     0
370
    -2
100
AcDbLine
 10
291.3544101068109
 20
148.1531411699431
 30
0.0
 11
309.0432802538609
 21
148.1531411699431
 31
0.0
  0
LINE
  5
819
330
814
100
AcDbEntity
  8
gcad_dimension
 62
     0
370
    -2
100
AcDbLine
 10
306.4556517846025
 20
19.63295872615309
 30
0.0
 11
306.4556517846025
 21
142.9778842314264
 31
0.0
  0
SOLID
  5
81A
330
814
100
AcDbEntity
  8
gcad_dimension
 62
     0
100
AcDbTrace
 10
305.5931089615164
 20
19.63295872615309
 30
0.0
 11
307.3181946076887
 21
19.63295872615309
 31
0.0
 12
306.4556517846025
 22
14.4577017876364
 32
0.0
 13
306.4556517846025
 23
14.4577017876364
 33
0.0
  0
SOLID
  5
81B
330
814
100
AcDbEntity
  8
gcad_dimension
 62
     0
100
AcDbTrace
 10
307.3181946076887
 20
142.9778842314264
 30
0.0
 11
305.5931089615164
 21
142.9778842314264
 31
0.0
 12
306.4556517846025
 22
148.1531411699431
 32
0.0
 13
306.4556517846025
 23
148.1531411699431
 33
0.0
  0
MTEXT
  5
81C
330
814
100
AcDbEntity
  8
gcad_dimension
 62
     0
100
AcDbMText
 10
300.7991519832669
 20
104.6508380076637
 30
0.0
 40
8.625428230861159
 41
0.0
 46
0.0
 71
     5
 72
     1
  1
133,7
  7
gcad_textstyle
 11
0.0
 21
1.0
 31
0.0
 73
     1
 44
1.0
  0
POINT
  5
81D
330
814
100
AcDbEntity
  8
Defpoints
 62
     0
100
AcDbPoint
 10
291.3544101068109
 20
14.4577017876364
 30
0.0
  0
POINT
  5
81E
330
814
100
AcDbEntity
  8
Defpoints
 62
     0
100
AcDbPoint
 10
291.3544101068109
 20
148.1531411699431
 30
0.0
  0
POINT
  5
81F
330
814
100
AcDbEntity
  8
Defpoints
 62
     0
100
AcDbPoint
 10
306.4556517846025
 20
148.1531411699431
 30
0.0
  0
ENDBLK
  5
816
330
814
100
AcDbEntity
  8
0
100
AcDbBlockEnd
  0
ENDSEC
  0
SECTION
  2
ENTITIES
  0
ARC
  5
2B2
330
1F
100
AcDbEntity
  8
0
  6
Continuous
 62
     7
370
    15
100
AcDbCircle
 10
137.5431669424957
 20
-126.8924525892714
 30
0.0
 40
1.500000000000014
100
AcDbArc
 50
270.0
 51
90.0
  0
LINE
  5
2B3
330
1F
100
AcDbEntity
  8
0
  6
Continuous
 62
     7
370
    15
100
AcDbLine
 10
137.5431669424957
 20
-125.3924525892714
 30
0.0
 11
136.5431669424957
 21
-125.3924525892714
 31
0.0
  0
ARC
  5
2B4
330
1F
100
AcDbEntity
  8
0
  6
Continuous
 62
     7
370
    15
100
AcDbCircle
 10
136.5431669424957
 20
-126.8924525892714
 30
0.0
 40
1.500000000000014
100
AcDbArc
 50
90.0
 51
270.0
  0
LINE
  5
2B5
330
1F
100
AcDbEntity
  8
0
  6
Continuous
 62
     7
370
    15
100
AcDbLine
 10
136.5431669424957
 20
-128.3924525892714
 30
0.0
 11
137.5431669424957
 21
-128.3924525892714
 31
0.0
  0
ARC
  5
2B6
330
1F
100
AcDbEntity
  8
0
  6
Continuous
 62
     7
370
    15
100
AcDbCircle
 10
181.5431669424957
 20
-126.8924525892714
 30
0.0
 40
1.500000000000028
100
AcDbArc
 50
270.0000000000011
 51
90.0
  0
LINE
  5
2B7
330
1F
100
AcDbEntity
  8
0
  6
Continuous
 62
     7
370
    15
100
AcDbLine
 10
181.5431669424957
 20
-125.3924525892714
 30
0.0
 11
180.5431669424957
 21
-125.3924525892714
 31
0.0
  0
ARC
  5
2B8
330
1F
100
AcDbEntity
  8
0
  6
Continuous
 62
     7
370
    15
100
AcDbCircle
 10
180.5431669424957
 20
-126.8924525892714
 30
0.0
 40
1.500000000000028
100
AcDbArc
 50
90.0
 51
270.0000000000011
  0
LINE
  5
2B9
330
1F
100
AcDbEntity
  8
0
  6
Continuous
 62
     7
370
    15
100
AcDbLine
 10
180.5431669424957
 20
-128.3924525892714
 30
0.0
 11
181.5431669424957
 21
-128.3924525892714
 31
0.0
  0
LINE
  5
2BA
330
1F
100
AcDbEntity
  8
0
  6
Continuous
 62
     7
370
    15
100
AcDbLine
 10
189.0431669424957
 20
-131.8924525892714
 30
0.0
 11
189.0431669424957
 21
-121.3924525892714
 31
0.0
  0
ARC
  5
2BB
330
1F
100
AcDbEntity
  8
0
  6
Continuous
 62
     7
370
    15
100
AcDbCircle
 10
188.0431669424957
 20
-131.8924525892714
 30
0.0
 40
1.0
100
AcDbArc
 50
270.0
 51
0.0
  0
LINE
  5
2BC
330
1F
100
AcDbEntity
  8
0
  6
Continuous
 62
     7
370
    15
100
AcDbLine
 10
136.0431669424957
 20
-132.8924525892714
 30
0.0
 11
188.0431669424957
 21
-132.8924525892714
 31
0.0
  0
ARC
  5
2BD
330
1F
100
AcDbEntity
  8
0
  6
Continuous
 62
     7
370
    15
100
AcDbCircle
 10
136.0431669424957
 20
-133.8924525892714
 30
0.0
 40
1.0
100
AcDbArc
 50
90.0
 51
180.0
  0
LINE
  5
2BE
330
1F
100
AcDbEntity
  8
0
  6
Continuous
 62
     7
370
    15
100
AcDbLine
 10
135.0431669424957
 20
-167.5560639780713
 30
0.0
 11
135.0431669424957
 21
-133.8924525892714
 31
0.0
  0
ARC
  5
2BF
330
1F
100
AcDbEntity
  8
0
  6
Continuous
 62
     7
370
    15
100
AcDbCircle
 10
134.0431669424957
 20
-167.5560639780713
 30
0.0
 40
1.0
100
AcDbArc
 50
322.8152935467677
 51
0.0
  0
LINE
  5
2C0
330
1F
100
AcDbEntity
  8
0
  6
Continuous
 62
     7
370
    15
100
AcDbLine
 10
124.0431669424957
 20
-182.3924525892714
 30
0.0
 11
134.8398582133981
 21
-168.1604504594455
 31
0.0
  0
LINE
  5
2C1
330
1F
100
AcDbEntity
  8
0
  6
Continuous
 62
     7
370
    15
100
AcDbLine
 10
124.0431669424957
 20
-190.3924525892714
 30
0.0
 11
124.0431669424957
 21
-182.3924525892714
 31
0.0
  0
LINE
  5
2C2
330
1F
100
AcDbEntity
  8
0
  6
Continuous
 62
     7
370
    15
100
AcDbLine
 10
119.0431669424957
 20
-190.3924525892714
 30
0.0
 11
124.0431669424957
 21
-190.3924525892714
 31
0.0
  0
LINE
  5
2C5
330
1F
100
AcDbEntity
  8
0
  6
Continuous
 62
     7
370
    15
100
AcDbLine
 10
150.1320310547728
 20
-181.2083435834124
 30
0.0
 11
148.5731853279608
 21
-183.9083435834124
 31
0.0
  0
LINE
  5
2C6
330
1F
100
AcDbEntity
  8
0
  6
Continuous
 62
     7
370
    15
100
AcDbLine
 10
148.5731853279608
 20
-183.9083435834124
 30
0.0
 11
150.1320310547728
 21
-186.6083435834124
 31
0.0
  0
LINE
  5
2C7
330
1F
100
AcDbEntity
  8
0
  6
Continuous
 62
     7
370
    15
100
AcDbLine
 10
150.1320310547728
 20
-186.6083435834124
 30
0.0
 11
153.2497225083967
 21
-186.6083435834124
 31
0.0
  0
LINE
  5
2C8
330
1F
100
AcDbEntity
  8
0
  6
Continuous
 62
     7
370
    15
100
AcDbLine
 10
153.2497225083967
 20
-186.6083435834124
 30
0.0
 11
154.8085682352087
 21
-183.9083435834123
 31
0.0
  0
LINE
  5
2C9
330
1F
100
AcDbEntity
  8
0
  6
Continuous
 62
     7
370
    15
100
AcDbLine
 10
154.8085682352087
 20
-183.9083435834123
 30
0.0
 11
153.2497225083967
 21
-181.2083435834124
 31
0.0
  0
LINE
  5
2CA
330
1F
100
AcDbEntity
  8
0
  6
Continuous
 62
     7
370
    15
100
AcDbLine
 10
153.2497225083967
 20
-181.2083435834124
 30
0.0
 11
150.1320310547728
 21
-181.2083435834124
 31
0.0
  0
LINE
  5
2CB
330
1F
100
AcDbEntity
  8
0
  6
Continuous
 62
     7
370
    15
100
AcDbLine
 10
194.132031054773
 20
-181.2083435834124
 30
0.0
 11
192.5731853279611
 21
-183.9083435834124
 31
0.0
  0
LINE
  5
2CC
330
1F
100
AcDbEntity
  8
0
  6
Continuous
 62
     7
370
    15
100
AcDbLine
 10
192.5731853279611
 20
-183.9083435834124
 30
0.0
 11
194.1320310547731
 21
-186.6083435834124
 31
0.0
  0
LINE
  5
2CD
330
1F
100
AcDbEntity
  8
0
  6
Continuous
 62
     7
370
    15
100
AcDbLine
 10
194.1320310547731
 20
-186.6083435834124
 30
0.0
 11
197.249722508397
 21
-186.6083435834124
 31
0.0
  0
LINE
  5
2CE
330
1F
100
AcDbEntity
  8
0
  6
Continuous
 62
     7
370
    15
100
AcDbLine
 10
197.249722508397
 20
-186.6083435834124
 30
0.0
 11
198.808568235209
 21
-183.9083435834123
 31
0.0
  0
LINE
  5
2CF
330
1F
100
AcDbEntity
  8
0
  6
Continuous
 62
     7
370
    15
100
AcDbLine
 10
198.808568235209
 20
-183.9083435834123
 30
0.0
 11
197.249722508397
 21
-181.2083435834124
 31
0.0
  0
LINE
  5
2D0
330
1F
100
AcDbEntity
  8
0
  6
Continuous
 62
     7
370
    15
100
AcDbLine
 10
197.249722508397
 20
-181.2083435834124
 30
0.0
 11
194.132031054773
 21
-181.2083435834124
 31
0.0
  0
LINE
  5
2D1
330
1F
100
AcDbEntity
  8
0
  6
Continuous
 62
     7
370
    15
100
AcDbLine
 10
194.132031054773
 20
-143.2083435834124
 30
0.0
 11
192.5731853279611
 21
-145.9083435834124
 31
0.0
  0
LINE
  5
2D2
330
1F
100
AcDbEntity
  8
0
  6
Continuous
 62
     7
370
    15
100
AcDbLine
 10
192.5731853279611
 20
-145.9083435834124
 30
0.0
 11
194.1320310547731
 21
-148.6083435834124
 31
0.0
  0
LINE
  5
2D3
330
1F
100
AcDbEntity
  8
0
  6
Continuous
 62
     7
370
    15
100
AcDbLine
 10
194.1320310547731
 20
-148.6083435834124
 30
0.0
 11
197.249722508397
 21
-148.6083435834124
 31
0.0
  0
LINE
  5
2D4
330
1F
100
AcDbEntity
  8
0
  6
Continuous
 62
     7
370
    15
100
AcDbLine
 10
197.249722508397
 20
-148.6083435834124
 30
0.0
 11
198.808568235209
 21
-145.9083435834124
 31
0.0
  0
LINE
  5
2D5
330
1F
100
AcDbEntity
  8
0
  6
Continuous
 62
     7
370
    15
100
AcDbLine
 10
198.808568235209
 20
-145.9083435834124
 30
0.0
 11
197.249722508397
 21
-143.2083435834124
 31
0.0
  0
LINE
  5
2D6
330
1F
100
AcDbEntity
  8
0
  6
Continuous
 62
     7
370
    15
100
AcDbLine
 10
197.249722508397
 20
-143.2083435834124
 30
0.0
 11
194.132031054773
 21
-143.2083435834124
 31
0.0
  0
LINE
  5
2D7
330
1F
100
AcDbEntity
  8
0
  6
Continuous
 62
     7
370
    15
100
AcDbLine
 10
150.1320310547728
 20
-143.2083435834124
 30
0.0
 11
148.5731853279608
 21
-145.9083435834124
 31
0.0
  0
LINE
  5
2D8
330
1F
100
AcDbEntity
  8
0
  6
Continuous
 62
     7
370
    15
100
AcDbLine
 10
148.5731853279608
 20
-145.9083435834124
 30
0.0
 11
150.1320310547728
 21
-148.6083435834124
 31
0.0
  0
LINE
  5
2D9
330
1F
100
AcDbEntity
  8
0
  6
Continuous
 62
     7
370
    15
100
AcDbLine
 10
150.1320310547728
 20
-148.6083435834124
 30
0.0
 11
153.2497225083968
 21
-148.6083435834124
 31
0.0
  0
LINE
  5
2DA
330
1F
100
AcDbEntity
  8
0
  6
Continuous
 62
     7
370
    15
100
AcDbLine
 10
153.2497225083968
 20
-148.6083435834124
 30
0.0
 11
154.8085682352088
 21
-145.9083435834124
 31
0.0
  0
LINE
  5
2DB
330
1F
100
AcDbEntity
  8
0
  6
Continuous
 62
     7
370
    15
100
AcDbLine
 10
154.8085682352088
 20
-145.9083435834124
 30
0.0
 11
153.2497225083968
 21
-143.2083435834124
 31
0.0
  0
LINE
  5
2DC
330
1F
100
AcDbEntity
  8
0
  6
Continuous
 62
     7
370
    15
100
AcDbLine
 10
153.2497225083968
 20
-143.2083435834124
 30
0.0
 11
150.1320310547728
 21
-143.2083435834124
 31
0.0
  0
LINE
  5
2DD
330
1F
100
AcDbEntity
  8
0
  6
Continuous
 62
     7
370
    15
100
AcDbLine
 10
203.690876781585
 20
-188.9083435834124
 30
0.0
 11
203.690876781585
 21
-139.9083435834124
 31
0.0
  0
ARC
  5
2DE
330
1F
100
AcDbEntity
  8
0
  6
Continuous
 62
     7
370
    15
100
AcDbCircle
 10
202.690876781585
 20
-188.9083435834124
 30
0.0
 40
1.000000000000004
100
AcDbArc
 50
269.9999999999984
 51
0.0
  0
LINE
  5
2DF
330
1F
100
AcDbEntity
  8
0
  6
Continuous
 62
     7
370
    15
100
AcDbLine
 10
144.6908767815847
 20
-189.9083435834124
 30
0.0
 11
202.690876781585
 21
-189.9083435834124
 31
0.0
  0
ARC
  5
2E0
330
1F
100
AcDbEntity
  8
0
  6
Continuous
 62
     7
370
    15
100
AcDbCircle
 10
144.6908767815847
 20
-188.9083435834124
 30
0.0
 40
1.000000000000004
100
AcDbArc
 50
180.0
 51
270.0000000000015
  0
LINE
  5
2E1
330
1F
100
AcDbEntity
  8
0
  6
Continuous
 62
     7
370
    15
100
AcDbLine
 10
143.6908767815847
 20
-140.9083435834124
 30
0.0
 11
143.6908767815847
 21
-188.9083435834124
 31
0.0
  0
ARC
  5
2E2
330
1F
100
AcDbEntity
  8
0
  6
Continuous
 62
     7
370
    15
100
AcDbCircle
 10
144.6908767815847
 20
-140.9083435834124
 30
0.0
 40
1.0
100
AcDbArc
 50
89.99999999999837
 51
180.0
  0
LINE
  5
2E3
330
1F
100
AcDbEntity
  8
0
  6
Continuous
 62
     7
370
    15
100
AcDbLine
 10
185.7821646669491
 20
-139.9083435834124
 30
0.0
 11
144.6908767815848
 21
-139.9083435834124
 31
0.0
  0
ARC
  5
2E4
330
1F
100
AcDbEntity
  8
0
  6
Continuous
 62
     7
370
    15
100
AcDbCircle
 10
185.7821646669493
 20
-134.9083435834124
 30
0.0
 40
4.999999999999988
100
AcDbArc
 50
269.999999999999
 51
335.3756816478368
  0
ARC
  5
2E5
330
1F
100
AcDbEntity
  8
0
  6
Continuous
 62
     7
370
    15
100
AcDbCircle
 10
196.690876781585
 20
-139.9083435834124
 30
0.0
 40
7.000000000000016
100
AcDbArc
 50
0.0
 51
155.3756816478358
  0
CIRCLE
  5
2E6
330
1F
100
AcDbEntity
  8
0
  6
Continuous
 62
     7
370
    15
100
AcDbCircle
 10
215.0185465095247
 20
-138.2369405090329
 30
0.0
 40
1.5
  0
ARC
  5
2E7
330
1F
100
AcDbEntity
  8
0
  6
Continuous
 62
     7
370
    15
100
AcDbCircle
 10
210.0185465095247
 20
-189.2369405090329
 30
0.0
 40
1.000000000000004
100
AcDbArc
 50
180.0
 51
270.0
  0
LINE
  5
2E8
330
1F
100
AcDbEntity
  8
0
  6
Continuous
 62
     7
370
    15
100
AcDbLine
 10
209.0185465095247
 20
-131.236940509033
 30
0.0
 11
209.0185465095247
 21
-189.2369405090329
 31
0.0
  0
ARC
  5
2E9
330
1F
100
AcDbEntity
  8
0
  6
Continuous
 62
     7
370
    15
100
AcDbCircle
 10
210.0185465095247
 20
-131.236940509033
 30
0.0
 40
1.0
100
AcDbArc
 50
90.0
 51
180.0
  0
LINE
  5
2EA
330
1F
100
AcDbEntity
  8
0
  6
Continuous
 62
     7
370
    15
100
AcDbLine
 10
221.5185465095247
 20
-130.236940509033
 30
0.0
 11
210.0185465095247
 21
-130.236940509033
 31
0.0
  0
LINE
  5
2EB
330
1F
100
AcDbEntity
  8
0
  6
Continuous
 62
     7
370
    15
100
AcDbLine
 10
221.5185465095247
 20
-190.236940509033
 30
0.0
 11
221.5185465095247
 21
-130.236940509033
 31
0.0
  0
LINE
  5
2EC
330
1F
100
AcDbEntity
  8
0
  6
Continuous
 62
     7
370
    15
100
AcDbLine
 10
210.0185465095247
 20
-190.236940509033
 30
0.0
 11
221.5185465095247
 21
-190.236940509033
 31
0.0
  0
CIRCLE
  5
2ED
330
1F
100
AcDbEntity
  8
0
  6
Continuous
 62
     7
370
    15
100
AcDbCircle
 10
215.0185465095247
 20
-182.236940509033
 30
0.0
 40
1.5
  0
LINE
  5
31E
330
1F
100
AcDbEntity
  8
0
  6
Continuous
 62
     7
370
    15
100
AcDbLine
 10
107.5381691413636
 20
-98.51536918574176
 30
0.0
 11
104.8381691413636
 21
-100.0742149125538
 31
0.0
  0
LINE
  5
31F
330
1F
100
AcDbEntity
  8
0
  6
Continuous
 62
     7
370
    15
100
AcDbLine
 10
104.8381691413636
 20
-100.0742149125538
 30
0.0
 11
104.8381691413636
 21
-103.1919063661777
 31
0.0
  0
LINE
  5
320
330
1F
100
AcDbEntity
  8
0
  6
Continuous
 62
     7
370
    15
100
AcDbLine
 10
104.8381691413636
 20
-103.1919063661777
 30
0.0
 11
107.5381691413636
 21
-104.7507520929897
 31
0.0
  0
LINE
  5
321
330
1F
100
AcDbEntity
  8
0
  6
Continuous
 62
     7
370
    15
100
AcDbLine
 10
107.5381691413636
 20
-104.7507520929897
 30
0.0
 11
110.2381691413636
 21
-103.1919063661777
 31
0.0
  0
LINE
  5
322
330
1F
100
AcDbEntity
  8
0
  6
Continuous
 62
     7
370
    15
100
AcDbLine
 10
110.2381691413636
 20
-103.1919063661777
 30
0.0
 11
110.2381691413636
 21
-100.0742149125538
 31
0.0
  0
LINE
  5
323
330
1F
100
AcDbEntity
  8
0
  6
Continuous
 62
     7
370
    15
100
AcDbLine
 10
110.2381691413636
 20
-100.0742149125538
 30
0.0
 11
107.5381691413636
 21
-98.51536918574176
 31
0.0
  0
LINE
  5
324
330
1F
100
AcDbEntity
  8
0
  6
Continuous
 62
     7
370
    15
100
AcDbLine
 10
334.8381691413635
 20
-103.1919063661777
 30
0.0
 11
337.5381691413635
 21
-104.7507520929897
 31
0.0
  0
LINE
  5
325
330
1F
100
AcDbEntity
  8
0
  6
Continuous
 62
     7
370
    15
100
AcDbLine
 10
337.5381691413635
 20
-104.7507520929897
 30
0.0
 11
340.2381691413636
 21
-103.1919063661777
 31
0.0
  0
LINE
  5
326
330
1F
100
AcDbEntity
  8
0
  6
Continuous
 62
     7
370
    15
100
AcDbLine
 10
340.2381691413636
 20
-103.1919063661777
 30
0.0
 11
340.2381691413636
 21
-100.0742149125538
 31
0.0
  0
LINE
  5
327
330
1F
100
AcDbEntity
  8
0
  6
Continuous
 62
     7
370
    15
100
AcDbLine
 10
340.2381691413636
 20
-100.0742149125538
 30
0.0
 11
337.5381691413636
 21
-98.51536918574176
 31
0.0
  0
LINE
  5
328
330
1F
100
AcDbEntity
  8
0
  6
Continuous
 62
     7
370
    15
100
AcDbLine
 10
337.5381691413636
 20
-98.51536918574176
 30
0.0
 11
334.8381691413635
 21
-100.0742149125538
 31
0.0
  0
LINE
  5
329
330
1F
100
AcDbEntity
  8
0
  6
Continuous
 62
     7
370
    15
100
AcDbLine
 10
334.8381691413635
 20
-100.0742149125538
 30
0.0
 11
334.8381691413635
 21
-103.1919063661777
 31
0.0
  0
ARC
  5
32A
330
1F
100
AcDbEntity
  8
0
  6
Continuous
 62
     7
370
    15
100
AcDbCircle
 10
98.53816914136357
 20
-90.13306063936575
 30
0.0
 40
1.0
100
AcDbArc
 50
90.0
 51
180.0
  0
LINE
  5
32B
330
1F
100
AcDbEntity
  8
0
  6
Continuous
 62
     7
370
    15
100
AcDbLine
 10
346.5381691413635
 20
-89.13306063936575
 30
0.0
 11
98.53816914136357
 21
-89.13306063936575
 31
0.0
  0
ARC
  5
32C
330
1F
100
AcDbEntity
  8
0
  6
Continuous
 62
     7
370
    15
100
AcDbCircle
 10
346.5381691413635
 20
-90.13306063936575
 30
0.0
 40
1.0
100
AcDbArc
 50
0.0
 51
90.0
  0
LINE
  5
32D
330
1F
100
AcDbEntity
  8
0
  6
Continuous
 62
     7
370
    15
100
AcDbLine
 10
347.5381691413635
 20
-113.1330606393657
 30
0.0
 11
347.5381691413635
 21
-90.13306063936575
 31
0.0
  0
ARC
  5
32E
330
1F
100
AcDbEntity
  8
0
  6
Continuous
 62
     7
370
    15
100
AcDbCircle
 10
346.5381691413635
 20
-113.1330606393657
 30
0.0
 40
1.000000000000014
100
AcDbArc
 50
270.0
 51
0.0
  0
LINE
  5
331
330
1F
100
AcDbEntity
  8
0
  6
Continuous
 62
     7
370
    15
100
AcDbLine
 10
108.5381691413636
 20
-184.1330606393658
 30
0.0
 11
113.5381691413636
 21
-184.1330606393658
 31
0.0
  0
LINE
  5
332
330
1F
100
AcDbEntity
  8
0
  6
Continuous
 62
     7
370
    15
100
AcDbLine
 10
108.5381691413636
 20
-176.1330606393658
 30
0.0
 11
108.5381691413636
 21
-184.1330606393658
 31
0.0
  0
LINE
  5
333
330
1F
100
AcDbEntity
  8
0
  6
Continuous
 62
     7
370
    15
100
AcDbLine
 10
97.64374195036365
 20
-154.3442062573659
 30
0.0
 11
108.5381691413636
 21
-176.1330606393658
 31
0.0
  0
ARC
  5
334
330
1F
100
AcDbEntity
  8
0
  6
Continuous
 62
     7
370
    15
100
AcDbCircle
 10
98.53816914136357
 20
-153.8969926618659
 30
0.0
 40
1.000000000000008
100
AcDbArc
 50
180.0
 51
206.5650511770813
  0
LINE
  5
335
330
1F
100
AcDbEntity
  8
0
  6
Continuous
 62
     7
370
    15
100
AcDbLine
 10
97.53816914136357
 20
-90.13306063936575
 30
0.0
 11
97.53816914136357
 21
-153.8969926618659
 31
0.0
  0
CIRCLE
  5
33A
330
1F
100
AcDbEntity
  8
0
  6
Continuous
 62
     7
370
    15
100
AcDbCircle
 10
336.9019125527936
 20
-69.54504292640269
 30
0.0
 40
1.5
  0
CIRCLE
  5
33B
330
1F
100
AcDbEntity
  8
0
  6
Continuous
 62
     7
370
    15
100
AcDbCircle
 10
106.9019125527936
 20
-69.54504292640269
 30
0.0
 40
1.5
  0
LINE
  5
33C
330
1F
100
AcDbEntity
  8
0
  6
Continuous
 62
     7
370
    15
100
AcDbLine
 10
96.90191255279362
 20
-63.04504292640272
 30
0.0
 11
96.90191255279362
 21
-76.04504292640269
 31
0.0
  0
ARC
  5
33D
330
1F
100
AcDbEntity
  8
0
  6
Continuous
 62
     7
370
    15
100
AcDbCircle
 10
97.90191255279362
 20
-63.04504292640269
 30
0.0
 40
1.0
100
AcDbArc
 50
90.0
 51
180.0
  0
LINE
  5
33E
330
1F
100
AcDbEntity
  8
0
  6
Continuous
 62
     7
370
    15
100
AcDbLine
 10
340.9019125527936
 20
-62.04504292640269
 30
0.0
 11
97.90191255279362
 21
-62.04504292640269
 31
0.0
  0
LINE
  5
342
330
1F
100
AcDbEntity
  8
0
  6
Continuous
 62
     7
370
    15
100
AcDbLine
 10
97.90191255279362
 20
-77.04504292640269
 30
0.0
 11
340.9019125527936
 21
-77.04504292640269
 31
0.0
  0
ARC
  5
343
330
1F
100
AcDbEntity
  8
0
  6
Continuous
 62
     7
370
    15
100
AcDbCircle
 10
97.90191255279362
 20
-76.04504292640269
 30
0.0
 40
1.0
100
AcDbArc
 50
180.0
 51
270.0000000000015
  0
CIRCLE
  5
374
330
1F
100
AcDbEntity
  8
0
  6
Continuous
 62
     7
370
    15
100
AcDbCircle
 10
239.2882249376987
 20
-164.9144319412949
 30
0.0
 40
1.5
  0
CIRCLE
  5
375
330
1F
100
AcDbEntity
  8
0
  6
Continuous
 62
     7
370
    15
100
AcDbCircle
 10
283.2882249376993
 20
-164.9144319412945
 30
0.0
 40
1.5
  0
ARC
  5
376
330
1F
100
AcDbEntity
  8
0
  6
Continuous
 62
     7
370
    15
100
AcDbCircle
 10
290.2882249376993
 20
-169.9144319412949
 30
0.0
 40
1.0
100
AcDbArc
 50
270.0
 51
0.0
  0
LINE
  5
377
330
1F
100
AcDbEntity
  8
0
  6
Continuous
 62
     7
370
    15
100
AcDbLine
 10
232.2882249376986
 20
-170.9144319412949
 30
0.0
 11
290.2882249376993
 21
-170.9144319412949
 31
0.0
  0
ARC
  5
378
330
1F
100
AcDbEntity
  8
0
  6
Continuous
 62
     7
370
    15
100
AcDbCircle
 10
232.2882249376986
 20
-169.9144319412949
 30
0.0
 40
1.0
100
AcDbArc
 50
180.0
 51
270.0
  0
LINE
  5
379
330
1F
100
AcDbEntity
  8
0
  6
Continuous
 62
     7
370
    15
100
AcDbLine
 10
231.2882249376986
 20
-153.4144319412949
 30
0.0
 11
231.2882249376986
 21
-169.9144319412949
 31
0.0
  0
LINE
  5
37A
330
1F
100
AcDbEntity
  8
0
  6
Continuous
 62
     7
370
    15
100
AcDbLine
 10
291.2882249376993
 20
-153.4144319412945
 30
0.0
 11
231.2882249376986
 21
-153.4144319412949
 31
0.0
  0
LINE
  5
37B
330
1F
100
AcDbEntity
  8
0
  6
Continuous
 62
     7
370
    15
100
AcDbLine
 10
291.2882249376993
 20
-169.9144319412949
 30
0.0
 11
291.2882249376993
 21
-153.4144319412945
 31
0.0
  0
LINE
  5
465
330
1F
100
AcDbEntity
  8
0
 62
     1
100
AcDbLine
 10
132.4019125527936
 20
-77.04504292640269
 30
0.0
 11
132.4019125527936
 21
-71.04504292640269
 31
0.0
  0
LINE
  5
467
330
1F
100
AcDbEntity
  8
0
 62
     1
100
AcDbLine
 10
133.4019125527936
 20
-77.04504292640269
 30
0.0
 11
133.4019125527936
 21
-74.04504292640269
 31
0.0
  0
LINE
  5
469
330
1F
100
AcDbEntity
  8
0
 62
     1
100
AcDbLine
 10
134.4019125527936
 20
-77.04504292640269
 30
0.0
 11
134.4019125527936
 21
-74.04504292640269
 31
0.0
  0
LINE
  5
46B
330
1F
100
AcDbEntity
  8
0
 62
     1
100
AcDbLine
 10
135.4019125527936
 20
-77.04504292640269
 30
0.0
 11
135.4019125527936
 21
-74.04504292640269
 31
0.0
  0
LINE
  5
46C
330
1F
100
AcDbEntity
  8
0
 62
     1
100
AcDbLine
 10
136.4019125527936
 20
-77.04504292640269
 30
0.0
 11
136.4019125527936
 21
-74.04504292640269
 31
0.0
  0
LINE
  5
471
330
1F
100
AcDbEntity
  8
0
 62
     1
100
AcDbLine
 10
137.4019125527936
 20
-77.04504292640266
 30
0.0
 11
137.4019125527936
 21
-72.04504292640266
 31
0.0
  0
LINE
  5
4AD
330
1F
100
AcDbEntity
  8
0
 62
     1
100
AcDbLine
 10
138.4019125527936
 20
-77.04504292640266
 30
0.0
 11
138.4019125527936
 21
-74.04504292640269
 31
0.0
  0
LINE
  5
4AE
330
1F
100
AcDbEntity
  8
0
 62
     1
100
AcDbLine
 10
139.4019125527935
 20
-77.04504292640269
 30
0.0
 11
139.4019125527935
 21
-74.04504292640269
 31
0.0
  0
LINE
  5
4AF
330
1F
100
AcDbEntity
  8
0
 62
     1
100
AcDbLine
 10
140.4019125527935
 20
-77.04504292640269
 30
0.0
 11
140.4019125527935
 21
-74.04504292640269
 31
0.0
  0
LINE
  5
4B0
330
1F
100
AcDbEntity
  8
0
 62
     1
100
AcDbLine
 10
141.4019125527935
 20
-77.04504292640269
 30
0.0
 11
141.4019125527935
 21
-74.04504292640269
 31
0.0
  0
LINE
  5
4B1
330
1F
100
AcDbEntity
  8
0
 62
     1
100
AcDbLine
 10
142.4019125527935
 20
-77.04504292640269
 30
0.0
 11
142.4019125527935
 21
-71.04504292640269
 31
0.0
  0
LINE
  5
4B2
330
1F
100
AcDbEntity
  8
0
 62
     1
100
AcDbLine
 10
143.4019125527936
 20
-77.04504292640269
 30
0.0
 11
143.4019125527936
 21
-74.04504292640272
 31
0.0
  0
LINE
  5
4B3
330
1F
100
AcDbEntity
  8
0
 62
     1
100
AcDbLine
 10
144.4019125527936
 20
-77.04504292640269
 30
0.0
 11
144.4019125527936
 21
-74.04504292640272
 31
0.0
  0
LINE
  5
4B4
330
1F
100
AcDbEntity
  8
0
 62
     1
100
AcDbLine
 10
145.4019125527936
 20
-77.04504292640269
 30
0.0
 11
145.4019125527936
 21
-74.04504292640272
 31
0.0
  0
LINE
  5
4B5
330
1F
100
AcDbEntity
  8
0
 62
     1
100
AcDbLine
 10
146.4019125527935
 20
-77.04504292640269
 30
0.0
 11
146.4019125527935
 21
-74.04504292640272
 31
0.0
  0
LINE
  5
4B6
330
1F
100
AcDbEntity
  8
0
 62
     1
100
AcDbLine
 10
147.4019125527935
 20
-77.04504292640269
 30
0.0
 11
147.4019125527935
 21
-72.04504292640269
 31
0.0
  0
LINE
  5
4B7
330
1F
100
AcDbEntity
  8
0
 62
     1
100
AcDbLine
 10
148.4019125527935
 20
-77.04504292640269
 30
0.0
 11
148.4019125527935
 21
-74.04504292640272
 31
0.0
  0
LINE
  5
4B8
330
1F
100
AcDbEntity
  8
0
 62
     1
100
AcDbLine
 10
149.4019125527935
 20
-77.04504292640269
 30
0.0
 11
149.4019125527935
 21
-74.04504292640272
 31
0.0
  0
LINE
  5
4B9
330
1F
100
AcDbEntity
  8
0
 62
     1
100
AcDbLine
 10
150.4019125527935
 20
-77.04504292640269
 30
0.0
 11
150.4019125527935
 21
-74.04504292640272
 31
0.0
  0
LINE
  5
4BA
330
1F
100
AcDbEntity
  8
0
 62
     1
100
AcDbLine
 10
151.4019125527935
 20
-77.04504292640269
 30
0.0
 11
151.4019125527935
 21
-74.04504292640272
 31
0.0
  0
LINE
  5
4BB
330
1F
100
AcDbEntity
  8
0
 62
     1
100
AcDbLine
 10
152.4019125527935
 20
-77.04504292640269
 30
0.0
 11
152.4019125527935
 21
-71.04504292640272
 31
0.0
  0
LINE
  5
4BD
330
1F
100
AcDbEntity
  8
0
 62
     1
100
AcDbLine
 10
153.4019125527935
 20
-77.04504292640269
 30
0.0
 11
153.4019125527935
 21
-74.04504292640272
 31
0.0
  0
LINE
  5
4BE
330
1F
100
AcDbEntity
  8
0
 62
     1
100
AcDbLine
 10
154.4019125527935
 20
-77.04504292640269
 30
0.0
 11
154.4019125527935
 21
-74.04504292640272
 31
0.0
  0
LINE
  5
4BF
330
1F
100
AcDbEntity
  8
0
 62
     1
100
AcDbLine
 10
155.4019125527935
 20
-77.04504292640269
 30
0.0
 11
155.4019125527935
 21
-74.04504292640272
 31
0.0
  0
LINE
  5
4C0
330
1F
100
AcDbEntity
  8
0
 62
     1
100
AcDbLine
 10
156.4019125527935
 20
-77.04504292640269
 30
0.0
 11
156.4019125527935
 21
-74.04504292640272
 31
0.0
  0
LINE
  5
4C1
330
1F
100
AcDbEntity
  8
0
 62
     1
100
AcDbLine
 10
157.4019125527935
 20
-77.04504292640266
 30
0.0
 11
157.4019125527935
 21
-72.04504292640269
 31
0.0
  0
LINE
  5
4C2
330
1F
100
AcDbEntity
  8
0
 62
     1
100
AcDbLine
 10
158.4019125527934
 20
-77.04504292640266
 30
0.0
 11
158.4019125527934
 21
-74.04504292640272
 31
0.0
  0
LINE
  5
4C3
330
1F
100
AcDbEntity
  8
0
 62
     1
100
AcDbLine
 10
159.4019125527934
 20
-77.04504292640269
 30
0.0
 11
159.4019125527934
 21
-74.04504292640272
 31
0.0
  0
LINE
  5
4C4
330
1F
100
AcDbEntity
  8
0
 62
     1
100
AcDbLine
 10
160.4019125527934
 20
-77.04504292640269
 30
0.0
 11
160.4019125527934
 21
-74.04504292640272
 31
0.0
  0
LINE
  5
4C5
330
1F
100
AcDbEntity
  8
0
 62
     1
100
AcDbLine
 10
161.4019125527934
 20
-77.04504292640269
 30
0.0
 11
161.4019125527934
 21
-74.04504292640272
 31
0.0
  0
LINE
  5
4C6
330
1F
100
AcDbEntity
  8
0
 62
     1
100
AcDbLine
 10
162.4019125527934
 20
-77.04504292640266
 30
0.0
 11
162.4019125527934
 21
-71.04504292640269
 31
0.0
  0
LINE
  5
4C7
330
1F
100
AcDbEntity
  8
0
 62
     1
100
AcDbLine
 10
163.4019125527934
 20
-77.04504292640266
 30
0.0
 11
163.4019125527934
 21
-74.04504292640269
 31
0.0
  0
LINE
  5
4C8
330
1F
100
AcDbEntity
  8
0
 62
     1
100
AcDbLine
 10
164.4019125527934
 20
-77.04504292640266
 30
0.0
 11
164.4019125527934
 21
-74.04504292640269
 31
0.0
  0
LINE
  5
4C9
330
1F
100
AcDbEntity
  8
0
 62
     1
100
AcDbLine
 10
165.4019125527934
 20
-77.04504292640266
 30
0.0
 11
165.4019125527934
 21
-74.04504292640269
 31
0.0
  0
LINE
  5
4CA
330
1F
100
AcDbEntity
  8
0
 62
     1
100
AcDbLine
 10
166.4019125527934
 20
-77.04504292640263
 30
0.0
 11
166.4019125527934
 21
-74.04504292640269
 31
0.0
  0
LINE
  5
4CB
330
1F
100
AcDbEntity
  8
0
 62
     1
100
AcDbLine
 10
167.4019125527934
 20
-77.04504292640263
 30
0.0
 11
167.4019125527934
 21
-72.04504292640266
 31
0.0
  0
LINE
  5
4CC
330
1F
100
AcDbEntity
  8
0
 62
     1
100
AcDbLine
 10
168.4019125527934
 20
-77.04504292640266
 30
0.0
 11
168.4019125527934
 21
-74.04504292640269
 31
0.0
  0
LINE
  5
4CD
330
1F
100
AcDbEntity
  8
0
 62
     1
100
AcDbLine
 10
169.4019125527934
 20
-77.04504292640269
 30
0.0
 11
169.4019125527934
 21
-74.04504292640269
 31
0.0
  0
LINE
  5
4CE
330
1F
100
AcDbEntity
  8
0
 62
     1
100
AcDbLine
 10
170.4019125527934
 20
-77.04504292640269
 30
0.0
 11
170.4019125527934
 21
-74.04504292640269
 31
0.0
  0
LINE
  5
4CF
330
1F
100
AcDbEntity
  8
0
 62
     1
100
AcDbLine
 10
171.4019125527934
 20
-77.04504292640269
 30
0.0
 11
171.4019125527934
 21
-74.04504292640269
 31
0.0
  0
LINE
  5
4D0
330
1F
100
AcDbEntity
  8
0
 62
     1
100
AcDbLine
 10
172.4019125527934
 20
-77.04504292640269
 30
0.0
 11
172.4019125527934
 21
-71.04504292640269
 31
0.0
  0
LINE
  5
4D1
330
1F
100
AcDbEntity
  8
0
 62
     1
100
AcDbLine
 10
173.4019125527934
 20
-77.04504292640263
 30
0.0
 11
173.4019125527934
 21
-74.04504292640266
 31
0.0
  0
LINE
  5
4D2
330
1F
100
AcDbEntity
  8
0
 62
     1
100
AcDbLine
 10
174.4019125527934
 20
-77.04504292640263
 30
0.0
 11
174.4019125527934
 21
-74.04504292640266
 31
0.0
  0
LINE
  5
4D3
330
1F
100
AcDbEntity
  8
0
 62
     1
100
AcDbLine
 10
175.4019125527934
 20
-77.04504292640263
 30
0.0
 11
175.4019125527934
 21
-74.04504292640266
 31
0.0
  0
LINE
  5
4D4
330
1F
100
AcDbEntity
  8
0
 62
     1
100
AcDbLine
 10
176.4019125527934
 20
-77.04504292640263
 30
0.0
 11
176.4019125527934
 21
-74.04504292640266
 31
0.0
  0
LINE
  5
4D5
330
1F
100
AcDbEntity
  8
0
 62
     1
100
AcDbLine
 10
177.4019125527933
 20
-77.0450429264026
 30
0.0
 11
177.4019125527933
 21
-72.04504292640263
 31
0.0
  0
LINE
  5
4D6
330
1F
100
AcDbEntity
  8
0
 62
     1
100
AcDbLine
 10
178.4019125527933
 20
-77.0450429264026
 30
0.0
 11
178.4019125527933
 21
-74.04504292640266
 31
0.0
  0
LINE
  5
4D7
330
1F
100
AcDbEntity
  8
0
 62
     1
100
AcDbLine
 10
179.4019125527933
 20
-77.04504292640263
 30
0.0
 11
179.4019125527933
 21
-74.04504292640266
 31
0.0
  0
LINE
  5
4D8
330
1F
100
AcDbEntity
  8
0
 62
     1
100
AcDbLine
 10
180.4019125527933
 20
-77.04504292640263
 30
0.0
 11
180.4019125527933
 21
-74.04504292640266
 31
0.0
  0
LINE
  5
4D9
330
1F
100
AcDbEntity
  8
0
 62
     1
100
AcDbLine
 10
181.4019125527933
 20
-77.04504292640263
 30
0.0
 11
181.4019125527933
 21
-74.04504292640266
 31
0.0
  0
LINE
  5
4DA
330
1F
100
AcDbEntity
  8
0
 62
     1
100
AcDbLine
 10
182.4019125527933
 20
-77.04504292640263
 30
0.0
 11
182.4019125527933
 21
-71.04504292640266
 31
0.0
  0
LINE
  5
4DB
330
1F
100
AcDbEntity
  8
0
 62
     1
100
AcDbLine
 10
183.4019125527933
 20
-77.04504292640263
 30
0.0
 11
183.4019125527933
 21
-74.04504292640269
 31
0.0
  0
LINE
  5
4DC
330
1F
100
AcDbEntity
  8
0
 62
     1
100
AcDbLine
 10
184.4019125527933
 20
-77.04504292640263
 30
0.0
 11
184.4019125527933
 21
-74.04504292640269
 31
0.0
  0
LINE
  5
4DD
330
1F
100
AcDbEntity
  8
0
 62
     1
100
AcDbLine
 10
185.4019125527933
 20
-77.04504292640263
 30
0.0
 11
185.4019125527933
 21
-74.04504292640269
 31
0.0
  0
LINE
  5
4DE
330
1F
100
AcDbEntity
  8
0
 62
     1
100
AcDbLine
 10
186.4019125527933
 20
-77.04504292640263
 30
0.0
 11
186.4019125527933
 21
-74.04504292640269
 31
0.0
  0
LINE
  5
4DF
330
1F
100
AcDbEntity
  8
0
 62
     1
100
AcDbLine
 10
187.4019125527933
 20
-77.04504292640263
 30
0.0
 11
187.4019125527933
 21
-72.04504292640266
 31
0.0
  0
LINE
  5
4E0
330
1F
100
AcDbEntity
  8
0
 62
     1
100
AcDbLine
 10
188.4019125527932
 20
-77.04504292640263
 30
0.0
 11
188.4019125527932
 21
-74.04504292640269
 31
0.0
  0
LINE
  5
4E1
330
1F
100
AcDbEntity
  8
0
 62
     1
100
AcDbLine
 10
189.4019125527932
 20
-77.04504292640266
 30
0.0
 11
189.4019125527932
 21
-74.04504292640269
 31
0.0
  0
LINE
  5
4E2
330
1F
100
AcDbEntity
  8
0
 62
     1
100
AcDbLine
 10
190.4019125527932
 20
-77.04504292640266
 30
0.0
 11
190.4019125527932
 21
-74.04504292640269
 31
0.0
  0
LINE
  5
4E3
330
1F
100
AcDbEntity
  8
0
 62
     1
100
AcDbLine
 10
191.4019125527932
 20
-77.04504292640266
 30
0.0
 11
191.4019125527932
 21
-74.04504292640269
 31
0.0
  0
LINE
  5
4E4
330
1F
100
AcDbEntity
  8
0
 62
     1
100
AcDbLine
 10
192.4019125527932
 20
-77.04504292640269
 30
0.0
 11
192.4019125527932
 21
-71.04504292640269
 31
0.0
  0
LINE
  5
4E5
330
1F
100
AcDbEntity
  8
0
 62
     1
100
AcDbLine
 10
193.4019125527932
 20
-77.04504292640269
 30
0.0
 11
193.4019125527932
 21
-74.04504292640269
 31
0.0
  0
LINE
  5
4E6
330
1F
100
AcDbEntity
  8
0
 62
     1
100
AcDbLine
 10
194.4019125527932
 20
-77.04504292640269
 30
0.0
 11
194.4019125527932
 21
-74.04504292640269
 31
0.0
  0
LINE
  5
4E7
330
1F
100
AcDbEntity
  8
0
 62
     1
100
AcDbLine
 10
195.4019125527932
 20
-77.04504292640269
 30
0.0
 11
195.4019125527932
 21
-74.04504292640269
 31
0.0
  0
LINE
  5
4E8
330
1F
100
AcDbEntity
  8
0
 62
     1
100
AcDbLine
 10
196.4019125527932
 20
-77.04504292640266
 30
0.0
 11
196.4019125527932
 21
-74.04504292640269
 31
0.0
  0
LINE
  5
4E9
330
1F
100
AcDbEntity
  8
0
 62
     1
100
AcDbLine
 10
197.4019125527932
 20
-77.04504292640263
 30
0.0
 11
197.4019125527932
 21
-72.04504292640266
 31
0.0
  0
LINE
  5
4EA
330
1F
100
AcDbEntity
  8
0
 62
     1
100
AcDbLine
 10
198.4019125527932
 20
-77.04504292640263
 30
0.0
 11
198.4019125527932
 21
-74.04504292640269
 31
0.0
  0
LINE
  5
4EB
330
1F
100
AcDbEntity
  8
0
 62
     1
100
AcDbLine
 10
199.4019125527932
 20
-77.04504292640266
 30
0.0
 11
199.4019125527932
 21
-74.04504292640269
 31
0.0
  0
LINE
  5
4EC
330
1F
100
AcDbEntity
  8
0
 62
     1
100
AcDbLine
 10
200.4019125527932
 20
-77.04504292640266
 30
0.0
 11
200.4019125527932
 21
-74.04504292640269
 31
0.0
  0
LINE
  5
4ED
330
1F
100
AcDbEntity
  8
0
 62
     1
100
AcDbLine
 10
201.4019125527932
 20
-77.04504292640266
 30
0.0
 11
201.4019125527932
 21
-74.04504292640269
 31
0.0
  0
LINE
  5
4EE
330
1F
100
AcDbEntity
  8
0
 62
     1
100
AcDbLine
 10
202.4019125527932
 20
-77.04504292640263
 30
0.0
 11
202.4019125527932
 21
-71.04504292640266
 31
0.0
  0
LINE
  5
4EF
330
1F
100
AcDbEntity
  8
0
 62
     1
100
AcDbLine
 10
203.4019125527932
 20
-77.04504292640263
 30
0.0
 11
203.4019125527932
 21
-74.04504292640266
 31
0.0
  0
LINE
  5
4F0
330
1F
100
AcDbEntity
  8
0
 62
     1
100
AcDbLine
 10
204.4019125527932
 20
-77.04504292640263
 30
0.0
 11
204.4019125527932
 21
-74.04504292640266
 31
0.0
  0
LINE
  5
4F1
330
1F
100
AcDbEntity
  8
0
 62
     1
100
AcDbLine
 10
205.4019125527932
 20
-77.04504292640263
 30
0.0
 11
205.4019125527932
 21
-74.04504292640266
 31
0.0
  0
LINE
  5
4F2
330
1F
100
AcDbEntity
  8
0
 62
     1
100
AcDbLine
 10
206.4019125527932
 20
-77.04504292640263
 30
0.0
 11
206.4019125527932
 21
-74.04504292640266
 31
0.0
  0
LINE
  5
4F3
330
1F
100
AcDbEntity
  8
0
 62
     1
100
AcDbLine
 10
207.4019125527932
 20
-77.04504292640263
 30
0.0
 11
207.4019125527932
 21
-72.04504292640263
 31
0.0
  0
LINE
  5
4F4
330
1F
100
AcDbEntity
  8
0
 62
     1
100
AcDbLine
 10
208.4019125527931
 20
-77.04504292640263
 30
0.0
 11
208.4019125527931
 21
-74.04504292640266
 31
0.0
  0
LINE
  5
4F5
330
1F
100
AcDbEntity
  8
0
 62
     1
100
AcDbLine
 10
209.4019125527931
 20
-77.04504292640266
 30
0.0
 11
209.4019125527931
 21
-74.04504292640266
 31
0.0
  0
LINE
  5
4F6
330
1F
100
AcDbEntity
  8
0
 62
     1
100
AcDbLine
 10
210.4019125527931
 20
-77.04504292640266
 30
0.0
 11
210.4019125527931
 21
-74.04504292640266
 31
0.0
  0
LINE
  5
4F7
330
1F
100
AcDbEntity
  8
0
 62
     1
100
AcDbLine
 10
211.4019125527931
 20
-77.04504292640266
 30
0.0
 11
211.4019125527931
 21
-74.04504292640266
 31
0.0
  0
LINE
  5
4F8
330
1F
100
AcDbEntity
  8
0
 62
     1
100
AcDbLine
 10
212.4019125527931
 20
-77.04504292640266
 30
0.0
 11
212.4019125527931
 21
-71.04504292640266
 31
0.0
  0
LINE
  5
4F9
330
1F
100
AcDbEntity
  8
0
 62
     1
100
AcDbLine
 10
214.4019125527931
 20
-77.04504292640263
 30
0.0
 11
214.4019125527931
 21
-74.04504292640263
 31
0.0
  0
LINE
  5
4FA
330
1F
100
AcDbEntity
  8
0
 62
     1
100
AcDbLine
 10
215.4019125527931
 20
-77.04504292640263
 30
0.0
 11
215.4019125527931
 21
-74.04504292640263
 31
0.0
  0
LINE
  5
4FB
330
1F
100
AcDbEntity
  8
0
 62
     1
100
AcDbLine
 10
216.4019125527931
 20
-77.04504292640263
 30
0.0
 11
216.4019125527931
 21
-74.04504292640263
 31
0.0
  0
LINE
  5
4FC
330
1F
100
AcDbEntity
  8
0
 62
     1
100
AcDbLine
 10
217.4019125527931
 20
-77.04504292640263
 30
0.0
 11
217.4019125527931
 21
-72.0450429264026
 31
0.0
  0
LINE
  5
4FD
330
1F
100
AcDbEntity
  8
0
 62
     1
100
AcDbLine
 10
218.401912552793
 20
-77.04504292640263
 30
0.0
 11
218.401912552793
 21
-74.04504292640263
 31
0.0
  0
LINE
  5
4FE
330
1F
100
AcDbEntity
  8
0
 62
     1
100
AcDbLine
 10
219.401912552793
 20
-77.04504292640263
 30
0.0
 11
219.401912552793
 21
-74.04504292640263
 31
0.0
  0
LINE
  5
4FF
330
1F
100
AcDbEntity
  8
0
 62
     1
100
AcDbLine
 10
220.401912552793
 20
-77.04504292640263
 30
0.0
 11
220.401912552793
 21
-74.04504292640263
 31
0.0
  0
LINE
  5
500
330
1F
100
AcDbEntity
  8
0
 62
     1
100
AcDbLine
 10
221.401912552793
 20
-77.04504292640263
 30
0.0
 11
221.401912552793
 21
-74.04504292640263
 31
0.0
  0
LINE
  5
501
330
1F
100
AcDbEntity
  8
0
 62
     1
100
AcDbLine
 10
222.401912552793
 20
-77.04504292640263
 30
0.0
 11
222.401912552793
 21
-71.04504292640263
 31
0.0
  0
LINE
  5
502
330
1F
100
AcDbEntity
  8
0
 62
     1
100
AcDbLine
 10
223.401912552793
 20
-77.04504292640263
 30
0.0
 11
223.401912552793
 21
-74.04504292640266
 31
0.0
  0
LINE
  5
503
330
1F
100
AcDbEntity
  8
0
 62
     1
100
AcDbLine
 10
224.401912552793
 20
-77.04504292640263
 30
0.0
 11
224.401912552793
 21
-74.04504292640266
 31
0.0
  0
LINE
  5
504
330
1F
100
AcDbEntity
  8
0
 62
     1
100
AcDbLine
 10
225.401912552793
 20
-77.04504292640263
 30
0.0
 11
225.401912552793
 21
-74.04504292640266
 31
0.0
  0
LINE
  5
505
330
1F
100
AcDbEntity
  8
0
 62
     1
100
AcDbLine
 10
226.401912552793
 20
-77.04504292640263
 30
0.0
 11
226.401912552793
 21
-74.04504292640266
 31
0.0
  0
LINE
  5
506
330
1F
100
AcDbEntity
  8
0
 62
     1
100
AcDbLine
 10
227.401912552793
 20
-77.04504292640263
 30
0.0
 11
227.401912552793
 21
-72.04504292640263
 31
0.0
  0
LINE
  5
507
330
1F
100
AcDbEntity
  8
0
 62
     1
100
AcDbLine
 10
228.401912552793
 20
-77.04504292640263
 30
0.0
 11
228.401912552793
 21
-74.04504292640266
 31
0.0
  0
LINE
  5
508
330
1F
100
AcDbEntity
  8
0
 62
     1
100
AcDbLine
 10
229.401912552793
 20
-77.04504292640266
 30
0.0
 11
229.401912552793
 21
-74.04504292640266
 31
0.0
  0
LINE
  5
509
330
1F
100
AcDbEntity
  8
0
 62
     1
100
AcDbLine
 10
230.401912552793
 20
-77.04504292640266
 30
0.0
 11
230.401912552793
 21
-74.04504292640266
 31
0.0
  0
LINE
  5
50A
330
1F
100
AcDbEntity
  8
0
 62
     1
100
AcDbLine
 10
231.401912552793
 20
-77.04504292640266
 30
0.0
 11
231.401912552793
 21
-74.04504292640266
 31
0.0
  0
LINE
  5
50B
330
1F
100
AcDbEntity
  8
0
 62
     1
100
AcDbLine
 10
232.401912552793
 20
-77.04504292640266
 30
0.0
 11
232.401912552793
 21
-71.04504292640266
 31
0.0
  0
LINE
  5
50C
330
1F
100
AcDbEntity
  8
0
 62
     1
100
AcDbLine
 10
233.401912552793
 20
-77.04504292640263
 30
0.0
 11
233.401912552793
 21
-74.04504292640266
 31
0.0
  0
LINE
  5
50D
330
1F
100
AcDbEntity
  8
0
 62
     1
100
AcDbLine
 10
234.401912552793
 20
-77.04504292640263
 30
0.0
 11
234.401912552793
 21
-74.04504292640266
 31
0.0
  0
LINE
  5
50E
330
1F
100
AcDbEntity
  8
0
 62
     1
100
AcDbLine
 10
235.401912552793
 20
-77.04504292640263
 30
0.0
 11
235.401912552793
 21
-74.04504292640266
 31
0.0
  0
LINE
  5
50F
330
1F
100
AcDbEntity
  8
0
 62
     1
100
AcDbLine
 10
236.401912552793
 20
-77.04504292640263
 30
0.0
 11
236.401912552793
 21
-74.04504292640266
 31
0.0
  0
LINE
  5
510
330
1F
100
AcDbEntity
  8
0
 62
     1
100
AcDbLine
 10
237.401912552793
 20
-77.04504292640263
 30
0.0
 11
237.401912552793
 21
-72.04504292640263
 31
0.0
  0
LINE
  5
511
330
1F
100
AcDbEntity
  8
0
 62
     1
100
AcDbLine
 10
238.4019125527929
 20
-77.04504292640263
 30
0.0
 11
238.4019125527929
 21
-74.04504292640266
 31
0.0
  0
LINE
  5
512
330
1F
100
AcDbEntity
  8
0
 62
     1
100
AcDbLine
 10
239.4019125527929
 20
-77.04504292640263
 30
0.0
 11
239.4019125527929
 21
-74.04504292640266
 31
0.0
  0
LINE
  5
513
330
1F
100
AcDbEntity
  8
0
 62
     1
100
AcDbLine
 10
240.4019125527929
 20
-77.04504292640263
 30
0.0
 11
240.4019125527929
 21
-74.04504292640266
 31
0.0
  0
LINE
  5
514
330
1F
100
AcDbEntity
  8
0
 62
     1
100
AcDbLine
 10
241.4019125527929
 20
-77.04504292640263
 30
0.0
 11
241.4019125527929
 21
-74.04504292640266
 31
0.0
  0
LINE
  5
515
330
1F
100
AcDbEntity
  8
0
 62
     1
100
AcDbLine
 10
242.4019125527929
 20
-77.0450429264026
 30
0.0
 11
242.4019125527929
 21
-71.04504292640263
 31
0.0
  0
LINE
  5
516
330
1F
100
AcDbEntity
  8
0
 62
     1
100
AcDbLine
 10
243.4019125527929
 20
-77.0450429264026
 30
0.0
 11
243.4019125527929
 21
-74.04504292640263
 31
0.0
  0
LINE
  5
517
330
1F
100
AcDbEntity
  8
0
 62
     1
100
AcDbLine
 10
244.4019125527929
 20
-77.0450429264026
 30
0.0
 11
244.4019125527929
 21
-74.04504292640263
 31
0.0
  0
LINE
  5
518
330
1F
100
AcDbEntity
  8
0
 62
     1
100
AcDbLine
 10
245.4019125527929
 20
-77.0450429264026
 30
0.0
 11
245.4019125527929
 21
-74.04504292640266
 31
0.0
  0
LINE
  5
519
330
1F
100
AcDbEntity
  8
0
 62
     1
100
AcDbLine
 10
246.4019125527929
 20
-77.04504292640257
 30
0.0
 11
246.4019125527929
 21
-74.04504292640266
 31
0.0
  0
LINE
  5
51A
330
1F
100
AcDbEntity
  8
0
 62
     1
100
AcDbLine
 10
247.4019125527929
 20
-77.04504292640257
 30
0.0
 11
247.4019125527929
 21
-72.04504292640263
 31
0.0
  0
LINE
  5
51B
330
1F
100
AcDbEntity
  8
0
 62
     1
100
AcDbLine
 10
248.4019125527929
 20
-77.0450429264026
 30
0.0
 11
248.4019125527929
 21
-74.04504292640266
 31
0.0
  0
LINE
  5
51C
330
1F
100
AcDbEntity
  8
0
 62
     1
100
AcDbLine
 10
249.4019125527929
 20
-77.04504292640263
 30
0.0
 11
249.4019125527929
 21
-74.04504292640266
 31
0.0
  0
LINE
  5
51D
330
1F
100
AcDbEntity
  8
0
 62
     1
100
AcDbLine
 10
250.4019125527929
 20
-77.04504292640263
 30
0.0
 11
250.4019125527929
 21
-74.04504292640266
 31
0.0
  0
LINE
  5
51E
330
1F
100
AcDbEntity
  8
0
 62
     1
100
AcDbLine
 10
251.4019125527929
 20
-77.04504292640263
 30
0.0
 11
251.4019125527929
 21
-74.04504292640266
 31
0.0
  0
LINE
  5
51F
330
1F
100
AcDbEntity
  8
0
 62
     1
100
AcDbLine
 10
252.4019125527929
 20
-77.04504292640266
 30
0.0
 11
252.4019125527929
 21
-71.04504292640269
 31
0.0
  0
LINE
  5
520
330
1F
100
AcDbEntity
  8
0
 62
     1
100
AcDbLine
 10
253.4019125527929
 20
-77.04504292640266
 30
0.0
 11
253.4019125527929
 21
-74.04504292640269
 31
0.0
  0
LINE
  5
521
330
1F
100
AcDbEntity
  8
0
 62
     1
100
AcDbLine
 10
254.4019125527929
 20
-77.04504292640266
 30
0.0
 11
254.4019125527929
 21
-74.04504292640269
 31
0.0
  0
LINE
  5
522
330
1F
100
AcDbEntity
  8
0
 62
     1
100
AcDbLine
 10
255.4019125527929
 20
-77.04504292640266
 30
0.0
 11
255.4019125527929
 21
-74.04504292640269
 31
0.0
  0
LINE
  5
523
330
1F
100
AcDbEntity
  8
0
 62
     1
100
AcDbLine
 10
256.4019125527929
 20
-77.04504292640263
 30
0.0
 11
256.4019125527929
 21
-74.04504292640269
 31
0.0
  0
LINE
  5
524
330
1F
100
AcDbEntity
  8
0
 62
     1
100
AcDbLine
 10
257.4019125527928
 20
-77.04504292640263
 30
0.0
 11
257.4019125527928
 21
-72.04504292640266
 31
0.0
  0
LINE
  5
525
330
1F
100
AcDbEntity
  8
0
 62
     1
100
AcDbLine
 10
258.4019125527928
 20
-77.04504292640263
 30
0.0
 11
258.4019125527928
 21
-74.04504292640269
 31
0.0
  0
LINE
  5
526
330
1F
100
AcDbEntity
  8
0
 62
     1
100
AcDbLine
 10
259.4019125527928
 20
-77.04504292640263
 30
0.0
 11
259.4019125527928
 21
-74.04504292640269
 31
0.0
  0
LINE
  5
527
330
1F
100
AcDbEntity
  8
0
 62
     1
100
AcDbLine
 10
260.4019125527928
 20
-77.04504292640263
 30
0.0
 11
260.4019125527928
 21
-74.04504292640269
 31
0.0
  0
LINE
  5
528
330
1F
100
AcDbEntity
  8
0
 62
     1
100
AcDbLine
 10
261.4019125527928
 20
-77.04504292640263
 30
0.0
 11
261.4019125527928
 21
-74.04504292640269
 31
0.0
  0
LINE
  5
529
330
1F
100
AcDbEntity
  8
0
 62
     1
100
AcDbLine
 10
262.4019125527928
 20
-77.04504292640263
 30
0.0
 11
262.4019125527928
 21
-71.04504292640269
 31
0.0
  0
LINE
  5
52A
330
1F
100
AcDbEntity
  8
0
 62
     1
100
AcDbLine
 10
263.4019125527928
 20
-77.04504292640266
 30
0.0
 11
263.4019125527928
 21
-74.04504292640272
 31
0.0
  0
LINE
  5
52B
330
1F
100
AcDbEntity
  8
0
 62
     1
100
AcDbLine
 10
264.4019125527928
 20
-77.04504292640266
 30
0.0
 11
264.4019125527928
 21
-74.04504292640272
 31
0.0
  0
LINE
  5
52C
330
1F
100
AcDbEntity
  8
0
 62
     1
100
AcDbLine
 10
265.4019125527928
 20
-77.04504292640266
 30
0.0
 11
265.4019125527928
 21
-74.04504292640272
 31
0.0
  0
LINE
  5
52D
330
1F
100
AcDbEntity
  8
0
 62
     1
100
AcDbLine
 10
266.4019125527928
 20
-77.04504292640263
 30
0.0
 11
266.4019125527928
 21
-74.04504292640272
 31
0.0
  0
LINE
  5
52E
330
1F
100
AcDbEntity
  8
0
 62
     1
100
AcDbLine
 10
267.4019125527927
 20
-77.04504292640263
 30
0.0
 11
267.4019125527927
 21
-72.04504292640269
 31
0.0
  0
LINE
  5
52F
330
1F
100
AcDbEntity
  8
0
 62
     1
100
AcDbLine
 10
268.4019125527927
 20
-77.04504292640266
 30
0.0
 11
268.4019125527927
 21
-74.04504292640272
 31
0.0
  0
LINE
  5
530
330
1F
100
AcDbEntity
  8
0
 62
     1
100
AcDbLine
 10
269.4019125527927
 20
-77.04504292640269
 30
0.0
 11
269.4019125527927
 21
-74.04504292640272
 31
0.0
  0
LINE
  5
531
330
1F
100
AcDbEntity
  8
0
 62
     1
100
AcDbLine
 10
270.4019125527927
 20
-77.04504292640269
 30
0.0
 11
270.4019125527927
 21
-74.04504292640272
 31
0.0
  0
LINE
  5
532
330
1F
100
AcDbEntity
  8
0
 62
     1
100
AcDbLine
 10
271.4019125527927
 20
-77.04504292640269
 30
0.0
 11
271.4019125527927
 21
-74.04504292640272
 31
0.0
  0
LINE
  5
533
330
1F
100
AcDbEntity
  8
0
 62
     1
100
AcDbLine
 10
272.4019125527927
 20
-77.04504292640269
 30
0.0
 11
272.4019125527927
 21
-71.04504292640272
 31
0.0
  0
LINE
  5
534
330
1F
100
AcDbEntity
  8
0
 62
     1
100
AcDbLine
 10
273.4019125527927
 20
-77.04504292640269
 30
0.0
 11
273.4019125527927
 21
-74.04504292640272
 31
0.0
  0
LINE
  5
535
330
1F
100
AcDbEntity
  8
0
 62
     1
100
AcDbLine
 10
274.4019125527927
 20
-77.04504292640269
 30
0.0
 11
274.4019125527927
 21
-74.04504292640272
 31
0.0
  0
LINE
  5
536
330
1F
100
AcDbEntity
  8
0
 62
     1
100
AcDbLine
 10
275.4019125527927
 20
-77.04504292640269
 30
0.0
 11
275.4019125527927
 21
-74.04504292640272
 31
0.0
  0
LINE
  5
537
330
1F
100
AcDbEntity
  8
0
 62
     1
100
AcDbLine
 10
276.4019125527927
 20
-77.04504292640269
 30
0.0
 11
276.4019125527927
 21
-74.04504292640272
 31
0.0
  0
LINE
  5
538
330
1F
100
AcDbEntity
  8
0
 62
     1
100
AcDbLine
 10
277.4019125527927
 20
-77.04504292640266
 30
0.0
 11
277.4019125527927
 21
-72.04504292640269
 31
0.0
  0
LINE
  5
539
330
1F
100
AcDbEntity
  8
0
 62
     1
100
AcDbLine
 10
278.4019125527927
 20
-77.04504292640266
 30
0.0
 11
278.4019125527927
 21
-74.04504292640272
 31
0.0
  0
LINE
  5
53A
330
1F
100
AcDbEntity
  8
0
 62
     1
100
AcDbLine
 10
279.4019125527927
 20
-77.04504292640269
 30
0.0
 11
279.4019125527927
 21
-74.04504292640272
 31
0.0
  0
LINE
  5
53B
330
1F
100
AcDbEntity
  8
0
 62
     1
100
AcDbLine
 10
280.4019125527927
 20
-77.04504292640269
 30
0.0
 11
280.4019125527927
 21
-74.04504292640272
 31
0.0
  0
LINE
  5
53C
330
1F
100
AcDbEntity
  8
0
 62
     1
100
AcDbLine
 10
281.4019125527927
 20
-77.04504292640269
 30
0.0
 11
281.4019125527927
 21
-74.04504292640272
 31
0.0
  0
LINE
  5
53D
330
1F
100
AcDbEntity
  8
0
 62
     1
100
AcDbLine
 10
282.4019125527927
 20
-77.04504292640266
 30
0.0
 11
282.4019125527927
 21
-71.04504292640269
 31
0.0
  0
LINE
  5
53E
330
1F
100
AcDbEntity
  8
0
 62
     1
100
AcDbLine
 10
283.4019125527927
 20
-77.04504292640266
 30
0.0
 11
283.4019125527927
 21
-74.04504292640269
 31
0.0
  0
LINE
  5
53F
330
1F
100
AcDbEntity
  8
0
 62
     1
100
AcDbLine
 10
284.4019125527927
 20
-77.04504292640266
 30
0.0
 11
284.4019125527927
 21
-74.04504292640269
 31
0.0
  0
LINE
  5
540
330
1F
100
AcDbEntity
  8
0
 62
     1
100
AcDbLine
 10
285.4019125527927
 20
-77.04504292640266
 30
0.0
 11
285.4019125527927
 21
-74.04504292640269
 31
0.0
  0
LINE
  5
541
330
1F
100
AcDbEntity
  8
0
 62
     1
100
AcDbLine
 10
286.4019125527927
 20
-77.04504292640263
 30
0.0
 11
286.4019125527927
 21
-74.04504292640269
 31
0.0
  0
LINE
  5
542
330
1F
100
AcDbEntity
  8
0
 62
     1
100
AcDbLine
 10
287.4019125527926
 20
-77.04504292640263
 30
0.0
 11
287.4019125527926
 21
-72.04504292640266
 31
0.0
  0
LINE
  5
543
330
1F
100
AcDbEntity
  8
0
 62
     1
100
AcDbLine
 10
288.4019125527926
 20
-77.04504292640266
 30
0.0
 11
288.4019125527926
 21
-74.04504292640269
 31
0.0
  0
LINE
  5
544
330
1F
100
AcDbEntity
  8
0
 62
     1
100
AcDbLine
 10
289.4019125527926
 20
-77.04504292640269
 30
0.0
 11
289.4019125527926
 21
-74.04504292640269
 31
0.0
  0
LINE
  5
545
330
1F
100
AcDbEntity
  8
0
 62
     1
100
AcDbLine
 10
290.4019125527926
 20
-77.04504292640269
 30
0.0
 11
290.4019125527926
 21
-74.04504292640269
 31
0.0
  0
LINE
  5
546
330
1F
100
AcDbEntity
  8
0
 62
     1
100
AcDbLine
 10
291.4019125527926
 20
-77.04504292640269
 30
0.0
 11
291.4019125527926
 21
-74.04504292640269
 31
0.0
  0
LINE
  5
547
330
1F
100
AcDbEntity
  8
0
 62
     1
100
AcDbLine
 10
292.4019125527926
 20
-77.04504292640269
 30
0.0
 11
292.4019125527926
 21
-71.04504292640269
 31
0.0
  0
LINE
  5
548
330
1F
100
AcDbEntity
  8
0
 62
     1
100
AcDbLine
 10
213.4019125527931
 20
-77.04504292640263
 30
0.0
 11
213.4019125527931
 21
-74.04504292640263
 31
0.0
  0
LINE
  5
549
330
1F
100
AcDbEntity
  8
0
 62
     1
100
AcDbLine
 10
293.4019125527926
 20
-77.04504292640269
 30
0.0
 11
293.4019125527926
 21
-74.04504292640269
 31
0.0
  0
LINE
  5
54A
330
1F
100
AcDbEntity
  8
0
 62
     1
100
AcDbLine
 10
294.4019125527926
 20
-77.04504292640269
 30
0.0
 11
294.4019125527926
 21
-74.04504292640269
 31
0.0
  0
LINE
  5
54B
330
1F
100
AcDbEntity
  8
0
 62
     1
100
AcDbLine
 10
295.4019125527926
 20
-77.04504292640269
 30
0.0
 11
295.4019125527926
 21
-74.04504292640269
 31
0.0
  0
LINE
  5
54C
330
1F
100
AcDbEntity
  8
0
 62
     1
100
AcDbLine
 10
296.4019125527926
 20
-77.04504292640266
 30
0.0
 11
296.4019125527926
 21
-74.04504292640269
 31
0.0
  0
LINE
  5
54D
330
1F
100
AcDbEntity
  8
0
 62
     1
100
AcDbLine
 10
297.4019125527926
 20
-77.04504292640263
 30
0.0
 11
297.4019125527926
 21
-72.04504292640266
 31
0.0
  0
LINE
  5
54E
330
1F
100
AcDbEntity
  8
0
 62
     1
100
AcDbLine
 10
298.4019125527925
 20
-77.04504292640263
 30
0.0
 11
298.4019125527925
 21
-74.04504292640269
 31
0.0
  0
LINE
  5
54F
330
1F
100
AcDbEntity
  8
0
 62
     1
100
AcDbLine
 10
299.4019125527925
 20
-77.04504292640266
 30
0.0
 11
299.4019125527925
 21
-74.04504292640269
 31
0.0
  0
LINE
  5
550
330
1F
100
AcDbEntity
  8
0
 62
     1
100
AcDbLine
 10
300.4019125527925
 20
-77.04504292640266
 30
0.0
 11
300.4019125527925
 21
-74.04504292640269
 31
0.0
  0
LINE
  5
551
330
1F
100
AcDbEntity
  8
0
 62
     1
100
AcDbLine
 10
301.4019125527925
 20
-77.04504292640266
 30
0.0
 11
301.4019125527925
 21
-74.04504292640269
 31
0.0
  0
LINE
  5
552
330
1F
100
AcDbEntity
  8
0
 62
     1
100
AcDbLine
 10
302.4019125527925
 20
-77.04504292640266
 30
0.0
 11
302.4019125527925
 21
-71.04504292640269
 31
0.0
  0
LINE
  5
553
330
1F
100
AcDbEntity
  8
0
 62
     1
100
AcDbLine
 10
303.4019125527925
 20
-77.04504292640269
 30
0.0
 11
303.4019125527925
 21
-74.04504292640272
 31
0.0
  0
LINE
  5
554
330
1F
100
AcDbEntity
  8
0
 62
     1
100
AcDbLine
 10
304.4019125527925
 20
-77.04504292640269
 30
0.0
 11
304.4019125527925
 21
-74.04504292640272
 31
0.0
  0
LINE
  5
555
330
1F
100
AcDbEntity
  8
0
 62
     1
100
AcDbLine
 10
305.4019125527925
 20
-77.04504292640269
 30
0.0
 11
305.4019125527925
 21
-74.04504292640272
 31
0.0
  0
LINE
  5
556
330
1F
100
AcDbEntity
  8
0
 62
     1
100
AcDbLine
 10
306.4019125527925
 20
-77.04504292640266
 30
0.0
 11
306.4019125527925
 21
-74.04504292640272
 31
0.0
  0
LINE
  5
557
330
1F
100
AcDbEntity
  8
0
 62
     1
100
AcDbLine
 10
307.4019125527925
 20
-77.04504292640266
 30
0.0
 11
307.4019125527925
 21
-72.04504292640269
 31
0.0
  0
LINE
  5
558
330
1F
100
AcDbEntity
  8
0
 62
     1
100
AcDbLine
 10
308.4019125527925
 20
-77.04504292640269
 30
0.0
 11
308.4019125527925
 21
-74.04504292640272
 31
0.0
  0
LINE
  5
559
330
1F
100
AcDbEntity
  8
0
 62
     1
100
AcDbLine
 10
309.4019125527925
 20
-77.04504292640269
 30
0.0
 11
309.4019125527925
 21
-74.04504292640272
 31
0.0
  0
LINE
  5
55A
330
1F
100
AcDbEntity
  8
0
 62
     1
100
AcDbLine
 10
310.4019125527925
 20
-77.04504292640269
 30
0.0
 11
310.4019125527925
 21
-74.04504292640272
 31
0.0
  0
LINE
  5
55B
330
1F
100
AcDbEntity
  8
0
 62
     1
100
AcDbLine
 10
311.4019125527925
 20
-77.04504292640269
 30
0.0
 11
311.4019125527925
 21
-74.04504292640272
 31
0.0
  0
LINE
  5
55C
330
1F
100
AcDbEntity
  8
0
 62
     1
100
AcDbLine
 10
312.4019125527925
 20
-77.04504292640269
 30
0.0
 11
312.4019125527925
 21
-71.04504292640272
 31
0.0
  0
LINE
  5
55D
330
1F
100
AcDbEntity
  8
0
 62
     1
100
AcDbLine
 10
313.4019125527925
 20
-77.04504292640269
 30
0.0
 11
313.4019125527925
 21
-74.04504292640272
 31
0.0
  0
LINE
  5
55E
330
1F
100
AcDbEntity
  8
0
 62
     1
100
AcDbLine
 10
314.4019125527925
 20
-77.04504292640269
 30
0.0
 11
314.4019125527925
 21
-74.04504292640272
 31
0.0
  0
LINE
  5
55F
330
1F
100
AcDbEntity
  8
0
 62
     1
100
AcDbLine
 10
315.4019125527925
 20
-77.04504292640269
 30
0.0
 11
315.4019125527925
 21
-74.04504292640272
 31
0.0
  0
LINE
  5
560
330
1F
100
AcDbEntity
  8
0
 62
     1
100
AcDbLine
 10
316.4019125527925
 20
-77.04504292640266
 30
0.0
 11
316.4019125527925
 21
-74.04504292640272
 31
0.0
  0
LINE
  5
561
330
1F
100
AcDbEntity
  8
0
 62
     1
100
AcDbLine
 10
317.4019125527925
 20
-77.04504292640263
 30
0.0
 11
317.4019125527925
 21
-72.04504292640269
 31
0.0
  0
LINE
  5
562
330
1F
100
AcDbEntity
  8
0
 62
     1
100
AcDbLine
 10
318.4019125527924
 20
-77.04504292640263
 30
0.0
 11
318.4019125527924
 21
-74.04504292640272
 31
0.0
  0
LINE
  5
563
330
1F
100
AcDbEntity
  8
0
 62
     1
100
AcDbLine
 10
319.4019125527924
 20
-77.04504292640266
 30
0.0
 11
319.4019125527924
 21
-74.04504292640272
 31
0.0
  0
LINE
  5
564
330
1F
100
AcDbEntity
  8
0
 62
     1
100
AcDbLine
 10
320.4019125527925
 20
-77.04504292640266
 30
0.0
 11
320.4019125527925
 21
-74.04504292640272
 31
0.0
  0
LINE
  5
565
330
1F
100
AcDbEntity
  8
0
 62
     1
100
AcDbLine
 10
321.4019125527925
 20
-77.04504292640266
 30
0.0
 11
321.4019125527925
 21
-74.04504292640272
 31
0.0
  0
LINE
  5
566
330
1F
100
AcDbEntity
  8
0
 62
     1
100
AcDbLine
 10
322.4019125527925
 20
-77.04504292640263
 30
0.0
 11
322.4019125527925
 21
-71.04504292640269
 31
0.0
  0
LINE
  5
568
330
1F
100
AcDbEntity
  8
0
 62
     1
100
AcDbLine
 10
323.4019125527925
 20
-77.04504292640266
 30
0.0
 11
323.4019125527925
 21
-74.04504292640272
 31
0.0
  0
LINE
  5
569
330
1F
100
AcDbEntity
  8
0
 62
     1
100
AcDbLine
 10
324.4019125527925
 20
-77.04504292640266
 30
0.0
 11
324.4019125527925
 21
-74.04504292640272
 31
0.0
  0
LINE
  5
56A
330
1F
100
AcDbEntity
  8
0
 62
     1
100
AcDbLine
 10
325.4019125527925
 20
-77.04504292640266
 30
0.0
 11
325.4019125527925
 21
-74.04504292640272
 31
0.0
  0
LINE
  5
56B
330
1F
100
AcDbEntity
  8
0
 62
     1
100
AcDbLine
 10
326.4019125527925
 20
-77.04504292640263
 30
0.0
 11
326.4019125527925
 21
-74.04504292640272
 31
0.0
  0
LINE
  5
56C
330
1F
100
AcDbEntity
  8
0
 62
     1
100
AcDbLine
 10
327.4019125527925
 20
-77.04504292640263
 30
0.0
 11
327.4019125527925
 21
-72.04504292640269
 31
0.0
  0
LINE
  5
56D
330
1F
100
AcDbEntity
  8
0
 62
     1
100
AcDbLine
 10
328.4019125527925
 20
-77.04504292640266
 30
0.0
 11
328.4019125527925
 21
-74.04504292640272
 31
0.0
  0
LINE
  5
56E
330
1F
100
AcDbEntity
  8
0
 62
     1
100
AcDbLine
 10
329.4019125527925
 20
-77.04504292640269
 30
0.0
 11
329.4019125527925
 21
-74.04504292640272
 31
0.0
  0
LINE
  5
56F
330
1F
100
AcDbEntity
  8
0
 62
     1
100
AcDbLine
 10
330.4019125527925
 20
-77.04504292640269
 30
0.0
 11
330.4019125527925
 21
-74.04504292640272
 31
0.0
  0
LINE
  5
570
330
1F
100
AcDbEntity
  8
0
 62
     1
100
AcDbLine
 10
331.4019125527925
 20
-77.04504292640269
 30
0.0
 11
331.4019125527925
 21
-74.04504292640272
 31
0.0
  0
LINE
  5
571
330
1F
100
AcDbEntity
  8
0
 62
     1
100
AcDbLine
 10
332.4019125527925
 20
-77.04504292640269
 30
0.0
 11
332.4019125527925
 21
-71.04504292640272
 31
0.0
  0
LINE
  5
573
330
1F
100
AcDbEntity
  8
0
 62
     1
100
AcDbLine
 10
240.7882249376986
 20
-153.4144319412949
 30
0.0
 11
240.7882249376986
 21
-158.4144319412949
 31
0.0
  0
LINE
  5
57F
330
1F
100
AcDbEntity
  8
0
 62
     1
100
AcDbLine
 10
244.6882249376986
 20
-153.4144319412948
 30
0.0
 11
244.6882249376986
 21
-158.4144319412948
 31
0.0
  0
LINE
  5
5DF
330
1F
100
AcDbEntity
  8
0
  6
Continuous
 62
     7
370
    15
100
AcDbLine
 10
290.1585921177502
 20
-147.8670071929528
 30
0.0
 11
290.1585921177502
 21
-131.3670071929525
 31
0.0
  0
LINE
  5
5E0
330
1F
100
AcDbEntity
  8
0
  6
Continuous
 62
     7
370
    15
100
AcDbLine
 10
290.1585921177502
 20
-131.3670071929525
 30
0.0
 11
230.1585921177494
 21
-131.3670071929528
 31
0.0
  0
LINE
  5
5E1
330
1F
100
AcDbEntity
  8
0
  6
Continuous
 62
     7
370
    15
100
AcDbLine
 10
230.1585921177494
 20
-131.3670071929528
 30
0.0
 11
230.1585921177494
 21
-147.8670071929528
 31
0.0
  0
ARC
  5
5E2
330
1F
100
AcDbEntity
  8
0
  6
Continuous
 62
     7
370
    15
100
AcDbCircle
 10
231.1585921177494
 20
-147.8670071929528
 30
0.0
 40
1.0
100
AcDbArc
 50
180.0
 51
270.0
  0
LINE
  5
5E3
330
1F
100
AcDbEntity
  8
0
  6
Continuous
 62
     7
370
    15
100
AcDbLine
 10
231.1585921177494
 20
-148.8670071929528
 30
0.0
 11
289.1585921177502
 21
-148.8670071929528
 31
0.0
  0
ARC
  5
5E4
330
1F
100
AcDbEntity
  8
0
  6
Continuous
 62
     7
370
    15
100
AcDbCircle
 10
289.1585921177502
 20
-147.8670071929528
 30
0.0
 40
1.0
100
AcDbArc
 50
270.0
 51
0.0
  0
CIRCLE
  5
5E5
330
1F
100
AcDbEntity
  8
0
  6
Continuous
 62
     7
370
    15
100
AcDbCircle
 10
282.1585921177502
 20
-142.8670071929525
 30
0.0
 40
1.5
  0
CIRCLE
  5
5E6
330
1F
100
AcDbEntity
  8
0
  6
Continuous
 62
     7
370
    15
100
AcDbCircle
 10
238.1585921177496
 20
-142.8670071929528
 30
0.0
 40
1.5
  0
LINE
  5
6BF
330
1F
100
AcDbEntity
  8
0
 62
     1
100
AcDbLine
 10
278.6585921177502
 20
-131.3670071929525
 30
0.0
 11
278.6585921177502
 21
-136.3670071929525
 31
0.0
  0
LINE
  5
6C1
330
1F
100
AcDbEntity
  8
0
 62
     1
100
AcDbLine
 10
277.8785921177501
 20
-131.3670071929525
 30
0.0
 11
277.8785921177501
 21
-134.3670071929525
 31
0.0
  0
LINE
  5
6C3
330
1F
100
AcDbEntity
  8
0
 62
     1
100
AcDbLine
 10
277.0985921177501
 20
-131.3670071929525
 30
0.0
 11
277.0985921177501
 21
-134.3670071929525
 31
0.0
  0
LINE
  5
6C5
330
1F
100
AcDbEntity
  8
0
 62
     1
100
AcDbLine
 10
276.3185921177501
 20
-131.3670071929525
 30
0.0
 11
276.3185921177501
 21
-134.3670071929525
 31
0.0
  0
LINE
  5
6C7
330
1F
100
AcDbEntity
  8
0
 62
     1
100
AcDbLine
 10
275.5385921177501
 20
-131.3670071929525
 30
0.0
 11
275.5385921177501
 21
-134.3670071929525
 31
0.0
  0
LINE
  5
6C9
330
1F
100
AcDbEntity
  8
0
 62
     1
100
AcDbLine
 10
274.7585921177501
 20
-131.3670071929525
 30
0.0
 11
274.7585921177501
 21
-136.3670071929525
 31
0.0
  0
LINE
  5
6CA
330
1F
100
AcDbEntity
  8
0
 62
     1
100
AcDbLine
 10
273.9785921177501
 20
-131.3670071929525
 30
0.0
 11
273.9785921177501
 21
-134.3670071929525
 31
0.0
  0
LINE
  5
6CB
330
1F
100
AcDbEntity
  8
0
 62
     1
100
AcDbLine
 10
273.1985921177501
 20
-131.3670071929524
 30
0.0
 11
273.1985921177501
 21
-134.3670071929524
 31
0.0
  0
LINE
  5
6CC
330
1F
100
AcDbEntity
  8
0
 62
     1
100
AcDbLine
 10
272.4185921177501
 20
-131.3670071929524
 30
0.0
 11
272.4185921177501
 21
-134.3670071929524
 31
0.0
  0
LINE
  5
6CD
330
1F
100
AcDbEntity
  8
0
 62
     1
100
AcDbLine
 10
271.6385921177501
 20
-131.3670071929524
 30
0.0
 11
271.6385921177501
 21
-134.3670071929524
 31
0.0
  0
LINE
  5
6CE
330
1F
100
AcDbEntity
  8
0
 62
     1
100
AcDbLine
 10
270.85859211775
 20
-131.3670071929524
 30
0.0
 11
270.85859211775
 21
-136.3670071929524
 31
0.0
  0
LINE
  5
6CF
330
1F
100
AcDbEntity
  8
0
 62
     1
100
AcDbLine
 10
270.0785921177501
 20
-131.3670071929525
 30
0.0
 11
270.0785921177501
 21
-134.3670071929525
 31
0.0
  0
LINE
  5
6D0
330
1F
100
AcDbEntity
  8
0
 62
     1
100
AcDbLine
 10
269.2985921177501
 20
-131.3670071929525
 30
0.0
 11
269.2985921177501
 21
-134.3670071929525
 31
0.0
  0
LINE
  5
6D1
330
1F
100
AcDbEntity
  8
0
 62
     1
100
AcDbLine
 10
268.5185921177501
 20
-131.3670071929525
 30
0.0
 11
268.5185921177501
 21
-134.3670071929525
 31
0.0
  0
LINE
  5
6D2
330
1F
100
AcDbEntity
  8
0
 62
     1
100
AcDbLine
 10
267.73859211775
 20
-131.3670071929525
 30
0.0
 11
267.73859211775
 21
-134.3670071929525
 31
0.0
  0
LINE
  5
6D3
330
1F
100
AcDbEntity
  8
0
 62
     1
100
AcDbLine
 10
266.9585921177501
 20
-131.3670071929525
 30
0.0
 11
266.9585921177501
 21
-136.3670071929525
 31
0.0
  0
LINE
  5
6D4
330
1F
100
AcDbEntity
  8
0
 62
     1
100
AcDbLine
 10
266.1785921177501
 20
-131.3670071929525
 30
0.0
 11
266.1785921177501
 21
-134.3670071929525
 31
0.0
  0
LINE
  5
6D5
330
1F
100
AcDbEntity
  8
0
 62
     1
100
AcDbLine
 10
265.3985921177501
 20
-131.3670071929525
 30
0.0
 11
265.3985921177501
 21
-134.3670071929525
 31
0.0
  0
LINE
  5
6D6
330
1F
100
AcDbEntity
  8
0
 62
     1
100
AcDbLine
 10
264.61859211775
 20
-131.3670071929525
 30
0.0
 11
264.61859211775
 21
-134.3670071929525
 31
0.0
  0
LINE
  5
6D7
330
1F
100
AcDbEntity
  8
0
 62
     1
100
AcDbLine
 10
263.8385921177501
 20
-131.3670071929525
 30
0.0
 11
263.8385921177501
 21
-134.3670071929525
 31
0.0
  0
LINE
  5
6D8
330
1F
100
AcDbEntity
  8
0
 62
     1
100
AcDbLine
 10
263.0585921177501
 20
-131.3670071929525
 30
0.0
 11
263.0585921177501
 21
-136.3670071929525
 31
0.0
  0
LINE
  5
6D9
330
1F
100
AcDbEntity
  8
0
 62
     1
100
AcDbLine
 10
262.2785921177501
 20
-131.3670071929525
 30
0.0
 11
262.2785921177501
 21
-134.3670071929525
 31
0.0
  0
LINE
  5
6DA
330
1F
100
AcDbEntity
  8
0
 62
     1
100
AcDbLine
 10
261.4985921177501
 20
-131.3670071929525
 30
0.0
 11
261.4985921177501
 21
-134.3670071929525
 31
0.0
  0
LINE
  5
6DB
330
1F
100
AcDbEntity
  8
0
 62
     1
100
AcDbLine
 10
260.7185921177501
 20
-131.3670071929525
 30
0.0
 11
260.7185921177501
 21
-134.3670071929525
 31
0.0
  0
LINE
  5
6DC
330
1F
100
AcDbEntity
  8
0
 62
     1
100
AcDbLine
 10
259.9385921177501
 20
-131.3670071929525
 30
0.0
 11
259.9385921177501
 21
-134.3670071929525
 31
0.0
  0
LINE
  5
6DD
330
1F
100
AcDbEntity
  8
0
 62
     1
100
AcDbLine
 10
259.1585921177501
 20
-131.3670071929525
 30
0.0
 11
259.1585921177501
 21
-136.3670071929525
 31
0.0
  0
LINE
  5
6DE
330
1F
100
AcDbEntity
  8
0
 62
     1
100
AcDbLine
 10
258.3785921177501
 20
-131.3670071929525
 30
0.0
 11
258.3785921177501
 21
-134.3670071929525
 31
0.0
  0
LINE
  5
6DF
330
1F
100
AcDbEntity
  8
0
 62
     1
100
AcDbLine
 10
257.5985921177501
 20
-131.3670071929524
 30
0.0
 11
257.5985921177501
 21
-134.3670071929524
 31
0.0
  0
LINE
  5
6E0
330
1F
100
AcDbEntity
  8
0
 62
     1
100
AcDbLine
 10
256.8185921177501
 20
-131.3670071929524
 30
0.0
 11
256.8185921177501
 21
-134.3670071929524
 31
0.0
  0
LINE
  5
6E1
330
1F
100
AcDbEntity
  8
0
 62
     1
100
AcDbLine
 10
256.0385921177501
 20
-131.3670071929524
 30
0.0
 11
256.0385921177501
 21
-134.3670071929524
 31
0.0
  0
LINE
  5
6E2
330
1F
100
AcDbEntity
  8
0
 62
     1
100
AcDbLine
 10
255.2585921177501
 20
-131.3670071929524
 30
0.0
 11
255.2585921177501
 21
-136.3670071929524
 31
0.0
  0
LINE
  5
6E3
330
1F
100
AcDbEntity
  8
0
 62
     1
100
AcDbLine
 10
254.4785921177501
 20
-131.3670071929524
 30
0.0
 11
254.4785921177501
 21
-134.3670071929524
 31
0.0
  0
LINE
  5
6E4
330
1F
100
AcDbEntity
  8
0
 62
     1
100
AcDbLine
 10
253.6985921177501
 20
-131.3670071929524
 30
0.0
 11
253.6985921177501
 21
-134.3670071929524
 31
0.0
  0
LINE
  5
6E5
330
1F
100
AcDbEntity
  8
0
 62
     1
100
AcDbLine
 10
252.9185921177501
 20
-131.3670071929524
 30
0.0
 11
252.9185921177501
 21
-134.3670071929524
 31
0.0
  0
LINE
  5
6E6
330
1F
100
AcDbEntity
  8
0
 62
     1
100
AcDbLine
 10
252.1385921177501
 20
-131.3670071929525
 30
0.0
 11
252.1385921177501
 21
-134.3670071929525
 31
0.0
  0
LINE
  5
6E7
330
1F
100
AcDbEntity
  8
0
 62
     1
100
AcDbLine
 10
251.3585921177501
 20
-131.3670071929525
 30
0.0
 11
251.3585921177501
 21
-136.3670071929525
 31
0.0
  0
LINE
  5
6E8
330
1F
100
AcDbEntity
  8
0
 62
     1
100
AcDbLine
 10
250.5785921177501
 20
-131.3670071929525
 30
0.0
 11
250.5785921177501
 21
-134.3670071929525
 31
0.0
  0
LINE
  5
6E9
330
1F
100
AcDbEntity
  8
0
 62
     1
100
AcDbLine
 10
249.7985921177501
 20
-131.3670071929524
 30
0.0
 11
249.7985921177501
 21
-134.3670071929524
 31
0.0
  0
LINE
  5
6EA
330
1F
100
AcDbEntity
  8
0
 62
     1
100
AcDbLine
 10
249.0185921177501
 20
-131.3670071929524
 30
0.0
 11
249.0185921177501
 21
-134.3670071929524
 31
0.0
  0
LINE
  5
6EB
330
1F
100
AcDbEntity
  8
0
 62
     1
100
AcDbLine
 10
248.2385921177501
 20
-131.3670071929524
 30
0.0
 11
248.2385921177501
 21
-134.3670071929524
 31
0.0
  0
LINE
  5
6EC
330
1F
100
AcDbEntity
  8
0
 62
     1
100
AcDbLine
 10
247.45859211775
 20
-131.3670071929524
 30
0.0
 11
247.45859211775
 21
-136.3670071929524
 31
0.0
  0
LINE
  5
6ED
330
1F
100
AcDbEntity
  8
0
 62
     1
100
AcDbLine
 10
246.6785921177501
 20
-131.3670071929524
 30
0.0
 11
246.6785921177501
 21
-134.3670071929524
 31
0.0
  0
LINE
  5
6EE
330
1F
100
AcDbEntity
  8
0
 62
     1
100
AcDbLine
 10
245.8985921177501
 20
-131.3670071929524
 30
0.0
 11
245.8985921177501
 21
-134.3670071929524
 31
0.0
  0
LINE
  5
6EF
330
1F
100
AcDbEntity
  8
0
 62
     1
100
AcDbLine
 10
245.1185921177501
 20
-131.3670071929524
 30
0.0
 11
245.1185921177501
 21
-134.3670071929524
 31
0.0
  0
LINE
  5
6F0
330
1F
100
AcDbEntity
  8
0
 62
     1
100
AcDbLine
 10
244.33859211775
 20
-131.3670071929525
 30
0.0
 11
244.33859211775
 21
-134.3670071929525
 31
0.0
  0
LINE
  5
6F1
330
1F
100
AcDbEntity
  8
0
 62
     1
100
AcDbLine
 10
243.5585921177501
 20
-131.3670071929525
 30
0.0
 11
243.5585921177501
 21
-136.3670071929525
 31
0.0
  0
LINE
  5
6F2
330
1F
100
AcDbEntity
  8
0
 62
     1
100
AcDbLine
 10
242.7785921177501
 20
-131.3670071929525
 30
0.0
 11
242.7785921177501
 21
-134.3670071929525
 31
0.0
  0
LINE
  5
6F3
330
1F
100
AcDbEntity
  8
0
 62
     1
100
AcDbLine
 10
241.9985921177501
 20
-131.3670071929524
 30
0.0
 11
241.9985921177501
 21
-134.3670071929524
 31
0.0
  0
LINE
  5
6F4
330
1F
100
AcDbEntity
  8
0
 62
     1
100
AcDbLine
 10
241.21859211775
 20
-131.3670071929524
 30
0.0
 11
241.21859211775
 21
-134.3670071929524
 31
0.0
  0
LINE
  5
6F5
330
1F
100
AcDbEntity
  8
0
 62
     1
100
AcDbLine
 10
240.4385921177501
 20
-131.3670071929524
 30
0.0
 11
240.4385921177501
 21
-134.3670071929524
 31
0.0
  0
LINE
  5
6F6
330
1F
100
AcDbEntity
  8
0
 62
     1
100
AcDbLine
 10
239.6585921177501
 20
-131.3670071929524
 30
0.0
 11
239.6585921177501
 21
-136.3670071929524
 31
0.0
  0
MTEXT
  5
79B
330
1F
100
AcDbEntity
  8
0
 62
     1
100
AcDbMText
 10
281.8421549436945
 20
-157.1592995675374
 30
0.0
 40
1.833642073575129
 41
0.0
 46
0.0
 71
     1
 72
     1
  1
0.05
 73
     1
 44
1.0
  0
MTEXT
  5
79C
330
1F
100
AcDbEntity
  8
0
 62
     1
100
AcDbMText
 10
280.0210100742532
 20
-135.3293274981115
 30
0.0
 40
1.833642073575129
 41
0.0
 46
0.0
 71
     1
 72
     1
  1
0.02
 73
     1
 44
1.0
  0
LINE
  5
86A
330
1F
100
AcDbEntity
  8
0
 62
     1
100
AcDbLine
 10
242.7382249376986
 20
-153.4144319412948
 30
0.0
 11
242.7382249376986
 21
-156.4144319412948
 31
0.0
  0
LINE
  5
86C
330
1F
100
AcDbEntity
  8
0
 62
     1
100
AcDbLine
 10
246.6382249376986
 20
-153.4144319412948
 30
0.0
 11
246.6382249376986
 21
-156.4144319412948
 31
0.0
  0
LINE
  5
86D
330
1F
100
AcDbEntity
  8
0
 62
     1
100
AcDbLine
 10
248.5882249376986
 20
-153.4144319412948
 30
0.0
 11
248.5882249376986
 21
-158.4144319412948
 31
0.0
  0
LINE
  5
86E
330
1F
100
AcDbEntity
  8
0
 62
     1
100
AcDbLine
 10
250.5382249376985
 20
-153.4144319412948
 30
0.0
 11
250.5382249376985
 21
-156.4144319412948
 31
0.0
  0
LINE
  5
86F
330
1F
100
AcDbEntity
  8
0
 62
     1
100
AcDbLine
 10
254.4382249376986
 20
-153.4144319412948
 30
0.0
 11
254.4382249376986
 21
-156.4144319412948
 31
0.0
  0
LINE
  5
870
330
1F
100
AcDbEntity
  8
0
 62
     1
100
AcDbLine
 10
252.4882249376986
 20
-153.4144319412948
 30
0.0
 11
252.4882249376985
 21
-158.4144319412948
 31
0.0
  0
LINE
  5
871
330
1F
100
AcDbEntity
  8
0
 62
     1
100
AcDbLine
 10
256.3882249376986
 20
-153.4144319412949
 30
0.0
 11
256.3882249376985
 21
-158.4144319412949
 31
0.0
  0
LINE
  5
872
330
1F
100
AcDbEntity
  8
0
 62
     1
100
AcDbLine
 10
260.2882249376986
 20
-153.4144319412949
 30
0.0
 11
260.2882249376986
 21
-158.4144319412949
 31
0.0
  0
LINE
  5
873
330
1F
100
AcDbEntity
  8
0
 62
     1
100
AcDbLine
 10
258.3382249376986
 20
-153.4144319412949
 30
0.0
 11
258.3382249376986
 21
-156.4144319412949
 31
0.0
  0
LINE
  5
874
330
1F
100
AcDbEntity
  8
0
 62
     1
100
AcDbLine
 10
262.2382249376986
 20
-153.4144319412949
 30
0.0
 11
262.2382249376986
 21
-156.4144319412949
 31
0.0
  0
LINE
  5
875
330
1F
100
AcDbEntity
  8
0
 62
     1
100
AcDbLine
 10
264.1882249376986
 20
-153.414431941295
 30
0.0
 11
264.1882249376985
 21
-158.414431941295
 31
0.0
  0
LINE
  5
876
330
1F
100
AcDbEntity
  8
0
 62
     1
100
AcDbLine
 10
266.1382249376986
 20
-153.414431941295
 30
0.0
 11
266.1382249376985
 21
-156.414431941295
 31
0.0
  0
LINE
  5
877
330
1F
100
AcDbEntity
  8
0
 62
     1
100
AcDbLine
 10
270.0382249376986
 20
-153.4144319412951
 30
0.0
 11
270.0382249376986
 21
-156.4144319412951
 31
0.0
  0
LINE
  5
878
330
1F
100
AcDbEntity
  8
0
 62
     1
100
AcDbLine
 10
268.0882249376986
 20
-153.414431941295
 30
0.0
 11
268.0882249376984
 21
-158.414431941295
 31
0.0
  0
LINE
  5
879
330
1F
100
AcDbEntity
  8
0
 62
     1
100
AcDbLine
 10
271.9882249376986
 20
-153.4144319412952
 30
0.0
 11
271.9882249376986
 21
-158.4144319412952
 31
0.0
  0
LINE
  5
87A
330
1F
100
AcDbEntity
  8
0
 62
     1
100
AcDbLine
 10
275.8882249376987
 20
-153.4144319412952
 30
0.0
 11
275.8882249376985
 21
-158.4144319412952
 31
0.0
  0
LINE
  5
87B
330
1F
100
AcDbEntity
  8
0
 62
     1
100
AcDbLine
 10
273.9382249376986
 20
-153.4144319412952
 30
0.0
 11
273.9382249376986
 21
-156.4144319412952
 31
0.0
  0
LINE
  5
87C
330
1F
100
AcDbEntity
  8
0
 62
     1
100
AcDbLine
 10
277.8382249376986
 20
-153.4144319412952
 30
0.0
 11
277.8382249376986
 21
-156.4144319412952
 31
0.0
  0
LINE
  5
87D
330
1F
100
AcDbEntity
  8
0
 62
     1
100
AcDbLine
 10
279.7882249376986
 20
-153.4144319412954
 30
0.0
 11
279.7882249376985
 21
-158.4144319412954
 31
0.0
  0
MTEXT
  5
8FD
330
1F
100
AcDbEntity
  8
0
 62
     3
100
AcDbMText
 10
240.2128121191733
 20
-159.1182721103641
 30
0.0
 40
2.028901986538822
 41
0.0
 46
0.0
 71
     1
 72
     1
  1
0
 73
     1
 44
1.0
  0
MTEXT
  5
8FE
330
1F
100
AcDbEntity
  8
0
 62
     3
100
AcDbMText
 10
275.0087805155802
 20
-159.5927237288523
 30
0.0
 40
1.929987520912569
 41
0.0
 46
0.0
 71
     1
 72
     1
  1
9
 73
     1
 44
1.0
  0
MTEXT
  5
8FF
330
1F
100
AcDbEntity
  8
0
 62
     3
100
AcDbMText
 10
279.2943758186462
 20
-159.7572345652407
 30
0.0
 40
2.119795359905404
 41
0.0
 46
0.0
 71
     1
 72
     1
  1
0
 73
     1
 44
1.0
  0
MTEXT
  5
900
330
1F
100
AcDbEntity
  8
0
 62
     3
100
AcDbMText
 10
239.6585921177501
 20
-139.0767062205977
 30
0.0
 40
2.119795359905404
 41
0.0
 46
0.0
 71
     1
 72
     1
  1
0
 11
-1.0
 21
1.224646799147353E-16
 31
0.0
 73
     1
 44
1.0
  0
MTEXT
  5
901
330
1F
100
AcDbEntity
  8
0
 62
     3
100
AcDbMText
 10
275.3191512071581
 20
-139.3943173999778
 30
0.0
 40
1.608993775096312
 41
0.0
 46
0.0
 71
     1
 72
     1
  1
6
 11
-1.0
 21
1.224646799147353E-16
 31
0.0
 73
     1
 44
1.0
  0
MTEXT
  5
902
330
1F
100
AcDbEntity
  8
0
 62
     3
100
AcDbMText
 10
279.1658176143848
 20
-139.3240843515259
 30
0.0
 40
2.028901986538822
 41
0.0
 46
0.0
 71
     1
 72
     1
  1
0
 11
-1.0
 21
1.224646799147353E-16
 31
0.0
 73
     1
 44
1.0
  0
LINE
  5
934
330
1F
100
AcDbEntity
  8
0
 62
     7
100
AcDbLine
 10
341.9019125527936
 20
-78.04504292640269
 30
0.0
 11
341.9019125527937
 21
-81.04504292640272
 31
0.0
  0
LINE
  5
935
330
1F
100
AcDbEntity
  8
0
 62
     7
100
AcDbLine
 10
342.9019125527937
 20
-82.04504292640269
 30
0.0
 11
345.9019125527936
 21
-82.04504292640269
 31
0.0
  0
LINE
  5
937
330
1F
100
AcDbEntity
  8
0
 62
     7
100
AcDbLine
 10
345.9019125527937
 20
-57.04504292640269
 30
0.0
 11
342.9019125527936
 21
-57.04504292640269
 31
0.0
  0
LINE
  5
938
330
1F
100
AcDbEntity
  8
0
 62
     7
100
AcDbLine
 10
341.9019125527936
 20
-58.04504292640269
 30
0.0
 11
341.9019125527936
 21
-61.04504292640272
 31
0.0
  0
LINE
  5
939
330
1F
100
AcDbEntity
  8
0
 62
     7
100
AcDbLine
 10
346.9019125527936
 20
-81.04504292640269
 30
0.0
 11
346.9019125527937
 21
-58.04504292640269
 31
0.0
  0
ARC
  5
93A
330
1F
100
AcDbEntity
  8
0
 62
     7
370
    15
100
AcDbCircle
 10
340.9019125527936
 20
-78.04504292640269
 30
0.0
 40
1.0
100
AcDbArc
 50
0.0
 51
90.0
  0
ARC
  5
93B
330
1F
100
AcDbEntity
  8
0
 62
     7
100
AcDbCircle
 10
342.9019125527937
 20
-81.04504292640269
 30
0.0
 40
1.0
100
AcDbArc
 50
180.0
 51
270.0
  0
ARC
  5
93C
330
1F
100
AcDbEntity
  8
0
 62
     7
100
AcDbCircle
 10
345.9019125527936
 20
-81.04504292640269
 30
0.0
 40
1.0
100
AcDbArc
 50
270.0
 51
0.0
  0
ARC
  5
93D
330
1F
100
AcDbEntity
  8
0
 62
     7
100
AcDbCircle
 10
345.9019125527937
 20
-58.04504292640269
 30
0.0
 40
1.0
100
AcDbArc
 50
0.0
 51
90.0
  0
ARC
  5
93E
330
1F
100
AcDbEntity
  8
0
 62
     7
100
AcDbCircle
 10
342.9019125527936
 20
-58.04504292640269
 30
0.0
 40
1.0
100
AcDbArc
 50
90.0
 51
180.0
  0
ARC
  5
93F
330
1F
100
AcDbEntity
  8
0
 62
     7
100
AcDbCircle
 10
340.9019125527936
 20
-61.04504292640269
 30
0.0
 40
1.0
100
AcDbArc
 50
270.0
 51
0.0
  0
MTEXT
  5
940
330
1F
100
AcDbEntity
  8
0
 62
     3
100
AcDbMText
 10
132.1023002366489
 20
-66.95437736702985
 30
0.0
 40
3.100862655549731
 41
0.0
 46
0.0
 71
     1
 72
     1
  1
0
 73
     1
 44
1.0
  0
MTEXT
  5
941
330
1F
100
AcDbEntity
  8
0
 62
     3
100
AcDbMText
 10
330.6187977050035
 20
-66.46838816515069
 30
0.0
 40
2.718636356461353
 41
0.0
 46
0.0
 71
     1
 72
     1
  1
20
 73
     1
 44
1.0
  0
LWPOLYLINE
  5
942
330
1F
100
AcDbEntity
  8
0
 62
     4
100
AcDbPolyline
 90
        4
 70
     1
 43
0.0
 10
363.128976346941
 20
-44.17635126033986
 10
363.128976346941
 20
-196.7574989210009
 10
79.90811667210842
 20
-196.7574989210009
 10
79.90811667210842
 20
-44.17635126033986
  0
LWPOLYLINE
  5
943
330
1F
100
AcDbEntity
  8
0
 62
     4
100
AcDbPolyline
 90
        4
 70
     1
 43
0.0
 10
77.16194646551631
 20
-210.7576527650783
 10
77.16194646551631
 20
-271.6377228563004
 10
364.0186130704792
 20
-271.6377228563004
 10
364.0186130704792
 20
-210.7576527650783
  0
MTEXT
  5
944
330
1F
100
AcDbEntity
  8
0
 62
     4
100
AcDbMText
 10
85.89370477912962
 20
-220.2744627264044
 30
0.0
 40
7.303964302370495
 41
0.0
 46
0.0
 71
     1
 72
     1
  1
White : cut^JRed : engraving^JGreen : guide^JMaterial : plexy *** by m.mehdi yousufi
 73
     1
 44
1.0
  0
LINE
  5
BA6
330
1F
100
AcDbEntity
  8
0
 62
     7
100
AcDbLine
 10
119.0431669424957
 20
-190.3924525892714
 30
0.0
 11
119.0431669424957
 21
-136.3924525892714
 31
0.0
  0
ARC
  5
BA9
330
1F
100
AcDbEntity
  8
0
370
    15
100
AcDbCircle
 10
188.0431669424957
 20
-121.3924525892714
 30
0.0
 40
1.0
100
AcDbArc
 50
0.0
 51
90.0
  0
LINE
  5
BAC
330
1F
100
AcDbEntity
  8
0
 62
     7
100
AcDbLine
 10
119.0431669424957
 20
-136.3924525892714
 30
0.0
 11
119.0431669424957
 21
-135.3924525892717
 31
0.0
  0
LINE
  5
BAD
330
1F
100
AcDbEntity
  8
0
 62
     7
100
AcDbLine
 10
119.0431669424957
 20
-135.3924525892717
 30
0.0
 11
119.0431669424957
 21
-135.3924525892717
 31
0.0
  0
LINE
  5
BB0
330
1F
100
AcDbEntity
  8
0
 62
     7
100
AcDbLine
 10
113.5381691413636
 20
-129.1330606393658
 30
0.0
 11
113.5381691413636
 21
-129.1330606393658
 31
0.0
  0
LINE
  5
BB3
330
1F
100
AcDbEntity
  8
0
 62
     7
100
AcDbLine
 10
113.5381691413636
 20
-184.1330606393658
 30
0.0
 11
113.5381691413636
 21
-129.1330606393658
 31
0.0
  0
LINE
  5
BB4
330
1F
100
AcDbEntity
  8
0
 62
     7
100
AcDbLine
 10
112.5381691413636
 20
-128.1330606393658
 30
0.0
 11
112.5381691413636
 21
-114.1330606393658
 31
0.0
  0
ARC
  5
BB5
330
1F
100
AcDbEntity
  8
0
 62
     7
100
AcDbCircle
 10
113.5381691413636
 20
-128.1330606393658
 30
0.0
 40
1.0
100
AcDbArc
 50
180.0
 51
270.0
  0
LINE
  5
BB6
330
1F
100
AcDbEntity
  8
0
 62
     7
100
AcDbLine
 10
112.5381691413636
 20
-114.1330606393658
 30
0.0
 11
346.5381691413635
 21
-114.1330606393657
 31
0.0
  0
LINE
  5
BB7
330
1F
100
AcDbEntity
  8
0
 62
     7
100
AcDbLine
 10
120.0431669424957
 20
-134.3924525892717
 30
0.0
 11
120.0431669424957
 21
-120.3924525892717
 31
0.0
  0
ARC
  5
BB8
330
1F
100
AcDbEntity
  8
0
100
AcDbCircle
 10
119.0431669424957
 20
-134.3924525892717
 30
0.0
 40
1.0
100
AcDbArc
 50
270.0
 51
0.0
  0
LINE
  5
BB9
330
1F
100
AcDbEntity
  8
0
 62
     7
100
AcDbLine
 10
120.0431669424957
 20
-120.3924525892717
 30
0.0
 11
188.0431669424957
 21
-120.3924525892714
 31
0.0
  0
ENDSEC
  0
SECTION
  2
OBJECTS
  0
DICTIONARY
  5
C
330
0
100
AcDbDictionary
281
     1
  3
ACAD_DETAILVIEWSTYLE
350
72B
  3
ACAD_GROUP
350
D
  3
ACAD_LAYOUT
350
1A
  3
ACAD_MATERIAL
350
410
  3
ACAD_MLEADERSTYLE
350
728
  3
ACAD_MLINESTYLE
350
17
  3
ACAD_PLOTSETTINGS
350
19
  3
ACAD_PLOTSTYLENAME
350
E
  3
ACAD_SCALELIST
350
47
  3
ACAD_SECTIONVIEWSTYLE
350
72C
  3
ACAD_TABLESTYLE
350
727
  3
ACAD_VISUALSTYLE
350
3F7
  3
AcDbVariableDictionary
350
729
  0
SUN
  5
414
330
29
100
AcDbSun
 90
        1
290
     0
 63
     7
421
 16777215
 40
1.0
291
     1
 91
  2455826
 92
 54000000
292
     0
 70
     2
 71
   256
280
     1
  0
DICTIONARY
  5
72B
102
{ACAD_REACTORS
330
C
102
}
330
C
100
AcDbDictionary
281
     1
  0
DICTIONARY
  5
D
102
{ACAD_REACTORS
330
C
102
}
330
C
100
AcDbDictionary
281
     1
  0
DICTIONARY
  5
1A
102
{ACAD_REACTORS
330
C
102
}
330
C
100
AcDbDictionary
281
     1
  3
Layout1
350
1E
  3
Layout2
350
26
  3
Model
350
22
  0
DICTIONARY
  5
410
102
{ACAD_REACTORS
330
C
102
}
330
C
100
AcDbDictionary
281
     1
  3
ByBlock
350
412
  3
ByLayer
350
411
  3
Global
350
413
  0
DICTIONARY
  5
728
102
{ACAD_REACTORS
330
C
102
}
330
C
100
AcDbDictionary
281
     1
  0
DICTIONARY
  5
17
102
{ACAD_REACTORS
330
C
102
}
330
C
100
AcDbDictionary
281
     1
  3
Standard
350
18
  0
DICTIONARY
  5
19
102
{ACAD_REACTORS
330
C
102
}
330
C
100
AcDbDictionary
281
     1
  0
ACDBDICTIONARYWDFLT
  5
E
102
{ACAD_REACTORS
330
C
102
}
330
C
100
AcDbDictionary
281
     1
  3
Normal
350
F
100
AcDbDictionaryWithDefault
340
F
  0
DICTIONARY
  5
47
102
{ACAD_REACTORS
330
C
102
}
330
C
100
AcDbDictionary
281
     1
  3
A0
350
48
  3
A1
350
49
  3
A2
350
4A
  3
A3
350
4B
  3
A4
350
4C
  3
A5
350
4D
  3
A6
350
4E
  3
A7
350
4F
  3
A8
350
50
  3
A9
350
51
  3
B0
350
52
  3
B1
350
53
  3
B2
350
54
  3
B3
350
55
  3
B4
350
56
  3
B5
350
57
  3
B6
350
58
  3
B7
350
59
  3
B8
350
5A
  3
B9
350
5B
  3
C0
350
5C
  3
C1
350
5D
  3
C2
350
5E
  3
C3
350
5F
  3
C4
350
60
  3
C5
350
61
  3
C6
350
62
  3
C7
350
63
  3
C8
350
64
  3
C9
350
65
  3
D0
350
66
  3
D1
350
67
  3
D2
350
68
  0
DICTIONARY
  5
72C
102
{ACAD_REACTORS
330
C
102
}
330
C
100
AcDbDictionary
281
     1
  0
DICTIONARY
  5
727
102
{ACAD_REACTORS
330
C
102
}
330
C
100
AcDbDictionary
281
     1
  0
DICTIONARY
  5
3F7
102
{ACAD_REACTORS
330
C
102
}
330
C
100
AcDbDictionary
281
     1
  3
2dWireframe
350
3FC
  3
Basic
350
3FF
  3
Brighten
350
403
  3
ColorChange
350
407
  3
Conceptual
350
401
  3
Dim
350
402
  3
EdgeColorOff
350
40A
  3
Facepattern
350
406
  3
Flat
350
3F8
  3
FlatWithEdges
350
3F9
  3
Gouraud
350
3FA
  3
GouraudWithEdges
350
3FB
  3
Hidden
350
3FE
  3
JitterOff
350
408
  3
Linepattern
350
405
  3
OverhangOff
350
409
  3
Realistic
350
400
  3
Shaded
350
40F
  3
Shaded with edges
350
40E
  3
Shades of Gray
350
40B
  3
Sketchy
350
40C
  3
Thicken
350
404
  3
Wireframe
350
3FD
  3
X-Ray
350
40D
  0
DICTIONARY
  5
729
102
{ACAD_REACTORS
330
C
102
}
330
C
100
AcDbDictionary
281
     1
  3
MSLTSCALE
350
72A
  0
LAYOUT
  5
1E
102
{ACAD_REACTORS
330
1A
102
}
330
1A
100
AcDbPlotSettings
  1

  2
none_device
  4

  6

 40
0.0
 41
0.0
 42
0.0
 43
0.0
 44
0.0
 45
0.0
 46
0.0
 47
0.0
 48
0.0
 49
0.0
140
0.0
141
0.0
142
1.0
143
1.0
 70
   688
 72
     1
 73
     0
 74
     5
  7

 75
    16
 76
     0
 77
     2
 78
   300
147
1.0
148
0.0
149
0.0
100
AcDbLayout
  1
Layout1
 70
     1
 71
     1
 10
0.0
 20
0.0
 11
420.0
 21
297.0
 12
0.0
 22
0.0
 32
0.0
 14
1.000000000000000E+20
 24
1.000000000000000E+20
 34
1.000000000000000E+20
 15
-1.000000000000000E+20
 25
-1.000000000000000E+20
 35
-1.000000000000000E+20
146
0.0
 13
0.0
 23
0.0
 33
0.0
 16
1.0
 26
0.0
 36
0.0
 17
0.0
 27
1.0
 37
0.0
 76
     0
330
1B
  0
LAYOUT
  5
26
102
{ACAD_REACTORS
330
1A
102
}
330
1A
100
AcDbPlotSettings
  1

  2
none_device
  4

  6

 40
0.0
 41
0.0
 42
0.0
 43
0.0
 44
0.0
 45
0.0
 46
0.0
 47
0.0
 48
0.0
 49
0.0
140
0.0
141
0.0
142
1.0
143
1.0
 70
   688
 72
     1
 73
     0
 74
     5
  7

 75
    16
 76
     0
 77
     2
 78
   300
147
1.0
148
0.0
149
0.0
100
AcDbLayout
  1
Layout2
 70
     1
 71
     2
 10
0.0
 20
0.0
 11
0.0
 21
0.0
 12
0.0
 22
0.0
 32
0.0
 14
0.0
 24
0.0
 34
0.0
 15
0.0
 25
0.0
 35
0.0
146
0.0
 13
0.0
 23
0.0
 33
0.0
 16
1.0
 26
0.0
 36
0.0
 17
0.0
 27
1.0
 37
0.0
 76
     0
330
23
  0
LAYOUT
  5
22
102
{ACAD_REACTORS
330
1A
102
}
330
1A
100
AcDbPlotSettings
  1

  2
none_device
  4
Letter_(8.50_x_11.00_Inches)
  6

 40
6.35
 41
6.35
 42
6.35000508
 43
6.35000508
 44
215.9
 45
279.4
 46
0.0
 47
0.0
 48
0.0
 49
0.0
140
0.0
141
0.0
142
1.0
143
1.0
 70
  1712
 72
     1
 73
     0
 74
     0
  7

 75
     0
 76
     0
 77
     2
 78
   300
147
1.0
148
0.0
149
0.0
100
AcDbLayout
  1
Model
 70
     1
 71
     0
 10
0.0
 20
0.0
 11
594.0
 21
420.0
 12
0.0
 22
0.0
 32
0.0
 14
0.0
 24
0.0
 34
0.0
 15
594.0
 25
420.0
 35
0.0
146
0.0
 13
0.0
 23
0.0
 33
0.0
 16
1.0
 26
0.0
 36
0.0
 17
0.0
 27
1.0
 37
0.0
 76
     0
330
1F
331
29
  0
MATERIAL
  5
412
102
{ACAD_REACTORS
330
410
102
}
330
410
100
AcDbMaterial
  1
ByBlock
 72
     1
 94
      127
  0
MATERIAL
  5
411
102
{ACAD_REACTORS
330
410
102
}
330
410
100
AcDbMaterial
  1
ByLayer
 72
     1
 94
      127
  0
MATERIAL
  5
413
102
{ACAD_REACTORS
330
410
102
}
330
410
100
AcDbMaterial
  1
Global
 72
     1
 94
      127
  0
MLINESTYLE
  5
18
102
{ACAD_REACTORS
330
17
102
}
330
17
100
AcDbMlineStyle
  2
Standard
 70
     0
  3

 62
   256
 51
90.0
 52
90.0
 71
     2
 49
0.5
 62
   256
  6
BYLAYER
 49
-0.5
 62
   256
  6
BYLAYER
  0
ACDBPLACEHOLDER
  5
F
102
{ACAD_REACTORS
330
E
102
}
330
E
  0
SCALE
  5
48
102
{ACAD_REACTORS
330
47
102
}
330
47
100
AcDbScale
 70
     0
300
1:1
140
1.0
141
1.0
290
     1
  0
SCALE
  5
49
102
{ACAD_REACTORS
330
47
102
}
330
47
100
AcDbScale
 70
     0
300
1:2
140
1.0
141
2.0
290
     0
  0
SCALE
  5
4A
102
{ACAD_REACTORS
330
47
102
}
330
47
100
AcDbScale
 70
     0
300
1:4
140
1.0
141
4.0
290
     0
  0
SCALE
  5
4B
102
{ACAD_REACTORS
330
47
102
}
330
47
100
AcDbScale
 70
     0
300
1:5
140
1.0
141
5.0
290
     0
  0
SCALE
  5
4C
102
{ACAD_REACTORS
330
47
102
}
330
47
100
AcDbScale
 70
     0
300
1:8
140
1.0
141
8.0
290
     0
  0
SCALE
  5
4D
102
{ACAD_REACTORS
330
47
102
}
330
47
100
AcDbScale
 70
     0
300
1:10
140
1.0
141
10.0
290
     0
  0
SCALE
  5
4E
102
{ACAD_REACTORS
330
47
102
}
330
47
100
AcDbScale
 70
     0
300
1:16
140
1.0
141
16.0
290
     0
  0
SCALE
  5
4F
102
{ACAD_REACTORS
330
47
102
}
330
47
100
AcDbScale
 70
     0
300
1:20
140
1.0
141
20.0
290
     0
  0
SCALE
  5
50
102
{ACAD_REACTORS
330
47
102
}
330
47
100
AcDbScale
 70
     0
300
1:30
140
1.0
141
30.0
290
     0
  0
SCALE
  5
51
102
{ACAD_REACTORS
330
47
102
}
330
47
100
AcDbScale
 70
     0
300
1:40
140
1.0
141
40.0
290
     0
  0
SCALE
  5
52
102
{ACAD_REACTORS
330
47
102
}
330
47
100
AcDbScale
 70
     0
300
1:50
140
1.0
141
50.0
290
     0
  0
SCALE
  5
53
102
{ACAD_REACTORS
330
47
102
}
330
47
100
AcDbScale
 70
     0
300
1:100
140
1.0
141
100.0
290
     0
  0
SCALE
  5
54
102
{ACAD_REACTORS
330
47
102
}
330
47
100
AcDbScale
 70
     0
300
2:1
140
2.0
141
1.0
290
     0
  0
SCALE
  5
55
102
{ACAD_REACTORS
330
47
102
}
330
47
100
AcDbScale
 70
     0
300
4:1
140
4.0
141
1.0
290
     0
  0
SCALE
  5
56
102
{ACAD_REACTORS
330
47
102
}
330
47
100
AcDbScale
 70
     0
300
8:1
140
8.0
141
1.0
290
     0
  0
SCALE
  5
57
102
{ACAD_REACTORS
330
47
102
}
330
47
100
AcDbScale
 70
     0
300
10:1
140
10.0
141
1.0
290
     0
  0
SCALE
  5
58
102
{ACAD_REACTORS
330
47
102
}
330
47
100
AcDbScale
 70
     0
300
100:1
140
100.0
141
1.0
290
     0
  0
SCALE
  5
59
102
{ACAD_REACTORS
330
47
102
}
330
47
100
AcDbScale
 70
     0
300
1/128" = 1'-0"
140
0.0078125
141
12.0
290
     0
  0
SCALE
  5
5A
102
{ACAD_REACTORS
330
47
102
}
330
47
100
AcDbScale
 70
     0
300
1/64" = 1'-0"
140
0.015625
141
12.0
290
     0
  0
SCALE
  5
5B
102
{ACAD_REACTORS
330
47
102
}
330
47
100
AcDbScale
 70
     0
300
1/32" = 1'-0"
140
0.03125
141
12.0
290
     0
  0
SCALE
  5
5C
102
{ACAD_REACTORS
330
47
102
}
330
47
100
AcDbScale
 70
     0
300
1/16" = 1'-0"
140
0.0625
141
12.0
290
     0
  0
SCALE
  5
5D
102
{ACAD_REACTORS
330
47
102
}
330
47
100
AcDbScale
 70
     0
300
3/32" = 1'-0"
140
0.09375
141
12.0
290
     0
  0
SCALE
  5
5E
102
{ACAD_REACTORS
330
47
102
}
330
47
100
AcDbScale
 70
     0
300
1/8" = 1'-0"
140
0.125
141
12.0
290
     0
  0
SCALE
  5
5F
102
{ACAD_REACTORS
330
47
102
}
330
47
100
AcDbScale
 70
     0
300
3/16" = 1'-0"
140
0.1875
141
12.0
290
     0
  0
SCALE
  5
60
102
{ACAD_REACTORS
330
47
102
}
330
47
100
AcDbScale
 70
     0
300
1/4" = 1'-0"
140
0.25
141
12.0
290
     0
  0
SCALE
  5
61
102
{ACAD_REACTORS
330
47
102
}
330
47
100
AcDbScale
 70
     0
300
3/8" = 1'-0"
140
0.375
141
12.0
290
     0
  0
SCALE
  5
62
102
{ACAD_REACTORS
330
47
102
}
330
47
100
AcDbScale
 70
     0
300
1/2" = 1'-0"
140
0.5
141
12.0
290
     0
  0
SCALE
  5
63
102
{ACAD_REACTORS
330
47
102
}
330
47
100
AcDbScale
 70
     0
300
3/4" = 1'-0"
140
0.75
141
12.0
290
     0
  0
SCALE
  5
64
102
{ACAD_REACTORS
330
47
102
}
330
47
100
AcDbScale
 70
     0
300
1" = 1'-0"
140
1.0
141
12.0
290
     0
  0
SCALE
  5
65
102
{ACAD_REACTORS
330
47
102
}
330
47
100
AcDbScale
 70
     0
300
1-1/2" = 1'-0"
140
1.5
141
12.0
290
     0
  0
SCALE
  5
66
102
{ACAD_REACTORS
330
47
102
}
330
47
100
AcDbScale
 70
     0
300
3" = 1'-0"
140
3.0
141
12.0
290
     0
  0
SCALE
  5
67
102
{ACAD_REACTORS
330
47
102
}
330
47
100
AcDbScale
 70
     0
300
6" = 1'-0"
140
6.0
141
12.0
290
     0
  0
SCALE
  5
68
102
{ACAD_REACTORS
330
47
102
}
330
47
100
AcDbScale
 70
     0
300
1'-0" = 1'-0"
140
12.0
141
12.0
290
     0
  0
VISUALSTYLE
  5
3FC
102
{ACAD_REACTORS
330
3F7
102
}
102
{ACAD_XDICTIONARY
360
C26
102
}
330
3F7
100
AcDbVisualStyle
  2
2dWireframe
 70
     4
177
     2
291
     0
 71
     0
176
     1
 72
     2
176
     1
 73
     0
176
     1
 90
        0
176
     1
 40
0.6
176
     1
 41
30.0
176
     1
 62
     5
 63
     7
421
 16777215
176
     1
 74
     1
176
     1
 91
        4
176
     1
 64
     7
176
     1
 65
   257
176
     1
 75
     1
176
     1
175
     1
176
     1
 42
1.0
176
     1
 92
        0
176
     1
 66
   257
176
     1
 43
1.0
176
     1
 76
     1
176
     1
 77
     6
176
     1
 78
     2
176
     1
 67
     7
176
     1
 79
     5
176
     1
170
     0
176
     1
171
     0
176
     1
290
     0
176
     1
 93
        1
176
     1
 44
0.0
176
     1
173
     0
176
     1
  0
VISUALSTYLE
  5
3FF
102
{ACAD_REACTORS
330
3F7
102
}
102
{ACAD_XDICTIONARY
360
C28
102
}
330
3F7
100
AcDbVisualStyle
  2
Basic
 70
     7
177
     2
291
     1
 71
     1
176
     1
 72
     0
176
     1
 73
     1
176
     1
 90
        0
176
     1
 40
0.6
176
     1
 41
30.0
176
     1
 62
     5
 63
     7
421
 16777215
176
     1
 74
     0
176
     1
 91
        4
176
     1
 64
     7
176
     1
 65
   257
176
     1
 75
     1
176
     1
175
     1
176
     1
 42
1.0
176
     1
 92
        8
176
     1
 66
     7
176
     1
 43
1.0
176
     1
 76
     1
176
     1
 77
     6
176
     1
 78
     2
176
     1
 67
     7
176
     1
 79
     5
176
     1
170
     0
176
     1
171
     0
176
     1
290
     0
176
     1
 93
        1
176
     1
 44
0.0
176
     1
173
     0
176
     1
  0
VISUALSTYLE
  5
403
102
{ACAD_REACTORS
330
3F7
102
}
102
{ACAD_XDICTIONARY
360
C2A
102
}
330
3F7
100
AcDbVisualStyle
  2
Brighten
 70
    12
177
     2
291
     1
 71
     2
176
     1
 72
     2
176
     1
 73
     0
176
     1
 90
        0
176
     1
 40
0.6
176
     1
 41
30.0
176
     1
 62
     5
 63
     7
421
 16777215
176
     1
 74
     1
176
     1
 91
        4
176
     1
 64
     7
176
     1
 65
   257
176
     1
 75
     1
176
     1
175
     1
176
     1
 42
1.0
176
     1
 92
        8
176
     1
 66
     7
176
     1
 43
1.0
176
     1
 76
     1
176
     1
 77
     6
176
     1
 78
     2
176
     1
 67
     7
176
     1
 79
     5
176
     1
170
     0
176
     1
171
     0
176
     1
290
     0
176
     1
 93
        1
176
     1
 44
50.0
176
     1
173
     0
176
     1
  0
VISUALSTYLE
  5
407
102
{ACAD_REACTORS
330
3F7
102
}
102
{ACAD_XDICTIONARY
360
C2C
102
}
330
3F7
100
AcDbVisualStyle
  2
ColorChange
 70
    16
177
     2
291
     1
 71
     2
176
     1
 72
     2
176
     1
 73
     3
176
     1
 90
        0
176
     1
 40
0.6
176
     1
 41
30.0
176
     1
 62
     5
 63
     8
421
  8421504
176
     1
 74
     1
176
     1
 91
        4
176
     1
 64
     7
176
     1
 65
   257
176
     1
 75
     1
176
     1
175
     1
176
     1
 42
1.0
176
     1
 92
        8
176
     1
 66
     8
424
  8421504
176
     1
 43
1.0
176
     1
 76
     1
176
     1
 77
     6
176
     1
 78
     2
176
     1
 67
     7
176
     1
 79
     5
176
     1
170
     0
176
     1
171
     0
176
     1
290
     0
176
     1
 93
        1
176
     1
 44
0.0
176
     1
173
     0
176
     1
  0
VISUALSTYLE
  5
401
102
{ACAD_REACTORS
330
3F7
102
}
102
{ACAD_XDICTIONARY
360
C2E
102
}
330
3F7
100
AcDbVisualStyle
  2
Conceptual
 70
     9
177
     2
291
     0
 71
     3
176
     1
 72
     2
176
     1
 73
     0
176
     1
 90
        0
176
     1
 40
0.6
176
     1
 41
30.0
176
     1
 62
     5
 63
     7
421
 16777215
176
     1
 74
     2
176
     1
 91
        2
176
     1
 64
     7
176
     1
 65
   257
176
     1
 75
     1
176
     1
175
     1
176
     1
 42
179.0
176
     1
 92
        8
176
     1
 66
     7
176
     1
 43
1.0
176
     1
 76
     1
176
     1
 77
     6
176
     1
 78
     2
176
     1
 67
     7
176
     1
 79
     3
176
     1
170
     0
176
     1
171
     0
176
     1
290
     0
176
     1
 93
        1
176
     1
 44
0.0
176
     1
173
     0
176
     1
  0
VISUALSTYLE
  5
402
102
{ACAD_REACTORS
330
3F7
102
}
102
{ACAD_XDICTIONARY
360
C30
102
}
330
3F7
100
AcDbVisualStyle
  2
Dim
 70
    11
177
     2
291
     1
 71
     2
176
     1
 72
     2
176
     1
 73
     0
176
     1
 90
        0
176
     1
 40
0.6
176
     1
 41
30.0
176
     1
 62
     5
 63
     7
421
 16777215
176
     1
 74
     1
176
     1
 91
        4
176
     1
 64
     7
176
     1
 65
   257
176
     1
 75
     1
176
     1
175
     1
176
     1
 42
1.0
176
     1
 92
        8
176
     1
 66
     7
176
     1
 43
1.0
176
     1
 76
     1
176
     1
 77
     6
176
     1
 78
     2
176
     1
 67
     7
176
     1
 79
     5
176
     1
170
     0
176
     1
171
     0
176
     1
290
     0
176
     1
 93
        1
176
     1
 44
-50.0
176
     1
173
     0
176
     1
  0
VISUALSTYLE
  5
40A
102
{ACAD_REACTORS
330
3F7
102
}
102
{ACAD_XDICTIONARY
360
C32
102
}
330
3F7
100
AcDbVisualStyle
  2
EdgeColorOff
 70
    22
177
     2
291
     1
 71
     2
176
     0
 72
     2
176
     0
 73
     0
176
     0
 90
        0
176
     0
 40
0.6
176
     0
 41
30.0
176
     0
 62
     5
 63
     7
421
 16777215
176
     0
 74
     1
176
     0
 91
        4
176
     0
 64
     7
176
     0
 65
   257
176
     0
 75
     1
176
     0
175
     1
176
     0
 42
1.0
176
     0
 92
        8
176
     2
 66
     7
176
     0
 43
1.0
176
     0
 76
     1
176
     0
 77
     6
176
     0
 78
     2
176
     0
 67
     7
176
     0
 79
     5
176
     0
170
     0
176
     0
171
     0
176
     0
290
     0
176
     0
 93
        1
176
     0
 44
0.0
176
     0
173
     0
176
     0
  0
VISUALSTYLE
  5
406
102
{ACAD_REACTORS
330
3F7
102
}
102
{ACAD_XDICTIONARY
360
C34
102
}
330
3F7
100
AcDbVisualStyle
  2
Facepattern
 70
    15
177
     2
291
     1
 71
     2
176
     1
 72
     2
176
     1
 73
     0
176
     1
 90
        0
176
     1
 40
0.6
176
     1
 41
30.0
176
     1
 62
     5
 63
     7
421
 16777215
176
     1
 74
     1
176
     1
 91
        4
176
     1
 64
     7
176
     1
 65
   257
176
     1
 75
     1
176
     1
175
     1
176
     1
 42
1.0
176
     1
 92
        8
176
     1
 66
     7
176
     1
 43
1.0
176
     1
 76
     1
176
     1
 77
     6
176
     1
 78
     2
176
     1
 67
     7
176
     1
 79
     5
176
     1
170
     0
176
     1
171
     0
176
     1
290
     0
176
     1
 93
        1
176
     1
 44
0.0
176
     1
173
     0
176
     1
  0
VISUALSTYLE
  5
3F8
102
{ACAD_REACTORS
330
3F7
102
}
102
{ACAD_XDICTIONARY
360
C36
102
}
330
3F7
100
AcDbVisualStyle
  2
Flat
 70
     0
177
     2
291
     1
 71
     2
176
     1
 72
     1
176
     1
 73
     1
176
     1
 90
        2
176
     1
 40
0.6
176
     1
 41
30.0
176
     1
 62
     5
 63
     7
421
 16777215
176
     1
 74
     0
176
     1
 91
        0
176
     1
 64
     7
176
     1
 65
   257
176
     1
 75
     1
176
     1
175
     1
176
     1
 42
1.0
176
     1
 92
        8
176
     1
 66
     7
176
     1
 43
1.0
176
     1
 76
     1
176
     1
 77
     6
176
     1
 78
     2
176
     1
 67
     7
176
     1
 79
     5
176
     1
170
     0
176
     1
171
     0
176
     1
290
     0
176
     1
 93
       13
176
     1
 44
0.0
176
     1
173
     0
176
     1
  0
VISUALSTYLE
  5
3F9
102
{ACAD_REACTORS
330
3F7
102
}
102
{ACAD_XDICTIONARY
360
C38
102
}
330
3F7
100
AcDbVisualStyle
  2
FlatWithEdges
 70
     1
177
     2
291
     1
 71
     2
176
     1
 72
     1
176
     1
 73
     1
176
     1
 90
        2
176
     1
 40
0.6
176
     1
 41
30.0
176
     1
 62
     5
 63
     7
421
 16777215
176
     1
 74
     1
176
     1
 91
        0
176
     1
 64
     7
176
     1
 65
   257
176
     1
 75
     1
176
     1
175
     1
176
     1
 42
1.0
176
     1
 92
        0
176
     1
 66
   257
176
     1
 43
1.0
176
     1
 76
     1
176
     1
 77
     6
176
     1
 78
     2
176
     1
 67
     7
176
     1
 79
     5
176
     1
170
     0
176
     1
171
     0
176
     1
290
     0
176
     1
 93
       13
176
     1
 44
0.0
176
     1
173
     0
176
     1
  0
VISUALSTYLE
  5
3FA
102
{ACAD_REACTORS
330
3F7
102
}
102
{ACAD_XDICTIONARY
360
C3A
102
}
330
3F7
100
AcDbVisualStyle
  2
Gouraud
 70
     2
177
     2
291
     1
 71
     2
176
     1
 72
     2
176
     1
 73
     1
176
     1
 90
        2
176
     1
 40
0.6
176
     1
 41
30.0
176
     1
 62
     5
 63
     7
421
 16777215
176
     1
 74
     0
176
     1
 91
        0
176
     1
 64
     7
176
     1
 65
   257
176
     1
 75
     1
176
     1
175
     1
176
     1
 42
1.0
176
     1
 92
        0
176
     1
 66
     7
176
     1
 43
1.0
176
     1
 76
     1
176
     1
 77
     6
176
     1
 78
     2
176
     1
 67
     7
176
     1
 79
     5
176
     1
170
     0
176
     1
171
     0
176
     1
290
     0
176
     1
 93
       13
176
     1
 44
0.0
176
     1
173
     0
176
     1
  0
VISUALSTYLE
  5
3FB
102
{ACAD_REACTORS
330
3F7
102
}
102
{ACAD_XDICTIONARY
360
C3C
102
}
330
3F7
100
AcDbVisualStyle
  2
GouraudWithEdges
 70
     3
177
     2
291
     1
 71
     2
176
     1
 72
     2
176
     1
 73
     1
176
     1
 90
        2
176
     1
 40
0.6
176
     1
 41
30.0
176
     1
 62
     5
 63
     7
421
 16777215
176
     1
 74
     1
176
     1
 91
        0
176
     1
 64
     7
176
     1
 65
   257
176
     1
 75
     1
176
     1
175
     1
176
     1
 42
1.0
176
     1
 92
        0
176
     1
 66
   257
176
     1
 43
1.0
176
     1
 76
     1
176
     1
 77
     6
176
     1
 78
     2
176
     1
 67
     7
176
     1
 79
     5
176
     1
170
     0
176
     1
171
     0
176
     1
290
     0
176
     1
 93
       13
176
     1
 44
0.0
176
     1
173
     0
176
     1
  0
VISUALSTYLE
  5
3FE
102
{ACAD_REACTORS
330
3F7
102
}
102
{ACAD_XDICTIONARY
360
C3E
102
}
330
3F7
100
AcDbVisualStyle
  2
Hidden
 70
     6
177
     2
291
     0
 71
     1
176
     1
 72
     2
176
     1
 73
     2
176
     1
 90
        0
176
     1
 40
0.6
176
     1
 41
30.0
176
     1
 62
     5
 63
     7
421
 16777215
176
     1
 74
     2
176
     1
 91
        2
176
     1
 64
     7
176
     1
 65
   257
176
     1
 75
     2
176
     1
175
     1
176
     1
 42
40.0
176
     1
 92
        0
176
     1
 66
   257
176
     1
 43
1.0
176
     1
 76
     1
176
     1
 77
     6
176
     1
 78
     2
176
     1
 67
     7
176
     1
 79
     3
176
     1
170
     0
176
     1
171
     0
176
     1
290
     0
176
     1
 93
        1
176
     1
 44
0.0
176
     1
173
     0
176
     1
  0
VISUALSTYLE
  5
408
102
{ACAD_REACTORS
330
3F7
102
}
102
{ACAD_XDICTIONARY
360
C40
102
}
330
3F7
100
AcDbVisualStyle
  2
JitterOff
 70
    20
177
     2
291
     1
 71
     2
176
     0
 72
     2
176
     0
 73
     0
176
     0
 90
        0
176
     0
 40
0.6
176
     0
 41
30.0
176
     0
 62
     5
 63
     7
421
 16777215
176
     0
 74
     1
176
     0
 91
        4
176
     0
 64
     7
176
     0
 65
   257
176
     0
 75
     1
176
     0
175
     1
176
     0
 42
1.0
176
     0
 92
       10
176
     2
 66
     7
176
     0
 43
1.0
176
     0
 76
     1
176
     0
 77
     6
176
     0
 78
     2
176
     0
 67
     7
176
     0
 79
     5
176
     0
170
     0
176
     0
171
     0
176
     0
290
     0
176
     0
 93
        1
176
     0
 44
0.0
176
     0
173
     0
176
     0
  0
VISUALSTYLE
  5
405
102
{ACAD_REACTORS
330
3F7
102
}
102
{ACAD_XDICTIONARY
360
C42
102
}
330
3F7
100
AcDbVisualStyle
  2
Linepattern
 70
    14
177
     2
291
     1
 71
     2
176
     1
 72
     2
176
     1
 73
     0
176
     1
 90
        0
176
     1
 40
0.6
176
     1
 41
30.0
176
     1
 62
     5
 63
     7
421
 16777215
176
     1
 74
     1
176
     1
 91
        4
176
     1
 64
     7
176
     1
 65
   257
176
     1
 75
     7
176
     1
175
     7
176
     1
 42
1.0
176
     1
 92
        8
176
     1
 66
     7
176
     1
 43
1.0
176
     1
 76
     1
176
     1
 77
     6
176
     1
 78
     2
176
     1
 67
     7
176
     1
 79
     5
176
     1
170
     0
176
     1
171
     0
176
     1
290
     0
176
     1
 93
        1
176
     1
 44
0.0
176
     1
173
     0
176
     1
  0
VISUALSTYLE
  5
409
102
{ACAD_REACTORS
330
3F7
102
}
102
{ACAD_XDICTIONARY
360
C44
102
}
330
3F7
100
AcDbVisualStyle
  2
OverhangOff
 70
    21
177
     2
291
     1
 71
     2
176
     0
 72
     2
176
     0
 73
     0
176
     0
 90
        0
176
     0
 40
0.6
176
     0
 41
30.0
176
     0
 62
     5
 63
     7
421
 16777215
176
     0
 74
     1
176
     0
 91
        4
176
     0
 64
     7
176
     0
 65
   257
176
     0
 75
     1
176
     0
175
     1
176
     0
 42
1.0
176
     0
 92
        9
176
     2
 66
     7
176
     0
 43
1.0
176
     0
 76
     1
176
     0
 77
     6
176
     0
 78
     2
176
     0
 67
     7
176
     0
 79
     5
176
     0
170
     0
176
     0
171
     0
176
     0
290
     0
176
     0
 93
        1
176
     0
 44
0.0
176
     0
173
     0
176
     0
  0
VISUALSTYLE
  5
400
102
{ACAD_REACTORS
330
3F7
102
}
102
{ACAD_XDICTIONARY
360
C46
102
}
330
3F7
100
AcDbVisualStyle
  2
Realistic
 70
     8
177
     2
291
     0
 71
     2
176
     1
 72
     3
176
     1
 73
     0
176
     1
 90
        2
176
     1
 40
0.6
176
     1
 41
30.0
176
     1
 62
     5
 63
     7
421
 16777215
176
     1
 74
     0
176
     1
 91
        0
176
     1
 64
     7
176
     1
 65
   257
176
     1
 75
     1
176
     1
175
     1
176
     1
 42
1.0
176
     1
 92
        8
176
     1
 66
   257
176
     1
 43
1.0
176
     1
 76
     1
176
     1
 77
     6
176
     1
 78
     2
176
     1
 67
     7
176
     1
 79
     3
176
     1
170
     0
176
     1
171
     0
176
     1
290
     0
176
     1
 93
       13
176
     1
 44
0.0
176
     1
173
     0
176
     1
  0
VISUALSTYLE
  5
40F
102
{ACAD_REACTORS
330
3F7
102
}
102
{ACAD_XDICTIONARY
360
C48
102
}
330
3F7
100
AcDbVisualStyle
  2
Shaded
 70
    27
177
     2
291
     0
 71
     2
176
     1
 72
     2
176
     1
 73
     1
176
     1
 90
        2
176
     1
 40
0.6
176
     1
 41
30.0
176
     1
 62
     5
 63
     7
421
 16777215
176
     1
 74
     0
176
     1
 91
        4
176
     1
 64
     7
176
     1
 65
   257
176
     1
 75
     1
176
     1
175
     1
176
     1
 42
1.0
176
     1
 92
        8
176
     1
 66
   257
176
     1
 43
1.0
176
     1
 76
     1
176
     1
 77
     6
176
     1
 78
     2
176
     1
 67
     8
425
  7895160
176
     1
 79
     3
176
     1
170
     0
176
     1
171
     0
176
     1
290
     0
176
     1
 93
        5
176
     1
 44
0.0
176
     1
173
     0
176
     1
  0
VISUALSTYLE
  5
40E
102
{ACAD_REACTORS
330
3F7
102
}
102
{ACAD_XDICTIONARY
360
C4A
102
}
330
3F7
100
AcDbVisualStyle
  2
Shaded with edges
 70
    26
177
     2
291
     0
 71
     2
176
     1
 72
     2
176
     1
 73
     1
176
     1
 90
        2
176
     1
 40
0.6
176
     1
 41
30.0
176
     1
 62
     5
 63
     7
421
 16777215
176
     1
 74
     1
176
     1
 91
       10
176
     1
 64
     7
176
     1
 65
   257
176
     1
 75
     2
176
     1
175
     1
176
     1
 42
1.0
176
     1
 92
        8
176
     1
 66
   257
176
     1
 43
1.0
176
     1
 76
     1
176
     1
 77
     6
176
     1
 78
     2
176
     1
 67
     7
176
     1
 79
     3
176
     1
170
     0
176
     1
171
     0
176
     1
290
     0
176
     1
 93
        5
176
     1
 44
0.0
176
     1
173
     0
176
     1
  0
VISUALSTYLE
  5
40B
102
{ACAD_REACTORS
330
3F7
102
}
102
{ACAD_XDICTIONARY
360
C4C
102
}
330
3F7
100
AcDbVisualStyle
  2
Shades of Gray
 70
    23
177
     2
291
     0
 71
     2
176
     1
 72
     2
176
     1
 73
     3
176
     1
 90
        0
176
     1
 40
0.6
176
     1
 41
30.0
176
     1
 62
     5
 63
     7
421
 16777215
176
     1
 74
     2
176
     1
 91
        2
176
     1
 64
     7
176
     1
 65
     7
176
     1
 75
     1
176
     1
175
     1
176
     1
 42
40.0
176
     1
 92
        8
176
     1
 66
     7
176
     1
 43
1.0
176
     1
 76
     1
176
     1
 77
     6
176
     1
 78
     2
176
     1
 67
     7
176
     1
 79
     3
176
     1
170
     0
176
     1
171
     0
176
     1
290
     0
176
     1
 93
        1
176
     1
 44
0.0
176
     1
173
     0
176
     1
  0
VISUALSTYLE
  5
40C
102
{ACAD_REACTORS
330
3F7
102
}
102
{ACAD_XDICTIONARY
360
C4E
102
}
330
3F7
100
AcDbVisualStyle
  2
Sketchy
 70
    24
177
     2
291
     0
 71
     1
176
     1
 72
     2
176
     1
 73
     2
176
     1
 90
        0
176
     1
 40
0.6
176
     1
 41
30.0
176
     1
 62
     5
 63
     7
421
 16777215
176
     1
 74
     2
176
     1
 91
        2
176
     1
 64
     7
176
     1
 65
     7
176
     1
 75
     1
176
     1
175
     1
176
     1
 42
40.0
176
     1
 92
       11
176
     1
 66
     7
176
     1
 43
1.0
176
     1
 76
     1
176
     1
 77
     6
176
     1
 78
     2
176
     1
 67
     7
176
     1
 79
     6
176
     1
170
     0
176
     1
171
     0
176
     1
290
     0
176
     1
 93
        1
176
     1
 44
0.0
176
     1
173
     0
176
     1
  0
VISUALSTYLE
  5
404
102
{ACAD_REACTORS
330
3F7
102
}
102
{ACAD_XDICTIONARY
360
C50
102
}
330
3F7
100
AcDbVisualStyle
  2
Thicken
 70
    13
177
     2
291
     1
 71
     2
176
     1
 72
     2
176
     1
 73
     0
176
     1
 90
        0
176
     1
 40
0.6
176
     1
 41
30.0
176
     1
 62
     5
 63
     7
421
 16777215
176
     1
 74
     1
176
     1
 91
        4
176
     1
 64
     7
176
     1
 65
   257
176
     1
 75
     1
176
     1
175
     1
176
     1
 42
1.0
176
     1
 92
       12
176
     1
 66
     7
176
     1
 43
1.0
176
     1
 76
     1
176
     1
 77
     6
176
     1
 78
     2
176
     1
 67
     7
176
     1
 79
     5
176
     1
170
     0
176
     1
171
     0
176
     1
290
     0
176
     1
 93
        1
176
     1
 44
0.0
176
     1
173
     0
176
     1
  0
VISUALSTYLE
  5
3FD
102
{ACAD_REACTORS
330
3F7
102
}
102
{ACAD_XDICTIONARY
360
C52
102
}
330
3F7
100
AcDbVisualStyle
  2
Wireframe
 70
     5
177
     2
291
     0
 71
     0
176
     1
 72
     2
176
     1
 73
     0
176
     1
 90
        0
176
     1
 40
0.6
176
     1
 41
30.0
176
     1
 62
     5
 63
     7
421
 16777215
176
     1
 74
     1
176
     1
 91
        4
176
     1
 64
     7
176
     1
 65
   257
176
     1
 75
     1
176
     1
175
     1
176
     1
 42
1.0
176
     1
 92
        0
176
     1
 66
   257
176
     1
 43
1.0
176
     1
 76
     1
176
     1
 77
     6
176
     1
 78
     2
176
     1
 67
     7
176
     1
 79
     3
176
     1
170
     0
176
     1
171
     0
176
     1
290
     0
176
     1
 93
        1
176
     1
 44
0.0
176
     1
173
     0
176
     1
  0
VISUALSTYLE
  5
40D
102
{ACAD_REACTORS
330
3F7
102
}
102
{ACAD_XDICTIONARY
360
C54
102
}
330
3F7
100
AcDbVisualStyle
  2
X-Ray
 70
    25
177
     2
291
     0
 71
     2
176
     1
 72
     2
176
     1
 73
     1
176
     1
 90
        1
176
     1
 40
0.5
176
     1
 41
30.0
176
     1
 62
     5
 63
     7
421
 16777215
176
     1
 74
     1
176
     1
 91
        0
176
     1
 64
     7
176
     1
 65
   257
176
     1
 75
     1
176
     1
175
     1
176
     1
 42
1.0
176
     1
 92
        8
176
     1
 66
     7
176
     1
 43
1.0
176
     1
 76
     1
176
     1
 77
     6
176
     1
 78
     2
176
     1
 67
     7
176
     1
 79
     3
176
     1
170
     0
176
     1
171
     0
176
     1
290
     0
176
     1
 93
       13
176
     1
 44
0.0
176
     1
173
     0
176
     1
  0
DICTIONARYVAR
  5
72A
102
{ACAD_REACTORS
330
729
102
}
330
729
100
DictionaryVariables
280
     0
  1
0
  0
DICTIONARY
  5
C26
330
3FC
100
AcDbDictionary
280
     1
281
     1
  3
ACAD_XREC_ROUNDTRIP
360
C27
  0
DICTIONARY
  5
C28
330
3FF
100
AcDbDictionary
280
     1
281
     1
  3
ACAD_XREC_ROUNDTRIP
360
C29
  0
DICTIONARY
  5
C2A
330
403
100
AcDbDictionary
280
     1
281
     1
  3
ACAD_XREC_ROUNDTRIP
360
C2B
  0
DICTIONARY
  5
C2C
330
407
100
AcDbDictionary
280
     1
281
     1
  3
ACAD_XREC_ROUNDTRIP
360
C2D
  0
DICTIONARY
  5
C2E
330
401
100
AcDbDictionary
280
     1
281
     1
  3
ACAD_XREC_ROUNDTRIP
360
C2F
  0
DICTIONARY
  5
C30
330
402
100
AcDbDictionary
280
     1
281
     1
  3
ACAD_XREC_ROUNDTRIP
360
C31
  0
DICTIONARY
  5
C32
330
40A
100
AcDbDictionary
280
     1
281
     1
  3
ACAD_XREC_ROUNDTRIP
360
C33
  0
DICTIONARY
  5
C34
330
406
100
AcDbDictionary
280
     1
281
     1
  3
ACAD_XREC_ROUNDTRIP
360
C35
  0
DICTIONARY
  5
C36
330
3F8
100
AcDbDictionary
280
     1
281
     1
  3
ACAD_XREC_ROUNDTRIP
360
C37
  0
DICTIONARY
  5
C38
330
3F9
100
AcDbDictionary
280
     1
281
     1
  3
ACAD_XREC_ROUNDTRIP
360
C39
  0
DICTIONARY
  5
C3A
330
3FA
100
AcDbDictionary
280
     1
281
     1
  3
ACAD_XREC_ROUNDTRIP
360
C3B
  0
DICTIONARY
  5
C3C
330
3FB
100
AcDbDictionary
280
     1
281
     1
  3
ACAD_XREC_ROUNDTRIP
360
C3D
  0
DICTIONARY
  5
C3E
330
3FE
100
AcDbDictionary
280
     1
281
     1
  3
ACAD_XREC_ROUNDTRIP
360
C3F
  0
DICTIONARY
  5
C40
330
408
100
AcDbDictionary
280
     1
281
     1
  3
ACAD_XREC_ROUNDTRIP
360
C41
  0
DICTIONARY
  5
C42
330
405
100
AcDbDictionary
280
     1
281
     1
  3
ACAD_XREC_ROUNDTRIP
360
C43
  0
DICTIONARY
  5
C44
330
409
100
AcDbDictionary
280
     1
281
     1
  3
ACAD_XREC_ROUNDTRIP
360
C45
  0
DICTIONARY
  5
C46
330
400
100
AcDbDictionary
280
     1
281
     1
  3
ACAD_XREC_ROUNDTRIP
360
C47
  0
DICTIONARY
  5
C48
330
40F
100
AcDbDictionary
280
     1
281
     1
  3
ACAD_XREC_ROUNDTRIP
360
C49
  0
DICTIONARY
  5
C4A
330
40E
100
AcDbDictionary
280
     1
281
     1
  3
ACAD_XREC_ROUNDTRIP
360
C4B
  0
DICTIONARY
  5
C4C
330
40B
100
AcDbDictionary
280
     1
281
     1
  3
ACAD_XREC_ROUNDTRIP
360
C4D
  0
DICTIONARY
  5
C4E
330
40C
100
AcDbDictionary
280
     1
281
     1
  3
ACAD_XREC_ROUNDTRIP
360
C4F
  0
DICTIONARY
  5
C50
330
404
100
AcDbDictionary
280
     1
281
     1
  3
ACAD_XREC_ROUNDTRIP
360
C51
  0
DICTIONARY
  5
C52
330
3FD
100
AcDbDictionary
280
     1
281
     1
  3
ACAD_XREC_ROUNDTRIP
360
C53
  0
DICTIONARY
  5
C54
330
40D
100
AcDbDictionary
280
     1
281
     1
  3
ACAD_XREC_ROUNDTRIP
360
C55
  0
XRECORD
  5
C27
102
{ACAD_REACTORS
330
C26
102
}
330
C26
100
AcDbXrecord
280
     1
102
RTVSPost2010Prop28
280
     1
102
RTVSPost2010PropOp28
 70
     1
102
RTVSPost2010Prop29
280
     1
102
RTVSPost2010PropOp29
 70
     1
102
RTVSPost2010Prop30
280
     0
102
RTVSPost2010PropOp30
 70
     1
102
RTVSPost2010Prop31
280
     0
102
RTVSPost2010PropOp31
 70
     1
102
RTVSPost2010Prop32
280
     0
102
RTVSPost2010PropOp32
 70
     1
102
RTVSPost2010Prop33
280
     0
102
RTVSPost2010PropOp33
 70
     1
102
RTVSPost2010Prop34
280
     0
102
RTVSPost2010PropOp34
 70
     1
102
RTVSPost2010Prop35
280
     0
102
RTVSPost2010PropOp35
 70
     1
102
RTVSPost2010Prop36
280
     0
102
RTVSPost2010PropOp36
 70
     1
102
RTVSPost2010Prop37
 90
       50
102
RTVSPost2010PropOp37
 70
     1
102
RTVSPost2010Prop38
140
0.0
102
RTVSPost2010PropOp38
 70
     1
102
RTVSPost2010Prop39
140
1.0
102
RTVSPost2010PropOp39
 70
     1
102
RTVSPost2010Prop40
 90
        0
102
RTVSPost2010PropOp40
 70
     1
102
RTVSPost2010Prop41ColorIndex
 90
      178
102
RTVSPost2010Prop41ColorRGB
 90
        0
102
RTVSPost2010PropOp41
 70
     1
102
RTVSPost2010Prop42
 90
       50
102
RTVSPost2010PropOp42
 70
     1
102
RTVSPost2010Prop43
 90
        3
102
RTVSPost2010PropOp43
 70
     1
102
RTVSPost2010Prop44ColorIndex
 90
        5
102
RTVSPost2010Prop44ColorRGB
 90
      255
102
RTVSPost2010PropOp44
 70
     1
102
RTVSPost2010Prop45
280
     0
102
RTVSPost2010PropOp45
 70
     1
102
RTVSPost2010Prop46
 90
       50
102
RTVSPost2010PropOp46
 70
     1
102
RTVSPost2010Prop47
 90
       50
102
RTVSPost2010PropOp47
 70
     1
102
RTVSPost2010Prop48
 90
       50
102
RTVSPost2010PropOp48
 70
     1
102
RTVSPost2010Prop49
280
     0
102
RTVSPost2010PropOp49
 70
     1
102
RTVSPost2010Prop50
 90
       50
102
RTVSPost2010PropOp50
 70
     1
102
RTVSPost2010Prop51ColorIndex
 90
      256
102
RTVSPost2010Prop51ColorRGB
 90
-16777216
102
RTVSPost2010PropOp51
 70
     0
102
RTVSPost2010Prop52
140
1.0
102
RTVSPost2010PropOp52
 70
     0
102
RTVSPost2010Prop53
 90
        2
102
RTVSPost2010PropOp53
 70
     1
102
RTVSPost2010Prop54
  1
strokes_ogs.tif
102
RTVSPost2010PropOp54
 70
     1
102
RTVSPost2010Prop55
280
     0
102
RTVSPost2010PropOp55
 70
     1
102
RTVSPost2010Prop56
140
1.0
102
RTVSPost2010PropOp56
 70
     1
102
RTVSPost2010Prop57
140
1.0
102
RTVSPost2010PropOp57
 70
     1
  0
XRECORD
  5
C29
102
{ACAD_REACTORS
330
C28
102
}
330
C28
100
AcDbXrecord
280
     1
102
RTVSPost2010Prop28
280
     0
102
RTVSPost2010PropOp28
 70
     1
102
RTVSPost2010Prop29
280
     1
102
RTVSPost2010PropOp29
 70
     1
102
RTVSPost2010Prop30
280
     1
102
RTVSPost2010PropOp30
 70
     1
102
RTVSPost2010Prop31
280
     0
102
RTVSPost2010PropOp31
 70
     1
102
RTVSPost2010Prop32
280
     0
102
RTVSPost2010PropOp32
 70
     1
102
RTVSPost2010Prop33
280
     0
102
RTVSPost2010PropOp33
 70
     1
102
RTVSPost2010Prop34
280
     0
102
RTVSPost2010PropOp34
 70
     1
102
RTVSPost2010Prop35
280
     0
102
RTVSPost2010PropOp35
 70
     1
102
RTVSPost2010Prop36
280
     0
102
RTVSPost2010PropOp36
 70
     1
102
RTVSPost2010Prop37
 90
       50
102
RTVSPost2010PropOp37
 70
     1
102
RTVSPost2010Prop38
140
0.0
102
RTVSPost2010PropOp38
 70
     1
102
RTVSPost2010Prop39
140
1.0
102
RTVSPost2010PropOp39
 70
     1
102
RTVSPost2010Prop40
 90
        0
102
RTVSPost2010PropOp40
 70
     1
102
RTVSPost2010Prop41ColorIndex
 90
      178
102
RTVSPost2010Prop41ColorRGB
 90
        0
102
RTVSPost2010PropOp41
 70
     1
102
RTVSPost2010Prop42
 90
       50
102
RTVSPost2010PropOp42
 70
     1
102
RTVSPost2010Prop43
 90
        3
102
RTVSPost2010PropOp43
 70
     1
102
RTVSPost2010Prop44ColorIndex
 90
        5
102
RTVSPost2010Prop44ColorRGB
 90
      255
102
RTVSPost2010PropOp44
 70
     1
102
RTVSPost2010Prop45
280
     0
102
RTVSPost2010PropOp45
 70
     1
102
RTVSPost2010Prop46
 90
       50
102
RTVSPost2010PropOp46
 70
     1
102
RTVSPost2010Prop47
 90
       50
102
RTVSPost2010PropOp47
 70
     1
102
RTVSPost2010Prop48
 90
       50
102
RTVSPost2010PropOp48
 70
     1
102
RTVSPost2010Prop49
280
     0
102
RTVSPost2010PropOp49
 70
     1
102
RTVSPost2010Prop50
 90
       50
102
RTVSPost2010PropOp50
 70
     1
102
RTVSPost2010Prop51ColorIndex
 90
      256
102
RTVSPost2010Prop51ColorRGB
 90
-16777216
102
RTVSPost2010PropOp51
 70
     0
102
RTVSPost2010Prop52
140
1.0
102
RTVSPost2010PropOp52
 70
     0
102
RTVSPost2010Prop53
 90
        2
102
RTVSPost2010PropOp53
 70
     1
102
RTVSPost2010Prop54
  1
strokes_ogs.tif
102
RTVSPost2010PropOp54
 70
     1
102
RTVSPost2010Prop55
280
     0
102
RTVSPost2010PropOp55
 70
     1
102
RTVSPost2010Prop56
140
1.0
102
RTVSPost2010PropOp56
 70
     1
102
RTVSPost2010Prop57
140
1.0
102
RTVSPost2010PropOp57
 70
     1
  0
XRECORD
  5
C2B
102
{ACAD_REACTORS
330
C2A
102
}
330
C2A
100
AcDbXrecord
280
     1
102
RTVSPost2010Prop28
280
     0
102
RTVSPost2010PropOp28
 70
     1
102
RTVSPost2010Prop29
280
     1
102
RTVSPost2010PropOp29
 70
     1
102
RTVSPost2010Prop30
280
     1
102
RTVSPost2010PropOp30
 70
     1
102
RTVSPost2010Prop31
280
     0
102
RTVSPost2010PropOp31
 70
     1
102
RTVSPost2010Prop32
280
     0
102
RTVSPost2010PropOp32
 70
     1
102
RTVSPost2010Prop33
280
     0
102
RTVSPost2010PropOp33
 70
     1
102
RTVSPost2010Prop34
280
     0
102
RTVSPost2010PropOp34
 70
     1
102
RTVSPost2010Prop35
280
     0
102
RTVSPost2010PropOp35
 70
     1
102
RTVSPost2010Prop36
280
     0
102
RTVSPost2010PropOp36
 70
     1
102
RTVSPost2010Prop37
 90
       50
102
RTVSPost2010PropOp37
 70
     1
102
RTVSPost2010Prop38
140
0.0
102
RTVSPost2010PropOp38
 70
     1
102
RTVSPost2010Prop39
140
1.0
102
RTVSPost2010PropOp39
 70
     1
102
RTVSPost2010Prop40
 90
        0
102
RTVSPost2010PropOp40
 70
     1
102
RTVSPost2010Prop41ColorIndex
 90
      178
102
RTVSPost2010Prop41ColorRGB
 90
        0
102
RTVSPost2010PropOp41
 70
     1
102
RTVSPost2010Prop42
 90
       50
102
RTVSPost2010PropOp42
 70
     1
102
RTVSPost2010Prop43
 90
        3
102
RTVSPost2010PropOp43
 70
     1
102
RTVSPost2010Prop44ColorIndex
 90
        5
102
RTVSPost2010Prop44ColorRGB
 90
      255
102
RTVSPost2010PropOp44
 70
     1
102
RTVSPost2010Prop45
280
     0
102
RTVSPost2010PropOp45
 70
     1
102
RTVSPost2010Prop46
 90
       50
102
RTVSPost2010PropOp46
 70
     1
102
RTVSPost2010Prop47
 90
       50
102
RTVSPost2010PropOp47
 70
     1
102
RTVSPost2010Prop48
 90
       50
102
RTVSPost2010PropOp48
 70
     1
102
RTVSPost2010Prop49
280
     0
102
RTVSPost2010PropOp49
 70
     1
102
RTVSPost2010Prop50
 90
       50
102
RTVSPost2010PropOp50
 70
     1
102
RTVSPost2010Prop51ColorIndex
 90
      256
102
RTVSPost2010Prop51ColorRGB
 90
-16777216
102
RTVSPost2010PropOp51
 70
     0
102
RTVSPost2010Prop52
140
1.0
102
RTVSPost2010PropOp52
 70
     0
102
RTVSPost2010Prop53
 90
        2
102
RTVSPost2010PropOp53
 70
     1
102
RTVSPost2010Prop54
  1
strokes_ogs.tif
102
RTVSPost2010PropOp54
 70
     1
102
RTVSPost2010Prop55
280
     0
102
RTVSPost2010PropOp55
 70
     1
102
RTVSPost2010Prop56
140
1.0
102
RTVSPost2010PropOp56
 70
     1
102
RTVSPost2010Prop57
140
1.0
102
RTVSPost2010PropOp57
 70
     1
  0
XRECORD
  5
C2D
102
{ACAD_REACTORS
330
C2C
102
}
330
C2C
100
AcDbXrecord
280
     1
102
RTVSPost2010Prop28
280
     0
102
RTVSPost2010PropOp28
 70
     1
102
RTVSPost2010Prop29
280
     1
102
RTVSPost2010PropOp29
 70
     1
102
RTVSPost2010Prop30
280
     1
102
RTVSPost2010PropOp30
 70
     1
102
RTVSPost2010Prop31
280
     0
102
RTVSPost2010PropOp31
 70
     1
102
RTVSPost2010Prop32
280
     0
102
RTVSPost2010PropOp32
 70
     1
102
RTVSPost2010Prop33
280
     0
102
RTVSPost2010PropOp33
 70
     1
102
RTVSPost2010Prop34
280
     0
102
RTVSPost2010PropOp34
 70
     1
102
RTVSPost2010Prop35
280
     0
102
RTVSPost2010PropOp35
 70
     1
102
RTVSPost2010Prop36
280
     0
102
RTVSPost2010PropOp36
 70
     1
102
RTVSPost2010Prop37
 90
       50
102
RTVSPost2010PropOp37
 70
     1
102
RTVSPost2010Prop38
140
0.0
102
RTVSPost2010PropOp38
 70
     1
102
RTVSPost2010Prop39
140
1.0
102
RTVSPost2010PropOp39
 70
     1
102
RTVSPost2010Prop40
 90
        0
102
RTVSPost2010PropOp40
 70
     1
102
RTVSPost2010Prop41ColorIndex
 90
      178
102
RTVSPost2010Prop41ColorRGB
 90
        0
102
RTVSPost2010PropOp41
 70
     1
102
RTVSPost2010Prop42
 90
       50
102
RTVSPost2010PropOp42
 70
     1
102
RTVSPost2010Prop43
 90
        3
102
RTVSPost2010PropOp43
 70
     1
102
RTVSPost2010Prop44ColorIndex
 90
        5
102
RTVSPost2010Prop44ColorRGB
 90
      255
102
RTVSPost2010PropOp44
 70
     1
102
RTVSPost2010Prop45
280
     0
102
RTVSPost2010PropOp45
 70
     1
102
RTVSPost2010Prop46
 90
       50
102
RTVSPost2010PropOp46
 70
     1
102
RTVSPost2010Prop47
 90
       50
102
RTVSPost2010PropOp47
 70
     1
102
RTVSPost2010Prop48
 90
       50
102
RTVSPost2010PropOp48
 70
     1
102
RTVSPost2010Prop49
280
     0
102
RTVSPost2010PropOp49
 70
     1
102
RTVSPost2010Prop50
 90
       50
102
RTVSPost2010PropOp50
 70
     1
102
RTVSPost2010Prop51ColorIndex
 90
      256
102
RTVSPost2010Prop51ColorRGB
 90
-16777216
102
RTVSPost2010PropOp51
 70
     0
102
RTVSPost2010Prop52
140
1.0
102
RTVSPost2010PropOp52
 70
     0
102
RTVSPost2010Prop53
 90
        2
102
RTVSPost2010PropOp53
 70
     1
102
RTVSPost2010Prop54
  1
strokes_ogs.tif
102
RTVSPost2010PropOp54
 70
     1
102
RTVSPost2010Prop55
280
     0
102
RTVSPost2010PropOp55
 70
     1
102
RTVSPost2010Prop56
140
1.0
102
RTVSPost2010PropOp56
 70
     1
102
RTVSPost2010Prop57
140
1.0
102
RTVSPost2010PropOp57
 70
     1
  0
XRECORD
  5
C2F
102
{ACAD_REACTORS
330
C2E
102
}
330
C2E
100
AcDbXrecord
280
     1
102
RTVSPost2010Prop28
280
     0
102
RTVSPost2010PropOp28
 70
     1
102
RTVSPost2010Prop29
280
     1
102
RTVSPost2010PropOp29
 70
     1
102
RTVSPost2010Prop30
280
     1
102
RTVSPost2010PropOp30
 70
     1
102
RTVSPost2010Prop31
280
     0
102
RTVSPost2010PropOp31
 70
     1
102
RTVSPost2010Prop32
280
     0
102
RTVSPost2010PropOp32
 70
     1
102
RTVSPost2010Prop33
280
     0
102
RTVSPost2010PropOp33
 70
     1
102
RTVSPost2010Prop34
280
     0
102
RTVSPost2010PropOp34
 70
     1
102
RTVSPost2010Prop35
280
     0
102
RTVSPost2010PropOp35
 70
     1
102
RTVSPost2010Prop36
280
     0
102
RTVSPost2010PropOp36
 70
     1
102
RTVSPost2010Prop37
 90
       50
102
RTVSPost2010PropOp37
 70
     1
102
RTVSPost2010Prop38
140
0.0
102
RTVSPost2010PropOp38
 70
     1
102
RTVSPost2010Prop39
140
1.0
102
RTVSPost2010PropOp39
 70
     1
102
RTVSPost2010Prop40
 90
        0
102
RTVSPost2010PropOp40
 70
     1
102
RTVSPost2010Prop41ColorIndex
 90
      178
102
RTVSPost2010Prop41ColorRGB
 90
        0
102
RTVSPost2010PropOp41
 70
     1
102
RTVSPost2010Prop42
 90
       50
102
RTVSPost2010PropOp42
 70
     1
102
RTVSPost2010Prop43
 90
        3
102
RTVSPost2010PropOp43
 70
     1
102
RTVSPost2010Prop44ColorIndex
 90
        5
102
RTVSPost2010Prop44ColorRGB
 90
      255
102
RTVSPost2010PropOp44
 70
     1
102
RTVSPost2010Prop45
280
     0
102
RTVSPost2010PropOp45
 70
     1
102
RTVSPost2010Prop46
 90
       50
102
RTVSPost2010PropOp46
 70
     1
102
RTVSPost2010Prop47
 90
       50
102
RTVSPost2010PropOp47
 70
     1
102
RTVSPost2010Prop48
 90
       50
102
RTVSPost2010PropOp48
 70
     1
102
RTVSPost2010Prop49
280
     0
102
RTVSPost2010PropOp49
 70
     1
102
RTVSPost2010Prop50
 90
       50
102
RTVSPost2010PropOp50
 70
     1
102
RTVSPost2010Prop51ColorIndex
 90
      256
102
RTVSPost2010Prop51ColorRGB
 90
-16777216
102
RTVSPost2010PropOp51
 70
     0
102
RTVSPost2010Prop52
140
1.0
102
RTVSPost2010PropOp52
 70
     0
102
RTVSPost2010Prop53
 90
        2
102
RTVSPost2010PropOp53
 70
     1
102
RTVSPost2010Prop54
  1
strokes_ogs.tif
102
RTVSPost2010PropOp54
 70
     1
102
RTVSPost2010Prop55
280
     0
102
RTVSPost2010PropOp55
 70
     1
102
RTVSPost2010Prop56
140
1.0
102
RTVSPost2010PropOp56
 70
     1
102
RTVSPost2010Prop57
140
1.0
102
RTVSPost2010PropOp57
 70
     1
  0
XRECORD
  5
C31
102
{ACAD_REACTORS
330
C30
102
}
330
C30
100
AcDbXrecord
280
     1
102
RTVSPost2010Prop28
280
     0
102
RTVSPost2010PropOp28
 70
     1
102
RTVSPost2010Prop29
280
     1
102
RTVSPost2010PropOp29
 70
     1
102
RTVSPost2010Prop30
280
     1
102
RTVSPost2010PropOp30
 70
     1
102
RTVSPost2010Prop31
280
     0
102
RTVSPost2010PropOp31
 70
     1
102
RTVSPost2010Prop32
280
     0
102
RTVSPost2010PropOp32
 70
     1
102
RTVSPost2010Prop33
280
     0
102
RTVSPost2010PropOp33
 70
     1
102
RTVSPost2010Prop34
280
     0
102
RTVSPost2010PropOp34
 70
     1
102
RTVSPost2010Prop35
280
     0
102
RTVSPost2010PropOp35
 70
     1
102
RTVSPost2010Prop36
280
     0
102
RTVSPost2010PropOp36
 70
     1
102
RTVSPost2010Prop37
 90
       50
102
RTVSPost2010PropOp37
 70
     1
102
RTVSPost2010Prop38
140
0.0
102
RTVSPost2010PropOp38
 70
     1
102
RTVSPost2010Prop39
140
1.0
102
RTVSPost2010PropOp39
 70
     1
102
RTVSPost2010Prop40
 90
        0
102
RTVSPost2010PropOp40
 70
     1
102
RTVSPost2010Prop41ColorIndex
 90
      178
102
RTVSPost2010Prop41ColorRGB
 90
        0
102
RTVSPost2010PropOp41
 70
     1
102
RTVSPost2010Prop42
 90
       50
102
RTVSPost2010PropOp42
 70
     1
102
RTVSPost2010Prop43
 90
        3
102
RTVSPost2010PropOp43
 70
     1
102
RTVSPost2010Prop44ColorIndex
 90
        5
102
RTVSPost2010Prop44ColorRGB
 90
      255
102
RTVSPost2010PropOp44
 70
     1
102
RTVSPost2010Prop45
280
     0
102
RTVSPost2010PropOp45
 70
     1
102
RTVSPost2010Prop46
 90
       50
102
RTVSPost2010PropOp46
 70
     1
102
RTVSPost2010Prop47
 90
       50
102
RTVSPost2010PropOp47
 70
     1
102
RTVSPost2010Prop48
 90
       50
102
RTVSPost2010PropOp48
 70
     1
102
RTVSPost2010Prop49
280
     0
102
RTVSPost2010PropOp49
 70
     1
102
RTVSPost2010Prop50
 90
       50
102
RTVSPost2010PropOp50
 70
     1
102
RTVSPost2010Prop51ColorIndex
 90
      256
102
RTVSPost2010Prop51ColorRGB
 90
-16777216
102
RTVSPost2010PropOp51
 70
     0
102
RTVSPost2010Prop52
140
1.0
102
RTVSPost2010PropOp52
 70
     0
102
RTVSPost2010Prop53
 90
        2
102
RTVSPost2010PropOp53
 70
     1
102
RTVSPost2010Prop54
  1
strokes_ogs.tif
102
RTVSPost2010PropOp54
 70
     1
102
RTVSPost2010Prop55
280
     0
102
RTVSPost2010PropOp55
 70
     1
102
RTVSPost2010Prop56
140
1.0
102
RTVSPost2010PropOp56
 70
     1
102
RTVSPost2010Prop57
140
1.0
102
RTVSPost2010PropOp57
 70
     1
  0
XRECORD
  5
C33
102
{ACAD_REACTORS
330
C32
102
}
330
C32
100
AcDbXrecord
280
     1
102
RTVSPost2010Prop28
280
     0
102
RTVSPost2010PropOp28
 70
     0
102
RTVSPost2010Prop29
280
     1
102
RTVSPost2010PropOp29
 70
     0
102
RTVSPost2010Prop30
280
     1
102
RTVSPost2010PropOp30
 70
     0
102
RTVSPost2010Prop31
280
     0
102
RTVSPost2010PropOp31
 70
     0
102
RTVSPost2010Prop32
280
     0
102
RTVSPost2010PropOp32
 70
     0
102
RTVSPost2010Prop33
280
     0
102
RTVSPost2010PropOp33
 70
     0
102
RTVSPost2010Prop34
280
     0
102
RTVSPost2010PropOp34
 70
     0
102
RTVSPost2010Prop35
280
     0
102
RTVSPost2010PropOp35
 70
     0
102
RTVSPost2010Prop36
280
     0
102
RTVSPost2010PropOp36
 70
     0
102
RTVSPost2010Prop37
 90
       50
102
RTVSPost2010PropOp37
 70
     0
102
RTVSPost2010Prop38
140
0.0
102
RTVSPost2010PropOp38
 70
     0
102
RTVSPost2010Prop39
140
1.0
102
RTVSPost2010PropOp39
 70
     0
102
RTVSPost2010Prop40
 90
        0
102
RTVSPost2010PropOp40
 70
     0
102
RTVSPost2010Prop41ColorIndex
 90
      178
102
RTVSPost2010Prop41ColorRGB
 90
        0
102
RTVSPost2010PropOp41
 70
     0
102
RTVSPost2010Prop42
 90
       50
102
RTVSPost2010PropOp42
 70
     0
102
RTVSPost2010Prop43
 90
        3
102
RTVSPost2010PropOp43
 70
     0
102
RTVSPost2010Prop44ColorIndex
 90
        5
102
RTVSPost2010Prop44ColorRGB
 90
      255
102
RTVSPost2010PropOp44
 70
     0
102
RTVSPost2010Prop45
280
     0
102
RTVSPost2010PropOp45
 70
     0
102
RTVSPost2010Prop46
 90
       50
102
RTVSPost2010PropOp46
 70
     0
102
RTVSPost2010Prop47
 90
       50
102
RTVSPost2010PropOp47
 70
     0
102
RTVSPost2010Prop48
 90
       50
102
RTVSPost2010PropOp48
 70
     0
102
RTVSPost2010Prop49
280
     0
102
RTVSPost2010PropOp49
 70
     0
102
RTVSPost2010Prop50
 90
       50
102
RTVSPost2010PropOp50
 70
     0
102
RTVSPost2010Prop51ColorIndex
 90
      256
102
RTVSPost2010Prop51ColorRGB
 90
-16777216
102
RTVSPost2010PropOp51
 70
     0
102
RTVSPost2010Prop52
140
1.0
102
RTVSPost2010PropOp52
 70
     0
102
RTVSPost2010Prop53
 90
        2
102
RTVSPost2010PropOp53
 70
     0
102
RTVSPost2010Prop54
  1
strokes_ogs.tif
102
RTVSPost2010PropOp54
 70
     0
102
RTVSPost2010Prop55
280
     0
102
RTVSPost2010PropOp55
 70
     0
102
RTVSPost2010Prop56
140
1.0
102
RTVSPost2010PropOp56
 70
     0
102
RTVSPost2010Prop57
140
1.0
102
RTVSPost2010PropOp57
 70
     0
  0
XRECORD
  5
C35
102
{ACAD_REACTORS
330
C34
102
}
330
C34
100
AcDbXrecord
280
     1
102
RTVSPost2010Prop28
280
     0
102
RTVSPost2010PropOp28
 70
     1
102
RTVSPost2010Prop29
280
     1
102
RTVSPost2010PropOp29
 70
     1
102
RTVSPost2010Prop30
280
     1
102
RTVSPost2010PropOp30
 70
     1
102
RTVSPost2010Prop31
280
     0
102
RTVSPost2010PropOp31
 70
     1
102
RTVSPost2010Prop32
280
     0
102
RTVSPost2010PropOp32
 70
     1
102
RTVSPost2010Prop33
280
     0
102
RTVSPost2010PropOp33
 70
     1
102
RTVSPost2010Prop34
280
     0
102
RTVSPost2010PropOp34
 70
     1
102
RTVSPost2010Prop35
280
     0
102
RTVSPost2010PropOp35
 70
     1
102
RTVSPost2010Prop36
280
     0
102
RTVSPost2010PropOp36
 70
     1
102
RTVSPost2010Prop37
 90
       50
102
RTVSPost2010PropOp37
 70
     1
102
RTVSPost2010Prop38
140
0.0
102
RTVSPost2010PropOp38
 70
     1
102
RTVSPost2010Prop39
140
1.0
102
RTVSPost2010PropOp39
 70
     1
102
RTVSPost2010Prop40
 90
        0
102
RTVSPost2010PropOp40
 70
     1
102
RTVSPost2010Prop41ColorIndex
 90
      178
102
RTVSPost2010Prop41ColorRGB
 90
        0
102
RTVSPost2010PropOp41
 70
     1
102
RTVSPost2010Prop42
 90
       50
102
RTVSPost2010PropOp42
 70
     1
102
RTVSPost2010Prop43
 90
        3
102
RTVSPost2010PropOp43
 70
     1
102
RTVSPost2010Prop44ColorIndex
 90
        5
102
RTVSPost2010Prop44ColorRGB
 90
      255
102
RTVSPost2010PropOp44
 70
     1
102
RTVSPost2010Prop45
280
     0
102
RTVSPost2010PropOp45
 70
     1
102
RTVSPost2010Prop46
 90
       50
102
RTVSPost2010PropOp46
 70
     1
102
RTVSPost2010Prop47
 90
       50
102
RTVSPost2010PropOp47
 70
     1
102
RTVSPost2010Prop48
 90
       50
102
RTVSPost2010PropOp48
 70
     1
102
RTVSPost2010Prop49
280
     0
102
RTVSPost2010PropOp49
 70
     1
102
RTVSPost2010Prop50
 90
       50
102
RTVSPost2010PropOp50
 70
     1
102
RTVSPost2010Prop51ColorIndex
 90
      256
102
RTVSPost2010Prop51ColorRGB
 90
-16777216
102
RTVSPost2010PropOp51
 70
     0
102
RTVSPost2010Prop52
140
1.0
102
RTVSPost2010PropOp52
 70
     0
102
RTVSPost2010Prop53
 90
        2
102
RTVSPost2010PropOp53
 70
     1
102
RTVSPost2010Prop54
  1
strokes_ogs.tif
102
RTVSPost2010PropOp54
 70
     1
102
RTVSPost2010Prop55
280
     0
102
RTVSPost2010PropOp55
 70
     1
102
RTVSPost2010Prop56
140
1.0
102
RTVSPost2010PropOp56
 70
     1
102
RTVSPost2010Prop57
140
1.0
102
RTVSPost2010PropOp57
 70
     1
  0
XRECORD
  5
C37
102
{ACAD_REACTORS
330
C36
102
}
330
C36
100
AcDbXrecord
280
     1
102
RTVSPost2010Prop28
280
     0
102
RTVSPost2010PropOp28
 70
     1
102
RTVSPost2010Prop29
280
     1
102
RTVSPost2010PropOp29
 70
     1
102
RTVSPost2010Prop30
280
     1
102
RTVSPost2010PropOp30
 70
     1
102
RTVSPost2010Prop31
280
     0
102
RTVSPost2010PropOp31
 70
     1
102
RTVSPost2010Prop32
280
     0
102
RTVSPost2010PropOp32
 70
     1
102
RTVSPost2010Prop33
280
     0
102
RTVSPost2010PropOp33
 70
     1
102
RTVSPost2010Prop34
280
     0
102
RTVSPost2010PropOp34
 70
     1
102
RTVSPost2010Prop35
280
     0
102
RTVSPost2010PropOp35
 70
     1
102
RTVSPost2010Prop36
280
     0
102
RTVSPost2010PropOp36
 70
     1
102
RTVSPost2010Prop37
 90
       50
102
RTVSPost2010PropOp37
 70
     1
102
RTVSPost2010Prop38
140
0.0
102
RTVSPost2010PropOp38
 70
     1
102
RTVSPost2010Prop39
140
1.0
102
RTVSPost2010PropOp39
 70
     1
102
RTVSPost2010Prop40
 90
        0
102
RTVSPost2010PropOp40
 70
     1
102
RTVSPost2010Prop41ColorIndex
 90
      178
102
RTVSPost2010Prop41ColorRGB
 90
        0
102
RTVSPost2010PropOp41
 70
     1
102
RTVSPost2010Prop42
 90
       50
102
RTVSPost2010PropOp42
 70
     1
102
RTVSPost2010Prop43
 90
        3
102
RTVSPost2010PropOp43
 70
     1
102
RTVSPost2010Prop44ColorIndex
 90
        5
102
RTVSPost2010Prop44ColorRGB
 90
      255
102
RTVSPost2010PropOp44
 70
     1
102
RTVSPost2010Prop45
280
     0
102
RTVSPost2010PropOp45
 70
     1
102
RTVSPost2010Prop46
 90
       50
102
RTVSPost2010PropOp46
 70
     1
102
RTVSPost2010Prop47
 90
       50
102
RTVSPost2010PropOp47
 70
     1
102
RTVSPost2010Prop48
 90
       50
102
RTVSPost2010PropOp48
 70
     1
102
RTVSPost2010Prop49
280
     0
102
RTVSPost2010PropOp49
 70
     1
102
RTVSPost2010Prop50
 90
       50
102
RTVSPost2010PropOp50
 70
     1
102
RTVSPost2010Prop51ColorIndex
 90
      256
102
RTVSPost2010Prop51ColorRGB
 90
-16777216
102
RTVSPost2010PropOp51
 70
     0
102
RTVSPost2010Prop52
140
1.0
102
RTVSPost2010PropOp52
 70
     0
102
RTVSPost2010Prop53
 90
        2
102
RTVSPost2010PropOp53
 70
     1
102
RTVSPost2010Prop54
  1
strokes_ogs.tif
102
RTVSPost2010PropOp54
 70
     1
102
RTVSPost2010Prop55
280
     0
102
RTVSPost2010PropOp55
 70
     1
102
RTVSPost2010Prop56
140
1.0
102
RTVSPost2010PropOp56
 70
     1
102
RTVSPost2010Prop57
140
1.0
102
RTVSPost2010PropOp57
 70
     1
  0
XRECORD
  5
C39
102
{ACAD_REACTORS
330
C38
102
}
330
C38
100
AcDbXrecord
280
     1
102
RTVSPost2010Prop28
280
     0
102
RTVSPost2010PropOp28
 70
     1
102
RTVSPost2010Prop29
280
     1
102
RTVSPost2010PropOp29
 70
     1
102
RTVSPost2010Prop30
280
     1
102
RTVSPost2010PropOp30
 70
     1
102
RTVSPost2010Prop31
280
     0
102
RTVSPost2010PropOp31
 70
     1
102
RTVSPost2010Prop32
280
     0
102
RTVSPost2010PropOp32
 70
     1
102
RTVSPost2010Prop33
280
     0
102
RTVSPost2010PropOp33
 70
     1
102
RTVSPost2010Prop34
280
     0
102
RTVSPost2010PropOp34
 70
     1
102
RTVSPost2010Prop35
280
     0
102
RTVSPost2010PropOp35
 70
     1
102
RTVSPost2010Prop36
280
     0
102
RTVSPost2010PropOp36
 70
     1
102
RTVSPost2010Prop37
 90
       50
102
RTVSPost2010PropOp37
 70
     1
102
RTVSPost2010Prop38
140
0.0
102
RTVSPost2010PropOp38
 70
     1
102
RTVSPost2010Prop39
140
1.0
102
RTVSPost2010PropOp39
 70
     1
102
RTVSPost2010Prop40
 90
        0
102
RTVSPost2010PropOp40
 70
     1
102
RTVSPost2010Prop41ColorIndex
 90
      178
102
RTVSPost2010Prop41ColorRGB
 90
        0
102
RTVSPost2010PropOp41
 70
     1
102
RTVSPost2010Prop42
 90
       50
102
RTVSPost2010PropOp42
 70
     1
102
RTVSPost2010Prop43
 90
        3
102
RTVSPost2010PropOp43
 70
     1
102
RTVSPost2010Prop44ColorIndex
 90
        5
102
RTVSPost2010Prop44ColorRGB
 90
      255
102
RTVSPost2010PropOp44
 70
     1
102
RTVSPost2010Prop45
280
     0
102
RTVSPost2010PropOp45
 70
     1
102
RTVSPost2010Prop46
 90
       50
102
RTVSPost2010PropOp46
 70
     1
102
RTVSPost2010Prop47
 90
       50
102
RTVSPost2010PropOp47
 70
     1
102
RTVSPost2010Prop48
 90
       50
102
RTVSPost2010PropOp48
 70
     1
102
RTVSPost2010Prop49
280
     0
102
RTVSPost2010PropOp49
 70
     1
102
RTVSPost2010Prop50
 90
       50
102
RTVSPost2010PropOp50
 70
     1
102
RTVSPost2010Prop51ColorIndex
 90
      256
102
RTVSPost2010Prop51ColorRGB
 90
-16777216
102
RTVSPost2010PropOp51
 70
     0
102
RTVSPost2010Prop52
140
1.0
102
RTVSPost2010PropOp52
 70
     0
102
RTVSPost2010Prop53
 90
        2
102
RTVSPost2010PropOp53
 70
     1
102
RTVSPost2010Prop54
  1
strokes_ogs.tif
102
RTVSPost2010PropOp54
 70
     1
102
RTVSPost2010Prop55
280
     0
102
RTVSPost2010PropOp55
 70
     1
102
RTVSPost2010Prop56
140
1.0
102
RTVSPost2010PropOp56
 70
     1
102
RTVSPost2010Prop57
140
1.0
102
RTVSPost2010PropOp57
 70
     1
  0
XRECORD
  5
C3B
102
{ACAD_REACTORS
330
C3A
102
}
330
C3A
100
AcDbXrecord
280
     1
102
RTVSPost2010Prop28
280
     0
102
RTVSPost2010PropOp28
 70
     1
102
RTVSPost2010Prop29
280
     1
102
RTVSPost2010PropOp29
 70
     1
102
RTVSPost2010Prop30
280
     1
102
RTVSPost2010PropOp30
 70
     1
102
RTVSPost2010Prop31
280
     0
102
RTVSPost2010PropOp31
 70
     1
102
RTVSPost2010Prop32
280
     0
102
RTVSPost2010PropOp32
 70
     1
102
RTVSPost2010Prop33
280
     0
102
RTVSPost2010PropOp33
 70
     1
102
RTVSPost2010Prop34
280
     0
102
RTVSPost2010PropOp34
 70
     1
102
RTVSPost2010Prop35
280
     0
102
RTVSPost2010PropOp35
 70
     1
102
RTVSPost2010Prop36
280
     0
102
RTVSPost2010PropOp36
 70
     1
102
RTVSPost2010Prop37
 90
       50
102
RTVSPost2010PropOp37
 70
     1
102
RTVSPost2010Prop38
140
0.0
102
RTVSPost2010PropOp38
 70
     1
102
RTVSPost2010Prop39
140
1.0
102
RTVSPost2010PropOp39
 70
     1
102
RTVSPost2010Prop40
 90
        0
102
RTVSPost2010PropOp40
 70
     1
102
RTVSPost2010Prop41ColorIndex
 90
      178
102
RTVSPost2010Prop41ColorRGB
 90
        0
102
RTVSPost2010PropOp41
 70
     1
102
RTVSPost2010Prop42
 90
       50
102
RTVSPost2010PropOp42
 70
     1
102
RTVSPost2010Prop43
 90
        3
102
RTVSPost2010PropOp43
 70
     1
102
RTVSPost2010Prop44ColorIndex
 90
        5
102
RTVSPost2010Prop44ColorRGB
 90
      255
102
RTVSPost2010PropOp44
 70
     1
102
RTVSPost2010Prop45
280
     0
102
RTVSPost2010PropOp45
 70
     1
102
RTVSPost2010Prop46
 90
       50
102
RTVSPost2010PropOp46
 70
     1
102
RTVSPost2010Prop47
 90
       50
102
RTVSPost2010PropOp47
 70
     1
102
RTVSPost2010Prop48
 90
       50
102
RTVSPost2010PropOp48
 70
     1
102
RTVSPost2010Prop49
280
     0
102
RTVSPost2010PropOp49
 70
     1
102
RTVSPost2010Prop50
 90
       50
102
RTVSPost2010PropOp50
 70
     1
102
RTVSPost2010Prop51ColorIndex
 90
      256
102
RTVSPost2010Prop51ColorRGB
 90
-16777216
102
RTVSPost2010PropOp51
 70
     0
102
RTVSPost2010Prop52
140
1.0
102
RTVSPost2010PropOp52
 70
     0
102
RTVSPost2010Prop53
 90
        2
102
RTVSPost2010PropOp53
 70
     1
102
RTVSPost2010Prop54
  1
strokes_ogs.tif
102
RTVSPost2010PropOp54
 70
     1
102
RTVSPost2010Prop55
280
     0
102
RTVSPost2010PropOp55
 70
     1
102
RTVSPost2010Prop56
140
1.0
102
RTVSPost2010PropOp56
 70
     1
102
RTVSPost2010Prop57
140
1.0
102
RTVSPost2010PropOp57
 70
     1
  0
XRECORD
  5
C3D
102
{ACAD_REACTORS
330
C3C
102
}
330
C3C
100
AcDbXrecord
280
     1
102
RTVSPost2010Prop28
280
     0
102
RTVSPost2010PropOp28
 70
     1
102
RTVSPost2010Prop29
280
     1
102
RTVSPost2010PropOp29
 70
     1
102
RTVSPost2010Prop30
280
     1
102
RTVSPost2010PropOp30
 70
     1
102
RTVSPost2010Prop31
280
     0
102
RTVSPost2010PropOp31
 70
     1
102
RTVSPost2010Prop32
280
     0
102
RTVSPost2010PropOp32
 70
     1
102
RTVSPost2010Prop33
280
     0
102
RTVSPost2010PropOp33
 70
     1
102
RTVSPost2010Prop34
280
     0
102
RTVSPost2010PropOp34
 70
     1
102
RTVSPost2010Prop35
280
     0
102
RTVSPost2010PropOp35
 70
     1
102
RTVSPost2010Prop36
280
     0
102
RTVSPost2010PropOp36
 70
     1
102
RTVSPost2010Prop37
 90
       50
102
RTVSPost2010PropOp37
 70
     1
102
RTVSPost2010Prop38
140
0.0
102
RTVSPost2010PropOp38
 70
     1
102
RTVSPost2010Prop39
140
1.0
102
RTVSPost2010PropOp39
 70
     1
102
RTVSPost2010Prop40
 90
        0
102
RTVSPost2010PropOp40
 70
     1
102
RTVSPost2010Prop41ColorIndex
 90
      178
102
RTVSPost2010Prop41ColorRGB
 90
        0
102
RTVSPost2010PropOp41
 70
     1
102
RTVSPost2010Prop42
 90
       50
102
RTVSPost2010PropOp42
 70
     1
102
RTVSPost2010Prop43
 90
        3
102
RTVSPost2010PropOp43
 70
     1
102
RTVSPost2010Prop44ColorIndex
 90
        5
102
RTVSPost2010Prop44ColorRGB
 90
      255
102
RTVSPost2010PropOp44
 70
     1
102
RTVSPost2010Prop45
280
     0
102
RTVSPost2010PropOp45
 70
     1
102
RTVSPost2010Prop46
 90
       50
102
RTVSPost2010PropOp46
 70
     1
102
RTVSPost2010Prop47
 90
       50
102
RTVSPost2010PropOp47
 70
     1
102
RTVSPost2010Prop48
 90
       50
102
RTVSPost2010PropOp48
 70
     1
102
RTVSPost2010Prop49
280
     0
102
RTVSPost2010PropOp49
 70
     1
102
RTVSPost2010Prop50
 90
       50
102
RTVSPost2010PropOp50
 70
     1
102
RTVSPost2010Prop51ColorIndex
 90
      256
102
RTVSPost2010Prop51ColorRGB
 90
-16777216
102
RTVSPost2010PropOp51
 70
     0
102
RTVSPost2010Prop52
140
1.0
102
RTVSPost2010PropOp52
 70
     0
102
RTVSPost2010Prop53
 90
        2
102
RTVSPost2010PropOp53
 70
     1
102
RTVSPost2010Prop54
  1
strokes_ogs.tif
102
RTVSPost2010PropOp54
 70
     1
102
RTVSPost2010Prop55
280
     0
102
RTVSPost2010PropOp55
 70
     1
102
RTVSPost2010Prop56
140
1.0
102
RTVSPost2010PropOp56
 70
     1
102
RTVSPost2010Prop57
140
1.0
102
RTVSPost2010PropOp57
 70
     1
  0
XRECORD
  5
C3F
102
{ACAD_REACTORS
330
C3E
102
}
330
C3E
100
AcDbXrecord
280
     1
102
RTVSPost2010Prop28
280
     0
102
RTVSPost2010PropOp28
 70
     1
102
RTVSPost2010Prop29
280
     1
102
RTVSPost2010PropOp29
 70
     1
102
RTVSPost2010Prop30
280
     1
102
RTVSPost2010PropOp30
 70
     1
102
RTVSPost2010Prop31
280
     0
102
RTVSPost2010PropOp31
 70
     1
102
RTVSPost2010Prop32
280
     0
102
RTVSPost2010PropOp32
 70
     1
102
RTVSPost2010Prop33
280
     0
102
RTVSPost2010PropOp33
 70
     1
102
RTVSPost2010Prop34
280
     0
102
RTVSPost2010PropOp34
 70
     1
102
RTVSPost2010Prop35
280
     0
102
RTVSPost2010PropOp35
 70
     1
102
RTVSPost2010Prop36
280
     0
102
RTVSPost2010PropOp36
 70
     1
102
RTVSPost2010Prop37
 90
       50
102
RTVSPost2010PropOp37
 70
     1
102
RTVSPost2010Prop38
140
0.0
102
RTVSPost2010PropOp38
 70
     1
102
RTVSPost2010Prop39
140
1.0
102
RTVSPost2010PropOp39
 70
     1
102
RTVSPost2010Prop40
 90
        0
102
RTVSPost2010PropOp40
 70
     1
102
RTVSPost2010Prop41ColorIndex
 90
      178
102
RTVSPost2010Prop41ColorRGB
 90
        0
102
RTVSPost2010PropOp41
 70
     1
102
RTVSPost2010Prop42
 90
       50
102
RTVSPost2010PropOp42
 70
     1
102
RTVSPost2010Prop43
 90
        3
102
RTVSPost2010PropOp43
 70
     1
102
RTVSPost2010Prop44ColorIndex
 90
        5
102
RTVSPost2010Prop44ColorRGB
 90
      255
102
RTVSPost2010PropOp44
 70
     1
102
RTVSPost2010Prop45
280
     0
102
RTVSPost2010PropOp45
 70
     1
102
RTVSPost2010Prop46
 90
       50
102
RTVSPost2010PropOp46
 70
     1
102
RTVSPost2010Prop47
 90
       50
102
RTVSPost2010PropOp47
 70
     1
102
RTVSPost2010Prop48
 90
       50
102
RTVSPost2010PropOp48
 70
     1
102
RTVSPost2010Prop49
280
     0
102
RTVSPost2010PropOp49
 70
     1
102
RTVSPost2010Prop50
 90
       50
102
RTVSPost2010PropOp50
 70
     1
102
RTVSPost2010Prop51ColorIndex
 90
      256
102
RTVSPost2010Prop51ColorRGB
 90
-16777216
102
RTVSPost2010PropOp51
 70
     0
102
RTVSPost2010Prop52
140
1.0
102
RTVSPost2010PropOp52
 70
     0
102
RTVSPost2010Prop53
 90
        2
102
RTVSPost2010PropOp53
 70
     1
102
RTVSPost2010Prop54
  1
strokes_ogs.tif
102
RTVSPost2010PropOp54
 70
     1
102
RTVSPost2010Prop55
280
     0
102
RTVSPost2010PropOp55
 70
     1
102
RTVSPost2010Prop56
140
1.0
102
RTVSPost2010PropOp56
 70
     1
102
RTVSPost2010Prop57
140
1.0
102
RTVSPost2010PropOp57
 70
     1
  0
XRECORD
  5
C41
102
{ACAD_REACTORS
330
C40
102
}
330
C40
100
AcDbXrecord
280
     1
102
RTVSPost2010Prop28
280
     0
102
RTVSPost2010PropOp28
 70
     0
102
RTVSPost2010Prop29
280
     1
102
RTVSPost2010PropOp29
 70
     0
102
RTVSPost2010Prop30
280
     1
102
RTVSPost2010PropOp30
 70
     0
102
RTVSPost2010Prop31
280
     0
102
RTVSPost2010PropOp31
 70
     0
102
RTVSPost2010Prop32
280
     0
102
RTVSPost2010PropOp32
 70
     0
102
RTVSPost2010Prop33
280
     0
102
RTVSPost2010PropOp33
 70
     0
102
RTVSPost2010Prop34
280
     0
102
RTVSPost2010PropOp34
 70
     0
102
RTVSPost2010Prop35
280
     0
102
RTVSPost2010PropOp35
 70
     0
102
RTVSPost2010Prop36
280
     0
102
RTVSPost2010PropOp36
 70
     0
102
RTVSPost2010Prop37
 90
       50
102
RTVSPost2010PropOp37
 70
     0
102
RTVSPost2010Prop38
140
0.0
102
RTVSPost2010PropOp38
 70
     0
102
RTVSPost2010Prop39
140
1.0
102
RTVSPost2010PropOp39
 70
     0
102
RTVSPost2010Prop40
 90
        0
102
RTVSPost2010PropOp40
 70
     0
102
RTVSPost2010Prop41ColorIndex
 90
      178
102
RTVSPost2010Prop41ColorRGB
 90
        0
102
RTVSPost2010PropOp41
 70
     0
102
RTVSPost2010Prop42
 90
       50
102
RTVSPost2010PropOp42
 70
     0
102
RTVSPost2010Prop43
 90
        3
102
RTVSPost2010PropOp43
 70
     0
102
RTVSPost2010Prop44ColorIndex
 90
        5
102
RTVSPost2010Prop44ColorRGB
 90
      255
102
RTVSPost2010PropOp44
 70
     0
102
RTVSPost2010Prop45
280
     0
102
RTVSPost2010PropOp45
 70
     0
102
RTVSPost2010Prop46
 90
       50
102
RTVSPost2010PropOp46
 70
     0
102
RTVSPost2010Prop47
 90
       50
102
RTVSPost2010PropOp47
 70
     0
102
RTVSPost2010Prop48
 90
       50
102
RTVSPost2010PropOp48
 70
     0
102
RTVSPost2010Prop49
280
     0
102
RTVSPost2010PropOp49
 70
     0
102
RTVSPost2010Prop50
 90
       50
102
RTVSPost2010PropOp50
 70
     0
102
RTVSPost2010Prop51ColorIndex
 90
      256
102
RTVSPost2010Prop51ColorRGB
 90
-16777216
102
RTVSPost2010PropOp51
 70
     0
102
RTVSPost2010Prop52
140
1.0
102
RTVSPost2010PropOp52
 70
     0
102
RTVSPost2010Prop53
 90
        2
102
RTVSPost2010PropOp53
 70
     0
102
RTVSPost2010Prop54
  1
strokes_ogs.tif
102
RTVSPost2010PropOp54
 70
     0
102
RTVSPost2010Prop55
280
     0
102
RTVSPost2010PropOp55
 70
     0
102
RTVSPost2010Prop56
140
1.0
102
RTVSPost2010PropOp56
 70
     0
102
RTVSPost2010Prop57
140
1.0
102
RTVSPost2010PropOp57
 70
     0
  0
XRECORD
  5
C43
102
{ACAD_REACTORS
330
C42
102
}
330
C42
100
AcDbXrecord
280
     1
102
RTVSPost2010Prop28
280
     0
102
RTVSPost2010PropOp28
 70
     1
102
RTVSPost2010Prop29
280
     1
102
RTVSPost2010PropOp29
 70
     1
102
RTVSPost2010Prop30
280
     1
102
RTVSPost2010PropOp30
 70
     1
102
RTVSPost2010Prop31
280
     0
102
RTVSPost2010PropOp31
 70
     1
102
RTVSPost2010Prop32
280
     0
102
RTVSPost2010PropOp32
 70
     1
102
RTVSPost2010Prop33
280
     0
102
RTVSPost2010PropOp33
 70
     1
102
RTVSPost2010Prop34
280
     0
102
RTVSPost2010PropOp34
 70
     1
102
RTVSPost2010Prop35
280
     0
102
RTVSPost2010PropOp35
 70
     1
102
RTVSPost2010Prop36
280
     0
102
RTVSPost2010PropOp36
 70
     1
102
RTVSPost2010Prop37
 90
       50
102
RTVSPost2010PropOp37
 70
     1
102
RTVSPost2010Prop38
140
0.0
102
RTVSPost2010PropOp38
 70
     1
102
RTVSPost2010Prop39
140
1.0
102
RTVSPost2010PropOp39
 70
     1
102
RTVSPost2010Prop40
 90
        0
102
RTVSPost2010PropOp40
 70
     1
102
RTVSPost2010Prop41ColorIndex
 90
      178
102
RTVSPost2010Prop41ColorRGB
 90
        0
102
RTVSPost2010PropOp41
 70
     1
102
RTVSPost2010Prop42
 90
       50
102
RTVSPost2010PropOp42
 70
     1
102
RTVSPost2010Prop43
 90
        3
102
RTVSPost2010PropOp43
 70
     1
102
RTVSPost2010Prop44ColorIndex
 90
        5
102
RTVSPost2010Prop44ColorRGB
 90
      255
102
RTVSPost2010PropOp44
 70
     1
102
RTVSPost2010Prop45
280
     0
102
RTVSPost2010PropOp45
 70
     1
102
RTVSPost2010Prop46
 90
       50
102
RTVSPost2010PropOp46
 70
     1
102
RTVSPost2010Prop47
 90
       50
102
RTVSPost2010PropOp47
 70
     1
102
RTVSPost2010Prop48
 90
       50
102
RTVSPost2010PropOp48
 70
     1
102
RTVSPost2010Prop49
280
     0
102
RTVSPost2010PropOp49
 70
     1
102
RTVSPost2010Prop50
 90
       50
102
RTVSPost2010PropOp50
 70
     1
102
RTVSPost2010Prop51ColorIndex
 90
      256
102
RTVSPost2010Prop51ColorRGB
 90
-16777216
102
RTVSPost2010PropOp51
 70
     0
102
RTVSPost2010Prop52
140
1.0
102
RTVSPost2010PropOp52
 70
     0
102
RTVSPost2010Prop53
 90
        2
102
RTVSPost2010PropOp53
 70
     1
102
RTVSPost2010Prop54
  1
strokes_ogs.tif
102
RTVSPost2010PropOp54
 70
     1
102
RTVSPost2010Prop55
280
     0
102
RTVSPost2010PropOp55
 70
     1
102
RTVSPost2010Prop56
140
1.0
102
RTVSPost2010PropOp56
 70
     1
102
RTVSPost2010Prop57
140
1.0
102
RTVSPost2010PropOp57
 70
     1
  0
XRECORD
  5
C45
102
{ACAD_REACTORS
330
C44
102
}
330
C44
100
AcDbXrecord
280
     1
102
RTVSPost2010Prop28
280
     0
102
RTVSPost2010PropOp28
 70
     0
102
RTVSPost2010Prop29
280
     1
102
RTVSPost2010PropOp29
 70
     0
102
RTVSPost2010Prop30
280
     1
102
RTVSPost2010PropOp30
 70
     0
102
RTVSPost2010Prop31
280
     0
102
RTVSPost2010PropOp31
 70
     0
102
RTVSPost2010Prop32
280
     0
102
RTVSPost2010PropOp32
 70
     0
102
RTVSPost2010Prop33
280
     0
102
RTVSPost2010PropOp33
 70
     0
102
RTVSPost2010Prop34
280
     0
102
RTVSPost2010PropOp34
 70
     0
102
RTVSPost2010Prop35
280
     0
102
RTVSPost2010PropOp35
 70
     0
102
RTVSPost2010Prop36
280
     0
102
RTVSPost2010PropOp36
 70
     0
102
RTVSPost2010Prop37
 90
       50
102
RTVSPost2010PropOp37
 70
     0
102
RTVSPost2010Prop38
140
0.0
102
RTVSPost2010PropOp38
 70
     0
102
RTVSPost2010Prop39
140
1.0
102
RTVSPost2010PropOp39
 70
     0
102
RTVSPost2010Prop40
 90
        0
102
RTVSPost2010PropOp40
 70
     0
102
RTVSPost2010Prop41ColorIndex
 90
      178
102
RTVSPost2010Prop41ColorRGB
 90
        0
102
RTVSPost2010PropOp41
 70
     0
102
RTVSPost2010Prop42
 90
       50
102
RTVSPost2010PropOp42
 70
     0
102
RTVSPost2010Prop43
 90
        3
102
RTVSPost2010PropOp43
 70
     0
102
RTVSPost2010Prop44ColorIndex
 90
        5
102
RTVSPost2010Prop44ColorRGB
 90
      255
102
RTVSPost2010PropOp44
 70
     0
102
RTVSPost2010Prop45
280
     0
102
RTVSPost2010PropOp45
 70
     0
102
RTVSPost2010Prop46
 90
       50
102
RTVSPost2010PropOp46
 70
     0
102
RTVSPost2010Prop47
 90
       50
102
RTVSPost2010PropOp47
 70
     0
102
RTVSPost2010Prop48
 90
       50
102
RTVSPost2010PropOp48
 70
     0
102
RTVSPost2010Prop49
280
     0
102
RTVSPost2010PropOp49
 70
     0
102
RTVSPost2010Prop50
 90
       50
102
RTVSPost2010PropOp50
 70
     0
102
RTVSPost2010Prop51ColorIndex
 90
      256
102
RTVSPost2010Prop51ColorRGB
 90
-16777216
102
RTVSPost2010PropOp51
 70
     0
102
RTVSPost2010Prop52
140
1.0
102
RTVSPost2010PropOp52
 70
     0
102
RTVSPost2010Prop53
 90
        2
102
RTVSPost2010PropOp53
 70
     0
102
RTVSPost2010Prop54
  1
strokes_ogs.tif
102
RTVSPost2010PropOp54
 70
     0
102
RTVSPost2010Prop55
280
     0
102
RTVSPost2010PropOp55
 70
     0
102
RTVSPost2010Prop56
140
1.0
102
RTVSPost2010PropOp56
 70
     0
102
RTVSPost2010Prop57
140
1.0
102
RTVSPost2010PropOp57
 70
     0
  0
XRECORD
  5
C47
102
{ACAD_REACTORS
330
C46
102
}
330
C46
100
AcDbXrecord
280
     1
102
RTVSPost2010Prop28
280
     0
102
RTVSPost2010PropOp28
 70
     1
102
RTVSPost2010Prop29
280
     1
102
RTVSPost2010PropOp29
 70
     1
102
RTVSPost2010Prop30
280
     1
102
RTVSPost2010PropOp30
 70
     1
102
RTVSPost2010Prop31
280
     0
102
RTVSPost2010PropOp31
 70
     1
102
RTVSPost2010Prop32
280
     0
102
RTVSPost2010PropOp32
 70
     1
102
RTVSPost2010Prop33
280
     0
102
RTVSPost2010PropOp33
 70
     1
102
RTVSPost2010Prop34
280
     0
102
RTVSPost2010PropOp34
 70
     1
102
RTVSPost2010Prop35
280
     0
102
RTVSPost2010PropOp35
 70
     1
102
RTVSPost2010Prop36
280
     0
102
RTVSPost2010PropOp36
 70
     1
102
RTVSPost2010Prop37
 90
       50
102
RTVSPost2010PropOp37
 70
     1
102
RTVSPost2010Prop38
140
0.0
102
RTVSPost2010PropOp38
 70
     1
102
RTVSPost2010Prop39
140
1.0
102
RTVSPost2010PropOp39
 70
     1
102
RTVSPost2010Prop40
 90
        0
102
RTVSPost2010PropOp40
 70
     1
102
RTVSPost2010Prop41ColorIndex
 90
      178
102
RTVSPost2010Prop41ColorRGB
 90
        0
102
RTVSPost2010PropOp41
 70
     1
102
RTVSPost2010Prop42
 90
       50
102
RTVSPost2010PropOp42
 70
     1
102
RTVSPost2010Prop43
 90
        3
102
RTVSPost2010PropOp43
 70
     1
102
RTVSPost2010Prop44ColorIndex
 90
        5
102
RTVSPost2010Prop44ColorRGB
 90
      255
102
RTVSPost2010PropOp44
 70
     1
102
RTVSPost2010Prop45
280
     0
102
RTVSPost2010PropOp45
 70
     1
102
RTVSPost2010Prop46
 90
       50
102
RTVSPost2010PropOp46
 70
     1
102
RTVSPost2010Prop47
 90
       50
102
RTVSPost2010PropOp47
 70
     1
102
RTVSPost2010Prop48
 90
       50
102
RTVSPost2010PropOp48
 70
     1
102
RTVSPost2010Prop49
280
     0
102
RTVSPost2010PropOp49
 70
     1
102
RTVSPost2010Prop50
 90
       50
102
RTVSPost2010PropOp50
 70
     1
102
RTVSPost2010Prop51ColorIndex
 90
      256
102
RTVSPost2010Prop51ColorRGB
 90
-16777216
102
RTVSPost2010PropOp51
 70
     0
102
RTVSPost2010Prop52
140
1.0
102
RTVSPost2010PropOp52
 70
     0
102
RTVSPost2010Prop53
 90
        2
102
RTVSPost2010PropOp53
 70
     1
102
RTVSPost2010Prop54
  1
strokes_ogs.tif
102
RTVSPost2010PropOp54
 70
     1
102
RTVSPost2010Prop55
280
     0
102
RTVSPost2010PropOp55
 70
     1
102
RTVSPost2010Prop56
140
1.0
102
RTVSPost2010PropOp56
 70
     1
102
RTVSPost2010Prop57
140
1.0
102
RTVSPost2010PropOp57
 70
     1
  0
XRECORD
  5
C49
102
{ACAD_REACTORS
330
C48
102
}
330
C48
100
AcDbXrecord
280
     1
102
RTVSPost2010Prop28
280
     0
102
RTVSPost2010PropOp28
 70
     1
102
RTVSPost2010Prop29
280
     1
102
RTVSPost2010PropOp29
 70
     1
102
RTVSPost2010Prop30
280
     1
102
RTVSPost2010PropOp30
 70
     1
102
RTVSPost2010Prop31
280
     0
102
RTVSPost2010PropOp31
 70
     1
102
RTVSPost2010Prop32
280
     0
102
RTVSPost2010PropOp32
 70
     1
102
RTVSPost2010Prop33
280
     0
102
RTVSPost2010PropOp33
 70
     1
102
RTVSPost2010Prop34
280
     0
102
RTVSPost2010PropOp34
 70
     1
102
RTVSPost2010Prop35
280
     0
102
RTVSPost2010PropOp35
 70
     1
102
RTVSPost2010Prop36
280
     0
102
RTVSPost2010PropOp36
 70
     1
102
RTVSPost2010Prop37
 90
       50
102
RTVSPost2010PropOp37
 70
     1
102
RTVSPost2010Prop38
140
0.0
102
RTVSPost2010PropOp38
 70
     1
102
RTVSPost2010Prop39
140
1.0
102
RTVSPost2010PropOp39
 70
     1
102
RTVSPost2010Prop40
 90
        0
102
RTVSPost2010PropOp40
 70
     1
102
RTVSPost2010Prop41ColorIndex
 90
      178
102
RTVSPost2010Prop41ColorRGB
 90
        0
102
RTVSPost2010PropOp41
 70
     1
102
RTVSPost2010Prop42
 90
       50
102
RTVSPost2010PropOp42
 70
     1
102
RTVSPost2010Prop43
 90
        3
102
RTVSPost2010PropOp43
 70
     1
102
RTVSPost2010Prop44ColorIndex
 90
        5
102
RTVSPost2010Prop44ColorRGB
 90
      255
102
RTVSPost2010PropOp44
 70
     1
102
RTVSPost2010Prop45
280
     0
102
RTVSPost2010PropOp45
 70
     1
102
RTVSPost2010Prop46
 90
       50
102
RTVSPost2010PropOp46
 70
     1
102
RTVSPost2010Prop47
 90
       50
102
RTVSPost2010PropOp47
 70
     1
102
RTVSPost2010Prop48
 90
       50
102
RTVSPost2010PropOp48
 70
     1
102
RTVSPost2010Prop49
280
     0
102
RTVSPost2010PropOp49
 70
     1
102
RTVSPost2010Prop50
 90
       50
102
RTVSPost2010PropOp50
 70
     1
102
RTVSPost2010Prop51ColorIndex
 90
      256
102
RTVSPost2010Prop51ColorRGB
 90
-16777216
102
RTVSPost2010PropOp51
 70
     0
102
RTVSPost2010Prop52
140
1.0
102
RTVSPost2010PropOp52
 70
     0
102
RTVSPost2010Prop53
 90
        2
102
RTVSPost2010PropOp53
 70
     1
102
RTVSPost2010Prop54
  1
strokes_ogs.tif
102
RTVSPost2010PropOp54
 70
     1
102
RTVSPost2010Prop55
280
     0
102
RTVSPost2010PropOp55
 70
     1
102
RTVSPost2010Prop56
140
1.0
102
RTVSPost2010PropOp56
 70
     1
102
RTVSPost2010Prop57
140
1.0
102
RTVSPost2010PropOp57
 70
     1
  0
XRECORD
  5
C4B
102
{ACAD_REACTORS
330
C4A
102
}
330
C4A
100
AcDbXrecord
280
     1
102
RTVSPost2010Prop28
280
     0
102
RTVSPost2010PropOp28
 70
     1
102
RTVSPost2010Prop29
280
     1
102
RTVSPost2010PropOp29
 70
     1
102
RTVSPost2010Prop30
280
     1
102
RTVSPost2010PropOp30
 70
     1
102
RTVSPost2010Prop31
280
     0
102
RTVSPost2010PropOp31
 70
     1
102
RTVSPost2010Prop32
280
     0
102
RTVSPost2010PropOp32
 70
     1
102
RTVSPost2010Prop33
280
     0
102
RTVSPost2010PropOp33
 70
     1
102
RTVSPost2010Prop34
280
     0
102
RTVSPost2010PropOp34
 70
     1
102
RTVSPost2010Prop35
280
     0
102
RTVSPost2010PropOp35
 70
     1
102
RTVSPost2010Prop36
280
     0
102
RTVSPost2010PropOp36
 70
     1
102
RTVSPost2010Prop37
 90
       50
102
RTVSPost2010PropOp37
 70
     1
102
RTVSPost2010Prop38
140
0.0
102
RTVSPost2010PropOp38
 70
     1
102
RTVSPost2010Prop39
140
1.0
102
RTVSPost2010PropOp39
 70
     1
102
RTVSPost2010Prop40
 90
        0
102
RTVSPost2010PropOp40
 70
     1
102
RTVSPost2010Prop41ColorIndex
 90
      178
102
RTVSPost2010Prop41ColorRGB
 90
        0
102
RTVSPost2010PropOp41
 70
     1
102
RTVSPost2010Prop42
 90
       50
102
RTVSPost2010PropOp42
 70
     1
102
RTVSPost2010Prop43
 90
        3
102
RTVSPost2010PropOp43
 70
     1
102
RTVSPost2010Prop44ColorIndex
 90
        5
102
RTVSPost2010Prop44ColorRGB
 90
      255
102
RTVSPost2010PropOp44
 70
     1
102
RTVSPost2010Prop45
280
     0
102
RTVSPost2010PropOp45
 70
     1
102
RTVSPost2010Prop46
 90
       50
102
RTVSPost2010PropOp46
 70
     1
102
RTVSPost2010Prop47
 90
       50
102
RTVSPost2010PropOp47
 70
     1
102
RTVSPost2010Prop48
 90
       50
102
RTVSPost2010PropOp48
 70
     1
102
RTVSPost2010Prop49
280
     0
102
RTVSPost2010PropOp49
 70
     1
102
RTVSPost2010Prop50
 90
       50
102
RTVSPost2010PropOp50
 70
     1
102
RTVSPost2010Prop51ColorIndex
 90
      256
102
RTVSPost2010Prop51ColorRGB
 90
-16777216
102
RTVSPost2010PropOp51
 70
     0
102
RTVSPost2010Prop52
140
1.0
102
RTVSPost2010PropOp52
 70
     0
102
RTVSPost2010Prop53
 90
        2
102
RTVSPost2010PropOp53
 70
     1
102
RTVSPost2010Prop54
  1
strokes_ogs.tif
102
RTVSPost2010PropOp54
 70
     1
102
RTVSPost2010Prop55
280
     0
102
RTVSPost2010PropOp55
 70
     1
102
RTVSPost2010Prop56
140
1.0
102
RTVSPost2010PropOp56
 70
     1
102
RTVSPost2010Prop57
140
1.0
102
RTVSPost2010PropOp57
 70
     1
  0
XRECORD
  5
C4D
102
{ACAD_REACTORS
330
C4C
102
}
330
C4C
100
AcDbXrecord
280
     1
102
RTVSPost2010Prop28
280
     0
102
RTVSPost2010PropOp28
 70
     1
102
RTVSPost2010Prop29
280
     1
102
RTVSPost2010PropOp29
 70
     1
102
RTVSPost2010Prop30
280
     1
102
RTVSPost2010PropOp30
 70
     1
102
RTVSPost2010Prop31
280
     0
102
RTVSPost2010PropOp31
 70
     1
102
RTVSPost2010Prop32
280
     0
102
RTVSPost2010PropOp32
 70
     1
102
RTVSPost2010Prop33
280
     0
102
RTVSPost2010PropOp33
 70
     1
102
RTVSPost2010Prop34
280
     0
102
RTVSPost2010PropOp34
 70
     1
102
RTVSPost2010Prop35
280
     0
102
RTVSPost2010PropOp35
 70
     1
102
RTVSPost2010Prop36
280
     0
102
RTVSPost2010PropOp36
 70
     1
102
RTVSPost2010Prop37
 90
       50
102
RTVSPost2010PropOp37
 70
     1
102
RTVSPost2010Prop38
140
0.0
102
RTVSPost2010PropOp38
 70
     1
102
RTVSPost2010Prop39
140
1.0
102
RTVSPost2010PropOp39
 70
     1
102
RTVSPost2010Prop40
 90
        0
102
RTVSPost2010PropOp40
 70
     1
102
RTVSPost2010Prop41ColorIndex
 90
      178
102
RTVSPost2010Prop41ColorRGB
 90
        0
102
RTVSPost2010PropOp41
 70
     1
102
RTVSPost2010Prop42
 90
       50
102
RTVSPost2010PropOp42
 70
     1
102
RTVSPost2010Prop43
 90
        3
102
RTVSPost2010PropOp43
 70
     1
102
RTVSPost2010Prop44ColorIndex
 90
        5
102
RTVSPost2010Prop44ColorRGB
 90
      255
102
RTVSPost2010PropOp44
 70
     1
102
RTVSPost2010Prop45
280
     0
102
RTVSPost2010PropOp45
 70
     1
102
RTVSPost2010Prop46
 90
       50
102
RTVSPost2010PropOp46
 70
     1
102
RTVSPost2010Prop47
 90
       50
102
RTVSPost2010PropOp47
 70
     1
102
RTVSPost2010Prop48
 90
       50
102
RTVSPost2010PropOp48
 70
     1
102
RTVSPost2010Prop49
280
     0
102
RTVSPost2010PropOp49
 70
     1
102
RTVSPost2010Prop50
 90
       50
102
RTVSPost2010PropOp50
 70
     1
102
RTVSPost2010Prop51ColorIndex
 90
      256
102
RTVSPost2010Prop51ColorRGB
 90
-16777216
102
RTVSPost2010PropOp51
 70
     0
102
RTVSPost2010Prop52
140
1.0
102
RTVSPost2010PropOp52
 70
     0
102
RTVSPost2010Prop53
 90
        2
102
RTVSPost2010PropOp53
 70
     1
102
RTVSPost2010Prop54
  1
strokes_ogs.tif
102
RTVSPost2010PropOp54
 70
     1
102
RTVSPost2010Prop55
280
     0
102
RTVSPost2010PropOp55
 70
     1
102
RTVSPost2010Prop56
140
1.0
102
RTVSPost2010PropOp56
 70
     1
102
RTVSPost2010Prop57
140
1.0
102
RTVSPost2010PropOp57
 70
     1
  0
XRECORD
  5
C4F
102
{ACAD_REACTORS
330
C4E
102
}
330
C4E
100
AcDbXrecord
280
     1
102
RTVSPost2010Prop28
280
     0
102
RTVSPost2010PropOp28
 70
     1
102
RTVSPost2010Prop29
280
     1
102
RTVSPost2010PropOp29
 70
     1
102
RTVSPost2010Prop30
280
     1
102
RTVSPost2010PropOp30
 70
     1
102
RTVSPost2010Prop31
280
     0
102
RTVSPost2010PropOp31
 70
     1
102
RTVSPost2010Prop32
280
     0
102
RTVSPost2010PropOp32
 70
     1
102
RTVSPost2010Prop33
280
     0
102
RTVSPost2010PropOp33
 70
     1
102
RTVSPost2010Prop34
280
     0
102
RTVSPost2010PropOp34
 70
     1
102
RTVSPost2010Prop35
280
     0
102
RTVSPost2010PropOp35
 70
     1
102
RTVSPost2010Prop36
280
     0
102
RTVSPost2010PropOp36
 70
     1
102
RTVSPost2010Prop37
 90
       50
102
RTVSPost2010PropOp37
 70
     1
102
RTVSPost2010Prop38
140
0.0
102
RTVSPost2010PropOp38
 70
     1
102
RTVSPost2010Prop39
140
1.0
102
RTVSPost2010PropOp39
 70
     1
102
RTVSPost2010Prop40
 90
        0
102
RTVSPost2010PropOp40
 70
     1
102
RTVSPost2010Prop41ColorIndex
 90
      178
102
RTVSPost2010Prop41ColorRGB
 90
        0
102
RTVSPost2010PropOp41
 70
     1
102
RTVSPost2010Prop42
 90
       50
102
RTVSPost2010PropOp42
 70
     1
102
RTVSPost2010Prop43
 90
        3
102
RTVSPost2010PropOp43
 70
     1
102
RTVSPost2010Prop44ColorIndex
 90
        5
102
RTVSPost2010Prop44ColorRGB
 90
      255
102
RTVSPost2010PropOp44
 70
     1
102
RTVSPost2010Prop45
280
     0
102
RTVSPost2010PropOp45
 70
     1
102
RTVSPost2010Prop46
 90
       50
102
RTVSPost2010PropOp46
 70
     1
102
RTVSPost2010Prop47
 90
       50
102
RTVSPost2010PropOp47
 70
     1
102
RTVSPost2010Prop48
 90
       50
102
RTVSPost2010PropOp48
 70
     1
102
RTVSPost2010Prop49
280
     0
102
RTVSPost2010PropOp49
 70
     1
102
RTVSPost2010Prop50
 90
       50
102
RTVSPost2010PropOp50
 70
     1
102
RTVSPost2010Prop51ColorIndex
 90
      256
102
RTVSPost2010Prop51ColorRGB
 90
-16777216
102
RTVSPost2010PropOp51
 70
     0
102
RTVSPost2010Prop52
140
1.0
102
RTVSPost2010PropOp52
 70
     0
102
RTVSPost2010Prop53
 90
        2
102
RTVSPost2010PropOp53
 70
     1
102
RTVSPost2010Prop54
  1
strokes_ogs.tif
102
RTVSPost2010PropOp54
 70
     1
102
RTVSPost2010Prop55
280
     0
102
RTVSPost2010PropOp55
 70
     1
102
RTVSPost2010Prop56
140
1.0
102
RTVSPost2010PropOp56
 70
     1
102
RTVSPost2010Prop57
140
1.0
102
RTVSPost2010PropOp57
 70
     1
  0
XRECORD
  5
C51
102
{ACAD_REACTORS
330
C50
102
}
330
C50
100
AcDbXrecord
280
     1
102
RTVSPost2010Prop28
280
     0
102
RTVSPost2010PropOp28
 70
     1
102
RTVSPost2010Prop29
280
     1
102
RTVSPost2010PropOp29
 70
     1
102
RTVSPost2010Prop30
280
     1
102
RTVSPost2010PropOp30
 70
     1
102
RTVSPost2010Prop31
280
     0
102
RTVSPost2010PropOp31
 70
     1
102
RTVSPost2010Prop32
280
     0
102
RTVSPost2010PropOp32
 70
     1
102
RTVSPost2010Prop33
280
     0
102
RTVSPost2010PropOp33
 70
     1
102
RTVSPost2010Prop34
280
     0
102
RTVSPost2010PropOp34
 70
     1
102
RTVSPost2010Prop35
280
     0
102
RTVSPost2010PropOp35
 70
     1
102
RTVSPost2010Prop36
280
     0
102
RTVSPost2010PropOp36
 70
     1
102
RTVSPost2010Prop37
 90
       50
102
RTVSPost2010PropOp37
 70
     1
102
RTVSPost2010Prop38
140
0.0
102
RTVSPost2010PropOp38
 70
     1
102
RTVSPost2010Prop39
140
1.0
102
RTVSPost2010PropOp39
 70
     1
102
RTVSPost2010Prop40
 90
        0
102
RTVSPost2010PropOp40
 70
     1
102
RTVSPost2010Prop41ColorIndex
 90
      178
102
RTVSPost2010Prop41ColorRGB
 90
        0
102
RTVSPost2010PropOp41
 70
     1
102
RTVSPost2010Prop42
 90
       50
102
RTVSPost2010PropOp42
 70
     1
102
RTVSPost2010Prop43
 90
        3
102
RTVSPost2010PropOp43
 70
     1
102
RTVSPost2010Prop44ColorIndex
 90
        5
102
RTVSPost2010Prop44ColorRGB
 90
      255
102
RTVSPost2010PropOp44
 70
     1
102
RTVSPost2010Prop45
280
     0
102
RTVSPost2010PropOp45
 70
     1
102
RTVSPost2010Prop46
 90
       50
102
RTVSPost2010PropOp46
 70
     1
102
RTVSPost2010Prop47
 90
       50
102
RTVSPost2010PropOp47
 70
     1
102
RTVSPost2010Prop48
 90
       50
102
RTVSPost2010PropOp48
 70
     1
102
RTVSPost2010Prop49
280
     0
102
RTVSPost2010PropOp49
 70
     1
102
RTVSPost2010Prop50
 90
       50
102
RTVSPost2010PropOp50
 70
     1
102
RTVSPost2010Prop51ColorIndex
 90
      256
102
RTVSPost2010Prop51ColorRGB
 90
-16777216
102
RTVSPost2010PropOp51
 70
     0
102
RTVSPost2010Prop52
140
1.0
102
RTVSPost2010PropOp52
 70
     0
102
RTVSPost2010Prop53
 90
        2
102
RTVSPost2010PropOp53
 70
     1
102
RTVSPost2010Prop54
  1
strokes_ogs.tif
102
RTVSPost2010PropOp54
 70
     1
102
RTVSPost2010Prop55
280
     0
102
RTVSPost2010PropOp55
 70
     1
102
RTVSPost2010Prop56
140
1.0
102
RTVSPost2010PropOp56
 70
     1
102
RTVSPost2010Prop57
140
1.0
102
RTVSPost2010PropOp57
 70
     1
  0
XRECORD
  5
C53
102
{ACAD_REACTORS
330
C52
102
}
330
C52
100
AcDbXrecord
280
     1
102
RTVSPost2010Prop28
280
     0
102
RTVSPost2010PropOp28
 70
     1
102
RTVSPost2010Prop29
280
     1
102
RTVSPost2010PropOp29
 70
     1
102
RTVSPost2010Prop30
280
     1
102
RTVSPost2010PropOp30
 70
     1
102
RTVSPost2010Prop31
280
     0
102
RTVSPost2010PropOp31
 70
     1
102
RTVSPost2010Prop32
280
     0
102
RTVSPost2010PropOp32
 70
     1
102
RTVSPost2010Prop33
280
     0
102
RTVSPost2010PropOp33
 70
     1
102
RTVSPost2010Prop34
280
     0
102
RTVSPost2010PropOp34
 70
     1
102
RTVSPost2010Prop35
280
     0
102
RTVSPost2010PropOp35
 70
     1
102
RTVSPost2010Prop36
280
     0
102
RTVSPost2010PropOp36
 70
     1
102
RTVSPost2010Prop37
 90
       50
102
RTVSPost2010PropOp37
 70
     1
102
RTVSPost2010Prop38
140
0.0
102
RTVSPost2010PropOp38
 70
     1
102
RTVSPost2010Prop39
140
1.0
102
RTVSPost2010PropOp39
 70
     1
102
RTVSPost2010Prop40
 90
        0
102
RTVSPost2010PropOp40
 70
     1
102
RTVSPost2010Prop41ColorIndex
 90
      178
102
RTVSPost2010Prop41ColorRGB
 90
        0
102
RTVSPost2010PropOp41
 70
     1
102
RTVSPost2010Prop42
 90
       50
102
RTVSPost2010PropOp42
 70
     1
102
RTVSPost2010Prop43
 90
        3
102
RTVSPost2010PropOp43
 70
     1
102
RTVSPost2010Prop44ColorIndex
 90
        5
102
RTVSPost2010Prop44ColorRGB
 90
      255
102
RTVSPost2010PropOp44
 70
     1
102
RTVSPost2010Prop45
280
     0
102
RTVSPost2010PropOp45
 70
     1
102
RTVSPost2010Prop46
 90
       50
102
RTVSPost2010PropOp46
 70
     1
102
RTVSPost2010Prop47
 90
       50
102
RTVSPost2010PropOp47
 70
     1
102
RTVSPost2010Prop48
 90
       50
102
RTVSPost2010PropOp48
 70
     1
102
RTVSPost2010Prop49
280
     0
102
RTVSPost2010PropOp49
 70
     1
102
RTVSPost2010Prop50
 90
       50
102
RTVSPost2010PropOp50
 70
     1
102
RTVSPost2010Prop51ColorIndex
 90
      256
102
RTVSPost2010Prop51ColorRGB
 90
-16777216
102
RTVSPost2010PropOp51
 70
     0
102
RTVSPost2010Prop52
140
1.0
102
RTVSPost2010PropOp52
 70
     0
102
RTVSPost2010Prop53
 90
        2
102
RTVSPost2010PropOp53
 70
     1
102
RTVSPost2010Prop54
  1
strokes_ogs.tif
102
RTVSPost2010PropOp54
 70
     1
102
RTVSPost2010Prop55
280
     0
102
RTVSPost2010PropOp55
 70
     1
102
RTVSPost2010Prop56
140
1.0
102
RTVSPost2010PropOp56
 70
     1
102
RTVSPost2010Prop57
140
1.0
102
RTVSPost2010PropOp57
 70
     1
  0
XRECORD
  5
C55
102
{ACAD_REACTORS
330
C54
102
}
330
C54
100
AcDbXrecord
280
     1
102
RTVSPost2010Prop28
280
     0
102
RTVSPost2010PropOp28
 70
     1
102
RTVSPost2010Prop29
280
     1
102
RTVSPost2010PropOp29
 70
     1
102
RTVSPost2010Prop30
280
     1
102
RTVSPost2010PropOp30
 70
     1
102
RTVSPost2010Prop31
280
     0
102
RTVSPost2010PropOp31
 70
     1
102
RTVSPost2010Prop32
280
     0
102
RTVSPost2010PropOp32
 70
     1
102
RTVSPost2010Prop33
280
     0
102
RTVSPost2010PropOp33
 70
     1
102
RTVSPost2010Prop34
280
     0
102
RTVSPost2010PropOp34
 70
     1
102
RTVSPost2010Prop35
280
     0
102
RTVSPost2010PropOp35
 70
     1
102
RTVSPost2010Prop36
280
     0
102
RTVSPost2010PropOp36
 70
     1
102
RTVSPost2010Prop37
 90
       50
102
RTVSPost2010PropOp37
 70
     1
102
RTVSPost2010Prop38
140
0.0
102
RTVSPost2010PropOp38
 70
     1
102
RTVSPost2010Prop39
140
1.0
102
RTVSPost2010PropOp39
 70
     1
102
RTVSPost2010Prop40
 90
        0
102
RTVSPost2010PropOp40
 70
     1
102
RTVSPost2010Prop41ColorIndex
 90
      178
102
RTVSPost2010Prop41ColorRGB
 90
        0
102
RTVSPost2010PropOp41
 70
     1
102
RTVSPost2010Prop42
 90
       50
102
RTVSPost2010PropOp42
 70
     1
102
RTVSPost2010Prop43
 90
        3
102
RTVSPost2010PropOp43
 70
     1
102
RTVSPost2010Prop44ColorIndex
 90
        5
102
RTVSPost2010Prop44ColorRGB
 90
      255
102
RTVSPost2010PropOp44
 70
     1
102
RTVSPost2010Prop45
280
     0
102
RTVSPost2010PropOp45
 70
     1
102
RTVSPost2010Prop46
 90
       50
102
RTVSPost2010PropOp46
 70
     1
102
RTVSPost2010Prop47
 90
       50
102
RTVSPost2010PropOp47
 70
     1
102
RTVSPost2010Prop48
 90
       50
102
RTVSPost2010PropOp48
 70
     1
102
RTVSPost2010Prop49
280
     0
102
RTVSPost2010PropOp49
 70
     1
102
RTVSPost2010Prop50
 90
       50
102
RTVSPost2010PropOp50
 70
     1
102
RTVSPost2010Prop51ColorIndex
 90
      256
102
RTVSPost2010Prop51ColorRGB
 90
-16777216
102
RTVSPost2010PropOp51
 70
     0
102
RTVSPost2010Prop52
140
1.0
102
RTVSPost2010PropOp52
 70
     0
102
RTVSPost2010Prop53
 90
        2
102
RTVSPost2010PropOp53
 70
     1
102
RTVSPost2010Prop54
  1
strokes_ogs.tif
102
RTVSPost2010PropOp54
 70
     1
102
RTVSPost2010Prop55
280
     0
102
RTVSPost2010PropOp55
 70
     1
102
RTVSPost2010Prop56
140
1.0
102
RTVSPost2010PropOp56
 70
     1
102
RTVSPost2010Prop57
140
1.0
102
RTVSPost2010PropOp57
 70
     1
  0
ENDSEC
  0
SECTION
  2
THUMBNAILIMAGE
 90
    26152
310
28000000C40000008000000001000800000000000000000048000000480000000001000000000000000000FF1F1F7FFF1F1FBFFF1F1FFFFF1F3F3FFF1F3F7FFF1F3FBFFF1F3FFFFF1F5F3FFF1F5F7FFF1F5FBFFF1F5FFFFF1F7F3FFF1F7F7FFF1F7FBFFF1F7FFFFF1F9F3FFF1F9F7FFF1F9FBFFF1F9FFFFF1FBF3FFF1FBF7F
310
FF1FBFBFFF1FBFFFFF1FDF3FFF1FDF7FFF1FDFBFFF1FDFFFFF1FFF3FFF1FFF7FFF1FFFBFFF1FFFFFFF3F1F3FFF3F1F7FFF3F1FBFFF3F1FFFFF3F3F3FFF3F3F7FFF3F3FBFFF3F3FFFFF3F5F3FFF3F5F7FFF3F5FBFFF3F5FFFFF3F7F3FFF3F7F7FFF3F7FBFFF3F7FFFFF3F9F3FFF3F9F7FFF3F9FBFFF3F9FFFFF3FBF3FFF3FBF
310
7FFF3FBFBFFF3FBFFFFF3FDF3FFF3FDF7FFF3FDFBFFF3FDFFFFF3FFF3FFF3FFF7FFF3FFFBFFF3FFFFFFF5F1F3FFF5F1F7FFF5F1FBFFF5F1FFFFF5F3F3FFF5F3F7FFF5F3FBFFF5F3FFFFF5F5F3FFF5F5F7FFF5F5FBFFF5F5FFFFF5F7F3FFF5F7F7FFF5F7FBFFF5F7FFFFF5F9F3FFF5F9F7FFF5F9FBFFF5F9FFFFF5FBF3FFF5F
310
BF7FFF5FBFBFFF5FBFFFFF5FDF3FFF5FDF7FFF5FDFBFFF5FDFFFFF5FFF3FFF5FFF7FFF5FFFBFFF5FFFFFFF7F1F3FFF7F1F7FFF7F1FBFFF7F1FFFFF7F3F3FFF7F3F7FFF7F3FBFFF7F3FFFFF7F5F3FFF7F5F7FFF7F5FBFFF7F5FFFFF7F7F3FFF7F7F7FFF7F7FBFFF7F7FFFFF7F9F3FFF7F9F7FFF7F9FBFFF7F9FFFFF7FBF3FFF
310
7FBF7FFF7FBFBFFF7FBFFFFF7FDF3FFF7FDF7FFF7FDFBFFF7FDFFFFF7FFF3FFF7FFF7FFF7FFFBFFF7FFFFFFF9F1F3FFF9F1F7FFF9F1FBFFF9F1FFFFF9F3F3FFF9F3F7FFF9F3FBFFF9F3FFFFF9F5F3FFF9F5F7FFF9F5FBFFF9F5FFFFF9F7F3FFF9F7F7FFF9F7FBFFF9F7FFFFF9F9F3FFF9F9F7FFF9F9FBFFF9F9FFFFF9FBF3F
310
FF9FBF7FFF9FBFBFFF9FBFFFFF9FDF3FFF9FDF7FFF9FDFBFFF9FDFFFFF9FFF3FFF9FFF7FFF9FFFBFFF9FFFFFFFBF1F3FFFBF1F7FFFBF1FBFFFBF1FFFFFBF3F3FFFBF3F7FFFBF3FBFFFBF3FFFFFBF5F3FFFBF5F7FFFBF5FBFFFBF5FFFFFBF7F3FFFBF7F7FFFBF7FBFFFBF7FFFFFBF9F3FFFBF9F7FFFBF9FBFFFBF9FFFFFBFBF
310
3FFFBFBF7FFFBFBFBFFFBFBFFFFFBFDF3FFFBFDF7FFFBFDFBFFFBFDFFFFFBFFF3FFFBFFF7FFFBFFFBFFFBFFFFFFFDF1F3FFFDF1F7FFFDF1FBFFFDF1FFFFFDF3F3FFFDF3F7FFFDF3FBFFFDF3FFFFFDF5F3FFFDF5F7FFFDF5FBFFFDF5FFFFFDF7F3FFFDF7F7FFFDF7FBFFFDF7FFFFFDF9F3FFFDF9F7FFFDF9FBFFFDF9FFFFFDF
310
BF3FFFDFBF7FFFDFBFBFFFDFBFFFFFDFDF3FFFDFDF7FFFDFDFBFFFDFDFFFFFDFFF3FFFDFFF7FFFDFFFBFFFDFFFFFFFFF1F3FFFFF1F7FFFFF1FBFFFFF1FFFFFFF3F3FFFFF3F7FFFFF3FBFFFFF3FFFFFFF5F3FFFFF5F7FFFFF5FBFFFFF5FFFFFFF7F3FFFFF7F7FFFFF7FBFFFFF7FFFFFFF9F3FFFFF9F7FFFFF9FBFFFFF9FFFFF
310
FFBF3FFFFFBF7FFFFFBFBFFFFFBFFFFFFFDF3FFFFFDF7FFFFFDFBFFFFFDFFFFFFFFF3FFFFFFF7FFFFFFFBFFFFFFFFFFF00000000000000000000000000000000000000000000000000000000000000000000000000000000000000000000000000000000000000000000000000000000000000000000000000000000000000
310
00000000000000000000000000000000000000000000000000000000000000000000000000000000000000000000000000000000000000000000000000000000000000000000000000000000000000000000000000000000000000000000000000000000000000000000000000000000000000000000000000000000000000
310
00000000000000000000000000000000000000000000000000000000000000000000000000000000000000000000000000000000000000000000000000000000000000000000000000000000000000000000000000000000000000000000000000000000000000000000000000000000000000000000000000000000000000
310
00000000000000000000000000000000000000000000000000000000000000000000000000000000000000000000000000000000000000000000000000000000000000000000000000000000000000000000000000000000000000000000000000000000000000000000000000000000000000000000000000000000000000
310
00000000000000000000000000000000000000000000000000000000000000000000000000000000000000000000000000000000000000000000000000000000000000000000000000000000000000000000000000000000000000000000000000000000000000000000000000000000000000000000000000000000000000
310
00000000000000000000000000000000000000000000000000000000000000000000000000000000000000000000000000000000000000000000000000000000000000000000000000000000000000000000000000000000000000000000000000000000000000000000000000000000000000000000000000000000000000
310
00000000000000000000000000000000000000000000000000000000000000000000000000000000000000000000000000000000000000000000000000000000000000000000000000000000000000000000000000000000000000000000000000000000000000000000000000000000000000000000000000000000000000
310
00000000000000000000000000000000000000000000000000000000000000000000000000000000000000000000000000000000000000000000000000000000000000000000000000000000000000000000000000000000000000000000000000000000000000000000000000000000000000000000000000000000000000
310
00000000000000000000000000000000000000000000000000000000000000000000000000000000000000000000000000000000000000000000000000000000000000000000000000000000000000000000000000000000000000000000000000000000000000000000000000000000000000000000000000000000000000
310
00000000000000000000000000000000000000000000000000000000000000000000000000000000000000000000000000000000000000000000000000000000000000000000000000000000000000000000000000000000000000000000000000000000000000000000000000000000000000000000000000000000000000
310
00000000000000000000000000000000000000000000000000000000000000000000000000000000000000000000000000000000000000000000000000000000000000000000000000000000000000000000000000000000000000000000000000000000000000000000000000000000000000000000000000000000000000
310
00000000000000000000000000000000000000000000000000000000000000000000000000000000000000000000000000000000000000000000000000000000000000000000000000000000000000000000000000000000000000000000000000000000000000000000000000000000000000000000000000000000000000
310
00000000000000000000000000000000000000000000000000000000000000000000000000000000000000000000000000000000000000000000000000000000000000000000000000000000000000000000000000000000000000000000000000000000000000000000000000000000000000000000000000000000000000
310
00000000000000000000000000000000000000000000000000000000000000000000000000000000000000000000000000000000000000000000000000000000000000000000000000000000000000000000000000000000000000000000000000000000000000000000000000000000000000000000000000000000000000
310
00000000000000000000000000000000000000000000000000000000000000000000000000000000000000000000000000000000000000000000000000000000000000000000000000000000000000000000000000000000000000000000000000000000000000000000000000000000000000000000000000000000000000
310
00000000000000000000000000000000000000000000000000000000000000000000000000000000000000000000000000000000000000000000000000000000000000000000000000000000000000000000000000000000000000000000000000000000000000000000000000000000000000000000000000000000000000
310
00000000000000000000000000000000000000000000000000000000000000000000000000000000000000000000000000000000000000000000000000000000000000000000000000000000000000000000000000000000000000000000000000000000000000000000000000000000000000000000000000000000000000
310
00000000000000000000000000000000000000000000000000000000000000000000000000000000000000000000000000000000000000000000000000000000000000000000000000000000000000000000000000000000000000000000000000000000000000000000000000000000000000000000000000000000000000
310
00000000000000000000000000000000000000000000000000000000000000000000000000000000000000000000000000000000000000000000000000000000000000000000000000000000000000000000000000000000000000000000000000000000000000000000000000000000000000000000000000000000000000
310
00000000000000000000000000000000000000000000000000000000000000000000000000000000000000000000000000000000000000000000000000000000000000000000000000000000000000000000000000000000000000000000000000000000000000000000000000000000000000000000000000000000000000
310
00000000000000000000000000000000000000000000000000000000000000000000000000000000000000000000000000000000000000000000000000000000000000000000000000000000000000000000000000000000000000000000000000000000000000000000000000000000000000000000000000000000000000
310
00000000000000000000000000000000000000000000000000000000000000000000000000000000000000000000000000000000000000000000000000000000000000000000000000000000000000000000000000000000000000000000000000000000000000000000000000000000000000000000000000000000000000
310
00000000000000000000000000000000000000000000000000000000000000000000000000000000000000000000000000000000000000000000000000000000000000000000000000000000000000000000000000000000000000000000000000000000000000000000000000000000000000000000000000000000000000
310
00000000000000000000000000000000000000000000000000000000000000000000000000000000000000000000000000000000000000000000000000000000000000000000000000000000000000000000000000000000000000000000000000000000000000000000000000000000000000000000000000000000000000
310
00000000000000000000000000000000000000000000000000000000000000000000000000000000000000000000000000000000000000000000000000000000000000000000000000000000000000000000000000000000000000000000000000000000000000000000000000000000000000000000000000000000000000
310
00000000000000000000000000000000000000000000000000000000000000000000000000000000000000000000000000000000000000000000000000000000000000000000000000000000000000000000000000000000000000000000000000000000000000000000000000000000000000000000000000000000000000
310
00000000000000000000000000000000000000000000000000000000000000000000000000000000000000000000000000000000000000000000000000000000000000000000000000000000000000000000000000000000000000000000000000000000000000000000000000000000000000000000000000000000000000
310
00000000000000000000000000000000000000000000000000000000000000000000000000000000000000000000000000000000000000000000000000000000000000000000000000000000000000000000000000000000000000000000000000000000000000000000000000000000000000000000000000000000000000
310
00000000000000000000000000000000000000000000000000000000000000000000000000000000000000000000000000000000000000000000000000000000000000000000000000000000000000000000000000000000000000000000000000000000000000000000000000000000000000000000000000000000000000
310
00000000000000000000000000000000000000000000000000000000000000000000000000000000000000000000000000000000000000000000000000000000000000000000000000000000000000000000000000000000000000000000000000000000000000000000000000000000000000000000000000000000000000
310
00000000000000000000000000000000000000000000000000000000000000000000000000000000000000000000000000000000000000000000000000000000000000000000000000000000000000000000000000000000000000000000000000000000000000000000000000000000000000000000000000000000000000
310
00000000000000000000000000000000000000000000000000000000000000000000000000000000000000000000000000000000000000000000000000000000000000000000000000000000000000000000000000000000000000000000000000000000000000000000000000000000000000000000000000000000000000
310
00000000000000000000000000000000000000000000000000000000000000000000000000000000000000000000000000000000000000000000000000000000000000000000000000000000000000000000000000000000000000000000000000000000000000000000000000000000000000000000000000000000000000
310
00000000000000000000000000000000000000000000000000000000000000000000000000000000000000000000000000000000000000000000000000000000000000000000000000000000000000000000000000000000000000000000000000000000000000000000000000000000000000000000000000000000000000
310
00000000000000000000000000000000000000000000000000000000000000000000000000000000000000000000000000000000000000000000000000000000000000000000000000000000000000000000000000000000000000000000000000000000000000000000000000000000000000000000000000000000000000
310
00000000000000000000000000000000000000000000000000000000000000000000000000000000000000000000000000000000000000000000000000000000000000000000000000000000000000000000000000000000000000000000000000000000000000000000000000000000000000000000000000000000000000
310
00000000000000000000000000000000000000000000000000000000000000000000000000000000000000000000000000000000000000000000000000000000000000000000000000000000000000000000000000000000000000000000000000000000000000000000000000000000000000000000000000000000000000
310
00000000000000000000000000000000000000000000000000000000000000000000000000000000000000000000000000000000000000000000000000000000000000000000000000000000000000000000000000000000000000000000000000000000000000000000000000000000000000000000000000000000000000
310
00000000000000000000000000000000000000000000000000000000000000000000000000000000000000000000000000000000000000000000000000000000000000000000000000000000000000000000000000000000000000000000000000000000000000000000000000000000000000000000000000000000000000
310
00000000000000000000000000000000000000000000000000000000000000000000000000000000000000000000000000000000000000000000000000000000000000000000000000000000000000000000000000000000000000000000000000000000000000000000000000000000000000000000000000000000000000
310
00000000000000000000000000000000000000000000000000000000000000000000000000000000000000000000000000000000000000000000000000000000000000000000000000000000000000000000000000000000000000000000000000000000000000000000000000000000000000000000000000000000000000
310
00000000000000000000000000000000000000000000000000000000000000000000000000000000000000000000000000000000000000000000000000000000000000000000000000000000000000000000000000000000000000000000000000000000000000000000000000000000000000000000000000000000000000
310
00000000000000000000000000000000000000000000000000000000000000000000000000000000000000000000000000000000000000000000000000000000000000000000000000000000000000000000000000000000000000000000000000000000000000000000000000000000000000000000000000000000000000
310
00000000000000000000000000000000000000000000000000000000000000000000000000000000000000000000000000000000000000000000000000000000000000000000000000000000000000000000000000000000000000000000000000000000000000000000000000000000000000000000000000000000000000
310
000000000000000000000000000000FCFCFCFCFCFCFCFCFCFCFCFCFCFCFCFCFCFCFCFCFCFCFCFCFCFCFCFCFCFCFCFCFCFCFCFCFCFCFCFCFCFCFCFCFCFCFCFCFCFCFCFCFCFCFCFCFCFCFCFCFCFCFCFCFCFCFCFCFCFCFCFCFCFCFCFCFCFCFCFCFCFCFCFCFCFCFC00000000000000000000000000000000000000000000000000
310
000000000000000000000000000000000000000000000000000000000000000000000000000000000000000000000000000000000000000000000000000000000000000000000000000000000000000000000000FC000000000000000000000000000000000000000000FC00000000000000FC000000000000000000000000
310
000000FC000000000000000000000000000000000000FC0000000000000000000000000000000000000000FC0000000000000000000000000000000000000000000000000000000000000000000000000000000000000000000000000000000000000000000000000000000000000000000000000000000000000000000000
310
0000000000000000000000000000000000000000000000000000FC00FC00FCFC00FCFCFC00FC00FCFCFCFC0000000000FCFCFC00FC00FC00FC00000000FC00FC00FC000000FCFCFCFC000000FC00FCFC00FC00FC00FCFCFC000000FCFCFCFCFC00FCFCFCFC0000FC0000000000000000FC0000000000000000000000000000
310
0000000000000000000000000000000000000000000000000000000000000000000000000000000000000000000000000000000000000000000000000000000000000000000000000000000000000000000000000000000000000000000000FC00FCFCFCFC00FC00FCFCFCFC00FCFCFC0000FC0000FCFCFC00FCFCFC00FCFC
310
000000FCFCFCFCFCFC0000FCFCFC00FC0000FCFC00FCFCFCFCFCFCFCFCFC0000FC00FCFCFCFCFCFCFCFCFCFCFC000000000000000000FC000000000000000000000000000000000000000000000000000000000000000000000000000000000000000000000000000000000000000000000000000000000000000000000000
310
00000000000000000000000000000000000000000000000000000000000000000000000000FC00FC00FC0000FC0000000000FC0000FC00000000000000FC000000000000000000FC00FC00FCFCFC0000000000000000000000000000000000000000FC0000000000000000000000000000FCFC0000000000000000FC000000
310
00000000000000000000000000000000000000000000000000000000000000000000000000000000000000000000000000000000000000000000000000000000000000000000000000000000000000000000000000000000000000000000000000000000000000000000FC0000000000000000000000000000000000FCFCFC
310
0000000000000000000000000000000000000000000000000000000000000000000000000000000000000000000000000000000000000000000000000000000000FC00000000000000000000000000000000000000000000000000000000000000000000000000000000000000000000000000000000000000000000000000
310
000000000000000000000000000000000000000000000000000000000000000000000000000000000000000000000000FC00FCFCFC0000FCFCFCFCFC000000FC0000FCFCFCFC00FCFCFCFCFC000000000000000000000000000000000000000000000000000000000000000000000000000000000000000000000000000000
310
00000000000000FC00000000000000000000000000000000000000000000000000000000000000000000000000000000000000000000000000000000000000000000000000000000000000000000000000000000000000000000000000000000000000000000000000000000000000000000000000FC00FCFCFCFC00FCFCFC
310
FC00FC0000FC0000FCFCFC00FCFCFCFCFCFC00000000000000000000000000000000000000000000000000000000000000000000000000000000000000000000000000000000000000000000FC0000000000000000000000000000000000000000000000000000000000000000000000000000000000000000000000000000
310
0000000000000000000000000000000000000000000000000000000000000000000000000000000000000000000000000000000000000000000000FC0000FC000000000000000000000000000000FC0000000000FC00000000FCFC000000000000000000000000000000000000000000000000000000000000000000000000
310
000000000000000000000000000000000000FC000000000000000000000000000000000000000000000000000000000000000000000000000000000000000000000000000000000000000000000000000000000000000000000000000000000000000000000000000000000000000000000000000000000000000000000000
310
00FC00FC0000FC00FC000000000000FC00FC00FCFCFC0000FC0000FCFCFC00FCFC000000000000000000000000000000000000000000000000000000000000000000000000000000000000000000000000000000000000FC000000000000000000000000000000000000000000000000000000000000000000000000000000
310
00000000000000000000000000000000000000000000000000000000000000000000000000000000000000000000000000000000000000000000000000000000000000000000FC00FCFCFCFCFCFCFC0000FC0000FCFCFC00FC00FC0000FCFC00FCFCFCFCFCFC00000000000000000000000000000000000000000000000000
310
0000000000000000000000000000000000000000000000000000000000FC00000000000000000000000000000000000000000000000000000000000000000000000000000000000000000000000000000000000000000000000000000000000000000000000000000000000000000000000000000000000000000000000000
310
000000000000000000000000FC00FCFCFCFC00FCFC0000FC0000FCFC00FC00FC00FCFCFC00FC00FCFCFCFCFC000000000000000000000000000000000000000000000000000000000000000000000000000000000000000000000000000000000000FC00000000000000000000000000000000000000000000000000000000
310
000000000000000000000000000000000000000000000000000000000000000000000000000000000000000000000000000000000000000000000000000000000000000000000000000000000000000000FC000000000000000000000000000000000000000000000000000000000000000000000000000000000000000000
310
00000000000000000000000000000000000000000000000000000000000000000000000000000000FC0000000000000000000000000000000000000000000000000000000000000000000000000000000000000000000000000000000000000000000000000000000000000000000000000000000000000000000000000000
310
0000000000000000000000000000000000000000000000FC0000FCFCFC00FC00FCFCFC000000000000FC00FC0000FC0000000000000000000000000000000000000000000000000000000000000000000000000000000000000000000000000000000000000000000000000000FC0000000000000000000000000000000000
310
0000000000000000000000000000000000000000000000000000000000000000000000000000000000000000000000000000000000000000000000000000000000000000000000000000000000000000000000000000000000000000FC0000FCFCFCFCFCFCFCFCFCFC0000FC0000FCFCFCFCFCFC0000000000000000000000
310
000000000000000000000000000000000000000000000000000000000000000000000000000000000000000000000000000000FC000000000000000000000000000000000000000000000000000000000000000000000000000000000000000000000000000000000000000000000000000000000000000000000000000000
310
00000000000000000000000000000000000000000000000000000000000000000000FC00FC00000000FC00FC00000000000000000000000000FC0000000000000000000000000000000000000000000000000000000000000000000000000000000000000000000000000000000000000000000000000000FC000000000000
310
00000000000000000000000000000000000000000000000000000000000000000000000000000000000000000000000000000000000000000000000000000000000000000000000000000000000000000000000000000000000000000000000000000000000000FC0000000000000000000000000000000000000000000000
310
0000000000000000000000000000000000000000000000000000000000000000000000000000000000000000000000000000000000000000000000000000FC00000000000000000000000000000000000000000000000000000000000000000000000000000000000000000000000000000000000000000000000000000000
310
000000000000000000000000000000000000000000000000000000000000000000000000000000000000000000FC000000000000000000000000000000000000000000000000000000000000000000000000000000000000000000000000000000000000000000000000000000000000000000000000000000000000000000
310
00000000FC00000000000000000000000000000000000000000000000000000000000000000000000000000000000000000000000000000000000000000000000000000000000000000000000000000000000000000000000000000000000000000000000000000000000000000000000000FCFCFCFCFCFCFCFCFCFCFCFCFC
310
FCFCFCFCFCFCFCFCFCFCFCFCFCFCFCFCFCFCFCFCFCFCFCFCFCFCFCFCFCFCFCFCFCFCFCFCFCFCFCFCFCFCFCFCFCFCFCFCFCFCFCFCFCFCFCFCFCFCFCFCFCFCFCFCFCFCFCFCFCFCFCFCFCFC0000000000000000000000000000000000000000000000000000000000000000000000000000000000000000000000000000000000
310
00000000000000000000000000000000000000000000000000000000000000000000000000000000000000000000000000000000000000000000000000000000000000000000000000000000000000000000000000000000000000000000000000000000000000000000000000000000000000000000000000000000000000
310
00000000000000000000000000000000000000000000000000000000000000000000000000000000000000000000000000000000000000000000000000000000000000000000000000000000000000000000000000000000000000000000000000000000000000000000000000000000000000000000000000000000000000
310
00000000000000000000000000000000000000000000000000000000000000000000000000000000000000000000000000000000000000000000000000000000000000000000000000000000000000000000000000000000000000000000000000000000000000000000000000000000000000000000000000000000000000
310
00000000000000000000000000000000000000000000000000000000000000000000000000000000000000000000000000000000000000000000000000000000000000000000000000000000000000000000000000000000000000000000000000000000000000000000000000000000000000000000000000000000000000
310
00000000000000000000000000000000000000000000000000000000000000000000000000000000000000000000000000000000000000000000000000000000000000000000000000000000000000000000000000000000000000000000000000000000000000000000000000000000000000000000000000000000000000
310
000000000000000000FCFCFCFCFCFCFCFCFCFCFCFCFCFCFCFCFCFCFCFCFCFCFCFCFCFCFCFCFCFCFCFCFCFCFCFCFCFCFCFCFCFCFCFCFCFCFCFCFCFCFCFCFCFCFCFCFCFCFCFCFCFCFCFCFCFCFCFCFCFCFCFCFCFCFCFCFCFCFCFCFCFCFCFCFCFC0000000000000000000000000000000000000000000000000000000000000000
310
000000000000000000000000000000000000000000000000000000000000000000000000000000000000000000000000000000000000000000000000000000000000000000000000000000000000FC000000000000000000000000000000000000000000000000000000000000000000000000000000000000000000000000
310
000000000000000000000000000000000000000000000000000000000000000000000000FC000000000000000000000000000000000000000000000000000000000000000000000000000000000000000000000000000000000000000000000000000000000000000000000000000000000000000000000000000000000000
310
0000000000000000000000000000000000000000FC0000000000000000000000FF00FF0000000000FFFFFFFFFFFFFFFFFFFFFFFFFFFFFFFFFFFF00FFFFFFFFFF0000000000000000000000000000000000000000000000000000000000000000000000000000000000FC000000000000000000000000000000000000000000
310
0000000000000000000000000000000000000000000000000000000000000000000000000000000000000000000000000000000000000000000000000000000000000000000000000000000000000000000000000000000000FC0000000000000000000000FF00FF0000000000FFFF00000000000000000000000000FF00FF
310
00FF000000FF0000000000000000000000000000000000000000000000000000000000000000000000000000000000FC00000000000000000000000000000000000000000000000000000000000000000000000000000000000000000000000000000000000000000000000000000000000000000000000000000000000000
310
00000000000000000000000000000000000000000000000000000000000000FC0000000000000000FFFF00FF00FF0000000000FFFFFF0000000000000000000000FF00FFFF00FF000000FF0000000000000000000000000000000000000000000000000000000000000000000000000000000000FC00000000000000000000
310
00000000000000000000000000000000000000000000000000000000000000000000000000000000000000000000000000000000000000000000000000000000000000000000000000000000000000000000000000000000000000000000000000000000FC0000000000000000FFFF00FF0000FF00000000FFFFFF00000000
310
00000000000000FFFFFFFF00FFFF0000FF0000000000000000000000000000000000000000000000000000000000000000000000000000000000FC0000000000000000000000000000000000000000000000000000000000000000000000000000000000000000000000000000000000000000000000000000000000000000
310
000000000000000000000000000000000000000000000000000000000000000000000000000000000000FC0000000000000000FFFF00FF0000FF00000000FF00000000000000000000000000000000FF00FF000000FF0000000000000000000000000000000000000000000000000000000000000000000000000000000000
310
FC0000000000000000000000000000000000000000000000000000000000000000000000000000000000000000000000000000000000000000000000000000000000000000000000000000000000000000000000000000000000000000000000000000000000000000000000000000FC0000000000000000FFFF00FF000000
310
FF000000FF00000000000000000000000000000000FF00FF000000FF0000000000000000000000000000000000000000000000000000000000000000000000000000000000FC000000000000000000000000000000000000000000000000000000000000000000000000000000000000000000000000000000000000000000
310
0000000000000000000000000000000000000000000000000000000000000000000000000000000000000000000000000000000000FC00000000000000FF00FF00FF000000FF000000FF00000000000000000000000000000000FF00FF000000FF0000FFFFFFFFFFFFFFFFFFFFFFFFFFFFFFFFFFFFFF000000000000000000
310
0000000000000000000000FC0000000000000000000000000000000000000000000000000000000000000000000000000000000000000000000000000000000000000000000000000000000000000000000000000000000000000000000000000000000000000000000000000000000000000000000000000000FC00000000
310
000000FF00FF00FF00000000FF0000FF00000000000000000000000000000000FF00FF000000FF0000FF0000000000000000000000000000000000FF0000000000000000000000000000000000000000FC00000000000000000000000000000000000000000000000000000000000000000000000000000000000000000000
310
00000000000000000000000000000000000000000000000000000000000000000000000000000000000000000000000000000000000000000000000000000000FC000000000000FF0000FF00FF00000000FF0000FF00000000000000000000000000000000FF00FF000000FF0000FF00FF000000000000000000000000FF00
310
00FF0000000000000000000000000000000000000000FC0000000000000000000000000000000000000000000000000000000000000000000000000000000000000000000000000000000000000000000000000000000000000000000000000000000000000000000000000000000000000000000000000000000000000000
310
000000000000FC000000000000FF0000FF00FF00000000FF0000FF00000000000000000000000000000000FF00FF000000FF0000FF001C000000000000000000001C1C000000FF0000000000000000000000000000000000000000FC0000000000000000000000000000000000000000000000000000000000000000000000
310
000000000000000000000000000000000000000000000000000000000000000000000000000000000000000000000000000000000000000000000000000000000000000000000000000000FC0000000000FF000000FF00FF00000000FF0000FF00000000000000000000000000000000FF00FF000000FF0000FF0000000000
310
000000000000000000030000FF0000000000000000000000000000000000000000FC000000000000000000000000000000000000000000000000000000000000000000000000000000000000000000000000000000000000000000000000000000000000000000000000000000000000000000000000000000000000000000
310
0000000000000000000000000000000000FC0000000000FF000000FF00FF00000000FF0000FF00000000000000000000000000000000FF00FF000000FF0000FFFFFF030303030303030303030303FFFFFFFF0000000000000000000000000000000000000000FC000000000000000000000000000000000000000000000000
310
0000000000000000000000000000000000000000000000000000000000000000000000000000000000000000000000000000000000000000000000000000000000000000000000000000000000000000000000000000FC0000000000FF000000FF00FF00000000FF0000FFFF00000000000000000000000000FF00FF00FF00
310
0000FF0000FFFFFFFFFFFFFFFFFFFFFFFFFFFFFFFFFF00000000000000000000000000000000000000000000FC00000000000000000000000000000000000000000000000000000000000000000000000000000000000000000000000000000000000000000000000000000000000000000000000000000000000000000000
310
00000000000000000000000000000000000000000000000000000000FC0000000000FF000000FF00FF00000000FF0000FFFFFF0000000000000000000000FF00FFFF00FF000000FF00FF0000000000000000000000000000000000FF000000000000000000000000000000000000000000FC00000000000000000000000000
310
00000000000000000000000000000000000000000000000000000000000000000000000000000000000000000000000000000000000000000000000000000000000000000000000000000000000000000000000000000000000000000000000000FC0000000000FF000000FF00FF00000000FF0000FFFFFF00000000000000
310
00000000FFFFFFFF00FF000000FF00FF0000000000000000000000000000000000FF000000000000000000000000000000000000000000FC0000000000000000000000000000000000000000000000000000000000000000000000000000000000000000000000000000000000000000000000000000000000000000000000
310
000000000000000000000000000000000000000000000000000000000000000000000000000000FC0000000000FF000000FF00FF00000000FF0000FFFFFFFFFFFFFFFFFFFFFFFFFFFF000000FF00FF000000FF00FF00FF00000000000000000000000000FF00FF000000000000000000000000000000000000000000FC0000
310
000000000000000000000000000000000000000000000000000000000000000000000000000000000000000000000000000000000000000000000000000000000000000000000000000000000000000000000000000000000000000000000000000000000000000000000000FC0000000000FF000000FF00FF00000000FF00
310
00000000000000000000000000FFFF0000000000FFFF0000FF00FF00001C000000000000000000001C1C0000FF000000000000000000000000000000000000000000FC000000000000000000000000000000000000000000000000000000000000000000000000000000000000000000000000000000000000000000000000
310
0000000000000000000000000000000000000000000000000000000000000000000000000000000000000000000000000000FC0000000000FF000000FF00FF00000000FFFFFFFFFFFFFFFFFFFFFFFFFFFFFFFFFFFFFFFF0000FF000000FF00FF0000000000000000000000000000000000FF00000000000000000000000000
310
0000000000000000FC0000000000000000000000000000000000000000000000000000000000000000000000000000000000000000000000000000000000000000000000000000000000000000000000000000000000000000000000000000000000000000000000000000000000000000000000000000FC0000000000FF00
310
0000FF00FF0000000000000000000000000000000000000000FF0000000000FFFFFFFFFF00FFFFFF03030303030303030303030303FFFFFF000000000000000000000000000000000000000000FC00000000000000000000000000000000000000000000000000000000000000000000000000000000000000000000000000
310
00000000000000000000000000000000000000000000000000000000000000000000000000000000000000000000000000000000000000000000000000FC0000000000FF000000FF00FF00000000FFFF0000000000000000000000FFFF00FF0000000000000000000000000000000000000000000000000000000000000000
310
00000000000000000000000000000000000000FC0000000000000000000000000000000000000000000000000000000000000000000000000000000000000000000000000000000000000000000000000000000000000000000000000000000000000000000000000000000000000000000000000000000000000000000000
310
000000FC0000000000FF000000FF00FF0000000000000000000000000000000000000000FF000000000000000000000000000000000000000000000000000000000000000000000000000000000000000000000000000000FC0000000000000000000000000000000000000000000000000000000000000000000000000000
310
000000000000000000000000000000000000000000000000000000000000000000000000000000000000000000000000000000000000000000000000000000000000000000000000FC0000000000FF000000FF00FFFFFFFFFFFFFFFFFFFFFFFFFFFFFFFFFFFFFFFFFFFF000000000000000000000000000000000000000000
310
000000000000000000000000000000000000000000000000000000000000FC000000000000000000000000000000000000000000000000000000000000000000000000000000000000000000000000000000000000000000000000000000000000000000000000000000000000000000000000000000000000000000000000
310
0000000000000000000000000000FC0000000000FF000000FF0000000000000000000000000000000000000000000000000000000000000000000000000000000000000000000000000000000000000000000000000000000000000000000000000000FC000000000000000000000000000000000000000000000000000000
310
0000000000000000000000000000000000000000000000000000000000000000000000000000000000000000000000000000000000000000000000000000000000000000000000000000000000000000000000FC0000000000FF000000FFFFFFFFFFFFFFFFFFFFFFFFFFFFFFFFFFFFFFFFFFFFFFFFFFFFFFFFFFFFFFFFFFFF
310
FFFFFFFFFFFFFFFFFFFFFFFFFFFFFFFFFFFFFFFFFFFFFFFFFFFFFFFFFFFFFFFFFFFFFFFFFFFF000000FC00000000000000000000000000000000000000000000000000000000000000000000000000000000000000000000000000000000000000000000000000000000000000000000000000000000000000000000000000
310
00000000000000000000000000000000000000000000000000FC0000000000FF0000000000000000000000000000000000000000000000000000000000000000000000000000000000000000000000000000000000000000000000000000000000000000000000000000FF000000FC00000000000000000000000000000000
310
00000000000000000000000000000000000000000000000000000000000000000000000000000000000000000000000000000000000000000000000000000000000000000000000000000000000000000000000000000000000000000000FC0000000000FF0000000000000000000000000000000000000000000000000000
310
000000000000000000000000000000000000000000000000000000000000000000000000000000000000000000000000FF000000FC0000000000000000000000000000000000000000000000000000000000000000000000000000000000000000000000000000000000000000000000000000000000000000000000000000
310
000000000000000000000000000000000000000000000000000000000000000000000000FC0000000000FF00FFFF00000000000000000000000000000000000000000000000000000000000000000000000000000000000000000000000000000000000000000000000000000000000000FFFF0000FF000000FC0000000000
310
000000000000000000000000000000000000000000000000000000000000000000000000000000000000000000000000000000000000000000000000000000000000000000000000000000000000000000000000000000000000000000000000000000000000000000FC0000000000FF00FFFF000000000000000000000000
310
00000000000000000000000000000000000000000000000000000000000000000000000000000000000000000000000000000000000000FFFF0000FF000000FC000000000000000000000000000000000000000000000000000000000000000000000000000000000000000000000000000000000000000000000000000000
310
0000000000000000000000000000000000000000000000000000000000000000000000000000000000000000000000FC0000000000FF00000000000000000000000000000000000000000000000000000000000000000000000000000000000000000000000000000000000000000000000000000000000000000000000000
310
00FF000000FC0000000000000000000000000000000000000000000000000000000000000000000000000000000000000000000000000000000000000000000000000000000000000000000000000000000000000000000000000000000000000000000000000000000000000000000000000000FC0000000000FF00000000
310
00000000000000000000000000000000000000000000000000000000000000000000000000000000000000000000000000000000000000000000000000000000000000000000FF000000FC00000000000000000000000000000000000000000000000000000000000000000000000000000000000000000000000000000000
310
00000000000000000000000000000000000000000000000000000000000000000000000000000000000000000000000000000000000000000000FC0000000000FFFFFFFFFFFFFFFFFFFFFFFFFFFFFFFFFFFFFFFFFFFFFFFFFFFFFFFFFFFFFFFFFFFFFFFFFFFFFFFFFFFFFFFFFFFFFFFFFFFFFFFFFFFFFFFFFFFFFFFFFFFFFF
310
FFFFFFFFFFFFFFFFFFFFFFFF00000000FC0000000000000000000000000000000000000000000000000000000000000000000000000000000000000000000000000000000000000000000000000000000000000000000000000000000000000000000000000000000000000000000000000000000000000000000000000000
310
FC000000000000000000000000000000000000000000000000000000000000000000000000000000000000000000000000000000000000000000000000000000000000000000000000000000000000000000000000FC0000000000000000000000000000000000000000000000000000000000000000000000000000000000
310
000000000000000000000000000000000000000000000000000000000000000000000000000000000000000000000000000000000000000000000000000000000000000000FC000000000000000000000000000000000000000000000000000000000000000000000000000000000000000000000000000000000000000000
310
000000000000000000000000000000000000000000FF0000000000FC000000000000000000000000000000000000000000000000000000000000000000000000000000000000000000000000000000000000000000000000000000000000000000000000000000000000000000000000000000000000000000000000000000
310
0000000000000000000000FC000000000000000000000000000000000000000000000000000000000000000000000000000000000000000000000000000000000000000000000000000000000000000000000000000000000000FFFF00000000FC000000000000000000000000000000000000000000000000000000000000
310
0000000000000000000000000000000000000000000000000000000000000000000000000000000000000000000000000000000000000000000000000000000000000000000000000000000000000000FC00000000FFFFFFFFFFFFFFFFFFFFFFFFFFFFFFFFFFFFFFFFFFFFFFFFFFFFFFFFFFFFFFFFFFFFFFFFFFFFFFFFFFFF
310
FFFFFFFFFFFFFFFFFFFFFFFFFFFFFFFFFFFFFFFFFFFFFFFFFFFFFFFFFFFFFFFFFFFF00000000FC00000000000000000000000000000000000000000000000000000000000000000000000000000000000000000000000000000000000000000000000000000000000000000000000000000000000000000000000000000000
310
00000000000000000000000000000000000000000000FC00000000FF0000000000000000000003030303030303030303030303030303030303030303030303030303030303030303030303030303030303030303030303030303030303030303030303000000FF00000000FC00000000000000000000000000000000000000
310
00000000000000000000000000000000000000000000000000000000000000000000000000000000000000000000000000000000000000000000000000000000000000000000000000000000000000000000000000000000000000FC00000000FF000000000000000000000300000300000300000300000300000300000300
310
0003000003000003000003000003000003000003000003000003000003000003000003000003000003000000FF00000000FC0000000000000000000000000000000000000000000000000000000000000000000000000000000000000000000000000000000000000000000000000000000000000000000000000000000000
310
000000000000000000000000000000000000000000000000000000000000000000FC00000000FF0000FF000000000000001C00000000000000000000000000000000000000000000000000000000000000000000000000000000000000000000000000000000000000000000001CFF0000FF00000000FC0000000000000000
310
000000000000000000000000000000000000000000000000000000000000000000000000000000000000000000000000000000000000000000000000000000000000000000000000000000000000000000000000000000000000000000000000000000000000FC00000000FF00FFFFFFFFFFFFFFFFFFFFFFFFFFFFFFFFFFFF
310
FFFFFFFFFFFFFFFFFFFFFFFFFFFFFFFFFFFFFFFFFFFFFFFFFFFFFFFFFFFFFFFFFFFFFFFFFFFFFFFFFFFFFFFFFFFFFFFFFFFFFFFFFFFFFFFF00000000FC000000000000000000000000000000000000000000000000000000000000000000000000000000000000000000000000000000000000000000000000000000000000
310
0000000000000000000000000000000000000000000000000000000000000000000000000000000000000000FC000000000000000000000000000000000000000000000000000000000000000000000000000000000000000000000000000000000000000000000000000000000000000000000000000000000000FFFF0000
310
0000FC0000000000000000000000000000000000000000000000000000000000000000000000000000000000000000000000000000000000000000000000000000000000000000000000000000000000000000000000000000000000000000000000000000000000000000000000000000FC00000000000000000000000000
310
0000000000000000000000000000000000000000000000000000000000000000000000000000000000000000000000000000000000000000000000000000000000FFFF00000000FC00000000000000000000000000000000000000000000000000000000000000000000000000000000000000000000000000000000000000
310
00000000000000000000000000000000000000000000000000000000000000000000000000000000000000000000000000000000000000FC0000000000000000000000000000000000000000000000000000000000000000000000000000000000000000000000000000000000000000000000000000000000000000000000
310
00000000000000000000000000FC0000000000000000000000000000000000000000000000000000000000000000000000000000000000000000000000000000000000000000000000000000000000000000000000000000000000000000000000000000000000000000000000000000000000000000000000000000FC0000
310
00000000000000000000000000000000000000000000000000000000000000000000000000000000000000000000000000000000000000000000000000000000000000000000000000000000000000000000FC0000000000000000000000000000000000000000000000000000000000000000000000000000000000000000
310
000000000000000000000000000000000000000000000000000000000000000000000000000000000000000000000000000000000000000000000000000000000000FC000000000000000000000000000000000000000000000000000000000000000000000000000000000000000000000000000000000000000000000000
310
000000000000000000000000000000000000000000000000FC000000000000000000000000000000000000000000000000000000000000000000000000000000000000000000000000000000000000000000000000000000000000000000000000000000000000000000000000000000000000000000000000000000000000
310
0000000000000000FCFCFCFCFCFCFCFCFCFCFCFCFCFCFCFCFCFCFCFCFCFCFCFCFCFCFCFCFCFCFCFCFCFCFCFCFCFCFCFCFCFCFCFCFCFCFCFCFCFCFCFCFCFCFCFCFCFCFCFCFCFCFCFCFCFCFCFCFCFCFCFCFCFCFCFCFCFCFCFCFCFCFCFCFCFC000000000000000000000000000000000000000000000000000000000000000000
310
00000000000000000000000000000000000000000000000000000000000000000000000000000000000000000000000000000000000000000000000000000000000000000000000000000000000000000000000000000000000000000000000000000000000000000000000000000000000000000000000000000000000000
310
00000000000000000000000000000000000000000000000000000000000000000000000000000000000000000000000000000000000000000000000000000000000000000000000000000000000000000000000000000000000000000000000000000000000000000000000000000000000000000000000000000000000000
310
00000000000000000000000000000000000000000000000000000000000000000000000000000000000000000000000000000000000000000000000000000000000000000000000000000000000000000000000000000000000000000000000000000000000000000000000000000000000000000000000000000000000000
310
00000000000000000000000000000000000000000000000000000000000000000000000000000000000000000000000000000000000000000000000000000000000000000000000000000000000000000000000000000000000000000000000000000000000000000000000000000000000000000000000000000000000000
310
00000000000000000000000000000000000000000000000000000000000000000000000000000000000000000000000000000000000000000000000000000000000000000000000000000000000000000000000000000000000000000000000000000000000000000000000000000000000000000000000000000000000000
310
00000000000000000000000000000000000000000000000000000000000000000000000000000000000000000000000000000000000000000000000000000000000000000000000000000000000000000000000000000000000000000000000000000000000000000000000000000000000000000000000000000000000000
310
00000000000000000000000000000000000000000000000000000000000000000000000000000000000000000000000000000000000000000000000000000000000000000000000000000000000000000000000000000000000000000000000000000000000000000000000000000000000000000000000000000000000000
310
00000000000000000000000000000000000000000000000000000000000000000000000000000000000000000000000000000000000000000000000000000000000000000000000000000000000000000000000000000000000000000000000000000000000000000000000000000000000000000000000000000000000000
310
00000000000000000000000000000000000000000000000000000000000000000000000000000000000000000000000000000000000000000000000000000000000000000000000000000000000000000000000000000000000000000000000000000000000000000000000000000000000000000000000000000000000000
310
00000000000000000000000000000000000000000000000000000000000000000000000000000000000000000000000000000000000000000000000000000000000000000000000000000000000000000000000000000000000000000000000000000000000000000000000000000000000000000000000000000000000000
310
00000000000000000000000000000000000000000000000000000000000000000000000000000000000000000000000000000000000000000000000000000000000000000000000000000000000000000000000000000000000000000000000000000000000000000000000000000000000000000000000000000000000000
310
00000000000000000000000000000000000000000000000000000000000000000000000000000000000000000000000000000000000000000000000000000000000000000000000000000000000000000000000000000000000000000000000000000000000000000000000000000000000000000000000000000000000000
310
00000000000000000000000000000000000000000000000000000000000000000000000000000000000000000000000000000000000000000000000000000000000000000000000000000000000000000000000000000000000000000000000000000000000000000000000000000000000000000000000000000000000000
310
00000000000000000000000000000000000000000000000000000000000000000000000000000000000000000000000000000000000000000000000000000000000000000000000000000000000000000000000000000000000000000000000000000000000000000000000000000000000000000000000000000000000000
310
00000000000000000000000000000000000000000000000000000000000000000000000000000000000000000000000000000000000000000000000000000000000000000000000000000000000000000000000000000000000000000000000000000000000000000000000000000000000000000000000000000000000000
310
00000000000000000000000000000000000000000000000000000000000000000000000000000000000000000000000000000000000000000000000000000000000000000000000000000000000000000000000000000000000000000000000000000000000000000000000000000000000000000000000000000000000000
310
00000000000000000000000000000000000000000000000000000000000000000000000000000000000000000000000000000000000000000000000000000000000000000000000000000000000000000000000000000000000000000000000000000000000000000000000000000000000000000000000000000000000000
310
00000000000000000000000000000000000000000000000000000000000000000000000000000000000000000000000000000000000000000000000000000000000000000000000000000000000000000000000000000000000000000000000000000000000000000000000000000000000000000000000000000000000000
310
00000000000000000000000000000000000000000000000000000000000000000000000000000000000000000000000000000000000000000000000000000000000000000000000000000000000000000000000000000000000000000000000000000000000000000000000000000000000000000000000000000000000000
310
00000000000000000000000000000000000000000000000000000000000000000000000000000000000000000000000000000000000000000000000000000000000000000000000000000000000000000000000000000000000000000000000000000000000000000000000000000000000000000000000000000000000000
310
00000000000000000000000000000000000000000000000000000000000000000000000000000000000000000000000000000000000000000000000000000000000000000000000000000000000000000000000000000000000000000000000000000000000000000000000000000000000000000000000000000000000000
310
00000000000000000000000000000000000000000000000000000000000000000000000000000000000000000000000000000000000000000000000000000000000000000000000000000000000000000000000000000000000000000000000000000000000000000000000000000000000000000000000000000000000000
310
00000000000000000000000000000000000000000000000000000000000000000000000000000000000000000000000000000000000000000000000000000000000000000000000000000000000000000000000000000000000000000000000000000000000000000000000000000000000000000000000000000000000000
310
00000000000000000000000000000000000000000000000000000000000000000000000000000000000000000000000000000000000000000000000000000000000000000000000000000000000000000000000000000000000000000000000000000000000000000000000000000000000000000000000000000000000000
310
00000000000000000000000000000000000000000000000000000000000000000000000000000000000000000000000000000000000000000000000000000000000000000000000000000000000000000000000000000000000000000000000000000000000000000000000000000000000000000000000000000000000000
310
00000000000000000000000000000000000000000000000000000000000000000000000000000000000000000000000000000000000000000000000000000000000000000000000000000000000000000000000000000000000000000000000000000000000000000000000000000000000000000000000000000000000000
310
00000000000000000000000000000000000000000000000000000000000000000000000000000000000000000000000000000000000000000000000000000000000000000000000000000000000000000000000000000000000000000000000000000000000000000000000000000000000000000000000000000000000000
310
00000000000000000000000000000000000000000000000000000000000000000000000000000000000000000000000000000000000000000000000000000000000000000000000000000000000000000000000000000000000000000000000000000000000000000000000000000000000000000000000000000000000000
310
00000000000000000000000000000000000000000000000000000000000000000000000000000000000000000000000000000000000000000000000000000000000000000000000000000000000000000000000000000000000000000000000000000000000000000000000000000000000000000000000000000000000000
310
00000000000000000000000000000000000000000000000000000000000000000000000000000000000000000000000000000000000000000000000000000000000000000000000000000000000000000000000000000000000000000000000000000000000000000000000000000000000000000000000000000000000000
310
00000000000000000000000000000000000000000000000000000000000000000000000000000000000000000000000000000000000000000000000000000000000000000000000000000000000000000000000000000000000000000000000000000000000000000000000000000000000000000000000000000000000000
310
00000000000000000000000000000000000000000000000000000000000000000000000000000000000000000000000000000000000000000000000000000000000000000000000000000000000000000000000000000000000000000000000000000000000000000000000000000000000000000000000000000000000000
310
00000000000000000000000000000000000000000000000000000000000000000000000000000000000000000000000000000000000000000000000000000000000000000000000000000000000000000000000000000000000000000000000000000000000000000000000000000000000000000000000000000000000000
310
00000000000000000000000000000000000000000000000000000000000000000000000000000000000000000000000000000000000000000000000000000000000000000000000000000000000000000000000000000000000000000000000000000000000000000000000000000000000000000000000000000000000000
310
00000000000000000000000000000000000000000000000000000000000000000000000000000000000000000000000000000000000000000000000000000000000000000000000000000000000000000000000000000000000000000000000000000000000000000000000000000000000000000000000000000000000000
310
00000000000000000000000000000000000000000000000000000000000000000000000000000000000000000000000000000000000000000000000000000000000000000000000000000000000000000000000000000000000000000000000000000000000000000000000000000000000000000000000000000000000000
310
00000000000000000000000000000000000000000000000000000000000000000000000000000000000000000000000000000000000000000000000000000000000000000000000000000000000000000000000000000000000000000000000000000000000000000000000000000000000000000000000000000000000000
310
00000000000000000000000000000000000000000000000000000000000000000000000000000000000000000000000000000000000000000000000000000000000000000000000000000000000000000000000000000000000000000000000000000000000000000000000000000000000000000000000000000000000000
310
00000000000000000000000000000000000000000000000000000000000000000000000000000000000000000000000000000000000000000000000000000000000000000000000000000000000000000000000000000000000000000000000000000000000000000000000000000000000000000000000000000000000000
310
00000000000000000000000000000000000000000000000000000000000000000000000000000000000000000000000000000000000000000000000000000000000000000000000000000000000000000000000000000000000000000000000000000000000000000000000000000000000000000000000000000000000000
310
00000000000000000000000000000000000000000000000000000000000000000000000000000000000000000000000000000000000000000000000000000000000000000000000000000000000000000000000000000000000000000000000000000000000000000000000000000000000000000000000000000000000000
310
00000000000000000000000000000000000000000000000000000000000000000000000000000000000000000000000000000000000000000000000000000000000000000000000000000000000000000000000000000000000000000000000000000000000000000000000000000000000000000000000000000000000000
310
00000000000000000000000000000000000000000000000000000000000000000000000000000000000000000000000000000000000000000000000000000000000000000000000000000000000000000000000000000000000000000000000000000000000000000000000000000000000000000000000000000000000000
310
00000000000000000000000000000000000000000000000000000000000000000000000000000000000000000000000000000000000000000000000000000000000000000000000000000000000000000000000000000000000000000000000000000000000000000000000000000000000000000000000000000000000000
310
00000000000000000000000000000000000000000000000000000000000000000000000000000000000000000000000000000000000000000000000000000000000000000000000000000000000000000000000000000000000000000000000000000000000000000000000000000000000000000000000000000000000000
310
00000000000000000000000000000000000000000000000000000000000000000000000000000000000000000000000000000000000000000000000000000000000000000000000000000000000000000000000000000000000000000000000000000000000000000000000000000000000000000000000000000000000000
310
00000000000000000000000000000000000000000000000000000000000000000000000000000000000000000000000000000000000000000000000000000000000000000000000000000000000000000000000000000000000000000000000000000000000000000000000000000000000000000000000000000000000000
310
000000000000000000000000000000000000000000000000000000000000000000000000000000000000000000000000000000000000000000000000000000000000000000000000000000000000000000000000000000000000000000000000000000000000000000000000000000000000000000
  0
ENDSEC
  0
EOF
