ISO-10303-21;
HEADER;
/* Generated by software containing ST-Developer
 * from STEP Tools, Inc. (www.steptools.com) 
 */

FILE_DESCRIPTION(
/* description */ (''),
/* implementation_level */ '2;1');

FILE_NAME(
/* name */ 
'/Users/olaandren/Desktop/Lighthouse - Lamp/Export/210427/lighthouse_t
op_210427.step',
/* time_stamp */ '2021-04-27T19:37:09+02:00',
/* author */ (''),
/* organization */ (''),
/* preprocessor_version */ 'ST-DEVELOPER v18.1',
/* originating_system */ 'Autodesk Translation Framework v10.6.0.1341',

/* authorisation */ '');

FILE_SCHEMA (('AUTOMOTIVE_DESIGN { 1 0 10303 214 3 1 1 }'));
ENDSEC;

DATA;
#10=MECHANICAL_DESIGN_GEOMETRIC_PRESENTATION_REPRESENTATION('',(#13),#315);
#11=SHAPE_REPRESENTATION_RELATIONSHIP('SRR','None',#322,#12);
#12=ADVANCED_BREP_SHAPE_REPRESENTATION('',(#14),#314);
#13=STYLED_ITEM('',(#331),#14);
#14=MANIFOLD_SOLID_BREP('Body1',#171);
#15=FACE_BOUND('',#42,.T.);
#16=FACE_BOUND('',#46,.T.);
#17=FACE_BOUND('',#49,.T.);
#18=FACE_BOUND('',#54,.T.);
#19=PLANE('',#190);
#20=PLANE('',#197);
#21=PLANE('',#201);
#22=PLANE('',#208);
#23=CYLINDRICAL_SURFACE('',#188,65.);
#24=CYLINDRICAL_SURFACE('',#195,66.5);
#25=CYLINDRICAL_SURFACE('',#204,62.);
#26=CYLINDRICAL_SURFACE('',#206,70.);
#27=FACE_OUTER_BOUND('',#39,.T.);
#28=FACE_OUTER_BOUND('',#40,.T.);
#29=FACE_OUTER_BOUND('',#41,.T.);
#30=FACE_OUTER_BOUND('',#43,.T.);
#31=FACE_OUTER_BOUND('',#44,.T.);
#32=FACE_OUTER_BOUND('',#45,.T.);
#33=FACE_OUTER_BOUND('',#47,.T.);
#34=FACE_OUTER_BOUND('',#48,.T.);
#35=FACE_OUTER_BOUND('',#50,.T.);
#36=FACE_OUTER_BOUND('',#51,.T.);
#37=FACE_OUTER_BOUND('',#52,.T.);
#38=FACE_OUTER_BOUND('',#53,.T.);
#39=EDGE_LOOP('',(#115,#116,#117,#118));
#40=EDGE_LOOP('',(#119,#120,#121,#122));
#41=EDGE_LOOP('',(#123));
#42=EDGE_LOOP('',(#124));
#43=EDGE_LOOP('',(#125,#126,#127,#128));
#44=EDGE_LOOP('',(#129,#130,#131,#132));
#45=EDGE_LOOP('',(#133));
#46=EDGE_LOOP('',(#134));
#47=EDGE_LOOP('',(#135,#136,#137,#138));
#48=EDGE_LOOP('',(#139));
#49=EDGE_LOOP('',(#140));
#50=EDGE_LOOP('',(#141,#142,#143,#144));
#51=EDGE_LOOP('',(#145,#146,#147,#148));
#52=EDGE_LOOP('',(#149,#150,#151,#152));
#53=EDGE_LOOP('',(#153));
#54=EDGE_LOOP('',(#154));
#55=LINE('',#272,#63);
#56=LINE('',#276,#64);
#57=LINE('',#285,#65);
#58=LINE('',#289,#66);
#59=LINE('',#296,#67);
#60=LINE('',#302,#68);
#61=LINE('',#306,#69);
#62=LINE('',#310,#70);
#63=VECTOR('',#215,64.8);
#64=VECTOR('',#220,65.);
#65=VECTOR('',#231,66.7);
#66=VECTOR('',#236,66.5);
#67=VECTOR('',#245,65.25);
#68=VECTOR('',#254,66.25);
#69=VECTOR('',#259,62.);
#70=VECTOR('',#264,70.);
#71=CIRCLE('',#186,64.6);
#72=CIRCLE('',#187,65.);
#73=CIRCLE('',#189,65.);
#74=CIRCLE('',#191,62.);
#75=CIRCLE('',#193,66.9);
#76=CIRCLE('',#194,66.5);
#77=CIRCLE('',#196,66.5);
#78=CIRCLE('',#198,70.);
#79=CIRCLE('',#200,65.5);
#80=CIRCLE('',#202,66.);
#81=CIRCLE('',#205,62.);
#82=CIRCLE('',#207,70.);
#83=VERTEX_POINT('',#269);
#84=VERTEX_POINT('',#271);
#85=VERTEX_POINT('',#275);
#86=VERTEX_POINT('',#279);
#87=VERTEX_POINT('',#282);
#88=VERTEX_POINT('',#284);
#89=VERTEX_POINT('',#288);
#90=VERTEX_POINT('',#292);
#91=VERTEX_POINT('',#295);
#92=VERTEX_POINT('',#299);
#93=VERTEX_POINT('',#304);
#94=VERTEX_POINT('',#308);
#95=EDGE_CURVE('',#83,#83,#71,.T.);
#96=EDGE_CURVE('',#83,#84,#55,.T.);
#97=EDGE_CURVE('',#84,#84,#72,.T.);
#98=EDGE_CURVE('',#84,#85,#56,.T.);
#99=EDGE_CURVE('',#85,#85,#73,.T.);
#100=EDGE_CURVE('',#86,#86,#74,.T.);
#101=EDGE_CURVE('',#87,#87,#75,.T.);
#102=EDGE_CURVE('',#87,#88,#57,.T.);
#103=EDGE_CURVE('',#88,#88,#76,.T.);
#104=EDGE_CURVE('',#88,#89,#58,.T.);
#105=EDGE_CURVE('',#89,#89,#77,.T.);
#106=EDGE_CURVE('',#90,#90,#78,.T.);
#107=EDGE_CURVE('',#85,#91,#59,.T.);
#108=EDGE_CURVE('',#91,#91,#79,.T.);
#109=EDGE_CURVE('',#92,#92,#80,.T.);
#110=EDGE_CURVE('',#89,#92,#60,.T.);
#111=EDGE_CURVE('',#93,#93,#81,.T.);
#112=EDGE_CURVE('',#93,#86,#61,.T.);
#113=EDGE_CURVE('',#94,#94,#82,.T.);
#114=EDGE_CURVE('',#94,#90,#62,.T.);
#115=ORIENTED_EDGE('',*,*,#95,.T.);
#116=ORIENTED_EDGE('',*,*,#96,.T.);
#117=ORIENTED_EDGE('',*,*,#97,.T.);
#118=ORIENTED_EDGE('',*,*,#96,.F.);
#119=ORIENTED_EDGE('',*,*,#97,.F.);
#120=ORIENTED_EDGE('',*,*,#98,.T.);
#121=ORIENTED_EDGE('',*,*,#99,.F.);
#122=ORIENTED_EDGE('',*,*,#98,.F.);
#123=ORIENTED_EDGE('',*,*,#95,.F.);
#124=ORIENTED_EDGE('',*,*,#100,.T.);
#125=ORIENTED_EDGE('',*,*,#101,.T.);
#126=ORIENTED_EDGE('',*,*,#102,.T.);
#127=ORIENTED_EDGE('',*,*,#103,.T.);
#128=ORIENTED_EDGE('',*,*,#102,.F.);
#129=ORIENTED_EDGE('',*,*,#103,.F.);
#130=ORIENTED_EDGE('',*,*,#104,.T.);
#131=ORIENTED_EDGE('',*,*,#105,.F.);
#132=ORIENTED_EDGE('',*,*,#104,.F.);
#133=ORIENTED_EDGE('',*,*,#106,.F.);
#134=ORIENTED_EDGE('',*,*,#101,.F.);
#135=ORIENTED_EDGE('',*,*,#99,.T.);
#136=ORIENTED_EDGE('',*,*,#107,.T.);
#137=ORIENTED_EDGE('',*,*,#108,.T.);
#138=ORIENTED_EDGE('',*,*,#107,.F.);
#139=ORIENTED_EDGE('',*,*,#109,.F.);
#140=ORIENTED_EDGE('',*,*,#108,.F.);
#141=ORIENTED_EDGE('',*,*,#105,.T.);
#142=ORIENTED_EDGE('',*,*,#110,.T.);
#143=ORIENTED_EDGE('',*,*,#109,.T.);
#144=ORIENTED_EDGE('',*,*,#110,.F.);
#145=ORIENTED_EDGE('',*,*,#111,.F.);
#146=ORIENTED_EDGE('',*,*,#112,.T.);
#147=ORIENTED_EDGE('',*,*,#100,.F.);
#148=ORIENTED_EDGE('',*,*,#112,.F.);
#149=ORIENTED_EDGE('',*,*,#113,.F.);
#150=ORIENTED_EDGE('',*,*,#114,.T.);
#151=ORIENTED_EDGE('',*,*,#106,.T.);
#152=ORIENTED_EDGE('',*,*,#114,.F.);
#153=ORIENTED_EDGE('',*,*,#113,.T.);
#154=ORIENTED_EDGE('',*,*,#111,.T.);
#155=CONICAL_SURFACE('',#185,64.8,0.785398163397459);
#156=CONICAL_SURFACE('',#192,66.7,0.785398163397459);
#157=CONICAL_SURFACE('',#199,65.25,0.0996686524911617);
#158=CONICAL_SURFACE('',#203,66.25,0.0996686524911617);
#159=ADVANCED_FACE('',(#27),#155,.T.);
#160=ADVANCED_FACE('',(#28),#23,.T.);
#161=ADVANCED_FACE('',(#29,#15),#19,.T.);
#162=ADVANCED_FACE('',(#30),#156,.F.);
#163=ADVANCED_FACE('',(#31),#24,.F.);
#164=ADVANCED_FACE('',(#32,#16),#20,.T.);
#165=ADVANCED_FACE('',(#33),#157,.T.);
#166=ADVANCED_FACE('',(#34,#17),#21,.T.);
#167=ADVANCED_FACE('',(#35),#158,.F.);
#168=ADVANCED_FACE('',(#36),#25,.F.);
#169=ADVANCED_FACE('',(#37),#26,.T.);
#170=ADVANCED_FACE('',(#38,#18),#22,.T.);
#171=CLOSED_SHELL('',(#159,#160,#161,#162,#163,#164,#165,#166,#167,#168,
#169,#170));
#172=DERIVED_UNIT_ELEMENT(#174,1.);
#173=DERIVED_UNIT_ELEMENT(#317,-3.);
#174=(
MASS_UNIT()
NAMED_UNIT(*)
SI_UNIT(.KILO.,.GRAM.)
);
#175=DERIVED_UNIT((#172,#173));
#176=MEASURE_REPRESENTATION_ITEM('density measure',
POSITIVE_RATIO_MEASURE(7850.),#175);
#177=PROPERTY_DEFINITION_REPRESENTATION(#182,#179);
#178=PROPERTY_DEFINITION_REPRESENTATION(#183,#180);
#179=REPRESENTATION('material name',(#181),#314);
#180=REPRESENTATION('density',(#176),#314);
#181=DESCRIPTIVE_REPRESENTATION_ITEM('Steel','Steel');
#182=PROPERTY_DEFINITION('material property','material name',#324);
#183=PROPERTY_DEFINITION('material property','density of part',#324);
#184=AXIS2_PLACEMENT_3D('placement',#267,#209,#210);
#185=AXIS2_PLACEMENT_3D('',#268,#211,#212);
#186=AXIS2_PLACEMENT_3D('',#270,#213,#214);
#187=AXIS2_PLACEMENT_3D('',#273,#216,#217);
#188=AXIS2_PLACEMENT_3D('',#274,#218,#219);
#189=AXIS2_PLACEMENT_3D('',#277,#221,#222);
#190=AXIS2_PLACEMENT_3D('',#278,#223,#224);
#191=AXIS2_PLACEMENT_3D('',#280,#225,#226);
#192=AXIS2_PLACEMENT_3D('',#281,#227,#228);
#193=AXIS2_PLACEMENT_3D('',#283,#229,#230);
#194=AXIS2_PLACEMENT_3D('',#286,#232,#233);
#195=AXIS2_PLACEMENT_3D('',#287,#234,#235);
#196=AXIS2_PLACEMENT_3D('',#290,#237,#238);
#197=AXIS2_PLACEMENT_3D('',#291,#239,#240);
#198=AXIS2_PLACEMENT_3D('',#293,#241,#242);
#199=AXIS2_PLACEMENT_3D('',#294,#243,#244);
#200=AXIS2_PLACEMENT_3D('',#297,#246,#247);
#201=AXIS2_PLACEMENT_3D('',#298,#248,#249);
#202=AXIS2_PLACEMENT_3D('',#300,#250,#251);
#203=AXIS2_PLACEMENT_3D('',#301,#252,#253);
#204=AXIS2_PLACEMENT_3D('',#303,#255,#256);
#205=AXIS2_PLACEMENT_3D('',#305,#257,#258);
#206=AXIS2_PLACEMENT_3D('',#307,#260,#261);
#207=AXIS2_PLACEMENT_3D('',#309,#262,#263);
#208=AXIS2_PLACEMENT_3D('',#311,#265,#266);
#209=DIRECTION('axis',(0.,0.,1.));
#210=DIRECTION('refdir',(1.,0.,0.));
#211=DIRECTION('center_axis',(0.,1.,0.));
#212=DIRECTION('ref_axis',(1.,0.,0.));
#213=DIRECTION('center_axis',(0.,1.,0.));
#214=DIRECTION('ref_axis',(1.,0.,0.));
#215=DIRECTION('',(-0.707106781186555,0.70710678118654,-8.65956056235503E-17));
#216=DIRECTION('center_axis',(0.,-1.,0.));
#217=DIRECTION('ref_axis',(1.,0.,0.));
#218=DIRECTION('center_axis',(0.,1.,0.));
#219=DIRECTION('ref_axis',(1.,0.,0.));
#220=DIRECTION('',(0.,1.,0.));
#221=DIRECTION('center_axis',(0.,1.,0.));
#222=DIRECTION('ref_axis',(1.,0.,0.));
#223=DIRECTION('center_axis',(0.,-1.,0.));
#224=DIRECTION('ref_axis',(0.,0.,-1.));
#225=DIRECTION('center_axis',(0.,1.,0.));
#226=DIRECTION('ref_axis',(-1.,0.,0.));
#227=DIRECTION('center_axis',(0.,-1.,0.));
#228=DIRECTION('ref_axis',(1.,0.,0.));
#229=DIRECTION('center_axis',(0.,-1.,0.));
#230=DIRECTION('ref_axis',(1.,0.,0.));
#231=DIRECTION('',(0.707106781186555,0.70710678118654,8.65956056235503E-17));
#232=DIRECTION('center_axis',(0.,1.,0.));
#233=DIRECTION('ref_axis',(1.,0.,0.));
#234=DIRECTION('center_axis',(0.,1.,0.));
#235=DIRECTION('ref_axis',(1.,0.,0.));
#236=DIRECTION('',(0.,1.,0.));
#237=DIRECTION('center_axis',(0.,-1.,0.));
#238=DIRECTION('ref_axis',(1.,0.,0.));
#239=DIRECTION('center_axis',(0.,-1.,0.));
#240=DIRECTION('ref_axis',(0.,0.,-1.));
#241=DIRECTION('center_axis',(0.,1.,0.));
#242=DIRECTION('ref_axis',(1.,0.,0.));
#243=DIRECTION('center_axis',(0.,1.,0.));
#244=DIRECTION('ref_axis',(1.,0.,0.));
#245=DIRECTION('',(-0.0995037190209986,0.995037190209989,-1.21856911002323E-17));
#246=DIRECTION('center_axis',(0.,-1.,0.));
#247=DIRECTION('ref_axis',(1.,0.,0.));
#248=DIRECTION('center_axis',(0.,-1.,0.));
#249=DIRECTION('ref_axis',(1.,0.,0.));
#250=DIRECTION('center_axis',(0.,1.,0.));
#251=DIRECTION('ref_axis',(1.,0.,0.));
#252=DIRECTION('center_axis',(0.,-1.,0.));
#253=DIRECTION('ref_axis',(1.,0.,0.));
#254=DIRECTION('',(0.0995037190209985,0.995037190209989,1.21856911002323E-17));
#255=DIRECTION('center_axis',(0.,-1.,0.));
#256=DIRECTION('ref_axis',(-1.,0.,0.));
#257=DIRECTION('center_axis',(0.,-1.,0.));
#258=DIRECTION('ref_axis',(-1.,0.,0.));
#259=DIRECTION('',(0.,-1.,0.));
#260=DIRECTION('center_axis',(0.,1.,0.));
#261=DIRECTION('ref_axis',(0.,0.,1.));
#262=DIRECTION('center_axis',(0.,1.,0.));
#263=DIRECTION('ref_axis',(1.,0.,0.));
#264=DIRECTION('',(0.,-1.,0.));
#265=DIRECTION('center_axis',(0.,1.,0.));
#266=DIRECTION('ref_axis',(0.,0.,1.));
#267=CARTESIAN_POINT('',(0.,0.,0.));
#268=CARTESIAN_POINT('Origin',(0.,260.2,0.));
#269=CARTESIAN_POINT('',(-64.6,260.,7.9112183224919E-15));
#270=CARTESIAN_POINT('Origin',(0.,260.,0.));
#271=CARTESIAN_POINT('',(-65.,260.4,-7.96020419445779E-15));
#272=CARTESIAN_POINT('',(-64.8,260.2,-7.93571125847485E-15));
#273=CARTESIAN_POINT('Origin',(0.,260.4,0.));
#274=CARTESIAN_POINT('Origin',(0.,260.,0.));
#275=CARTESIAN_POINT('',(-65.,270.,7.96020419445779E-15));
#276=CARTESIAN_POINT('',(-65.,260.,7.96020419445779E-15));
#277=CARTESIAN_POINT('Origin',(0.,270.,0.));
#278=CARTESIAN_POINT('Origin',(0.,260.,70.));
#279=CARTESIAN_POINT('',(62.,260.,-7.59281015471359E-15));
#280=CARTESIAN_POINT('Origin',(0.,260.,0.));
#281=CARTESIAN_POINT('Origin',(0.,260.2,0.));
#282=CARTESIAN_POINT('',(-66.9,260.,-8.19288708629579E-15));
#283=CARTESIAN_POINT('Origin',(0.,260.,0.));
#284=CARTESIAN_POINT('',(-66.5,260.4,8.1439012143299E-15));
#285=CARTESIAN_POINT('',(-66.7,260.2,-8.16839415031284E-15));
#286=CARTESIAN_POINT('Origin',(0.,260.4,0.));
#287=CARTESIAN_POINT('Origin',(0.,260.,0.));
#288=CARTESIAN_POINT('',(-66.5,270.,-8.1439012143299E-15));
#289=CARTESIAN_POINT('',(-66.5,260.,8.1439012143299E-15));
#290=CARTESIAN_POINT('Origin',(0.,270.,0.));
#291=CARTESIAN_POINT('Origin',(0.,260.,70.));
#292=CARTESIAN_POINT('',(-8.57252759403147E-15,260.,-70.));
#293=CARTESIAN_POINT('Origin',(0.,260.,2.12330153459561E-14));
#294=CARTESIAN_POINT('Origin',(0.,272.5,0.));
#295=CARTESIAN_POINT('',(-65.5,275.,-8.02143653441516E-15));
#296=CARTESIAN_POINT('',(-65.25,272.5,-7.99082036443648E-15));
#297=CARTESIAN_POINT('Origin',(0.,275.,0.));
#298=CARTESIAN_POINT('Origin',(0.,275.,0.));
#299=CARTESIAN_POINT('',(-66.,275.,8.08266887437253E-15));
#300=CARTESIAN_POINT('Origin',(0.,275.,0.));
#301=CARTESIAN_POINT('Origin',(0.,272.5,0.));
#302=CARTESIAN_POINT('',(-66.25,272.5,-8.11328504435121E-15));
#303=CARTESIAN_POINT('Origin',(0.,285.,0.));
#304=CARTESIAN_POINT('',(62.,285.,-7.59281015471359E-15));
#305=CARTESIAN_POINT('Origin',(0.,285.,0.));
#306=CARTESIAN_POINT('',(62.,285.,7.59281015471359E-15));
#307=CARTESIAN_POINT('Origin',(0.,272.5,2.12330153459561E-14));
#308=CARTESIAN_POINT('',(-8.57252759403147E-15,285.,-70.));
#309=CARTESIAN_POINT('Origin',(0.,285.,2.12330153459561E-14));
#310=CARTESIAN_POINT('',(-8.57252759403147E-15,272.5,-70.));
#311=CARTESIAN_POINT('Origin',(0.,285.,1.77635683940025E-14));
#312=UNCERTAINTY_MEASURE_WITH_UNIT(LENGTH_MEASURE(0.01),#316,
'DISTANCE_ACCURACY_VALUE',
'Maximum model space distance between geometric entities at asserted c
onnectivities');
#313=UNCERTAINTY_MEASURE_WITH_UNIT(LENGTH_MEASURE(0.01),#316,
'DISTANCE_ACCURACY_VALUE',
'Maximum model space distance between geometric entities at asserted c
onnectivities');
#314=(
GEOMETRIC_REPRESENTATION_CONTEXT(3)
GLOBAL_UNCERTAINTY_ASSIGNED_CONTEXT((#312))
GLOBAL_UNIT_ASSIGNED_CONTEXT((#316,#318,#319))
REPRESENTATION_CONTEXT('','3D')
);
#315=(
GEOMETRIC_REPRESENTATION_CONTEXT(3)
GLOBAL_UNCERTAINTY_ASSIGNED_CONTEXT((#313))
GLOBAL_UNIT_ASSIGNED_CONTEXT((#316,#318,#319))
REPRESENTATION_CONTEXT('','3D')
);
#316=(
LENGTH_UNIT()
NAMED_UNIT(*)
SI_UNIT(.MILLI.,.METRE.)
);
#317=(
LENGTH_UNIT()
NAMED_UNIT(*)
SI_UNIT($,.METRE.)
);
#318=(
NAMED_UNIT(*)
PLANE_ANGLE_UNIT()
SI_UNIT($,.RADIAN.)
);
#319=(
NAMED_UNIT(*)
SI_UNIT($,.STERADIAN.)
SOLID_ANGLE_UNIT()
);
#320=SHAPE_DEFINITION_REPRESENTATION(#321,#322);
#321=PRODUCT_DEFINITION_SHAPE('',$,#324);
#322=SHAPE_REPRESENTATION('',(#184),#314);
#323=PRODUCT_DEFINITION_CONTEXT('part definition',#328,'design');
#324=PRODUCT_DEFINITION('top_shade_holder','top_shade_holder',#325,#323);
#325=PRODUCT_DEFINITION_FORMATION('',$,#330);
#326=PRODUCT_RELATED_PRODUCT_CATEGORY('top_shade_holder',
'top_shade_holder',(#330));
#327=APPLICATION_PROTOCOL_DEFINITION('international standard',
'automotive_design',2009,#328);
#328=APPLICATION_CONTEXT(
'Core Data for Automotive Mechanical Design Process');
#329=PRODUCT_CONTEXT('part definition',#328,'mechanical');
#330=PRODUCT('top_shade_holder','top_shade_holder',$,(#329));
#331=PRESENTATION_STYLE_ASSIGNMENT((#332));
#332=SURFACE_STYLE_USAGE(.BOTH.,#333);
#333=SURFACE_SIDE_STYLE('',(#334));
#334=SURFACE_STYLE_FILL_AREA(#335);
#335=FILL_AREA_STYLE('Powder Coat - Rough (Black)',(#336));
#336=FILL_AREA_STYLE_COLOUR('Powder Coat - Rough (Black)',#337);
#337=COLOUR_RGB('Powder Coat - Rough (Black)',0.0980392156862745,0.0980392156862745,
0.0980392156862745);
ENDSEC;
END-ISO-10303-21;
