  0
SECTION
  2
HEADER
  9
$ACADVER
  1
AC1014
  9
$HANDSEED
  5
FFFF
  9
$MEASUREMENT
 70
     1
  0
ENDSEC
  0
SECTION
  2
TABLES
  0
TABLE
  2
VPORT
  5
8
330
0
100
AcDbSymbolTable
 70
     4
  0
VPORT
  5
2E
330
8
100
AcDbSymbolTableRecord
100
AcDbViewportTableRecord
  2
*ACTIVE
 70
     0
 10
0.0
 20
0.0
 11
1.0
 21
1.0
 12
210.0
 22
148.5
 13
0.0
 23
0.0
 14
10.0
 24
10.0
 15
10.0
 25
10.0
 16
0.0
 26
0.0
 36
1.0
 17
0.0
 27
0.0
 37
0.0
 40
341.0
 41
1.24
 42
50.0
 43
0.0
 44
0.0
 50
0.0
 51
0.0
 71
     0
 72
   100
 73
     1
 74
     3
 75
     0
 76
     0
 77
     0
 78
     0
  0
ENDTAB
  0
TABLE
  2
LTYPE
  5
5
330
0
100
AcDbSymbolTable
 70
     1
  0
LTYPE
  5
14
330
5
100
AcDbSymbolTableRecord
100
AcDbLinetypeTableRecord
  2
BYBLOCK
 70
     0
  3

 72
    65
 73
     0
 40
0.0
  0
LTYPE
  5
15
330
5
100
AcDbSymbolTableRecord
100
AcDbLinetypeTableRecord
  2
BYLAYER
 70
     0
  3

 72
    65
 73
     0
 40
0.0
  0
LTYPE
  5
16
330
5
100
AcDbSymbolTableRecord
100
AcDbLinetypeTableRecord
  2
CONTINUOUS
 70
     0
  3
Solid line
 72
    65
 73
     0
 40
0.0
  0
ENDTAB
  0
TABLE
  2
LAYER
  5
2
100
AcDbSymbolTable
 70
2
  0
LAYER
  5
50
100
AcDbSymbolTableRecord
100
AcDbLayerTableRecord
  2
0
 70
0
  6
CONTINUOUS
  0
LAYER
  5
51
100
AcDbSymbolTableRecord
100
AcDbLayerTableRecord
  2
Layer_1
 70
0
  6
CONTINUOUS
  0
ENDTAB
  0
TABLE
  2
STYLE
  5
3
330
0
100
AcDbSymbolTable
 70
     1
  0
STYLE
  5
11
330
3
100
AcDbSymbolTableRecord
100
AcDbTextStyleTableRecord
  2
STANDARD
 70
     0
 40
0.0
 41
1.0
 50
0.0
 71
     0
 42
2.5
  3
txt
  4

  0
ENDTAB
  0
TABLE
  2
VIEW
  5
6
330
0
100
AcDbSymbolTable
 70
     0
  0
ENDTAB
  0
TABLE
  2
UCS
  5
7
330
0
100
AcDbSymbolTable
 70
     0
  0
ENDTAB
  0
TABLE
  2
APPID
  5
9
330
0
100
AcDbSymbolTable
 70
     2
  0
APPID
  5
12
330
9
100
AcDbSymbolTableRecord
100
AcDbRegAppTableRecord
  2
ACAD
 70
     0
  0
ENDTAB
  0
TABLE
  2
DIMSTYLE
  5
A
330
0
100
AcDbSymbolTable
 70
     1
  0
DIMSTYLE
105
27
330
A
100
AcDbSymbolTableRecord
100
AcDbDimStyleTableRecord
  2
ISO-25
 70
     0
  3

  4

  5

  6

  7

 40
1.0
 41
2.5
 42
0.625
 43
3.75
 44
1.25
 45
0.0
 46
0.0
 47
0.0
 48
0.0
140
2.5
141
2.5
142
0.0
143
0.03937007874016
144
1.0
145
0.0
146
1.0
147
0.625
 71
     0
 72
     0
 73
     0
 74
     0
 75
     0
 76
     0
 77
     1
 78
     8
170
     0
171
     3
172
     1
173
     0
174
     0
175
     0
176
     0
177
     0
178
     0
270
     2
271
     2
272
     2
273
     2
274
     3
340
11
275
     0
280
     0
281
     0
282
     0
283
     0
284
     8
285
     0
286
     0
287
     3
288
     0
  0
ENDTAB
  0
TABLE
  2
BLOCK_RECORD
  5
1
330
0
100
AcDbSymbolTable
 70
     1
  0
BLOCK_RECORD
  5
1F
330
1
100
AcDbSymbolTableRecord
100
AcDbBlockTableRecord
  2
*MODEL_SPACE
  0
BLOCK_RECORD
  5
1B
330
1
100
AcDbSymbolTableRecord
100
AcDbBlockTableRecord
  2
*PAPER_SPACE
  0
ENDTAB
  0
ENDSEC
  0
SECTION
  2
BLOCKS
  0
BLOCK
  5
20
330
1F
100
AcDbEntity
  8
0
100
AcDbBlockBegin
  2
*MODEL_SPACE
 70
     0
 10
0.0
 20
0.0
 30
0.0
  3
*MODEL_SPACE
  1

  0
ENDBLK
  5
21
330
1F
100
AcDbEntity
  8
0
100
AcDbBlockEnd
  0
BLOCK
  5
1C
330
1B
100
AcDbEntity
 67
     1
  8
0
100
AcDbBlockBegin
  2
*PAPER_SPACE
  1

  0
ENDBLK
  5
1D
330
1B
100
AcDbEntity
 67
     1
  8
0
100
AcDbBlockEnd
  0
ENDSEC
  0
SECTION
  2
ENTITIES
  0
LWPOLYLINE
  5
100
100
AcDbEntity
  8
Layer_1
 62
1
100
AcDbPolyline
 90
94
 70
1
 10
8.231805
 20
78.538337
 30
0.0
 10
8.231805
 20
77.549620
 30
0.0
 10
8.349058
 20
77.549620
 30
0.0
 10
8.349058
 20
76.557267
 30
0.0
 10
8.231805
 20
76.557267
 30
0.0
 10
8.231805
 20
75.565823
 30
0.0
 10
8.349058
 20
75.565823
 30
0.0
 10
8.349058
 20
74.573470
 30
0.0
 10
8.231805
 20
74.573470
 30
0.0
 10
8.231805
 20
73.582026
 30
0.0
 10
8.349058
 20
73.582026
 30
0.0
 10
8.349058
 20
72.589674
 30
0.0
 10
8.231805
 20
72.589674
 30
0.0
 10
8.231805
 20
71.598230
 30
0.0
 10
8.349058
 20
71.598230
 30
0.0
 10
8.349058
 20
70.605878
 30
0.0
 10
8.231805
 20
70.605878
 30
0.0
 10
8.231805
 20
69.614433
 30
0.0
 10
8.349058
 20
69.614433
 30
0.0
 10
8.349058
 20
68.622081
 30
0.0
 10
8.231805
 20
68.622081
 30
0.0
 10
8.231805
 20
67.633363
 30
0.0
 10
9.719322
 20
67.633363
 30
0.0
 10
9.719322
 20
67.740595
 30
0.0
 10
10.803410
 20
67.740595
 30
0.0
 10
10.803410
 20
67.633363
 30
0.0
 10
11.888493
 20
67.633363
 30
0.0
 10
11.888493
 20
67.740595
 30
0.0
 10
12.972581
 20
67.740595
 30
0.0
 10
12.972581
 20
67.633363
 30
0.0
 10
14.057663
 20
67.633363
 30
0.0
 10
14.057663
 20
67.740595
 30
0.0
 10
15.141752
 20
67.740595
 30
0.0
 10
15.141752
 20
67.633363
 30
0.0
 10
16.226833
 20
67.633363
 30
0.0
 10
16.226833
 20
67.740595
 30
0.0
 10
17.310922
 20
67.740595
 30
0.0
 10
17.310922
 20
67.633363
 30
0.0
 10
18.396004
 20
67.633363
 30
0.0
 10
18.396004
 20
67.740595
 30
0.0
 10
19.480093
 20
67.740595
 30
0.0
 10
19.480093
 20
67.633363
 30
0.0
 10
20.565175
 20
67.633363
 30
0.0
 10
20.565175
 20
67.740595
 30
0.0
 10
21.649263
 20
67.740595
 30
0.0
 10
21.649263
 20
67.633363
 30
0.0
 10
22.734345
 20
67.633363
 30
0.0
 10
23.136780
 20
67.633363
 30
0.0
 10
23.136780
 20
68.622081
 30
0.0
 10
23.019527
 20
68.622081
 30
0.0
 10
23.019527
 20
69.614433
 30
0.0
 10
23.136780
 20
69.614433
 30
0.0
 10
23.136780
 20
70.605878
 30
0.0
 10
23.019527
 20
70.605878
 30
0.0
 10
23.019527
 20
71.598230
 30
0.0
 10
23.136780
 20
71.598230
 30
0.0
 10
23.136780
 20
72.589674
 30
0.0
 10
23.019527
 20
72.589674
 30
0.0
 10
23.019527
 20
73.582026
 30
0.0
 10
23.136780
 20
73.582026
 30
0.0
 10
23.136780
 20
74.573470
 30
0.0
 10
23.019527
 20
74.573470
 30
0.0
 10
23.019527
 20
75.565823
 30
0.0
 10
23.136780
 20
75.565823
 30
0.0
 10
23.136780
 20
76.557267
 30
0.0
 10
23.019527
 20
76.557267
 30
0.0
 10
23.019527
 20
77.549620
 30
0.0
 10
23.136780
 20
77.549620
 30
0.0
 10
23.136780
 20
78.538337
 30
0.0
 10
21.649263
 20
78.538337
 30
0.0
 10
21.649263
 20
78.431105
 30
0.0
 10
20.565175
 20
78.431105
 30
0.0
 10
20.565175
 20
78.538337
 30
0.0
 10
19.480093
 20
78.538337
 30
0.0
 10
19.480093
 20
78.431105
 30
0.0
 10
18.396004
 20
78.431105
 30
0.0
 10
18.396004
 20
78.538337
 30
0.0
 10
17.310922
 20
78.538337
 30
0.0
 10
17.310922
 20
78.431105
 30
0.0
 10
16.226833
 20
78.431105
 30
0.0
 10
16.226833
 20
78.538337
 30
0.0
 10
15.141752
 20
78.538337
 30
0.0
 10
15.141752
 20
78.431105
 30
0.0
 10
14.057663
 20
78.431105
 30
0.0
 10
14.057663
 20
78.538337
 30
0.0
 10
12.972581
 20
78.538337
 30
0.0
 10
12.972581
 20
78.431105
 30
0.0
 10
11.888493
 20
78.431105
 30
0.0
 10
11.888493
 20
78.538337
 30
0.0
 10
10.803410
 20
78.538337
 30
0.0
 10
10.803410
 20
78.431105
 30
0.0
 10
9.719322
 20
78.431105
 30
0.0
 10
9.719322
 20
78.538337
 30
0.0
 10
8.634240
 20
78.538337
 30
0.0
  0
LWPOLYLINE
  5
101
100
AcDbEntity
  8
Layer_1
 62
1
100
AcDbPolyline
 90
84
 70
1
 10
23.462020
 20
78.540396
 30
0.0
 10
23.462020
 20
77.551305
 30
0.0
 10
23.354747
 20
77.551305
 30
0.0
 10
23.354747
 20
76.558577
 30
0.0
 10
23.462020
 20
76.558577
 30
0.0
 10
23.462020
 20
75.566759
 30
0.0
 10
23.354747
 20
75.566759
 30
0.0
 10
23.354747
 20
74.574032
 30
0.0
 10
23.462020
 20
74.574032
 30
0.0
 10
23.462020
 20
73.582214
 30
0.0
 10
23.354747
 20
73.582214
 30
0.0
 10
23.354747
 20
72.589486
 30
0.0
 10
23.462020
 20
72.589486
 30
0.0
 10
23.462020
 20
71.597669
 30
0.0
 10
23.354747
 20
71.597669
 30
0.0
 10
23.354747
 20
70.604941
 30
0.0
 10
23.462020
 20
70.604941
 30
0.0
 10
23.462020
 20
69.613123
 30
0.0
 10
23.354747
 20
69.613123
 30
0.0
 10
23.354747
 20
68.620396
 30
0.0
 10
23.462020
 20
68.620396
 30
0.0
 10
23.462020
 20
67.631305
 30
0.0
 10
24.343838
 20
67.631305
 30
0.0
 10
24.343838
 20
67.738577
 30
0.0
 10
25.336565
 20
67.738577
 30
0.0
 10
25.336565
 20
67.631305
 30
0.0
 10
26.328383
 20
67.631305
 30
0.0
 10
26.328383
 20
67.738577
 30
0.0
 10
27.321111
 20
67.738577
 30
0.0
 10
27.321111
 20
67.631305
 30
0.0
 10
28.312928
 20
67.631305
 30
0.0
 10
28.312928
 20
67.738577
 30
0.0
 10
29.305656
 20
67.738577
 30
0.0
 10
29.305656
 20
67.631305
 30
0.0
 10
30.297475
 20
67.631305
 30
0.0
 10
30.297475
 20
67.738577
 30
0.0
 10
31.290204
 20
67.738577
 30
0.0
 10
31.290204
 20
67.631305
 30
0.0
 10
32.282019
 20
67.631305
 30
0.0
 10
32.282019
 20
67.738577
 30
0.0
 10
33.274747
 20
67.738577
 30
0.0
 10
33.274747
 20
67.631305
 30
0.0
 10
34.156566
 20
67.631305
 30
0.0
 10
34.156566
 20
68.620396
 30
0.0
 10
34.263838
 20
68.620396
 30
0.0
 10
34.263838
 20
69.613123
 30
0.0
 10
34.156566
 20
69.613123
 30
0.0
 10
34.156566
 20
70.604941
 30
0.0
 10
34.263838
 20
70.604941
 30
0.0
 10
34.263838
 20
71.597669
 30
0.0
 10
34.156566
 20
71.597669
 30
0.0
 10
34.156566
 20
72.589486
 30
0.0
 10
34.263838
 20
72.589486
 30
0.0
 10
34.263838
 20
73.582214
 30
0.0
 10
34.156566
 20
73.582214
 30
0.0
 10
34.156566
 20
74.574032
 30
0.0
 10
34.263838
 20
74.574032
 30
0.0
 10
34.263838
 20
75.566759
 30
0.0
 10
34.156566
 20
75.566759
 30
0.0
 10
34.156566
 20
76.558577
 30
0.0
 10
34.263838
 20
76.558577
 30
0.0
 10
34.263838
 20
77.551305
 30
0.0
 10
34.156566
 20
77.551305
 30
0.0
 10
34.156566
 20
78.540396
 30
0.0
 10
33.274747
 20
78.540396
 30
0.0
 10
33.274747
 20
78.433123
 30
0.0
 10
32.282019
 20
78.433123
 30
0.0
 10
32.282019
 20
78.540396
 30
0.0
 10
31.290204
 20
78.540396
 30
0.0
 10
31.290204
 20
78.433123
 30
0.0
 10
30.297475
 20
78.433123
 30
0.0
 10
30.297475
 20
78.540396
 30
0.0
 10
29.305656
 20
78.540396
 30
0.0
 10
29.305656
 20
78.433123
 30
0.0
 10
28.312928
 20
78.433123
 30
0.0
 10
28.312928
 20
78.540396
 30
0.0
 10
27.321111
 20
78.540396
 30
0.0
 10
27.321111
 20
78.433123
 30
0.0
 10
26.328383
 20
78.433123
 30
0.0
 10
26.328383
 20
78.540396
 30
0.0
 10
25.336565
 20
78.540396
 30
0.0
 10
25.336565
 20
78.433123
 30
0.0
 10
24.343838
 20
78.433123
 30
0.0
 10
24.343838
 20
78.540396
 30
0.0
  0
LWPOLYLINE
  5
102
100
AcDbEntity
  8
Layer_1
 62
1
100
AcDbPolyline
 90
94
 70
1
 10
35.599056
 20
78.431105
 30
0.0
 10
35.599056
 20
77.549620
 30
0.0
 10
35.481806
 20
77.549620
 30
0.0
 10
35.481806
 20
76.557267
 30
0.0
 10
35.599056
 20
76.557267
 30
0.0
 10
35.599056
 20
75.565823
 30
0.0
 10
35.481806
 20
75.565823
 30
0.0
 10
35.481806
 20
74.573470
 30
0.0
 10
35.599056
 20
74.573470
 30
0.0
 10
35.599056
 20
73.582026
 30
0.0
 10
35.481806
 20
73.582026
 30
0.0
 10
35.481806
 20
72.589674
 30
0.0
 10
35.599056
 20
72.589674
 30
0.0
 10
35.599056
 20
71.598230
 30
0.0
 10
35.481806
 20
71.598230
 30
0.0
 10
35.481806
 20
70.605878
 30
0.0
 10
35.599056
 20
70.605878
 30
0.0
 10
35.599056
 20
69.614433
 30
0.0
 10
35.481806
 20
69.614433
 30
0.0
 10
35.481806
 20
68.622081
 30
0.0
 10
35.599056
 20
68.622081
 30
0.0
 10
35.599056
 20
67.740595
 30
0.0
 10
36.969319
 20
67.740595
 30
0.0
 10
36.969319
 20
67.633363
 30
0.0
 10
38.053410
 20
67.633363
 30
0.0
 10
38.053410
 20
67.740595
 30
0.0
 10
39.138490
 20
67.740595
 30
0.0
 10
39.138490
 20
67.633363
 30
0.0
 10
40.222583
 20
67.633363
 30
0.0
 10
40.222583
 20
67.740595
 30
0.0
 10
41.307665
 20
67.740595
 30
0.0
 10
41.307665
 20
67.633363
 30
0.0
 10
42.391748
 20
67.633363
 30
0.0
 10
42.391748
 20
67.740595
 30
0.0
 10
43.476835
 20
67.740595
 30
0.0
 10
43.476835
 20
67.633363
 30
0.0
 10
44.560917
 20
67.633363
 30
0.0
 10
44.560917
 20
67.740595
 30
0.0
 10
45.646000
 20
67.740595
 30
0.0
 10
45.646000
 20
67.633363
 30
0.0
 10
46.730094
 20
67.633363
 30
0.0
 10
46.730094
 20
67.740595
 30
0.0
 10
47.815173
 20
67.740595
 30
0.0
 10
47.815173
 20
67.633363
 30
0.0
 10
48.899264
 20
67.633363
 30
0.0
 10
48.899264
 20
67.740595
 30
0.0
 10
49.984346
 20
67.740595
 30
0.0
 10
50.269528
 20
67.740595
 30
0.0
 10
50.269528
 20
68.622081
 30
0.0
 10
50.386776
 20
68.622081
 30
0.0
 10
50.386776
 20
69.614433
 30
0.0
 10
50.269528
 20
69.614433
 30
0.0
 10
50.269528
 20
70.605878
 30
0.0
 10
50.386776
 20
70.605878
 30
0.0
 10
50.386776
 20
71.598230
 30
0.0
 10
50.269528
 20
71.598230
 30
0.0
 10
50.269528
 20
72.589674
 30
0.0
 10
50.386776
 20
72.589674
 30
0.0
 10
50.386776
 20
73.582026
 30
0.0
 10
50.269528
 20
73.582026
 30
0.0
 10
50.269528
 20
74.573470
 30
0.0
 10
50.386776
 20
74.573470
 30
0.0
 10
50.386776
 20
75.565823
 30
0.0
 10
50.269528
 20
75.565823
 30
0.0
 10
50.269528
 20
76.557267
 30
0.0
 10
50.386776
 20
76.557267
 30
0.0
 10
50.386776
 20
77.549620
 30
0.0
 10
50.269528
 20
77.549620
 30
0.0
 10
50.269528
 20
78.431105
 30
0.0
 10
48.899264
 20
78.431105
 30
0.0
 10
48.899264
 20
78.538337
 30
0.0
 10
47.815173
 20
78.538337
 30
0.0
 10
47.815173
 20
78.431105
 30
0.0
 10
46.730094
 20
78.431105
 30
0.0
 10
46.730094
 20
78.538337
 30
0.0
 10
45.646000
 20
78.538337
 30
0.0
 10
45.646000
 20
78.431105
 30
0.0
 10
44.560917
 20
78.431105
 30
0.0
 10
44.560917
 20
78.538337
 30
0.0
 10
43.476835
 20
78.538337
 30
0.0
 10
43.476835
 20
78.431105
 30
0.0
 10
42.391748
 20
78.431105
 30
0.0
 10
42.391748
 20
78.538337
 30
0.0
 10
41.307665
 20
78.538337
 30
0.0
 10
41.307665
 20
78.431105
 30
0.0
 10
40.222583
 20
78.431105
 30
0.0
 10
40.222583
 20
78.538337
 30
0.0
 10
39.138490
 20
78.538337
 30
0.0
 10
39.138490
 20
78.431105
 30
0.0
 10
38.053410
 20
78.431105
 30
0.0
 10
38.053410
 20
78.538337
 30
0.0
 10
36.969319
 20
78.538337
 30
0.0
 10
36.969319
 20
78.431105
 30
0.0
 10
35.884235
 20
78.431105
 30
0.0
  0
LWPOLYLINE
  5
103
100
AcDbEntity
  8
Layer_1
 62
1
100
AcDbPolyline
 90
94
 70
1
 10
8.231805
 20
90.663337
 30
0.0
 10
8.231805
 20
89.674620
 30
0.0
 10
8.349058
 20
89.674620
 30
0.0
 10
8.349058
 20
88.682267
 30
0.0
 10
8.231805
 20
88.682267
 30
0.0
 10
8.231805
 20
87.690823
 30
0.0
 10
8.349058
 20
87.690823
 30
0.0
 10
8.349058
 20
86.698470
 30
0.0
 10
8.231805
 20
86.698470
 30
0.0
 10
8.231805
 20
85.707026
 30
0.0
 10
8.349058
 20
85.707026
 30
0.0
 10
8.349058
 20
84.714674
 30
0.0
 10
8.231805
 20
84.714674
 30
0.0
 10
8.231805
 20
83.723230
 30
0.0
 10
8.349058
 20
83.723230
 30
0.0
 10
8.349058
 20
82.730878
 30
0.0
 10
8.231805
 20
82.730878
 30
0.0
 10
8.231805
 20
81.739433
 30
0.0
 10
8.349058
 20
81.739433
 30
0.0
 10
8.349058
 20
80.747081
 30
0.0
 10
8.231805
 20
80.747081
 30
0.0
 10
8.231805
 20
79.758363
 30
0.0
 10
9.719322
 20
79.758363
 30
0.0
 10
9.719322
 20
79.865595
 30
0.0
 10
10.803410
 20
79.865595
 30
0.0
 10
10.803410
 20
79.758363
 30
0.0
 10
11.888493
 20
79.758363
 30
0.0
 10
11.888493
 20
79.865595
 30
0.0
 10
12.972581
 20
79.865595
 30
0.0
 10
12.972581
 20
79.758363
 30
0.0
 10
14.057663
 20
79.758363
 30
0.0
 10
14.057663
 20
79.865595
 30
0.0
 10
15.141752
 20
79.865595
 30
0.0
 10
15.141752
 20
79.758363
 30
0.0
 10
16.226833
 20
79.758363
 30
0.0
 10
16.226833
 20
79.865595
 30
0.0
 10
17.310922
 20
79.865595
 30
0.0
 10
17.310922
 20
79.758363
 30
0.0
 10
18.396004
 20
79.758363
 30
0.0
 10
18.396004
 20
79.865595
 30
0.0
 10
19.480093
 20
79.865595
 30
0.0
 10
19.480093
 20
79.758363
 30
0.0
 10
20.565175
 20
79.758363
 30
0.0
 10
20.565175
 20
79.865595
 30
0.0
 10
21.649263
 20
79.865595
 30
0.0
 10
21.649263
 20
79.758363
 30
0.0
 10
22.734345
 20
79.758363
 30
0.0
 10
23.136780
 20
79.758363
 30
0.0
 10
23.136780
 20
80.747081
 30
0.0
 10
23.019527
 20
80.747081
 30
0.0
 10
23.019527
 20
81.739433
 30
0.0
 10
23.136780
 20
81.739433
 30
0.0
 10
23.136780
 20
82.730878
 30
0.0
 10
23.019527
 20
82.730878
 30
0.0
 10
23.019527
 20
83.723230
 30
0.0
 10
23.136780
 20
83.723230
 30
0.0
 10
23.136780
 20
84.714674
 30
0.0
 10
23.019527
 20
84.714674
 30
0.0
 10
23.019527
 20
85.707026
 30
0.0
 10
23.136780
 20
85.707026
 30
0.0
 10
23.136780
 20
86.698470
 30
0.0
 10
23.019527
 20
86.698470
 30
0.0
 10
23.019527
 20
87.690823
 30
0.0
 10
23.136780
 20
87.690823
 30
0.0
 10
23.136780
 20
88.682267
 30
0.0
 10
23.019527
 20
88.682267
 30
0.0
 10
23.019527
 20
89.674620
 30
0.0
 10
23.136780
 20
89.674620
 30
0.0
 10
23.136780
 20
90.663337
 30
0.0
 10
21.649263
 20
90.663337
 30
0.0
 10
21.649263
 20
90.556105
 30
0.0
 10
20.565175
 20
90.556105
 30
0.0
 10
20.565175
 20
90.663337
 30
0.0
 10
19.480093
 20
90.663337
 30
0.0
 10
19.480093
 20
90.556105
 30
0.0
 10
18.396004
 20
90.556105
 30
0.0
 10
18.396004
 20
90.663337
 30
0.0
 10
17.310922
 20
90.663337
 30
0.0
 10
17.310922
 20
90.556105
 30
0.0
 10
16.226833
 20
90.556105
 30
0.0
 10
16.226833
 20
90.663337
 30
0.0
 10
15.141752
 20
90.663337
 30
0.0
 10
15.141752
 20
90.556105
 30
0.0
 10
14.057663
 20
90.556105
 30
0.0
 10
14.057663
 20
90.663337
 30
0.0
 10
12.972581
 20
90.663337
 30
0.0
 10
12.972581
 20
90.556105
 30
0.0
 10
11.888493
 20
90.556105
 30
0.0
 10
11.888493
 20
90.663337
 30
0.0
 10
10.803410
 20
90.663337
 30
0.0
 10
10.803410
 20
90.556105
 30
0.0
 10
9.719322
 20
90.556105
 30
0.0
 10
9.719322
 20
90.663337
 30
0.0
 10
8.634240
 20
90.663337
 30
0.0
  0
LWPOLYLINE
  5
104
100
AcDbEntity
  8
Layer_1
 62
1
100
AcDbPolyline
 90
84
 70
1
 10
23.462020
 20
90.665396
 30
0.0
 10
23.462020
 20
89.676305
 30
0.0
 10
23.354747
 20
89.676305
 30
0.0
 10
23.354747
 20
88.683578
 30
0.0
 10
23.462020
 20
88.683578
 30
0.0
 10
23.462020
 20
87.691759
 30
0.0
 10
23.354747
 20
87.691759
 30
0.0
 10
23.354747
 20
86.699031
 30
0.0
 10
23.462020
 20
86.699031
 30
0.0
 10
23.462020
 20
85.707214
 30
0.0
 10
23.354747
 20
85.707214
 30
0.0
 10
23.354747
 20
84.714487
 30
0.0
 10
23.462020
 20
84.714487
 30
0.0
 10
23.462020
 20
83.722669
 30
0.0
 10
23.354747
 20
83.722669
 30
0.0
 10
23.354747
 20
82.729941
 30
0.0
 10
23.462020
 20
82.729941
 30
0.0
 10
23.462020
 20
81.738123
 30
0.0
 10
23.354747
 20
81.738123
 30
0.0
 10
23.354747
 20
80.745396
 30
0.0
 10
23.462020
 20
80.745396
 30
0.0
 10
23.462020
 20
79.756305
 30
0.0
 10
24.343838
 20
79.756305
 30
0.0
 10
24.343838
 20
79.863578
 30
0.0
 10
25.336566
 20
79.863578
 30
0.0
 10
25.336566
 20
79.756305
 30
0.0
 10
26.328384
 20
79.756305
 30
0.0
 10
26.328384
 20
79.863578
 30
0.0
 10
27.321111
 20
79.863578
 30
0.0
 10
27.321111
 20
79.756305
 30
0.0
 10
28.312928
 20
79.756305
 30
0.0
 10
28.312928
 20
79.863578
 30
0.0
 10
29.305656
 20
79.863578
 30
0.0
 10
29.305656
 20
79.756305
 30
0.0
 10
30.297475
 20
79.756305
 30
0.0
 10
30.297475
 20
79.863578
 30
0.0
 10
31.290203
 20
79.863578
 30
0.0
 10
31.290203
 20
79.756305
 30
0.0
 10
32.282019
 20
79.756305
 30
0.0
 10
32.282019
 20
79.863578
 30
0.0
 10
33.274747
 20
79.863578
 30
0.0
 10
33.274747
 20
79.756305
 30
0.0
 10
34.156566
 20
79.756305
 30
0.0
 10
34.156566
 20
80.745396
 30
0.0
 10
34.263838
 20
80.745396
 30
0.0
 10
34.263838
 20
81.738123
 30
0.0
 10
34.156566
 20
81.738123
 30
0.0
 10
34.156566
 20
82.729941
 30
0.0
 10
34.263838
 20
82.729941
 30
0.0
 10
34.263838
 20
83.722669
 30
0.0
 10
34.156566
 20
83.722669
 30
0.0
 10
34.156566
 20
84.714487
 30
0.0
 10
34.263838
 20
84.714487
 30
0.0
 10
34.263838
 20
85.707214
 30
0.0
 10
34.156566
 20
85.707214
 30
0.0
 10
34.156566
 20
86.699031
 30
0.0
 10
34.263838
 20
86.699031
 30
0.0
 10
34.263838
 20
87.691759
 30
0.0
 10
34.156566
 20
87.691759
 30
0.0
 10
34.156566
 20
88.683578
 30
0.0
 10
34.263838
 20
88.683578
 30
0.0
 10
34.263838
 20
89.676305
 30
0.0
 10
34.156566
 20
89.676305
 30
0.0
 10
34.156566
 20
90.665396
 30
0.0
 10
33.274747
 20
90.665396
 30
0.0
 10
33.274747
 20
90.558123
 30
0.0
 10
32.282019
 20
90.558123
 30
0.0
 10
32.282019
 20
90.665396
 30
0.0
 10
31.290203
 20
90.665396
 30
0.0
 10
31.290203
 20
90.558123
 30
0.0
 10
30.297475
 20
90.558123
 30
0.0
 10
30.297475
 20
90.665396
 30
0.0
 10
29.305656
 20
90.665396
 30
0.0
 10
29.305656
 20
90.558123
 30
0.0
 10
28.312928
 20
90.558123
 30
0.0
 10
28.312928
 20
90.665396
 30
0.0
 10
27.321111
 20
90.665396
 30
0.0
 10
27.321111
 20
90.558123
 30
0.0
 10
26.328384
 20
90.558123
 30
0.0
 10
26.328384
 20
90.665396
 30
0.0
 10
25.336566
 20
90.665396
 30
0.0
 10
25.336566
 20
90.558123
 30
0.0
 10
24.343838
 20
90.558123
 30
0.0
 10
24.343838
 20
90.665396
 30
0.0
  0
SPLINE
  5
105
100
AcDbEntity
  8
Layer_1
 62
7
100
AcDbSpline
 70
8
 71
3
 72
8
 73
4
 74
0
 40
0
 40
0
 40
0
 40
0
 40
1
 40
1
 40
1
 40
1
 10
15.718295
 20
89.337597
 30
0.0
 10
14.709019
 20
89.337597
 30
0.0
 10
13.799122
 20
88.912355
 30
0.0
 10
13.412889
 20
88.260161
 30
0.0
  0
SPLINE
  5
106
100
AcDbEntity
  8
Layer_1
 62
7
100
AcDbSpline
 70
8
 71
3
 72
8
 73
4
 74
0
 40
0
 40
0
 40
0
 40
0
 40
1
 40
1
 40
1
 40
1
 10
13.412889
 20
88.260161
 30
0.0
 10
13.026656
 20
87.607968
 30
0.0
 10
13.240148
 20
86.857260
 30
0.0
 10
13.953814
 20
86.358093
 30
0.0
  0
SPLINE
  5
107
100
AcDbEntity
  8
Layer_1
 62
7
100
AcDbSpline
 70
8
 71
3
 72
8
 73
4
 74
0
 40
0
 40
0
 40
0
 40
0
 40
1
 40
1
 40
1
 40
1
 10
13.953814
 20
86.358093
 30
0.0
 10
14.667480
 20
85.858925
 30
0.0
 10
15.740776
 20
85.709600
 30
0.0
 10
16.673225
 20
85.979748
 30
0.0
  0
SPLINE
  5
108
100
AcDbEntity
  8
Layer_1
 62
7
100
AcDbSpline
 70
8
 71
3
 72
8
 73
4
 74
0
 40
0
 40
0
 40
0
 40
0
 40
1
 40
1
 40
1
 40
1
 10
16.673225
 20
85.979748
 30
0.0
 10
17.605675
 20
86.249895
 30
0.0
 10
18.213648
 20
86.886314
 30
0.0
 10
18.213648
 20
87.592244
 30
0.0
  0
SPLINE
  5
109
100
AcDbEntity
  8
Layer_1
 62
7
100
AcDbSpline
 70
8
 71
3
 72
8
 73
4
 74
0
 40
0
 40
0
 40
0
 40
0
 40
1
 40
1
 40
1
 40
1
 10
18.213648
 20
87.592244
 30
0.0
 10
18.213648
 20
88.055140
 30
0.0
 10
17.950746
 20
88.499078
 30
0.0
 10
17.482776
 20
88.826395
 30
0.0
  0
SPLINE
  5
10a
100
AcDbEntity
  8
Layer_1
 62
7
100
AcDbSpline
 70
8
 71
3
 72
8
 73
4
 74
0
 40
0
 40
0
 40
0
 40
0
 40
1
 40
1
 40
1
 40
1
 10
17.482776
 20
88.826395
 30
0.0
 10
17.014807
 20
89.153712
 30
0.0
 10
16.380104
 20
89.337597
 30
0.0
 10
15.718295
 20
89.337597
 30
0.0
  0
LWPOLYLINE
  5
10b
100
AcDbEntity
  8
Layer_1
 62
1
100
AcDbPolyline
 90
94
 70
1
 10
35.599056
 20
90.556105
 30
0.0
 10
35.599056
 20
89.674620
 30
0.0
 10
35.481806
 20
89.674620
 30
0.0
 10
35.481806
 20
88.682267
 30
0.0
 10
35.599056
 20
88.682267
 30
0.0
 10
35.599056
 20
87.690823
 30
0.0
 10
35.481806
 20
87.690823
 30
0.0
 10
35.481806
 20
86.698470
 30
0.0
 10
35.599056
 20
86.698470
 30
0.0
 10
35.599056
 20
85.707026
 30
0.0
 10
35.481806
 20
85.707026
 30
0.0
 10
35.481806
 20
84.714674
 30
0.0
 10
35.599056
 20
84.714674
 30
0.0
 10
35.599056
 20
83.723230
 30
0.0
 10
35.481806
 20
83.723230
 30
0.0
 10
35.481806
 20
82.730878
 30
0.0
 10
35.599056
 20
82.730878
 30
0.0
 10
35.599056
 20
81.739433
 30
0.0
 10
35.481806
 20
81.739433
 30
0.0
 10
35.481806
 20
80.747081
 30
0.0
 10
35.599056
 20
80.747081
 30
0.0
 10
35.599056
 20
79.865595
 30
0.0
 10
36.969319
 20
79.865595
 30
0.0
 10
36.969319
 20
79.758363
 30
0.0
 10
38.053410
 20
79.758363
 30
0.0
 10
38.053410
 20
79.865595
 30
0.0
 10
39.138490
 20
79.865595
 30
0.0
 10
39.138490
 20
79.758363
 30
0.0
 10
40.222583
 20
79.758363
 30
0.0
 10
40.222583
 20
79.865595
 30
0.0
 10
41.307665
 20
79.865595
 30
0.0
 10
41.307665
 20
79.758363
 30
0.0
 10
42.391748
 20
79.758363
 30
0.0
 10
42.391748
 20
79.865595
 30
0.0
 10
43.476835
 20
79.865595
 30
0.0
 10
43.476835
 20
79.758363
 30
0.0
 10
44.560917
 20
79.758363
 30
0.0
 10
44.560917
 20
79.865595
 30
0.0
 10
45.646000
 20
79.865595
 30
0.0
 10
45.646000
 20
79.758363
 30
0.0
 10
46.730094
 20
79.758363
 30
0.0
 10
46.730094
 20
79.865595
 30
0.0
 10
47.815173
 20
79.865595
 30
0.0
 10
47.815173
 20
79.758363
 30
0.0
 10
48.899264
 20
79.758363
 30
0.0
 10
48.899264
 20
79.865595
 30
0.0
 10
49.984346
 20
79.865595
 30
0.0
 10
50.269528
 20
79.865595
 30
0.0
 10
50.269528
 20
80.747081
 30
0.0
 10
50.386776
 20
80.747081
 30
0.0
 10
50.386776
 20
81.739433
 30
0.0
 10
50.269528
 20
81.739433
 30
0.0
 10
50.269528
 20
82.730878
 30
0.0
 10
50.386776
 20
82.730878
 30
0.0
 10
50.386776
 20
83.723230
 30
0.0
 10
50.269528
 20
83.723230
 30
0.0
 10
50.269528
 20
84.714674
 30
0.0
 10
50.386776
 20
84.714674
 30
0.0
 10
50.386776
 20
85.707026
 30
0.0
 10
50.269528
 20
85.707026
 30
0.0
 10
50.269528
 20
86.698470
 30
0.0
 10
50.386776
 20
86.698470
 30
0.0
 10
50.386776
 20
87.690823
 30
0.0
 10
50.269528
 20
87.690823
 30
0.0
 10
50.269528
 20
88.682267
 30
0.0
 10
50.386776
 20
88.682267
 30
0.0
 10
50.386776
 20
89.674620
 30
0.0
 10
50.269528
 20
89.674620
 30
0.0
 10
50.269528
 20
90.556105
 30
0.0
 10
48.899264
 20
90.556105
 30
0.0
 10
48.899264
 20
90.663337
 30
0.0
 10
47.815173
 20
90.663337
 30
0.0
 10
47.815173
 20
90.556105
 30
0.0
 10
46.730094
 20
90.556105
 30
0.0
 10
46.730094
 20
90.663337
 30
0.0
 10
45.646000
 20
90.663337
 30
0.0
 10
45.646000
 20
90.556105
 30
0.0
 10
44.560917
 20
90.556105
 30
0.0
 10
44.560917
 20
90.663337
 30
0.0
 10
43.476835
 20
90.663337
 30
0.0
 10
43.476835
 20
90.556105
 30
0.0
 10
42.391748
 20
90.556105
 30
0.0
 10
42.391748
 20
90.663337
 30
0.0
 10
41.307665
 20
90.663337
 30
0.0
 10
41.307665
 20
90.556105
 30
0.0
 10
40.222583
 20
90.556105
 30
0.0
 10
40.222583
 20
90.663337
 30
0.0
 10
39.138490
 20
90.663337
 30
0.0
 10
39.138490
 20
90.556105
 30
0.0
 10
38.053410
 20
90.556105
 30
0.0
 10
38.053410
 20
90.663337
 30
0.0
 10
36.969319
 20
90.663337
 30
0.0
 10
36.969319
 20
90.556105
 30
0.0
 10
35.884235
 20
90.556105
 30
0.0
  0
SPLINE
  5
10c
100
AcDbEntity
  8
Layer_1
 62
7
100
AcDbSpline
 70
8
 71
3
 72
8
 73
4
 74
0
 40
0
 40
0
 40
0
 40
0
 40
1
 40
1
 40
1
 40
1
 10
15.623552
 20
77.195675
 30
0.0
 10
14.614276
 20
77.195675
 30
0.0
 10
13.704380
 20
76.770433
 30
0.0
 10
13.318146
 20
76.118239
 30
0.0
  0
SPLINE
  5
10d
100
AcDbEntity
  8
Layer_1
 62
7
100
AcDbSpline
 70
8
 71
3
 72
8
 73
4
 74
0
 40
0
 40
0
 40
0
 40
0
 40
1
 40
1
 40
1
 40
1
 10
13.318146
 20
76.118239
 30
0.0
 10
12.931913
 20
75.466046
 30
0.0
 10
13.145405
 20
74.715338
 30
0.0
 10
13.859071
 20
74.216170
 30
0.0
  0
SPLINE
  5
10e
100
AcDbEntity
  8
Layer_1
 62
7
100
AcDbSpline
 70
8
 71
3
 72
8
 73
4
 74
0
 40
0
 40
0
 40
0
 40
0
 40
1
 40
1
 40
1
 40
1
 10
13.859071
 20
74.216170
 30
0.0
 10
14.572737
 20
73.717003
 30
0.0
 10
15.646033
 20
73.567678
 30
0.0
 10
16.578483
 20
73.837825
 30
0.0
  0
SPLINE
  5
10f
100
AcDbEntity
  8
Layer_1
 62
7
100
AcDbSpline
 70
8
 71
3
 72
8
 73
4
 74
0
 40
0
 40
0
 40
0
 40
0
 40
1
 40
1
 40
1
 40
1
 10
16.578483
 20
73.837825
 30
0.0
 10
17.510932
 20
74.107973
 30
0.0
 10
18.118906
 20
74.744392
 30
0.0
 10
18.118906
 20
75.450322
 30
0.0
  0
SPLINE
  5
110
100
AcDbEntity
  8
Layer_1
 62
7
100
AcDbSpline
 70
8
 71
3
 72
8
 73
4
 74
0
 40
0
 40
0
 40
0
 40
0
 40
1
 40
1
 40
1
 40
1
 10
18.118906
 20
75.450322
 30
0.0
 10
18.118906
 20
76.414254
 30
0.0
 10
17.001698
 20
77.195675
 30
0.0
 10
15.623552
 20
77.195675
 30
0.0
  0
LWPOLYLINE
  5
111
100
AcDbEntity
  8
Layer_1
 62
7
100
AcDbPolyline
 90
1
 70
1
 10
15.718295
 20
89.337597
 30
0.0
  0
SPLINE
  5
112
100
AcDbEntity
  8
Layer_1
 62
7
100
AcDbSpline
 70
8
 71
3
 72
8
 73
4
 74
0
 40
0
 40
0
 40
0
 40
0
 40
1
 40
1
 40
1
 40
1
 10
16.147979
 20
84.817779
 30
0.0
 10
16.075335
 20
84.817779
 30
0.0
 10
16.009844
 20
84.819409
 30
0.0
 10
15.982044
 20
84.821908
 30
0.0
  0
SPLINE
  5
113
100
AcDbEntity
  8
Layer_1
 62
7
100
AcDbSpline
 70
8
 71
3
 72
8
 73
4
 74
0
 40
0
 40
0
 40
0
 40
0
 40
1
 40
1
 40
1
 40
1
 10
15.982044
 20
84.821908
 30
0.0
 10
15.954244
 20
84.824408
 30
0.0
 10
15.969611
 20
84.827286
 30
0.0
 10
16.020978
 20
84.829199
 30
0.0
  0
SPLINE
  5
114
100
AcDbEntity
  8
Layer_1
 62
7
100
AcDbSpline
 70
8
 71
3
 72
8
 73
4
 74
0
 40
0
 40
0
 40
0
 40
0
 40
1
 40
1
 40
1
 40
1
 10
16.020978
 20
84.829199
 30
0.0
 10
16.072345
 20
84.831112
 30
0.0
 10
16.149597
 20
84.831685
 30
0.0
 10
16.216711
 20
84.830649
 30
0.0
  0
SPLINE
  5
115
100
AcDbEntity
  8
Layer_1
 62
7
100
AcDbSpline
 70
8
 71
3
 72
8
 73
4
 74
0
 40
0
 40
0
 40
0
 40
0
 40
1
 40
1
 40
1
 40
1
 10
16.216711
 20
84.830649
 30
0.0
 10
16.283826
 20
84.829614
 30
0.0
 10
16.327585
 20
84.827174
 30
0.0
 10
16.327585
 20
84.824469
 30
0.0
  0
SPLINE
  5
116
100
AcDbEntity
  8
Layer_1
 62
7
100
AcDbSpline
 70
8
 71
3
 72
8
 73
4
 74
0
 40
0
 40
0
 40
0
 40
0
 40
1
 40
1
 40
1
 40
1
 10
16.327585
 20
84.824469
 30
0.0
 10
16.327585
 20
84.822694
 30
0.0
 10
16.308662
 20
84.820993
 30
0.0
 10
16.274980
 20
84.819738
 30
0.0
  0
SPLINE
  5
117
100
AcDbEntity
  8
Layer_1
 62
7
100
AcDbSpline
 70
8
 71
3
 72
8
 73
4
 74
0
 40
0
 40
0
 40
0
 40
0
 40
1
 40
1
 40
1
 40
1
 10
16.274980
 20
84.819738
 30
0.0
 10
16.241297
 20
84.818483
 30
0.0
 10
16.195613
 20
84.817779
 30
0.0
 10
16.147979
 20
84.817779
 30
0.0
  0
LWPOLYLINE
  5
118
100
AcDbEntity
  8
Layer_1
 62
7
100
AcDbPolyline
 90
1
 70
1
 10
15.623552
 20
77.195675
 30
0.0
  0
SPLINE
  5
119
100
AcDbEntity
  8
Layer_1
 62
7
100
AcDbSpline
 70
8
 71
3
 72
8
 73
4
 74
0
 40
0
 40
0
 40
0
 40
0
 40
1
 40
1
 40
1
 40
1
 10
15.684293
 20
73.233291
 30
0.0
 10
15.624659
 20
73.233291
 30
0.0
 10
15.570897
 20
73.197369
 30
0.0
 10
15.548076
 20
73.142274
 30
0.0
  0
SPLINE
  5
11a
100
AcDbEntity
  8
Layer_1
 62
7
100
AcDbSpline
 70
8
 71
3
 72
8
 73
4
 74
0
 40
0
 40
0
 40
0
 40
0
 40
1
 40
1
 40
1
 40
1
 10
15.548076
 20
73.142274
 30
0.0
 10
15.525255
 20
73.087179
 30
0.0
 10
15.537869
 20
73.023763
 30
0.0
 10
15.580037
 20
72.981595
 30
0.0
  0
SPLINE
  5
11b
100
AcDbEntity
  8
Layer_1
 62
7
100
AcDbSpline
 70
8
 71
3
 72
8
 73
4
 74
0
 40
0
 40
0
 40
0
 40
0
 40
1
 40
1
 40
1
 40
1
 10
15.580037
 20
72.981595
 30
0.0
 10
15.622205
 20
72.939428
 30
0.0
 10
15.685621
 20
72.926813
 30
0.0
 10
15.740716
 20
72.949634
 30
0.0
  0
SPLINE
  5
11c
100
AcDbEntity
  8
Layer_1
 62
7
100
AcDbSpline
 70
8
 71
3
 72
8
 73
4
 74
0
 40
0
 40
0
 40
0
 40
0
 40
1
 40
1
 40
1
 40
1
 10
15.740716
 20
72.949634
 30
0.0
 10
15.795811
 20
72.972455
 30
0.0
 10
15.831733
 20
73.026217
 30
0.0
 10
15.831733
 20
73.085851
 30
0.0
  0
SPLINE
  5
11d
100
AcDbEntity
  8
Layer_1
 62
7
100
AcDbSpline
 70
8
 71
3
 72
8
 73
4
 74
0
 40
0
 40
0
 40
0
 40
0
 40
1
 40
1
 40
1
 40
1
 10
15.831733
 20
73.085851
 30
0.0
 10
15.831733
 20
73.124955
 30
0.0
 10
15.816199
 20
73.162457
 30
0.0
 10
15.788549
 20
73.190107
 30
0.0
  0
SPLINE
  5
11e
100
AcDbEntity
  8
Layer_1
 62
7
100
AcDbSpline
 70
8
 71
3
 72
8
 73
4
 74
0
 40
0
 40
0
 40
0
 40
0
 40
1
 40
1
 40
1
 40
1
 10
15.788549
 20
73.190107
 30
0.0
 10
15.760899
 20
73.217758
 30
0.0
 10
15.723397
 20
73.233291
 30
0.0
 10
15.684293
 20
73.233291
 30
0.0
  0
LWPOLYLINE
  5
11f
100
AcDbEntity
  8
Layer_1
 62
7
100
AcDbPolyline
 90
1
 70
1
 10
16.147979
 20
84.817779
 30
0.0
  0
SPLINE
  5
120
100
AcDbEntity
  8
Layer_1
 62
7
100
AcDbSpline
 70
8
 71
3
 72
8
 73
4
 74
0
 40
0
 40
0
 40
0
 40
0
 40
1
 40
1
 40
1
 40
1
 10
15.684293
 20
85.358290
 30
0.0
 10
15.624659
 20
85.358290
 30
0.0
 10
15.570897
 20
85.322368
 30
0.0
 10
15.548076
 20
85.267273
 30
0.0
  0
SPLINE
  5
121
100
AcDbEntity
  8
Layer_1
 62
7
100
AcDbSpline
 70
8
 71
3
 72
8
 73
4
 74
0
 40
0
 40
0
 40
0
 40
0
 40
1
 40
1
 40
1
 40
1
 10
15.548076
 20
85.267273
 30
0.0
 10
15.525255
 20
85.212178
 30
0.0
 10
15.537869
 20
85.148762
 30
0.0
 10
15.580037
 20
85.106594
 30
0.0
  0
SPLINE
  5
122
100
AcDbEntity
  8
Layer_1
 62
7
100
AcDbSpline
 70
8
 71
3
 72
8
 73
4
 74
0
 40
0
 40
0
 40
0
 40
0
 40
1
 40
1
 40
1
 40
1
 10
15.580037
 20
85.106594
 30
0.0
 10
15.622205
 20
85.064426
 30
0.0
 10
15.685621
 20
85.051812
 30
0.0
 10
15.740716
 20
85.074633
 30
0.0
  0
SPLINE
  5
123
100
AcDbEntity
  8
Layer_1
 62
7
100
AcDbSpline
 70
8
 71
3
 72
8
 73
4
 74
0
 40
0
 40
0
 40
0
 40
0
 40
1
 40
1
 40
1
 40
1
 10
15.740716
 20
85.074633
 30
0.0
 10
15.795811
 20
85.097454
 30
0.0
 10
15.831733
 20
85.151216
 30
0.0
 10
15.831733
 20
85.210850
 30
0.0
  0
SPLINE
  5
124
100
AcDbEntity
  8
Layer_1
 62
7
100
AcDbSpline
 70
8
 71
3
 72
8
 73
4
 74
0
 40
0
 40
0
 40
0
 40
0
 40
1
 40
1
 40
1
 40
1
 10
15.831733
 20
85.210850
 30
0.0
 10
15.831733
 20
85.249954
 30
0.0
 10
15.816199
 20
85.287456
 30
0.0
 10
15.788549
 20
85.315106
 30
0.0
  0
SPLINE
  5
125
100
AcDbEntity
  8
Layer_1
 62
7
100
AcDbSpline
 70
8
 71
3
 72
8
 73
4
 74
0
 40
0
 40
0
 40
0
 40
0
 40
1
 40
1
 40
1
 40
1
 10
15.788549
 20
85.315106
 30
0.0
 10
15.760899
 20
85.342756
 30
0.0
 10
15.723397
 20
85.358290
 30
0.0
 10
15.684293
 20
85.358290
 30
0.0
  0
LWPOLYLINE
  5
126
100
AcDbEntity
  8
Layer_1
 62
7
100
AcDbPolyline
 90
1
 70
1
 10
15.684293
 20
73.233291
 30
0.0
  0
SPLINE
  5
127
100
AcDbEntity
  8
Layer_1
 62
7
100
AcDbSpline
 70
8
 71
3
 72
8
 73
4
 74
0
 40
0
 40
0
 40
0
 40
0
 40
1
 40
1
 40
1
 40
1
 10
28.809293
 20
85.358290
 30
0.0
 10
28.727864
 20
85.358290
 30
0.0
 10
28.661853
 20
85.292279
 30
0.0
 10
28.661853
 20
85.210850
 30
0.0
  0
SPLINE
  5
128
100
AcDbEntity
  8
Layer_1
 62
7
100
AcDbSpline
 70
8
 71
3
 72
8
 73
4
 74
0
 40
0
 40
0
 40
0
 40
0
 40
1
 40
1
 40
1
 40
1
 10
28.661853
 20
85.210850
 30
0.0
 10
28.661853
 20
85.129421
 30
0.0
 10
28.727864
 20
85.063410
 30
0.0
 10
28.809293
 20
85.063410
 30
0.0
  0
SPLINE
  5
129
100
AcDbEntity
  8
Layer_1
 62
7
100
AcDbSpline
 70
8
 71
3
 72
8
 73
4
 74
0
 40
0
 40
0
 40
0
 40
0
 40
1
 40
1
 40
1
 40
1
 10
28.809293
 20
85.063410
 30
0.0
 10
28.890722
 20
85.063410
 30
0.0
 10
28.956733
 20
85.129421
 30
0.0
 10
28.956733
 20
85.210850
 30
0.0
  0
SPLINE
  5
12a
100
AcDbEntity
  8
Layer_1
 62
7
100
AcDbSpline
 70
8
 71
3
 72
8
 73
4
 74
0
 40
0
 40
0
 40
0
 40
0
 40
1
 40
1
 40
1
 40
1
 10
28.956733
 20
85.210850
 30
0.0
 10
28.956733
 20
85.249954
 30
0.0
 10
28.941199
 20
85.287456
 30
0.0
 10
28.913549
 20
85.315106
 30
0.0
  0
SPLINE
  5
12b
100
AcDbEntity
  8
Layer_1
 62
7
100
AcDbSpline
 70
8
 71
3
 72
8
 73
4
 74
0
 40
0
 40
0
 40
0
 40
0
 40
1
 40
1
 40
1
 40
1
 10
28.913549
 20
85.315106
 30
0.0
 10
28.885899
 20
85.342756
 30
0.0
 10
28.848397
 20
85.358290
 30
0.0
 10
28.809293
 20
85.358290
 30
0.0
  0
LWPOLYLINE
  5
12c
100
AcDbEntity
  8
Layer_1
 62
7
100
AcDbPolyline
 90
1
 70
1
 10
15.684293
 20
85.358290
 30
0.0
  0
SPLINE
  5
12d
100
AcDbEntity
  8
Layer_1
 62
7
100
AcDbSpline
 70
8
 71
3
 72
8
 73
4
 74
0
 40
0
 40
0
 40
0
 40
0
 40
1
 40
1
 40
1
 40
1
 10
28.661853
 20
73.027286
 30
0.0
 10
28.661853
 20
72.967652
 30
0.0
 10
28.697775
 20
72.913890
 30
0.0
 10
28.752870
 20
72.891069
 30
0.0
  0
SPLINE
  5
12e
100
AcDbEntity
  8
Layer_1
 62
7
100
AcDbSpline
 70
8
 71
3
 72
8
 73
4
 74
0
 40
0
 40
0
 40
0
 40
0
 40
1
 40
1
 40
1
 40
1
 10
28.752870
 20
72.891069
 30
0.0
 10
28.807965
 20
72.868248
 30
0.0
 10
28.871381
 20
72.880863
 30
0.0
 10
28.913549
 20
72.923030
 30
0.0
  0
SPLINE
  5
12f
100
AcDbEntity
  8
Layer_1
 62
7
100
AcDbSpline
 70
8
 71
3
 72
8
 73
4
 74
0
 40
0
 40
0
 40
0
 40
0
 40
1
 40
1
 40
1
 40
1
 10
28.913549
 20
72.923030
 30
0.0
 10
28.955717
 20
72.965198
 30
0.0
 10
28.968331
 20
73.028615
 30
0.0
 10
28.945510
 20
73.083709
 30
0.0
  0
SPLINE
  5
130
100
AcDbEntity
  8
Layer_1
 62
7
100
AcDbSpline
 70
8
 71
3
 72
8
 73
4
 74
0
 40
0
 40
0
 40
0
 40
0
 40
1
 40
1
 40
1
 40
1
 10
28.945510
 20
73.083709
 30
0.0
 10
28.922689
 20
73.138804
 30
0.0
 10
28.868927
 20
73.174726
 30
0.0
 10
28.809293
 20
73.174726
 30
0.0
  0
SPLINE
  5
131
100
AcDbEntity
  8
Layer_1
 62
7
100
AcDbSpline
 70
8
 71
3
 72
8
 73
4
 74
0
 40
0
 40
0
 40
0
 40
0
 40
1
 40
1
 40
1
 40
1
 10
28.809293
 20
73.174726
 30
0.0
 10
28.770189
 20
73.174726
 30
0.0
 10
28.732687
 20
73.159193
 30
0.0
 10
28.705037
 20
73.131542
 30
0.0
  0
SPLINE
  5
132
100
AcDbEntity
  8
Layer_1
 62
7
100
AcDbSpline
 70
8
 71
3
 72
8
 73
4
 74
0
 40
0
 40
0
 40
0
 40
0
 40
1
 40
1
 40
1
 40
1
 10
28.705037
 20
73.131542
 30
0.0
 10
28.677386
 20
73.103892
 30
0.0
 10
28.661853
 20
73.066390
 30
0.0
 10
28.661853
 20
73.027286
 30
0.0
  0
LWPOLYLINE
  5
133
100
AcDbEntity
  8
Layer_1
 62
7
100
AcDbPolyline
 90
1
 70
1
 10
28.809293
 20
85.358290
 30
0.0
  0
LWPOLYLINE
  5
134
100
AcDbEntity
  8
Layer_1
 62
7
100
AcDbPolyline
 90
1
 70
1
 10
28.661853
 20
73.027286
 30
0.0
  0
ENDSEC
  0
SECTION
  2
OBJECTS
  0
DICTIONARY
  5
C
330
0
100
AcDbDictionary
  3
ACAD_GROUP
350
D
  3
ACAD_MLINESTYLE
350
17
  0
DICTIONARY
  5
D
330
C
100
AcDbDictionary
  0
DICTIONARY
  5
1A
330
C
100
AcDbDictionary
  0
DICTIONARY
  5
17
330
C
100
AcDbDictionary
  3
STANDARD
350
18
  0
DICTIONARY
  5
19
330
C
100
AcDbDictionary
  0
ENDSEC
  0
EOF
