  0
SECTION
  2
HEADER
  9
$ACADVER
  1
AC1014
  9
$HANDSEED
  5
FFFF
  9
$MEASUREMENT
 70
     1
  0
ENDSEC
  0
SECTION
  2
TABLES
  0
TABLE
  2
VPORT
  5
8
330
0
100
AcDbSymbolTable
 70
     4
  0
VPORT
  5
2E
330
8
100
AcDbSymbolTableRecord
100
AcDbViewportTableRecord
  2
*ACTIVE
 70
     0
 10
0.0
 20
0.0
 11
1.0
 21
1.0
 12
210.0
 22
148.5
 13
0.0
 23
0.0
 14
10.0
 24
10.0
 15
10.0
 25
10.0
 16
0.0
 26
0.0
 36
1.0
 17
0.0
 27
0.0
 37
0.0
 40
341.0
 41
1.24
 42
50.0
 43
0.0
 44
0.0
 50
0.0
 51
0.0
 71
     0
 72
   100
 73
     1
 74
     3
 75
     0
 76
     0
 77
     0
 78
     0
  0
ENDTAB
  0
TABLE
  2
LTYPE
  5
5
330
0
100
AcDbSymbolTable
 70
     1
  0
LTYPE
  5
14
330
5
100
AcDbSymbolTableRecord
100
AcDbLinetypeTableRecord
  2
BYBLOCK
 70
     0
  3

 72
    65
 73
     0
 40
0.0
  0
LTYPE
  5
15
330
5
100
AcDbSymbolTableRecord
100
AcDbLinetypeTableRecord
  2
BYLAYER
 70
     0
  3

 72
    65
 73
     0
 40
0.0
  0
LTYPE
  5
16
330
5
100
AcDbSymbolTableRecord
100
AcDbLinetypeTableRecord
  2
CONTINUOUS
 70
     0
  3
Solid line
 72
    65
 73
     0
 40
0.0
  0
ENDTAB
  0
TABLE
  2
LAYER
  5
2
100
AcDbSymbolTable
 70
2
  0
LAYER
  5
50
100
AcDbSymbolTableRecord
100
AcDbLayerTableRecord
  2
0
 70
0
  6
CONTINUOUS
  0
LAYER
  5
51
100
AcDbSymbolTableRecord
100
AcDbLayerTableRecord
  2
Layer_1
 70
0
  6
CONTINUOUS
  0
ENDTAB
  0
TABLE
  2
STYLE
  5
3
330
0
100
AcDbSymbolTable
 70
     1
  0
STYLE
  5
11
330
3
100
AcDbSymbolTableRecord
100
AcDbTextStyleTableRecord
  2
STANDARD
 70
     0
 40
0.0
 41
1.0
 50
0.0
 71
     0
 42
2.5
  3
txt
  4

  0
ENDTAB
  0
TABLE
  2
VIEW
  5
6
330
0
100
AcDbSymbolTable
 70
     0
  0
ENDTAB
  0
TABLE
  2
UCS
  5
7
330
0
100
AcDbSymbolTable
 70
     0
  0
ENDTAB
  0
TABLE
  2
APPID
  5
9
330
0
100
AcDbSymbolTable
 70
     2
  0
APPID
  5
12
330
9
100
AcDbSymbolTableRecord
100
AcDbRegAppTableRecord
  2
ACAD
 70
     0
  0
ENDTAB
  0
TABLE
  2
DIMSTYLE
  5
A
330
0
100
AcDbSymbolTable
 70
     1
  0
DIMSTYLE
105
27
330
A
100
AcDbSymbolTableRecord
100
AcDbDimStyleTableRecord
  2
ISO-25
 70
     0
  3

  4

  5

  6

  7

 40
1.0
 41
2.5
 42
0.625
 43
3.75
 44
1.25
 45
0.0
 46
0.0
 47
0.0
 48
0.0
140
2.5
141
2.5
142
0.0
143
0.03937007874016
144
1.0
145
0.0
146
1.0
147
0.625
 71
     0
 72
     0
 73
     0
 74
     0
 75
     0
 76
     0
 77
     1
 78
     8
170
     0
171
     3
172
     1
173
     0
174
     0
175
     0
176
     0
177
     0
178
     0
270
     2
271
     2
272
     2
273
     2
274
     3
340
11
275
     0
280
     0
281
     0
282
     0
283
     0
284
     8
285
     0
286
     0
287
     3
288
     0
  0
ENDTAB
  0
TABLE
  2
BLOCK_RECORD
  5
1
330
0
100
AcDbSymbolTable
 70
     1
  0
BLOCK_RECORD
  5
1F
330
1
100
AcDbSymbolTableRecord
100
AcDbBlockTableRecord
  2
*MODEL_SPACE
  0
BLOCK_RECORD
  5
1B
330
1
100
AcDbSymbolTableRecord
100
AcDbBlockTableRecord
  2
*PAPER_SPACE
  0
ENDTAB
  0
ENDSEC
  0
SECTION
  2
BLOCKS
  0
BLOCK
  5
20
330
1F
100
AcDbEntity
  8
0
100
AcDbBlockBegin
  2
*MODEL_SPACE
 70
     0
 10
0.0
 20
0.0
 30
0.0
  3
*MODEL_SPACE
  1

  0
ENDBLK
  5
21
330
1F
100
AcDbEntity
  8
0
100
AcDbBlockEnd
  0
BLOCK
  5
1C
330
1B
100
AcDbEntity
 67
     1
  8
0
100
AcDbBlockBegin
  2
*PAPER_SPACE
  1

  0
ENDBLK
  5
1D
330
1B
100
AcDbEntity
 67
     1
  8
0
100
AcDbBlockEnd
  0
ENDSEC
  0
SECTION
  2
ENTITIES
  0
SPLINE
  5
100
100
AcDbEntity
  8
Layer_1
 62
7
100
AcDbSpline
 70
0
 71
3
 72
10
 73
6
 74
4
 40
0.000000
 40
0.000000
 40
0.000000
 40
0.000000
 40
4.954297
 40
11.214217
 40
19.200719
 40
19.200719
 40
19.200719
 40
19.200719
 10
336.764832
 20
779.189860
 30
0.0
 10
335.112382
 20
779.014180
 30
0.0
 10
331.372005
 20
778.616522
 30
0.0
 10
325.540110
 20
775.694810
 30
0.0
 10
321.775347
 20
772.808126
 30
0.0
 10
319.664832
 20
771.189860
 30
0.0
 11
336.764832
 21
779.189860
 31
0.0
 11
331.872718
 21
778.407379
 31
0.0
 11
326.173106
 21
775.818746
 31
0.0
 11
319.664832
 21
771.189860
 31
0.0
  0
SPLINE
  5
101
100
AcDbEntity
  8
Layer_1
 62
7
100
AcDbSpline
 70
0
 71
3
 72
10
 73
6
 74
4
 40
0.000000
 40
0.000000
 40
0.000000
 40
0.000000
 40
4.742611
 40
8.781861
 40
13.361109
 40
13.361109
 40
13.361109
 40
13.361109
 10
314.089832
 20
742.839860
 30
0.0
 10
313.770015
 20
741.275523
 30
0.0
 10
313.177811
 20
738.378851
 30
0.0
 10
316.155661
 20
733.738627
 30
0.0
 10
319.181904
 20
734.980185
 30
0.0
 10
320.789832
 20
735.639860
 30
0.0
 11
314.089832
 21
742.839860
 31
0.0
 11
313.873929
 21
738.102166
 31
0.0
 11
316.278114
 21
734.856333
 31
0.0
 11
320.789832
 21
735.639860
 31
0.0
  0
SPLINE
  5
102
100
AcDbEntity
  8
Layer_1
 62
7
100
AcDbSpline
 70
0
 71
3
 72
10
 73
6
 74
4
 40
0.000000
 40
0.000000
 40
0.000000
 40
0.000000
 40
10.356287
 40
14.825711
 40
20.811769
 40
20.811769
 40
20.811769
 40
20.811769
 10
320.789832
 20
735.639860
 30
0.0
 10
321.228515
 20
739.396282
 30
0.0
 10
321.856518
 20
744.773851
 30
0.0
 10
330.461568
 20
747.383257
 30
0.0
 10
331.051868
 20
743.079107
 30
0.0
 10
331.389832
 20
740.614860
 30
0.0
 11
320.789832
 21
735.639860
 31
0.0
 11
324.790586
 21
745.192171
 31
0.0
 11
329.152395
 21
746.167045
 31
0.0
 11
331.389832
 21
740.614860
 31
0.0
  0
SPLINE
  5
103
100
AcDbEntity
  8
Layer_1
 62
7
100
AcDbSpline
 70
0
 71
3
 72
10
 73
6
 74
4
 40
0.000000
 40
0.000000
 40
0.000000
 40
0.000000
 40
21.639319
 40
39.109387
 40
55.136941
 40
55.136941
 40
55.136941
 40
55.136941
 10
331.389832
 20
740.614860
 30
0.0
 10
332.284228
 20
733.431158
 30
0.0
 10
333.900696
 20
720.447839
 30
0.0
 10
332.091839
 20
702.081184
 30
0.0
 10
330.839187
 20
690.994492
 30
0.0
 10
330.239832
 20
685.689860
 30
0.0
 11
331.389832
 21
740.614860
 31
0.0
 11
333.185351
 21
719.050161
 31
0.0
 11
332.002707
 21
701.620169
 31
0.0
 11
330.239832
 21
685.689860
 31
0.0
  0
LWPOLYLINE
  5
104
100
AcDbEntity
  8
Layer_1
 62
7
100
AcDbPolyline
 90
4
 70
1
 10
319.664832
 20
771.189860
 30
0.0
 10
307.089832
 20
755.889860
 30
0.0
 10
318.764832
 20
756.014860
 30
0.0
 10
314.089832
 20
742.839860
 30
0.0
  0
SPLINE
  5
105
100
AcDbEntity
  8
Layer_1
 62
7
100
AcDbSpline
 70
0
 71
3
 72
10
 73
6
 74
4
 40
0.000000
 40
0.000000
 40
0.000000
 40
0.000000
 40
16.321197
 40
26.309947
 40
34.806801
 40
34.806801
 40
34.806801
 40
34.806801
 10
330.239832
 20
685.689860
 30
0.0
 10
329.880272
 20
680.259910
 30
0.0
 10
329.300657
 20
671.506772
 30
0.0
 10
333.149279
 20
659.826356
 30
0.0
 10
338.383800
 20
656.307357
 30
0.0
 10
340.789832
 20
654.689860
 30
0.0
 11
330.239832
 21
685.689860
 31
0.0
 11
330.503705
 21
669.370796
 31
0.0
 11
334.245820
 21
660.109494
 31
0.0
 11
340.789832
 21
654.689860
 31
0.0
  0
LWPOLYLINE
  5
106
100
AcDbEntity
  8
Layer_1
 62
7
100
AcDbPolyline
 90
3
 70
1
 10
340.789832
 20
654.689860
 30
0.0
 10
400.864832
 20
655.814860
 30
0.0
 10
406.164832
 20
668.339860
 30
0.0
  0
SPLINE
  5
107
100
AcDbEntity
  8
Layer_1
 62
7
100
AcDbSpline
 70
0
 71
3
 72
13
 73
9
 74
7
 40
0.000000
 40
0.000000
 40
0.000000
 40
0.000000
 40
5.939000
 40
18.529326
 40
30.476913
 40
34.376058
 40
38.292600
 40
42.219062
 40
42.219062
 40
42.219062
 40
42.219062
 10
406.164832
 20
668.339860
 30
0.0
 10
406.565915
 20
670.280885
 30
0.0
 10
407.817269
 20
676.336770
 30
0.0
 10
408.954639
 20
686.367246
 30
0.0
 10
408.205715
 20
696.236781
 30
0.0
 10
404.769570
 20
701.910603
 30
0.0
 10
402.624103
 20
705.184205
 30
0.0
 10
400.918641
 20
707.170471
 30
0.0
 10
400.064832
 20
708.164860
 30
0.0
 11
406.164832
 21
668.339860
 31
0.0
 11
407.310565
 21
674.167296
 31
0.0
 11
408.567409
 21
686.694733
 31
0.0
 11
406.664832
 21
698.489860
 31
0.0
 11
404.755380
 21
701.889466
 31
0.0
 11
402.557980
 21
705.131494
 31
0.0
 11
400.064832
 21
708.164860
 31
0.0
  0
SPLINE
  5
108
100
AcDbEntity
  8
Layer_1
 62
7
100
AcDbSpline
 70
0
 71
3
 72
10
 73
6
 74
4
 40
0.000000
 40
0.000000
 40
0.000000
 40
0.000000
 40
2.157710
 40
4.335491
 40
6.544255
 40
6.544255
 40
6.544255
 40
6.544255
 10
393.964832
 20
713.564860
 30
0.0
 10
393.365056
 20
713.962174
 30
0.0
 10
392.159926
 20
714.760497
 30
0.0
 10
390.244402
 20
715.811072
 30
0.0
 10
388.911161
 20
716.412182
 30
0.0
 10
388.239832
 20
716.714860
 30
0.0
 11
393.964832
 21
713.564860
 31
0.0
 11
392.149682
 21
714.731455
 31
0.0
 11
390.241323
 21
715.780691
 31
0.0
 11
388.239832
 21
716.714860
 31
0.0
  0
SPLINE
  5
109
100
AcDbEntity
  8
Layer_1
 62
7
100
AcDbSpline
 70
0
 71
3
 72
10
 73
6
 74
4
 40
0.000000
 40
0.000000
 40
0.000000
 40
0.000000
 40
3.149597
 40
7.085409
 40
12.228351
 40
12.228351
 40
12.228351
 40
12.228351
 10
388.239832
 20
716.714860
 30
0.0
 10
387.306300
 20
717.202486
 30
0.0
 10
385.206205
 20
718.299462
 30
0.0
 10
381.178404
 20
719.185179
 30
0.0
 10
378.153425
 20
719.299883
 30
0.0
 10
376.439832
 20
719.364860
 30
0.0
 11
388.239832
 21
716.714860
 31
0.0
 11
385.393056
 21
718.062387
 31
0.0
 11
381.569509
 21
718.995716
 31
0.0
 11
376.439832
 21
719.364860
 31
0.0
  0
SPLINE
  5
10a
100
AcDbEntity
  8
Layer_1
 62
7
100
AcDbSpline
 70
0
 71
3
 72
13
 73
9
 74
7
 40
0.000000
 40
0.000000
 40
0.000000
 40
0.000000
 40
11.782248
 40
23.814720
 40
29.388848
 40
44.817621
 40
59.492205
 40
80.449186
 40
80.449186
 40
80.449186
 40
80.449186
 10
376.439832
 20
719.364860
 30
0.0
 10
372.504051
 20
718.671903
 30
0.0
 10
364.548902
 20
717.271273
 30
0.0
 10
356.077471
 20
714.050491
 30
0.0
 10
345.018971
 20
706.100195
 30
0.0
 10
346.871944
 20
726.889395
 30
0.0
 10
344.965210
 20
740.850723
 30
0.0
 10
347.546579
 20
753.075036
 30
0.0
 10
349.064832
 20
760.264860
 30
0.0
 11
376.439832
 21
719.364860
 31
0.0
 11
364.899408
 21
716.989991
 31
0.0
 11
353.833509
 21
712.264926
 31
0.0
 11
348.889832
 21
709.689860
 31
0.0
 11
346.205122
 21
724.883259
 31
0.0
 11
345.863334
 21
739.553861
 31
0.0
 11
349.064832
 21
760.264860
 31
0.0
  0
LWPOLYLINE
  5
10b
100
AcDbEntity
  8
Layer_1
 62
7
100
AcDbPolyline
 90
4
 70
1
 10
400.064832
 20
708.164860
 30
0.0
 10
388.539832
 20
676.514860
 30
0.0
 10
381.414832
 20
679.114860
 30
0.0
 10
393.964832
 20
713.564860
 30
0.0
  0
SPLINE
  5
10c
100
AcDbEntity
  8
Layer_1
 62
7
100
AcDbSpline
 70
0
 71
3
 72
10
 73
6
 74
4
 40
0.000000
 40
0.000000
 40
0.000000
 40
0.000000
 40
9.448666
 40
17.432988
 40
25.016004
 40
25.016004
 40
25.016004
 40
25.016004
 10
349.064832
 20
760.264860
 30
0.0
 10
348.959961
 20
763.399158
 30
0.0
 10
348.766471
 20
769.182005
 30
0.0
 10
344.634968
 20
777.387976
 30
0.0
 10
339.342735
 20
778.599643
 30
0.0
 10
336.764832
 20
779.189860
 30
0.0
 11
349.064832
 21
760.264860
 31
0.0
 11
347.961275
 21
769.648859
 31
0.0
 11
343.852859
 21
776.495049
 31
0.0
 11
336.764832
 21
779.189860
 31
0.0
  0
LWPOLYLINE
  5
10d
100
AcDbEntity
  8
Layer_1
 62
7
100
AcDbPolyline
 90
2
 70
1
 10
336.764832
 20
779.189860
 30
0.0
 10
336.764832
 20
779.189860
 30
0.0
  0
LWPOLYLINE
  5
10e
100
AcDbEntity
  8
Layer_1
 62
5
100
AcDbPolyline
 90
2
 70
1
 10
326.407434
 20
768.392132
 30
0.0
 10
326.407434
 20
768.392132
 30
0.0
  0
SPLINE
  5
10f
100
AcDbEntity
  8
Layer_1
 62
5
100
AcDbSpline
 70
0
 71
3
 72
19
 73
15
 74
13
 40
0.000000
 40
0.000000
 40
0.000000
 40
0.000000
 40
1.389517
 40
2.537189
 40
3.468343
 40
4.399497
 40
5.547169
 40
6.936686
 40
8.326202
 40
9.473874
 40
10.405028
 40
11.336183
 40
12.483855
 40
13.873371
 40
13.873371
 40
13.873371
 40
13.873371
 10
326.407434
 20
768.392132
 30
0.0
 10
326.871856
 20
768.438629
 30
0.0
 10
327.719867
 20
768.523532
 30
0.0
 10
328.860231
 20
768.154094
 30
0.0
 10
329.548324
 20
767.275848
 30
0.0
 10
329.237730
 20
766.199655
 30
0.0
 10
328.313220
 20
765.451552
 30
0.0
 10
327.063513
 20
764.995397
 30
0.0
 10
325.733823
 20
764.953342
 30
0.0
 10
324.597214
 20
765.303340
 30
0.0
 10
323.908181
 20
766.186455
 30
0.0
 10
324.219714
 20
767.257779
 30
0.0
 10
325.140470
 20
768.025321
 30
0.0
 10
325.959102
 20
768.262331
 30
0.0
 10
326.407434
 20
768.392132
 30
0.0
 11
326.407434
 21
768.392132
 31
0.0
 11
327.796559
 21
768.425102
 31
0.0
 11
328.867940
 21
768.013649
 31
0.0
 11
329.393849
 21
767.245230
 31
0.0
 11
329.191934
 21
766.336231
 31
0.0
 11
328.350845
 21
765.555385
 31
0.0
 11
327.049361
 21
765.068664
 31
0.0
 11
325.660236
 21
765.035694
 31
0.0
 11
324.588855
 21
765.447147
 31
0.0
 11
324.062946
 21
766.215566
 31
0.0
 11
324.264862
 21
767.124565
 31
0.0
 11
325.105950
 21
767.905411
 31
0.0
 11
326.407434
 21
768.392132
 31
0.0
  0
LWPOLYLINE
  5
110
100
AcDbEntity
  8
Layer_1
 62
5
100
AcDbPolyline
 90
2
 70
0
 10
306.636088
 20
755.683276
 30
0.0
 10
318.514696
 20
761.212732
 30
0.0
  0
SPLINE
  5
111
100
AcDbEntity
  8
Layer_1
 62
3
100
AcDbSpline
 70
0
 71
3
 72
10
 73
6
 74
4
 40
0.000000
 40
0.000000
 40
0.000000
 40
0.000000
 40
9.198733
 40
17.979111
 40
26.893759
 40
26.893759
 40
26.893759
 40
26.893759
 10
227.180776
 20
780.026340
 30
0.0
 10
224.116688
 20
779.841720
 30
0.0
 10
218.127866
 20
779.480877
 30
0.0
 10
209.414993
 20
776.664905
 30
0.0
 10
204.770596
 20
772.965219
 30
0.0
 10
202.430776
 20
771.101340
 30
0.0
 11
227.180776
 21
780.026340
 31
0.0
 11
218.031459
 21
779.074145
 31
0.0
 11
209.726461
 21
776.224222
 31
0.0
 11
202.430776
 21
771.101340
 31
0.0
  0
LWPOLYLINE
  5
112
100
AcDbEntity
  8
Layer_1
 62
3
100
AcDbPolyline
 90
3
 70
1
 10
202.430776
 20
771.101340
 30
0.0
 10
215.355776
 20
737.301340
 30
0.0
 10
198.330776
 20
766.501340
 30
0.0
  0
SPLINE
  5
113
100
AcDbEntity
  8
Layer_1
 62
3
100
AcDbSpline
 70
0
 71
3
 72
10
 73
6
 74
4
 40
0.000000
 40
0.000000
 40
0.000000
 40
0.000000
 40
12.558608
 40
24.095617
 40
33.674646
 40
33.674646
 40
33.674646
 40
33.674646
 10
198.330776
 20
766.501340
 30
0.0
 10
194.285359
 20
765.365412
 30
0.0
 10
186.523605
 20
763.185959
 30
0.0
 10
177.304619
 20
755.837382
 30
0.0
 10
174.622490
 20
749.242862
 30
0.0
 10
173.405776
 20
746.251340
 30
0.0
 11
198.330776
 21
766.501340
 31
0.0
 11
186.511045
 21
762.257215
 31
0.0
 11
177.693598
 21
754.817107
 31
0.0
 11
173.405776
 21
746.251340
 31
0.0
  0
LWPOLYLINE
  5
114
100
AcDbEntity
  8
Layer_1
 62
3
100
AcDbPolyline
 90
3
 70
1
 10
173.405776
 20
746.251340
 30
0.0
 10
196.005776
 20
722.276340
 30
0.0
 10
170.030776
 20
741.876340
 30
0.0
  0
SPLINE
  5
115
100
AcDbEntity
  8
Layer_1
 62
3
100
AcDbSpline
 70
0
 71
3
 72
10
 73
6
 74
4
 40
0.000000
 40
0.000000
 40
0.000000
 40
0.000000
 40
9.458876
 40
20.800067
 40
32.824381
 40
32.824381
 40
32.824381
 40
32.824381
 10
170.030776
 20
741.876340
 30
0.0
 10
167.823816
 20
739.660274
 30
0.0
 10
162.970712
 20
734.787147
 30
0.0
 10
155.851699
 20
725.756080
 30
0.0
 10
156.168001
 20
717.714621
 30
0.0
 10
156.330776
 20
713.576340
 30
0.0
 11
170.030776
 21
741.876340
 31
0.0
 11
163.480611
 21
735.052435
 31
0.0
 11
157.268269
 21
725.564052
 31
0.0
 11
156.330776
 21
713.576340
 31
0.0
  0
LWPOLYLINE
  5
116
100
AcDbEntity
  8
Layer_1
 62
3
100
AcDbPolyline
 90
3
 70
1
 10
156.330776
 20
713.576340
 30
0.0
 10
184.280776
 20
700.451340
 30
0.0
 10
154.505776
 20
708.551340
 30
0.0
  0
SPLINE
  5
117
100
AcDbEntity
  8
Layer_1
 62
3
100
AcDbSpline
 70
0
 71
3
 72
10
 73
6
 74
4
 40
0.000000
 40
0.000000
 40
0.000000
 40
0.000000
 40
11.590207
 40
22.284999
 40
33.413558
 40
33.413558
 40
33.413558
 40
33.413558
 10
154.505776
 20
708.551340
 30
0.0
 10
152.573906
 20
705.162529
 30
0.0
 10
148.859414
 20
698.646715
 30
0.0
 10
147.992655
 20
687.131681
 30
0.0
 10
150.186865
 20
680.157660
 30
0.0
 10
151.305776
 20
676.601340
 30
0.0
 11
154.505776
 21
708.551340
 31
0.0
 11
149.558545
 21
698.070033
 31
0.0
 11
148.666826
 21
687.412481
 31
0.0
 11
151.305776
 21
676.601340
 31
0.0
  0
LWPOLYLINE
  5
118
100
AcDbEntity
  8
Layer_1
 62
3
100
AcDbPolyline
 90
3
 70
1
 10
151.305776
 20
676.601340
 30
0.0
 10
183.705776
 20
676.801340
 30
0.0
 10
150.405776
 20
671.576340
 30
0.0
  0
SPLINE
  5
119
100
AcDbEntity
  8
Layer_1
 62
3
100
AcDbSpline
 70
0
 71
3
 72
10
 73
6
 74
4
 40
0.000000
 40
0.000000
 40
0.000000
 40
0.000000
 40
9.310444
 40
20.981522
 40
32.760540
 40
32.760540
 40
32.760540
 40
32.760540
 10
150.405776
 20
671.576340
 30
0.0
 10
150.168649
 20
668.485921
 30
0.0
 10
149.634273
 20
661.521516
 30
0.0
 10
151.907735
 20
650.380035
 30
0.0
 10
157.165029
 20
644.436690
 30
0.0
 10
159.805776
 20
641.451340
 30
0.0
 11
150.405776
 21
671.576340
 31
0.0
 11
150.086328
 21
662.271378
 31
0.0
 11
152.799395
 21
650.920019
 31
0.0
 11
159.805776
 21
641.451340
 31
0.0
  0
LWPOLYLINE
  5
11a
100
AcDbEntity
  8
Layer_1
 62
3
100
AcDbPolyline
 90
3
 70
1
 10
159.805776
 20
641.451340
 30
0.0
 10
193.230776
 20
654.551340
 30
0.0
 10
163.630776
 20
636.901340
 30
0.0
  0
SPLINE
  5
11b
100
AcDbEntity
  8
Layer_1
 62
3
100
AcDbSpline
 70
0
 71
3
 72
10
 73
6
 74
4
 40
0.000000
 40
0.000000
 40
0.000000
 40
0.000000
 40
12.838592
 40
24.899697
 40
33.854710
 40
33.854710
 40
33.854710
 40
33.854710
 10
163.630776
 20
636.901340
 30
0.0
 10
165.007329
 20
632.836290
 30
0.0
 10
167.677072
 20
624.952364
 30
0.0
 10
175.656855
 20
616.083611
 30
0.0
 10
182.422795
 20
613.974876
 30
0.0
 10
185.305776
 20
613.076340
 30
0.0
 11
163.630776
 21
636.901340
 31
0.0
 11
168.610983
 21
625.068040
 31
0.0
 11
176.985878
 21
616.388674
 31
0.0
 11
185.305776
 21
613.076340
 31
0.0
  0
LWPOLYLINE
  5
11c
100
AcDbEntity
  8
Layer_1
 62
3
100
AcDbPolyline
 90
6
 70
1
 10
185.305776
 20
613.076340
 30
0.0
 10
232.480776
 20
613.251340
 30
0.0
 10
232.480776
 20
635.626340
 30
0.0
 10
240.405776
 20
635.626340
 30
0.0
 10
240.405776
 20
613.301340
 30
0.0
 10
288.955776
 20
613.476340
 30
0.0
  0
SPLINE
  5
11d
100
AcDbEntity
  8
Layer_1
 62
3
100
AcDbSpline
 70
0
 71
3
 72
10
 73
6
 74
4
 40
0.000000
 40
0.000000
 40
0.000000
 40
0.000000
 40
8.059154
 40
19.988960
 40
33.029395
 40
33.029395
 40
33.029395
 40
33.029395
 10
288.955776
 20
613.476340
 30
0.0
 10
291.562215
 20
614.265083
 30
0.0
 10
298.026915
 20
616.221387
 30
0.0
 10
305.587680
 20
625.065106
 30
0.0
 10
308.637855
 20
632.791378
 30
0.0
 10
310.230776
 20
636.826340
 30
0.0
 11
288.955776
 21
613.476340
 31
0.0
 11
296.468025
 21
616.394571
 31
0.0
 11
304.724969
 21
625.005212
 31
0.0
 11
310.230776
 21
636.826340
 31
0.0
  0
LWPOLYLINE
  5
11e
100
AcDbEntity
  8
Layer_1
 62
3
100
AcDbPolyline
 90
3
 70
1
 10
310.230776
 20
636.826340
 30
0.0
 10
284.130776
 20
653.401340
 30
0.0
 10
313.605776
 20
641.476340
 30
0.0
  0
SPLINE
  5
11f
100
AcDbEntity
  8
Layer_1
 62
3
100
AcDbSpline
 70
0
 71
3
 72
10
 73
6
 74
4
 40
0.000000
 40
0.000000
 40
0.000000
 40
0.000000
 40
11.588465
 40
22.567426
 40
33.131807
 40
33.131807
 40
33.131807
 40
33.131807
 10
313.605776
 20
641.476340
 30
0.0
 10
316.514682
 20
644.153794
 30
0.0
 10
322.179497
 20
649.367881
 30
0.0
 10
324.494141
 20
660.771915
 30
0.0
 10
323.612912
 20
667.887174
 30
0.0
 10
323.180776
 20
671.376340
 30
0.0
 11
313.605776
 21
641.476340
 31
0.0
 11
321.254486
 21
650.182071
 31
0.0
 11
323.903352
 21
660.836699
 31
0.0
 11
323.180776
 21
671.376340
 31
0.0
  0
LWPOLYLINE
  5
120
100
AcDbEntity
  8
Layer_1
 62
3
100
AcDbPolyline
 90
3
 70
1
 10
323.180776
 20
671.376340
 30
0.0
 10
293.580776
 20
675.826340
 30
0.0
 10
322.805776
 20
677.426340
 30
0.0
  0
SPLINE
  5
121
100
AcDbEntity
  8
Layer_1
 62
3
100
AcDbSpline
 70
0
 71
3
 72
10
 73
6
 74
4
 40
0.000000
 40
0.000000
 40
0.000000
 40
0.000000
 40
12.310479
 40
23.524484
 40
32.073553
 40
32.073553
 40
32.073553
 40
32.073553
 10
322.805776
 20
677.426340
 30
0.0
 10
323.687457
 20
681.422174
 30
0.0
 10
325.372289
 20
689.057940
 30
0.0
 10
324.711247
 20
700.220117
 30
0.0
 10
320.920548
 20
705.721544
 30
0.0
 10
319.280776
 20
708.101340
 30
0.0
 11
322.805776
 21
677.426340
 31
0.0
 11
324.856657
 21
689.564782
 31
0.0
 11
323.566983
 21
700.704381
 31
0.0
 11
319.280776
 21
708.101340
 31
0.0
  0
LWPOLYLINE
  5
122
100
AcDbEntity
  8
Layer_1
 62
3
100
AcDbPolyline
 90
3
 70
1
 10
319.280776
 20
708.101340
 30
0.0
 10
293.380776
 20
701.451340
 30
0.0
 10
318.530776
 20
714.326340
 30
0.0
  0
SPLINE
  5
123
100
AcDbEntity
  8
Layer_1
 62
3
100
AcDbSpline
 70
0
 71
3
 72
10
 73
6
 74
4
 40
0.000000
 40
0.000000
 40
0.000000
 40
0.000000
 40
8.778073
 40
19.590566
 40
32.498325
 40
32.498325
 40
32.498325
 40
32.498325
 10
318.530776
 20
714.326340
 30
0.0
 10
318.452928
 20
717.278611
 30
0.0
 10
318.279191
 20
723.867376
 30
0.0
 10
312.977706
 20
733.813655
 30
0.0
 10
307.005596
 20
739.035039
 30
0.0
 10
303.755776
 20
741.876340
 30
0.0
 11
318.530776
 21
714.326340
 31
0.0
 11
317.690480
 21
723.064100
 31
0.0
 11
312.882621
 21
732.748857
 31
0.0
 11
303.755776
 21
741.876340
 31
0.0
  0
LWPOLYLINE
  5
124
100
AcDbEntity
  8
Layer_1
 62
3
100
AcDbPolyline
 90
3
 70
1
 10
303.755776
 20
741.876340
 30
0.0
 10
280.555776
 20
723.676340
 30
0.0
 10
300.455776
 20
746.501340
 30
0.0
  0
SPLINE
  5
125
100
AcDbEntity
  8
Layer_1
 62
3
100
AcDbSpline
 70
0
 71
3
 72
10
 73
6
 74
4
 40
0.000000
 40
0.000000
 40
0.000000
 40
0.000000
 40
10.654142
 40
22.373011
 40
34.080332
 40
34.080332
 40
34.080332
 40
34.080332
 10
300.455776
 20
746.501340
 30
0.0
 10
299.037701
 20
749.806080
 30
0.0
 10
296.059836
 20
756.745822
 30
0.0
 10
286.467711
 20
763.891966
 30
0.0
 10
278.825165
 20
765.648504
 30
0.0
 10
275.005776
 20
766.526340
 30
0.0
 11
300.455776
 21
746.501340
 31
0.0
 11
295.448862
 21
755.905677
 31
0.0
 11
286.201928
 21
763.104712
 31
0.0
 11
275.005776
 21
766.526340
 31
0.0
  0
LWPOLYLINE
  5
126
100
AcDbEntity
  8
Layer_1
 62
3
100
AcDbPolyline
 90
3
 70
1
 10
275.005776
 20
766.526340
 30
0.0
 10
259.380776
 20
737.626340
 30
0.0
 10
271.155776
 20
771.101340
 30
0.0
  0
SPLINE
  5
127
100
AcDbEntity
  8
Layer_1
 62
3
100
AcDbSpline
 70
0
 71
3
 72
10
 73
6
 74
4
 40
0.000000
 40
0.000000
 40
0.000000
 40
0.000000
 40
13.668679
 40
24.143308
 40
33.965988
 40
33.965988
 40
33.965988
 40
33.965988
 10
271.155776
 20
771.101340
 30
0.0
 10
267.444749
 20
773.857683
 30
0.0
 10
260.889876
 20
778.726278
 30
0.0
 10
249.321771
 20
780.533566
 30
0.0
 10
242.639564
 20
779.383097
 30
0.0
 10
239.405776
 20
778.826340
 30
0.0
 11
271.155776
 21
771.101340
 31
0.0
 11
259.488117
 21
778.221629
 31
0.0
 11
249.161153
 21
779.974243
 31
0.0
 11
239.405776
 21
778.826340
 31
0.0
  0
LWPOLYLINE
  5
128
100
AcDbEntity
  8
Layer_1
 62
3
100
AcDbPolyline
 90
3
 70
1
 10
239.405776
 20
778.826340
 30
0.0
 10
237.580776
 20
741.626340
 30
0.0
 10
233.930776
 20
779.751340
 30
0.0
  0
LWPOLYLINE
  5
129
100
AcDbEntity
  8
Layer_1
 62
3
100
AcDbPolyline
 90
2
 70
1
 10
227.180776
 20
780.026340
 30
0.0
 10
227.180776
 20
780.026340
 30
0.0
  0
SPLINE
  5
12a
100
AcDbEntity
  8
Layer_1
 62
3
100
AcDbSpline
 70
0
 71
3
 72
10
 73
6
 74
4
 40
0.000000
 40
0.000000
 40
0.000000
 40
0.000000
 40
2.287922
 40
4.541906
 40
6.757968
 40
6.757968
 40
6.757968
 40
6.757968
 10
233.930776
 20
779.751340
 30
0.0
 10
233.170385
 20
779.810019
 30
0.0
 10
231.660884
 20
779.926508
 30
0.0
 10
229.409706
 20
780.027911
 30
0.0
 10
227.919539
 20
780.026861
 30
0.0
 10
227.180776
 20
780.026340
 30
0.0
 11
233.930776
 21
779.751340
 31
0.0
 11
231.648723
 21
779.915113
 31
0.0
 11
229.396787
 21
780.011159
 31
0.0
 11
227.180776
 21
780.026340
 31
0.0
  0
LWPOLYLINE
  5
12b
100
AcDbEntity
  8
Layer_1
 62
5
100
AcDbPolyline
 90
2
 70
1
 10
297.344272
 20
643.129628
 30
0.0
 10
307.930216
 20
635.515172
 30
0.0
  0
SPLINE
  5
12c
100
AcDbEntity
  8
Layer_1
 62
5
100
AcDbSpline
 70
0
 71
3
 72
10
 73
6
 74
4
 40
0.000000
 40
0.000000
 40
0.000000
 40
0.000000
 40
9.616134
 40
18.602795
 40
27.552738
 40
27.552738
 40
27.552738
 40
27.552738
 10
307.930216
 20
635.515172
 30
0.0
 10
306.588164
 20
632.607178
 30
0.0
 10
303.991910
 20
626.981548
 30
0.0
 10
298.179220
 20
619.557515
 30
0.0
 10
292.790228
 20
616.822358
 30
0.0
 10
290.101248
 20
615.457580
 30
0.0
 11
307.930216
 21
635.515172
 31
0.0
 11
303.549130
 21
626.955025
 31
0.0
 11
297.768585
 21
620.074228
 31
0.0
 11
290.101248
 21
615.457580
 31
0.0
  0
LWPOLYLINE
  5
12d
100
AcDbEntity
  8
Layer_1
 62
5
100
AcDbPolyline
 90
2
 70
1
 10
290.101248
 20
615.457580
 30
0.0
 10
280.443896
 20
623.629196
 30
0.0
  0
LWPOLYLINE
  5
12e
100
AcDbEntity
  8
Layer_1
 62
5
100
AcDbPolyline
 90
2
 70
1
 10
297.344272
 20
643.129628
 30
0.0
 10
297.344272
 20
643.129628
 30
0.0
  0
SPLINE
  5
12f
100
AcDbEntity
  8
Layer_1
 62
5
100
AcDbSpline
 70
0
 71
3
 72
10
 73
6
 74
4
 40
0.000000
 40
0.000000
 40
0.000000
 40
0.000000
 40
9.578240
 40
18.176624
 40
26.521796
 40
26.521796
 40
26.521796
 40
26.521796
 10
280.443896
 20
623.629196
 30
0.0
 10
283.193852
 20
625.268107
 30
0.0
 10
288.412442
 20
628.378267
 30
0.0
 10
294.453549
 20
635.149176
 30
0.0
 10
296.390346
 20
640.496113
 30
0.0
 10
297.344272
 20
643.129628
 30
0.0
 11
280.443896
 21
623.629196
 31
0.0
 11
288.394330
 21
628.970851
 31
0.0
 11
294.016105
 21
635.476837
 31
0.0
 11
297.344272
 21
643.129628
 31
0.0
  0
LWPOLYLINE
  5
130
100
AcDbEntity
  8
Layer_1
 62
5
100
AcDbPolyline
 90
2
 70
1
 10
309.193312
 20
672.311964
 30
0.0
 10
321.945512
 20
669.587388
 30
0.0
  0
SPLINE
  5
131
100
AcDbEntity
  8
Layer_1
 62
5
100
AcDbSpline
 70
0
 71
3
 72
10
 73
6
 74
4
 40
0.000000
 40
0.000000
 40
0.000000
 40
0.000000
 40
9.616129
 40
18.602788
 40
27.552724
 40
27.552724
 40
27.552724
 40
27.552724
 10
321.945512
 20
669.587388
 30
0.0
 10
321.883674
 20
666.385248
 30
0.0
 10
321.764046
 20
660.190580
 30
0.0
 10
319.420438
 20
651.057616
 30
0.0
 10
315.582663
 20
646.389238
 30
0.0
 10
313.667704
 20
644.059828
 30
0.0
 11
321.945512
 21
669.587388
 31
0.0
 11
321.369156
 21
659.988547
 31
0.0
 11
318.836919
 21
651.366029
 31
0.0
 11
313.667704
 21
644.059828
 31
0.0
  0
LWPOLYLINE
  5
132
100
AcDbEntity
  8
Layer_1
 62
5
100
AcDbPolyline
 90
2
 70
1
 10
313.667704
 20
644.059828
 30
0.0
 10
301.542320
 20
647.667444
 30
0.0
  0
LWPOLYLINE
  5
133
100
AcDbEntity
  8
Layer_1
 62
5
100
AcDbPolyline
 90
2
 70
1
 10
309.193312
 20
672.311964
 30
0.0
 10
309.193312
 20
672.311964
 30
0.0
  0
SPLINE
  5
134
100
AcDbEntity
  8
Layer_1
 62
5
100
AcDbSpline
 70
0
 71
3
 72
10
 73
6
 74
4
 40
0.000000
 40
0.000000
 40
0.000000
 40
0.000000
 40
9.578240
 40
18.176626
 40
26.521802
 40
26.521802
 40
26.521802
 40
26.521802
 10
301.542320
 20
647.667444
 30
0.0
 10
303.403084
 20
650.272409
 30
0.0
 10
306.934255
 20
655.215851
 30
0.0
 10
309.749256
 20
663.842320
 30
0.0
 10
309.376771
 20
669.517017
 30
0.0
 10
309.193312
 20
672.311964
 30
0.0
 11
301.542320
 21
647.667444
 31
0.0
 11
306.679790
 21
655.751322
 31
0.0
 11
309.217074
 21
663.966822
 31
0.0
 11
309.193312
 21
672.311964
 31
0.0
  0
LWPOLYLINE
  5
135
100
AcDbEntity
  8
Layer_1
 62
5
100
AcDbPolyline
 90
2
 70
1
 10
306.416184
 20
703.509452
 30
0.0
 10
319.200072
 20
706.081292
 30
0.0
  0
SPLINE
  5
136
100
AcDbEntity
  8
Layer_1
 62
5
100
AcDbSpline
 70
0
 71
3
 72
10
 73
6
 74
4
 40
0.000000
 40
0.000000
 40
0.000000
 40
0.000000
 40
9.616137
 40
18.602798
 40
27.552741
 40
27.552741
 40
27.552741
 40
27.552741
 10
319.200072
 20
706.081292
 30
0.0
 10
320.416855
 20
703.118695
 30
0.0
 10
322.770770
 20
697.387435
 30
0.0
 10
324.252735
 20
688.075753
 30
0.0
 10
322.588181
 20
682.266142
 30
0.0
 10
321.757608
 20
679.367284
 30
0.0
 11
319.200072
 21
706.081292
 31
0.0
 11
322.488803
 21
697.045013
 31
0.0
 11
323.594691
 21
688.126656
 31
0.0
 11
321.757608
 21
679.367284
 31
0.0
  0
LWPOLYLINE
  5
137
100
AcDbEntity
  8
Layer_1
 62
5
100
AcDbPolyline
 90
2
 70
1
 10
321.757608
 20
679.367284
 30
0.0
 10
309.197640
 20
677.854932
 30
0.0
  0
LWPOLYLINE
  5
138
100
AcDbEntity
  8
Layer_1
 62
5
100
AcDbPolyline
 90
2
 70
1
 10
306.416184
 20
703.509428
 30
0.0
 10
306.416184
 20
703.509452
 30
0.0
  0
SPLINE
  5
139
100
AcDbEntity
  8
Layer_1
 62
5
100
AcDbSpline
 70
0
 71
3
 72
10
 73
6
 74
4
 40
0.000000
 40
0.000000
 40
0.000000
 40
0.000000
 40
9.578242
 40
18.176627
 40
26.521800
 40
26.521800
 40
26.521800
 40
26.521800
 10
309.197640
 20
677.854932
 30
0.0
 10
309.868899
 20
680.985060
 30
0.0
 10
311.142747
 20
686.925102
 30
0.0
 10
310.294728
 20
695.959540
 30
0.0
 10
307.696087
 20
701.017997
 30
0.0
 10
306.416184
 20
703.509428
 30
0.0
 11
309.197640
 21
677.854932
 31
0.0
 11
310.696310
 21
687.315201
 31
0.0
 11
309.756927
 21
695.862118
 31
0.0
 11
306.416184
 21
703.509428
 31
0.0
  0
LWPOLYLINE
  5
13a
100
AcDbEntity
  8
Layer_1
 62
5
100
AcDbPolyline
 90
2
 70
1
 10
292.976096
 20
731.709596
 30
0.0
 10
303.453304
 20
739.472972
 30
0.0
  0
SPLINE
  5
13b
100
AcDbEntity
  8
Layer_1
 62
5
100
AcDbSpline
 70
0
 71
3
 72
10
 73
6
 74
4
 40
0.000000
 40
0.000000
 40
0.000000
 40
0.000000
 40
9.616140
 40
18.602800
 40
27.552738
 40
27.552738
 40
27.552738
 40
27.552738
 10
303.453304
 20
739.472972
 30
0.0
 10
305.814289
 20
737.308880
 30
0.0
 10
310.381708
 20
733.122358
 30
0.0
 10
315.682282
 20
725.324438
 30
0.0
 10
316.645877
 20
719.358387
 30
0.0
 10
317.126688
 20
716.381468
 30
0.0
 11
303.453304
 21
739.472972
 31
0.0
 11
310.272094
 21
732.692540
 31
0.0
 11
315.065040
 21
725.090716
 31
0.0
 11
317.126688
 21
716.381468
 31
0.0
  0
LWPOLYLINE
  5
13c
100
AcDbEntity
  8
Layer_1
 62
5
100
AcDbPolyline
 90
2
 70
1
 10
317.126688
 20
716.381468
 30
0.0
 10
306.401664
 20
709.672252
 30
0.0
  0
LWPOLYLINE
  5
13d
100
AcDbEntity
  8
Layer_1
 62
5
100
AcDbPolyline
 90
2
 70
1
 10
292.976096
 20
731.709580
 30
0.0
 10
292.976096
 20
731.709596
 30
0.0
  0
SPLINE
  5
13e
100
AcDbEntity
  8
Layer_1
 62
5
100
AcDbSpline
 70
0
 71
3
 72
10
 73
6
 74
4
 40
0.000000
 40
0.000000
 40
0.000000
 40
0.000000
 40
9.578243
 40
18.176628
 40
26.521799
 40
26.521799
 40
26.521799
 40
26.521799
 10
306.401664
 20
709.672252
 30
0.0
 10
305.678320
 20
712.790755
 30
0.0
 10
304.305630
 20
718.708738
 30
0.0
 10
299.696723
 20
726.525270
 30
0.0
 10
295.193874
 20
729.998780
 30
0.0
 10
292.976096
 20
731.709580
 30
0.0
 11
306.401664
 21
709.672252
 31
0.0
 11
303.735692
 21
718.871998
 31
0.0
 11
299.251380
 21
726.208426
 31
0.0
 11
292.976096
 21
731.709580
 31
0.0
  0
LWPOLYLINE
  5
13f
100
AcDbEntity
  8
Layer_1
 62
5
100
AcDbPolyline
 90
2
 70
1
 10
270.301376
 20
753.014956
 30
0.0
 10
276.990264
 20
764.208740
 30
0.0
  0
SPLINE
  5
140
100
AcDbEntity
  8
Layer_1
 62
5
100
AcDbSpline
 70
0
 71
3
 72
10
 73
6
 74
4
 40
0.000000
 40
0.000000
 40
0.000000
 40
0.000000
 40
9.616142
 40
18.602804
 40
27.552738
 40
27.552738
 40
27.552738
 40
27.552738
 10
276.990264
 20
764.208740
 30
0.0
 10
280.001635
 20
763.118237
 30
0.0
 10
285.827250
 20
761.008618
 30
0.0
 10
293.717662
 20
755.846736
 30
0.0
 10
296.900150
 20
750.709221
 30
0.0
 10
298.488136
 20
748.145724
 30
0.0
 11
276.990264
 21
764.208740
 31
0.0
 11
285.891244
 21
760.569683
 31
0.0
 11
293.237652
 21
755.393740
 31
0.0
 11
298.488136
 21
748.145724
 31
0.0
  0
LWPOLYLINE
  5
141
100
AcDbEntity
  8
Layer_1
 62
5
100
AcDbPolyline
 90
2
 70
1
 10
298.488136
 20
748.145724
 30
0.0
 10
291.165328
 20
737.829892
 30
0.0
  0
LWPOLYLINE
  5
142
100
AcDbEntity
  8
Layer_1
 62
5
100
AcDbPolyline
 90
2
 70
1
 10
270.301392
 20
753.014940
 30
0.0
 10
270.301376
 20
753.014956
 30
0.0
  0
SPLINE
  5
143
100
AcDbEntity
  8
Layer_1
 62
5
100
AcDbSpline
 70
0
 71
3
 72
10
 73
6
 74
4
 40
0.000000
 40
0.000000
 40
0.000000
 40
0.000000
 40
9.578240
 40
18.176625
 40
26.521797
 40
26.521797
 40
26.521797
 40
26.521797
 10
291.165328
 20
737.829892
 30
0.0
 10
289.299023
 20
740.430890
 30
0.0
 10
285.757336
 20
745.366803
 30
0.0
 10
278.498318
 20
750.811695
 30
0.0
 10
273.006342
 20
752.287879
 30
0.0
 10
270.301392
 20
753.014940
 30
0.0
 11
291.165328
 21
737.829892
 31
0.0
 11
285.168426
 21
745.298482
 31
0.0
 11
278.208950
 21
750.348029
 31
0.0
 11
270.301392
 21
753.014940
 31
0.0
  0
LWPOLYLINE
  5
144
100
AcDbEntity
  8
Layer_1
 62
5
100
AcDbPolyline
 90
2
 70
1
 10
240.505464
 20
764.906476
 30
0.0
 10
242.376056
 20
777.811628
 30
0.0
  0
SPLINE
  5
145
100
AcDbEntity
  8
Layer_1
 62
5
100
AcDbSpline
 70
0
 71
3
 72
10
 73
6
 74
4
 40
0.000000
 40
0.000000
 40
0.000000
 40
0.000000
 40
9.616144
 40
18.602808
 40
27.552745
 40
27.552745
 40
27.552745
 40
27.552745
 10
242.376056
 20
777.811628
 30
0.0
 10
245.575226
 20
777.962846
 30
0.0
 10
251.764145
 20
778.255383
 30
0.0
 10
261.032737
 20
776.524230
 30
0.0
 10
265.945967
 20
773.005357
 30
0.0
 10
268.397552
 20
771.249524
 30
0.0
 11
242.376056
 21
777.811628
 31
0.0
 11
251.991993
 21
777.874798
 31
0.0
 11
260.763807
 21
775.921494
 31
0.0
 11
268.397552
 21
771.249524
 31
0.0
  0
LWPOLYLINE
  5
146
100
AcDbEntity
  8
Layer_1
 62
5
100
AcDbPolyline
 90
2
 70
1
 10
268.397552
 20
771.249524
 30
0.0
 10
265.604184
 20
758.911092
 30
0.0
  0
LWPOLYLINE
  5
147
100
AcDbEntity
  8
Layer_1
 62
5
100
AcDbPolyline
 90
2
 70
1
 10
240.505480
 20
764.906468
 30
0.0
 10
240.505464
 20
764.906476
 30
0.0
  0
SPLINE
  5
148
100
AcDbEntity
  8
Layer_1
 62
5
100
AcDbSpline
 70
0
 71
3
 72
10
 73
6
 74
4
 40
0.000000
 40
0.000000
 40
0.000000
 40
0.000000
 40
9.578237
 40
18.176622
 40
26.521792
 40
26.521792
 40
26.521792
 40
26.521792
 10
265.604184
 20
758.911092
 30
0.0
 10
262.881258
 20
760.594526
 30
0.0
 10
257.713960
 20
763.789180
 30
0.0
 10
248.919409
 20
766.024354
 30
0.0
 10
243.282040
 20
765.275365
 30
0.0
 10
240.505480
 20
764.906468
 30
0.0
 11
265.604184
 21
758.911092
 31
0.0
 11
257.196595
 21
763.499673
 31
0.0
 11
248.830567
 21
765.485071
 31
0.0
 11
240.505480
 21
764.906468
 31
0.0
  0
LWPOLYLINE
  5
149
100
AcDbEntity
  8
Layer_1
 62
5
100
AcDbPolyline
 90
2
 70
1
 10
209.430472
 20
759.019644
 30
0.0
 10
205.406384
 20
771.423228
 30
0.0
  0
SPLINE
  5
14a
100
AcDbEntity
  8
Layer_1
 62
5
100
AcDbSpline
 70
0
 71
3
 72
10
 73
6
 74
4
 40
0.000000
 40
0.000000
 40
0.000000
 40
0.000000
 40
9.616139
 40
18.602803
 40
27.552741
 40
27.552741
 40
27.552741
 40
27.552741
 10
205.406384
 20
771.423228
 30
0.0
 10
208.209502
 20
772.972445
 30
0.0
 10
213.632244
 20
775.969469
 30
0.0
 10
222.711895
 20
778.511827
 30
0.0
 10
228.674317
 20
777.526013
 30
0.0
 10
231.649424
 20
777.034116
 30
0.0
 11
205.406384
 21
771.423228
 31
0.0
 11
214.004804
 21
775.728726
 31
0.0
 11
222.736962
 21
777.852293
 31
0.0
 11
231.649424
 21
777.034116
 31
0.0
  0
LWPOLYLINE
  5
14b
100
AcDbEntity
  8
Layer_1
 62
5
100
AcDbPolyline
 90
2
 70
1
 10
231.649424
 20
777.034116
 30
0.0
 10
234.595304
 20
764.731204
 30
0.0
  0
LWPOLYLINE
  5
14c
100
AcDbEntity
  8
Layer_1
 62
5
100
AcDbPolyline
 90
2
 70
1
 10
209.430496
 20
759.019652
 30
0.0
 10
209.430472
 20
759.019644
 30
0.0
  0
SPLINE
  5
14d
100
AcDbEntity
  8
Layer_1
 62
5
100
AcDbSpline
 70
0
 71
3
 72
10
 73
6
 74
4
 40
0.000000
 40
0.000000
 40
0.000000
 40
0.000000
 40
9.578238
 40
18.176621
 40
26.521790
 40
26.521790
 40
26.521790
 40
26.521790
 10
234.595304
 20
764.731204
 30
0.0
 10
231.408770
 20
765.038260
 30
0.0
 10
225.361685
 20
765.620959
 30
0.0
 10
216.484586
 20
763.740207
 30
0.0
 10
211.758315
 20
760.577415
 30
0.0
 10
209.430496
 20
759.019652
 30
0.0
 11
234.595304
 21
764.731204
 31
0.0
 11
225.025482
 21
765.132646
 31
0.0
 11
216.643171
 21
763.217169
 31
0.0
 11
209.430496
 21
759.019652
 31
0.0
  0
LWPOLYLINE
  5
14e
100
AcDbEntity
  8
Layer_1
 62
5
100
AcDbPolyline
 90
2
 70
1
 10
183.841296
 20
738.272764
 30
0.0
 10
175.253792
 20
748.085852
 30
0.0
  0
SPLINE
  5
14f
100
AcDbEntity
  8
Layer_1
 62
5
100
AcDbSpline
 70
0
 71
3
 72
10
 73
6
 74
4
 40
0.000000
 40
0.000000
 40
0.000000
 40
0.000000
 40
9.616140
 40
18.602806
 40
27.552747
 40
27.552747
 40
27.552747
 40
27.552747
 10
175.253792
 20
748.085852
 30
0.0
 10
177.219281
 20
750.614567
 30
0.0
 10
181.021598
 20
755.506466
 30
0.0
 10
188.363960
 20
761.421990
 30
0.0
 10
194.232216
 20
762.866254
 30
0.0
 10
197.160336
 20
763.586908
 30
0.0
 11
175.253792
 21
748.085852
 31
0.0
 11
181.458889
 21
755.432070
 31
0.0
 11
188.646972
 21
760.825735
 31
0.0
 11
197.160336
 21
763.586908
 31
0.0
  0
LWPOLYLINE
  5
150
100
AcDbEntity
  8
Layer_1
 62
5
100
AcDbPolyline
 90
2
 70
1
 10
197.160336
 20
763.586908
 30
0.0
 10
204.717240
 20
753.441324
 30
0.0
  0
LWPOLYLINE
  5
151
100
AcDbEntity
  8
Layer_1
 62
5
100
AcDbPolyline
 90
2
 70
1
 10
183.841312
 20
738.272772
 30
0.0
 10
183.841296
 20
738.272764
 30
0.0
  0
SPLINE
  5
152
100
AcDbEntity
  8
Layer_1
 62
5
100
AcDbSpline
 70
0
 71
3
 72
10
 73
6
 74
4
 40
0.000000
 40
0.000000
 40
0.000000
 40
0.000000
 40
9.578236
 40
18.176621
 40
26.521787
 40
26.521787
 40
26.521787
 40
26.521787
 10
204.717240
 20
753.441324
 30
0.0
 10
201.667675
 20
752.467452
 30
0.0
 10
195.880513
 20
750.619334
 30
0.0
 10
188.463513
 20
745.391695
 30
0.0
 10
185.366618
 20
740.621985
 30
0.0
 10
183.841312
 20
738.272772
 30
0.0
 11
204.717240
 21
753.441324
 31
0.0
 11
195.764015
 21
750.038036
 31
0.0
 11
188.815428
 21
744.973516
 31
0.0
 11
183.841312
 21
738.272772
 31
0.0
  0
LWPOLYLINE
  5
153
100
AcDbEntity
  8
Layer_1
 62
5
100
AcDbPolyline
 90
2
 70
1
 10
169.420616
 20
709.611876
 30
0.0
 10
157.651448
 20
716.793260
 30
0.0
  0
SPLINE
  5
154
100
AcDbEntity
  8
Layer_1
 62
5
100
AcDbSpline
 70
0
 71
3
 72
10
 73
6
 74
4
 40
0.000000
 40
0.000000
 40
0.000000
 40
0.000000
 40
9.261136
 40
17.737037
 40
26.123465
 40
26.123465
 40
26.123465
 40
26.123465
 10
157.651448
 20
716.793260
 30
0.0
 10
158.448112
 20
719.771084
 30
0.0
 10
159.973891
 20
725.474248
 30
0.0
 10
164.395610
 20
733.315494
 30
0.0
 10
169.232489
 20
736.333780
 30
0.0
 10
171.638096
 20
737.834916
 30
0.0
 11
157.651448
 21
716.793260
 31
0.0
 11
160.443952
 21
725.623354
 31
0.0
 11
164.911709
 21
732.826134
 31
0.0
 11
171.638096
 21
737.834916
 31
0.0
  0
LWPOLYLINE
  5
155
100
AcDbEntity
  8
Layer_1
 62
5
100
AcDbPolyline
 90
2
 70
1
 10
171.638096
 20
737.834916
 30
0.0
 10
182.592304
 20
730.048892
 30
0.0
  0
LWPOLYLINE
  5
156
100
AcDbEntity
  8
Layer_1
 62
5
100
AcDbPolyline
 90
2
 70
1
 10
169.420624
 20
709.611892
 30
0.0
 10
169.420616
 20
709.611876
 30
0.0
  0
SPLINE
  5
157
100
AcDbEntity
  8
Layer_1
 62
5
100
AcDbSpline
 70
0
 71
3
 72
10
 73
6
 74
4
 40
0.000000
 40
0.000000
 40
0.000000
 40
0.000000
 40
8.965269
 40
17.067604
 40
25.164639
 40
25.164639
 40
25.164639
 40
25.164639
 10
182.592304
 20
730.048892
 30
0.0
 10
180.174408
 20
728.270931
 30
0.0
 10
175.571347
 20
724.886143
 30
0.0
 10
170.800955
 20
717.658296
 30
0.0
 10
169.880634
 20
712.293441
 30
0.0
 10
169.420624
 20
709.611892
 30
0.0
 11
182.592304
 21
730.048892
 31
0.0
 11
175.715964
 21
724.296327
 31
0.0
 11
171.337940
 21
717.478649
 31
0.0
 11
169.420624
 21
709.611892
 31
0.0
  0
LWPOLYLINE
  5
158
100
AcDbEntity
  8
Layer_1
 62
5
100
AcDbPolyline
 90
2
 70
1
 10
164.882128
 20
678.320548
 30
0.0
 10
151.851576
 20
678.817148
 30
0.0
  0
SPLINE
  5
159
100
AcDbEntity
  8
Layer_1
 62
5
100
AcDbSpline
 70
0
 71
3
 72
10
 73
6
 74
4
 40
0.000000
 40
0.000000
 40
0.000000
 40
0.000000
 40
9.616148
 40
18.602812
 40
27.552753
 40
27.552753
 40
27.552753
 40
27.552753
 10
151.851576
 20
678.817148
 30
0.0
 10
151.363187
 20
681.982434
 30
0.0
 10
150.418380
 20
688.105804
 30
0.0
 10
151.160543
 20
697.505428
 30
0.0
 10
154.140604
 20
702.762952
 30
0.0
 10
155.627584
 20
705.386332
 30
0.0
 11
151.851576
 21
678.817148
 31
0.0
 11
150.772760
 21
688.372589
 31
0.0
 11
151.788320
 21
697.301685
 31
0.0
 11
155.627584
 21
705.386332
 31
0.0
  0
LWPOLYLINE
  5
15a
100
AcDbEntity
  8
Layer_1
 62
5
100
AcDbPolyline
 90
2
 70
1
 10
155.627584
 20
705.386332
 30
0.0
 10
168.192096
 20
703.912236
 30
0.0
  0
LWPOLYLINE
  5
15b
100
AcDbEntity
  8
Layer_1
 62
5
100
AcDbPolyline
 90
2
 70
1
 10
164.882128
 20
678.320572
 30
0.0
 10
164.882128
 20
678.320548
 30
0.0
  0
SPLINE
  5
15c
100
AcDbEntity
  8
Layer_1
 62
5
100
AcDbSpline
 70
0
 71
3
 72
10
 73
6
 74
4
 40
0.000000
 40
0.000000
 40
0.000000
 40
0.000000
 40
9.578233
 40
18.176615
 40
26.521785
 40
26.521785
 40
26.521785
 40
26.521785
 10
168.192096
 20
703.912236
 30
0.0
 10
166.805780
 20
701.026686
 30
0.0
 10
164.174968
 20
695.550777
 30
0.0
 10
162.881515
 20
686.569292
 30
0.0
 10
164.221934
 20
681.042614
 30
0.0
 10
164.882128
 20
678.320572
 30
0.0
 11
168.192096
 21
703.912236
 31
0.0
 11
164.517519
 21
695.066896
 31
0.0
 11
163.427164
 21
686.537928
 31
0.0
 11
164.882128
 21
678.320572
 31
0.0
  0
LWPOLYLINE
  5
15d
100
AcDbEntity
  8
Layer_1
 62
5
100
AcDbPolyline
 90
2
 70
1
 10
171.529288
 20
647.850908
 30
0.0
 10
159.298592
 20
643.328540
 30
0.0
  0
SPLINE
  5
15e
100
AcDbEntity
  8
Layer_1
 62
5
100
AcDbSpline
 70
0
 71
3
 72
10
 73
6
 74
4
 40
0.000000
 40
0.000000
 40
0.000000
 40
0.000000
 40
9.616142
 40
18.602806
 40
27.552750
 40
27.552750
 40
27.552750
 40
27.552750
 10
159.298592
 20
643.328540
 30
0.0
 10
157.637288
 20
646.066718
 30
0.0
 10
154.423429
 20
651.363831
 30
0.0
 10
151.515983
 20
660.333250
 30
0.0
 10
152.259883
 20
666.330661
 30
0.0
 10
152.631072
 20
669.323228
 30
0.0
 11
159.298592
 21
643.328540
 31
0.0
 11
154.648909
 21
651.745822
 31
0.0
 11
152.173966
 21
660.384965
 31
0.0
 11
152.631072
 21
669.323228
 31
0.0
  0
LWPOLYLINE
  5
15f
100
AcDbEntity
  8
Layer_1
 62
5
100
AcDbPolyline
 90
2
 70
1
 10
152.631072
 20
669.323228
 30
0.0
 10
164.804800
 20
672.764196
 30
0.0
  0
LWPOLYLINE
  5
160
100
AcDbEntity
  8
Layer_1
 62
5
100
AcDbPolyline
 90
2
 70
1
 10
171.529288
 20
647.850932
 30
0.0
 10
171.529288
 20
647.850908
 30
0.0
  0
SPLINE
  5
161
100
AcDbEntity
  8
Layer_1
 62
5
100
AcDbSpline
 70
0
 71
3
 72
10
 73
6
 74
4
 40
0.000000
 40
0.000000
 40
0.000000
 40
0.000000
 40
9.578240
 40
18.176625
 40
26.521790
 40
26.521790
 40
26.521790
 40
26.521790
 10
164.804800
 20
672.764196
 30
0.0
 10
164.626852
 20
669.567851
 30
0.0
 10
164.289161
 20
663.502148
 30
0.0
 10
166.527344
 20
654.708363
 30
0.0
 10
169.878668
 20
650.113854
 30
0.0
 10
171.529288
 20
647.850932
 30
0.0
 11
164.804800
 21
672.764196
 31
0.0
 11
164.790669
 21
663.185966
 31
0.0
 11
167.043541
 21
654.887967
 31
0.0
 11
171.529288
 21
647.850932
 31
0.0
  0
LWPOLYLINE
  5
162
100
AcDbEntity
  8
Layer_1
 62
5
100
AcDbPolyline
 90
2
 70
1
 10
193.216320
 20
623.120556
 30
0.0
 10
183.488832
 20
614.436204
 30
0.0
  0
SPLINE
  5
163
100
AcDbEntity
  8
Layer_1
 62
5
100
AcDbSpline
 70
0
 71
3
 72
10
 73
6
 74
4
 40
0.000000
 40
0.000000
 40
0.000000
 40
0.000000
 40
9.616146
 40
18.602811
 40
27.552749
 40
27.552749
 40
27.552749
 40
27.552749
 10
183.488832
 20
614.436204
 30
0.0
 10
180.940759
 20
616.376534
 30
0.0
 10
176.011412
 20
620.130179
 30
0.0
 10
170.023394
 20
627.413539
 30
0.0
 10
168.521029
 20
633.267188
 30
0.0
 10
167.771384
 20
636.188020
 30
0.0
 11
183.488832
 21
614.436204
 31
0.0
 11
176.081467
 21
620.568186
 31
0.0
 11
170.616813
 21
627.702449
 31
0.0
 11
167.771384
 21
636.188020
 31
0.0
  0
LWPOLYLINE
  5
164
100
AcDbEntity
  8
Layer_1
 62
5
100
AcDbPolyline
 90
2
 70
1
 10
167.771384
 20
636.188020
 30
0.0
 10
177.841576
 20
643.845124
 30
0.0
  0
SPLINE
  5
165
100
AcDbEntity
  8
Layer_1
 62
5
100
AcDbSpline
 70
0
 71
3
 72
10
 73
6
 74
4
 40
0.000000
 40
0.000000
 40
0.000000
 40
0.000000
 40
9.578236
 40
18.176616
 40
26.521785
 40
26.521785
 40
26.521785
 40
26.521785
 10
177.841576
 20
643.845124
 30
0.0
 10
178.845624
 20
640.805360
 30
0.0
 10
180.751005
 20
635.036800
 30
0.0
 10
186.051911
 20
627.671985
 30
0.0
 10
190.852085
 20
624.622524
 30
0.0
 10
193.216304
 20
623.120580
 30
0.0
 11
177.841576
 21
643.845124
 31
0.0
 11
181.333433
 21
634.926069
 31
0.0
 11
186.466580
 21
628.028029
 31
0.0
 11
193.216304
 21
623.120580
 31
0.0
  0
LWPOLYLINE
  5
166
100
AcDbEntity
  8
Layer_1
 62
5
100
AcDbPolyline
 90
2
 70
1
 10
193.216304
 20
623.120580
 30
0.0
 10
193.216320
 20
623.120556
 30
0.0
  0
ENDSEC
  0
SECTION
  2
OBJECTS
  0
DICTIONARY
  5
C
330
0
100
AcDbDictionary
  3
ACAD_GROUP
350
D
  3
ACAD_MLINESTYLE
350
17
  0
DICTIONARY
  5
D
330
C
100
AcDbDictionary
  0
DICTIONARY
  5
1A
330
C
100
AcDbDictionary
  0
DICTIONARY
  5
17
330
C
100
AcDbDictionary
  3
STANDARD
350
18
  0
DICTIONARY
  5
19
330
C
100
AcDbDictionary
  0
ENDSEC
  0
EOF
