0
SECTION
2
HEADER
9
$INSUNITS
70
4
9
$ACADVER
1
AC1014
9
$HANDSEED
5
FFFF
0
ENDSEC
0
SECTION
2
TABLES
0
TABLE
2
VPORT
5
8
100
AcDbSymbolTable
0
ENDTAB
0
TABLE
2
LTYPE
5
5
100
AcDbSymbolTable
0
LTYPE
5
14
100
AcDbSymbolTableRecord
100
AcDbLinetypeTableRecord
2
BYBLOCK
70
0
0
LTYPE
5
15
100
AcDbSymbolTableRecord
100
AcDbLinetypeTableRecord
2
BYLAYER
70
0
0
ENDTAB
0
TABLE
2
LAYER
5
2
100
AcDbSymbolTable
70
2
0
LAYER
5
50
100
AcDbSymbolTableRecord
100
AcDbLayerTableRecord
2
0
70
0
6
CONTINUOUS
0
ENDTAB
0
TABLE
2
STYLE
5
3
100
AcDbSymbolTable
70
1
0
STYLE
5
11
100
AcDbSymbolTableRecord
100
AcDbTextStyleTableRecord
2
STANDARD
70
0
0
ENDTAB
0
TABLE
2
VIEW
5
6
100
AcDbSymbolTable
70
0
0
ENDTAB
0
TABLE
2
UCS
5
7
100
AcDbSymbolTable
70
0
0
ENDTAB
0
TABLE
2
APPID
5
9
100
AcDbSymbolTable
70
2
0
APPID
5
12
100
AcDbSymbolTableRecord
100
AcDbRegAppTableRecord
2
ACAD
70
0
0
ENDTAB
0
TABLE
2
DIMSTYLE
5
A
100
AcDbSymbolTable
70
1
0
ENDTAB
0
TABLE
2
BLOCK_RECORD
5
1
100
AcDbSymbolTable
70
1
0
BLOCK_RECORD
5
1F
100
AcDbSymbolTableRecord
100
AcDbBlockTableRecord
2
*MODEL_SPACE
0
BLOCK_RECORD
5
1B
100
AcDbSymbolTableRecord
100
AcDbBlockTableRecord
2
*PAPER_SPACE
0
ENDTAB
0
ENDSEC
0
SECTION
2
BLOCKS
0
BLOCK
5
20
100
AcDbEntity
100
AcDbBlockBegin
2
*MODEL_SPACE
0
ENDBLK
5
21
100
AcDbEntity
100
AcDbBlockEnd
0
BLOCK
5
1C
100
AcDbEntity
100
AcDbBlockBegin
2
*PAPER_SPACE
0
ENDBLK
5
1D
100
AcDbEntity
100
AcDbBlockEnd
0
ENDSEC
0
SECTION
2
ENTITIES
0
SPLINE
5
100
100
AcDbEntity
8
0
100
AcDbSpline
70
0
71
3
72
8
73
4
74
0
42
0.000000001
43
0.0000000001
44
0.0000000001
40
-0.99975748407366227
40
-0.99975748407366227
40
-0.99975748407366227
40
-0.99975748407366227
40
0
40
0
40
0
40
0
10
-187.29907690643557
20
94.897746350085185
30
0
10
-187.38671061529692
20
92.782251864726689
30
0
10
-186.33402622160062
20
91.684355759109309
30
0
10
-184.21797314737475
20
91.684355759109309
30
0
0
SPLINE
5
101
100
AcDbEntity
8
0
100
AcDbSpline
70
0
71
3
72
8
73
4
74
0
42
0.000000001
43
0.0000000001
44
0.0000000001
40
-1
40
-1
40
-1
40
-1
40
-0.00024272150907765823
40
-0.00024272150907765823
40
-0.00024272150907765823
40
-0.00024272150907765823
10
-184.08722859747007
20
98.10810012564248
30
0
10
-186.20328123655872
20
98.10806961694658
30
0
10
-187.29856329058629
20
97.013303341349314
30
0
10
-187.29907690643554
20
94.897746350085157
30
0
0
LINE
5
102
100
AcDbEntity
8
0
100
AcDbLine
10
-184.08722859747007
20
98.10810012564248
30
0
11
-171.55749203303017
21
98.108100125650168
31
0
0
SPLINE
5
103
100
AcDbEntity
8
0
100
AcDbSpline
70
0
71
3
72
8
73
4
74
0
42
0.000000001
43
0.0000000001
44
0.0000000001
40
-1
40
-1
40
-1
40
-1
40
0
40
0
40
0
40
0
10
-168.32399479618229
20
94.896250562728639
30
0
10
-168.32399479618229
20
97.012987110589989
30
0
10
-169.42666288175411
20
98.108100125650168
30
0
10
-171.55749203303017
20
98.108100125650168
30
0
0
SPLINE
5
104
100
AcDbEntity
8
0
100
AcDbSpline
70
0
71
3
72
8
73
4
74
0
42
0.000000001
43
0.0000000001
44
0.0000000001
40
-0.9999999741298935
40
-0.9999999741298935
40
-0.9999999741298935
40
-0.9999999741298935
40
0
40
0
40
0
40
0
10
-171.50242640878037
20
91.646117915563693
30
0
10
-169.40727791678995
20
91.671951028178412
30
0
10
-168.32399479618229
20
92.779939767795526
30
0
10
-168.32399479618229
20
94.896250562728639
30
0
0
SPLINE
5
105
100
AcDbEntity
8
0
100
AcDbSpline
70
0
71
3
72
8
73
4
74
0
42
0.000000001
43
0.0000000001
44
0.0000000001
40
-1
40
-1
40
-1
40
-1
40
-1.8141105224947695e-08
40
-1.8141105224947695e-08
40
-1.8141105224947695e-08
40
-1.8141105224947695e-08
10
-184.21797314737475
20
91.684355759109309
30
0
10
-180.9505190570722
20
91.684355759109309
30
0
10
-174.49306866240389
20
91.609230324825802
30
0
10
-171.50242640876382
20
91.646117915563906
30
0
0
SPLINE
5
106
100
AcDbEntity
8
0
100
AcDbSpline
70
0
71
3
72
8
73
4
74
0
42
0.000000001
43
0.0000000001
44
0.0000000001
40
-0.99975748407213427
40
-0.99975748407213427
40
-0.99975748407213427
40
-0.99975748407213427
40
0
40
0
40
0
40
0
10
-137.09352160027314
20
94.897791590773281
30
0
10
-137.18115530913099
20
92.782297105421137
30
0
10
-136.12847091543455
20
91.68440099980711
30
0
10
-134.01241784121194
20
91.68440099980711
30
0
0
SPLINE
5
107
100
AcDbEntity
8
0
100
AcDbSpline
70
0
71
3
72
8
73
4
74
0
42
0.000000001
43
0.0000000001
44
0.0000000001
40
-1
40
-1
40
-1
40
-1
40
-0.0002427215143505778
40
-0.0002427215143505778
40
-0.0002427215143505778
40
-0.0002427215143505778
10
-133.88168083142605
20
98.108145366340352
30
0
10
-135.99772850423813
20
98.108114857642747
30
0
10
-137.09300798566127
20
97.01334852277121
30
0
10
-137.09352160027314
20
94.897791590773281
30
0
0
LINE
5
108
100
AcDbEntity
8
0
100
AcDbLine
10
-133.88168083142605
20
98.108145366340352
30
0
11
-121.35195180709997
21
98.108145366348054
31
0
0
SPLINE
5
109
100
AcDbEntity
8
0
100
AcDbSpline
70
0
71
3
72
8
73
4
74
0
42
0.000000001
43
0.0000000001
44
0.0000000001
40
-1
40
-1
40
-1
40
-1
40
0
40
0
40
0
40
0
10
-118.11844703013577
20
94.896295803426511
30
0
10
-118.11844703013577
20
97.013032410560811
30
0
10
-119.22111768754303
20
98.108145366348054
30
0
10
-121.35195180709997
20
98.108145366348054
30
0
0
SPLINE
5
110
100
AcDbEntity
8
0
100
AcDbSpline
70
0
71
3
72
8
73
4
74
0
42
0.000000001
43
0.0000000001
44
0.0000000001
40
-1
40
-1
40
-1
40
-1
40
0
40
0
40
0
40
0
10
-121.29687126300779
20
91.646163154283897
30
0
10
-119.20172763074964
20
91.671996214934865
30
0
10
-118.11844703013577
20
92.779985013017111
30
0
10
-118.11844703013577
20
94.896295803426511
30
0
0
SPLINE
5
111
100
AcDbEntity
8
0
100
AcDbSpline
70
0
71
3
72
8
73
4
74
0
42
0.000000001
43
0.0000000001
44
0.0000000001
40
-1
40
-1
40
-1
40
-1
40
-3.6533335776177891e-08
40
-3.6533335776177891e-08
40
-3.6533335776177891e-08
40
-3.6533335776177891e-08
10
-134.01241784121194
20
91.68440099980711
30
0
10
-130.74496381100511
20
91.68440099980711
30
0
10
-124.28749853152966
20
91.609275567910345
30
0
10
-121.29687126300779
20
91.646163154283158
30
0
0
CIRCLE
5
112
100
AcDbEntity
8
0
100
AcDbCircle
10
-152.79489288521577
20
94.727507324796179
30
0
40
3.1939232734375
210
0
220
-0
230
1
0
LWPOLYLINE
5
113
100
AcDbEntity
8
0
100
AcDbPolyline
90
4
70
1
43
0.0
10
-55.435516092635773
20
83.786784632619643
10
-249.98200426092069
20
83.786784632619643
10
-249.98200426092069
20
106.00571649283771
10
-55.435516092635773
20
106.00571649283771
0
ENDSEC
0
SECTION
2
OBJECTS
0
DICTIONARY
5
C
100
AcDbDictionary
3
ACAD_GROUP
350
D
3
ACAD_MLINESTYLE
350
17
0
DICTIONARY
5
D
100
AcDbDictionary
0
DICTIONARY
5
1A
330
C
100
AcDbDictionary
0
DICTIONARY
5
17
100
AcDbDictionary
0
ENDSEC
0
EOF
