  0
SECTION
  2
HEADER
  9
$ACADVER
  1
AC1015
  9
$ACADMAINTVER
 70
     6
  9
$DWGCODEPAGE
  3
ANSI_1252
  9
$INSBASE
 10
0.0
 20
0.0
 30
0.0
  9
$EXTMIN
 10
0.0
 20
0.0
 30
0.0
  9
$EXTMAX
 10
1189.0
 20
841.0
 30
0.0
  9
$LIMMIN
 10
0.0
 20
0.0
  9
$LIMMAX
 10
1189.0
 20
841.0
  9
$ORTHOMODE
 70
     0
  9
$REGENMODE
 70
     1
  9
$FILLMODE
 70
     1
  9
$QTEXTMODE
 70
     0
  9
$MIRRTEXT
 70
     1
  9
$LTSCALE
 40
1.0
  9
$ATTMODE
 70
     1
  9
$TEXTSIZE
 40
3.5
  9
$TRACEWID
 40
1.0
  9
$TEXTSTYLE
  7
Standard
  9
$CLAYER
  8
0
  9
$CELTYPE
  6
ByLayer
  9
$CECOLOR
 62
   256
  9
$CELTSCALE
 40
1.0
  9
$DISPSILH
 70
     0
  9
$DIMSCALE
 40
1.0
  9
$DIMASZ
 40
3.302
  9
$DIMEXO
 40
1.0
  9
$DIMDLI
 40
3.75
  9
$DIMRND
 40
0.0
  9
$DIMDLE
 40
0.0
  9
$DIMEXE
 40
1.0
  9
$DIMTP
 40
0.0
  9
$DIMTM
 40
0.0
  9
$DIMTXT
 40
3.5
  9
$DIMCEN
 40
2.5
  9
$DIMTSZ
 40
0.0
  9
$DIMTOL
 70
     0
  9
$DIMLIM
 70
     0
  9
$DIMTIH
 70
     1
  9
$DIMTOH
 70
     1
  9
$DIMSE1
 70
     0
  9
$DIMSE2
 70
     0
  9
$DIMTAD
 70
     1
  9
$DIMZIN
 70
     0
  9
$DIMBLK
  1

  9
$DIMASO
 70
     1
  9
$DIMSHO
 70
     1
  9
$DIMPOST
  1

  9
$DIMAPOST
  1

  9
$DIMALT
 70
     0
  9
$DIMALTD
 70
     3
  9
$DIMALTF
 40
0.0393700787
  9
$DIMLFAC
 40
1.0
  9
$DIMTOFL
 70
     1
  9
$DIMTVP
 40
0.0
  9
$DIMTIX
 70
     0
  9
$DIMSOXD
 70
     0
  9
$DIMSAH
 70
     0
  9
$DIMBLK1
  1

  9
$DIMBLK2
  1

  9
$DIMSTYLE
  2
ISO-25
  9
$DIMCLRD
 70
     0
  9
$DIMCLRE
 70
     0
  9
$DIMCLRT
 70
     0
  9
$DIMTFAC
 40
1.0
  9
$DIMGAP
 40
1.524
  9
$DIMJUST
 70
     0
  9
$DIMSD1
 70
     0
  9
$DIMSD2
 70
     0
  9
$DIMTOLJ
 70
     0
  9
$DIMTZIN
 70
     0
  9
$DIMALTZ
 70
     0
  9
$DIMALTTZ
 70
     0
  9
$DIMUPT
 70
     0
  9
$DIMDEC
 70
     2
  9
$DIMTDEC
 70
     2
  9
$DIMALTU
 70
     2
  9
$DIMALTTD
 70
     3
  9
$DIMTXSTY
  7
Standard
  9
$DIMAUNIT
 70
     0
  9
$DIMADEC
 70
     2
  9
$DIMALTRND
 40
0.0
  9
$DIMAZIN
 70
     0
  9
$DIMDSEP
 70
    44
  9
$DIMATFIT
 70
     3
  9
$DIMFRAC
 70
     0
  9
$DIMLDRBLK
  1

  9
$DIMLUNIT
 70
     2
  9
$DIMLWD
 70
    -2
  9
$DIMLWE
 70
    -2
  9
$DIMTMOVE
 70
     0
  9
$LUNITS
 70
     2
  9
$LUPREC
 70
     2
  9
$SKETCHINC
 40
1.0
  9
$FILLETRAD
 40
10.0
  9
$AUNITS
 70
     0
  9
$AUPREC
 70
     2
  9
$MENU
  1
.
  9
$ELEVATION
 40
0.0
  9
$PELEVATION
 40
0.0
  9
$THICKNESS
 40
0.0
  9
$LIMCHECK
 70
     0
  9
$CHAMFERA
 40
0.0
  9
$CHAMFERB
 40
0.0
  9
$CHAMFERC
 40
0.0
  9
$CHAMFERD
 40
0.0
  9
$SKPOLY
 70
     0
  9
$TDCREATE
 40
2459067.502208912
  9
$TDUCREATE
 40
2459067.668875579
  9
$TDUPDATE
 40
2459067.502209398
  9
$TDUUPDATE
 40
2459067.668876065
  9
$TDINDWG
 40
0.0000000116
  9
$TDUSRTIMER
 40
0.0000000116
  9
$USRTIMER
 70
     1
  9
$ANGBASE
 50
0.0
  9
$ANGDIR
 70
     0
  9
$PDMODE
 70
     0
  9
$PDSIZE
 40
-1.0
  9
$PLINEWID
 40
0.0
  9
$SPLFRAME
 70
     0
  9
$SPLINETYPE
 70
     6
  9
$SPLINESEGS
 70
     8
  9
$HANDSEED
  5
91
  9
$SURFTAB1
 70
     6
  9
$SURFTAB2
 70
     6
  9
$SURFTYPE
 70
     6
  9
$SURFU
 70
     6
  9
$SURFV
 70
     6
  9
$UCSBASE
  2

  9
$UCSNAME
  2

  9
$UCSORG
 10
0.0
 20
0.0
 30
0.0
  9
$UCSXDIR
 10
1.0
 20
0.0
 30
0.0
  9
$UCSYDIR
 10
0.0
 20
1.0
 30
0.0
  9
$UCSORTHOREF
  2

  9
$UCSORTHOVIEW
 70
     0
  9
$UCSORGTOP
 10
0.0
 20
0.0
 30
0.0
  9
$UCSORGBOTTOM
 10
0.0
 20
0.0
 30
0.0
  9
$UCSORGLEFT
 10
0.0
 20
0.0
 30
0.0
  9
$UCSORGRIGHT
 10
0.0
 20
0.0
 30
0.0
  9
$UCSORGFRONT
 10
0.0
 20
0.0
 30
0.0
  9
$UCSORGBACK
 10
0.0
 20
0.0
 30
0.0
  9
$PUCSBASE
  2

  9
$PUCSNAME
  2

  9
$PUCSORG
 10
0.0
 20
0.0
 30
0.0
  9
$PUCSXDIR
 10
1.0
 20
0.0
 30
0.0
  9
$PUCSYDIR
 10
0.0
 20
1.0
 30
0.0
  9
$PUCSORTHOREF
  2

  9
$PUCSORTHOVIEW
 70
     0
  9
$PUCSORGTOP
 10
0.0
 20
0.0
 30
0.0
  9
$PUCSORGBOTTOM
 10
0.0
 20
0.0
 30
0.0
  9
$PUCSORGLEFT
 10
0.0
 20
0.0
 30
0.0
  9
$PUCSORGRIGHT
 10
0.0
 20
0.0
 30
0.0
  9
$PUCSORGFRONT
 10
0.0
 20
0.0
 30
0.0
  9
$PUCSORGBACK
 10
0.0
 20
0.0
 30
0.0
  9
$USERI1
 70
     0
  9
$USERI2
 70
     0
  9
$USERI3
 70
     0
  9
$USERI4
 70
     0
  9
$USERI5
 70
     0
  9
$USERR1
 40
0.0
  9
$USERR2
 40
0.0
  9
$USERR3
 40
0.0
  9
$USERR4
 40
0.0
  9
$USERR5
 40
0.0
  9
$WORLDVIEW
 70
     1
  9
$SHADEDGE
 70
     3
  9
$SHADEDIF
 70
    70
  9
$TILEMODE
 70
     1
  9
$MAXACTVP
 70
    64
  9
$PINSBASE
 10
0.0
 20
0.0
 30
0.0
  9
$PLIMCHECK
 70
     0
  9
$PEXTMIN
 10
1.0000000000E+20
 20
1.0000000000E+20
 30
1.0000000000E+20
  9
$PEXTMAX
 10
-1.0000000000E+20
 20
-1.0000000000E+20
 30
-1.0000000000E+20
  9
$PLIMMIN
 10
0.0
 20
0.0
  9
$PLIMMAX
 10
420.0
 20
297.0
  9
$UNITMODE
 70
     0
  9
$VISRETAIN
 70
     1
  9
$PLINEGEN
 70
     0
  9
$PSLTSCALE
 70
     1
  9
$TREEDEPTH
 70
  3020
  9
$CMLSTYLE
  2
Standard
  9
$CMLJUST
 70
     0
  9
$CMLSCALE
 40
20.0
  9
$PROXYGRAPHICS
 70
     1
  9
$MEASUREMENT
 70
     1
  9
$CELWEIGHT
370
    -1
  9
$ENDCAPS
280
     0
  9
$JOINSTYLE
280
     0
  9
$LWDISPLAY
290
     1
  9
$INSUNITS
 70
     4
  9
$HYPERLINKBASE
  1

  9
$STYLESHEET
  1

  9
$XEDIT
290
     1
  9
$CEPSNTYPE
380
     0
  9
$PSTYLEMODE
290
     1
  9
$FINGERPRINTGUID
  2
{EB5B20D6-B40C-4B16-AC28-B99F04EC6D65}
  9
$VERSIONGUID
  2
{FAEB1C32-E019-11D5-929B-00C0DF256EC4}
  9
$EXTNAMES
290
     1
  9
$PSVPSCALE
 40
0.0
  9
$OLESTARTUP
290
     0
  0
ENDSEC
  0
SECTION
  2
CLASSES
  0
CLASS
  1
ACDBDICTIONARYWDFLT
  2
AcDbDictionaryWithDefault
  3
ObjectDBX Classes
 90
        0
280
     0
281
     0
  0
CLASS
  1
VISUALSTYLE
  2
AcDbVisualStyle
  3
ObjectDBX Classes
 90
     4095
280
     0
281
     0
  0
CLASS
  1
MATERIAL
  2
AcDbMaterial
  3
ObjectDBX Classes
 90
     1153
280
     0
281
     0
  0
CLASS
  1
SCALE
  2
AcDbScale
  3
ObjectDBX Classes
 90
     1153
280
     0
281
     0
  0
CLASS
  1
TABLESTYLE
  2
AcDbTableStyle
  3
ObjectDBX Classes
 90
     4095
280
     0
281
     0
  0
CLASS
  1
MLEADERSTYLE
  2
AcDbMLeaderStyle
  3
ACDB_MLEADERSTYLE_CLASS
 90
     4095
280
     0
281
     0
  0
CLASS
  1
SUN
  2
AcDbSun
  3
SCENEOE
 90
     1153
280
     0
281
     0
  0
CLASS
  1
ACDBPLACEHOLDER
  2
AcDbPlaceHolder
  3
ObjectDBX Classes
 90
        0
280
     0
281
     0
  0
CLASS
  1
LAYOUT
  2
AcDbLayout
  3
ObjectDBX Classes
 90
        0
280
     0
281
     0
  0
ENDSEC
  0
SECTION
  2
TABLES
  0
TABLE
  2
VPORT
  5
8
330
0
100
AcDbSymbolTable
 70
     1
  0
VPORT
  5
29
330
8
100
AcDbSymbolTableRecord
100
AcDbViewportTableRecord
  2
*Active
 70
     0
 10
0.0
 20
0.0
 11
1.0
 21
1.0
 12
594.5
 22
420.5
 13
0.0
 23
0.0
 14
10.0
 24
10.0
 15
10.0
 25
10.0
 16
0.0
 26
0.0
 36
1.0
 17
0.0
 27
0.0
 37
0.0
 40
841.0
 41
1.4137931034
 42
50.0
 43
0.0
 44
0.0
 50
0.0
 51
0.0
 71
     0
 72
  2000
 73
     1
 74
     3
 75
     0
 76
     0
 77
     0
 78
     0
281
     0
 65
     1
110
0.0
120
0.0
130
0.0
111
1.0
121
0.0
131
0.0
112
0.0
122
1.0
132
0.0
 79
     0
146
0.0
  0
ENDTAB
  0
TABLE
  2
LTYPE
  5
5
330
0
100
AcDbSymbolTable
 70
     6
  0
LTYPE
  5
14
330
5
100
AcDbSymbolTableRecord
100
AcDbLinetypeTableRecord
  2
ByBlock
 70
     0
  3

 72
    65
 73
     0
 40
0.0
  0
LTYPE
  5
15
330
5
100
AcDbSymbolTableRecord
100
AcDbLinetypeTableRecord
  2
ByLayer
 70
     0
  3

 72
    65
 73
     0
 40
0.0
  0
LTYPE
  5
16
330
5
100
AcDbSymbolTableRecord
100
AcDbLinetypeTableRecord
  2
Continuous
 70
     0
  3
Solid line
 72
    65
 73
     0
 40
0.0
  0
LTYPE
  5
6E
330
5
100
AcDbSymbolTableRecord
100
AcDbLinetypeTableRecord
  2
HIDDEN
 70
     0
  3
Hidden __ __ __ __ __ __ __ __ __ __ __ __ __ __
 72
    65
 73
     2
 40
1.905
 49
1.27
 74
     0
 49
-0.635
 74
     0
  0
LTYPE
  5
6F
330
5
100
AcDbSymbolTableRecord
100
AcDbLinetypeTableRecord
  2
PHANTOM
 70
     0
  3
Phantom ______  __  __  ______  __  __  ______
 72
    65
 73
     6
 40
12.7
 49
6.35
 74
     0
 49
-1.27
 74
     0
 49
1.27
 74
     0
 49
-1.27
 74
     0
 49
1.27
 74
     0
 49
-1.27
 74
     0
  0
LTYPE
  5
70
330
5
100
AcDbSymbolTableRecord
100
AcDbLinetypeTableRecord
  2
CENTER
 70
     0
  3
Center ____ _ ____ _ ____ _ ____ _ ____ _ ____
 72
    65
 73
     4
 40
10.16
 49
6.35
 74
     0
 49
-1.27
 74
     0
 49
1.27
 74
     0
 49
-1.27
 74
     0
  0
LTYPE
  5
71
330
5
100
AcDbSymbolTableRecord
100
AcDbLinetypeTableRecord
  2
CENTERX2
 70
     0
  3
Center (2x) ________  __  ________  __  _____
 72
    65
 73
     4
 40
20.32
 49
12.7
 74
     0
 49
-2.54
 74
     0
 49
2.54
 74
     0
 49
-2.54
 74
     0
  0
LTYPE
  5
72
330
5
100
AcDbSymbolTableRecord
100
AcDbLinetypeTableRecord
  2
DOT2
 70
     0
  3
Dot (.5x) ........................................
 72
    65
 73
     2
 40
0.635
 49
0.0
 74
     0
 49
-0.635
 74
     0
  0
ENDTAB
  0
TABLE
  2
LAYER
  5
2
330
0
100
AcDbSymbolTable
 70
     1
  0
LAYER
  5
10
330
2
100
AcDbSymbolTableRecord
100
AcDbLayerTableRecord
  2
0
 70
     0
 62
     7
  6
Continuous
370
    -3
390
F
  0
ENDTAB
  0
TABLE
  2
STYLE
  5
3
330
0
100
AcDbSymbolTable
 70
     1
  0
STYLE
  5
11
330
3
100
AcDbSymbolTableRecord
100
AcDbTextStyleTableRecord
  2
Standard
 70
     0
 40
0.0
 41
1.0
 50
0.0
 71
     0
 42
3.5
  3
txt
  4

  0
ENDTAB
  0
TABLE
  2
VIEW
  5
6
330
0
100
AcDbSymbolTable
 70
     0
  0
ENDTAB
  0
TABLE
  2
UCS
  5
7
330
0
100
AcDbSymbolTable
 70
     0
  0
ENDTAB
  0
TABLE
  2
APPID
  5
9
330
0
100
AcDbSymbolTable
 70
     1
  0
APPID
  5
12
330
9
100
AcDbSymbolTableRecord
100
AcDbRegAppTableRecord
  2
ACAD
 70
     0
  0
ENDTAB
  0
TABLE
  2
DIMSTYLE
  5
A
330
0
100
AcDbSymbolTable
 70
     1
100
AcDbDimStyleTable
  0
DIMSTYLE
105
27
330
A
100
AcDbSymbolTableRecord
100
AcDbDimStyleTableRecord
  2
ISO-25
 70
     0
 41
2.5
 42
0.625
 43
3.75
 44
1.25
 73
     0
 74
     0
 77
     1
 78
     8
140
2.5
141
2.5
143
0.0393700787
147
0.625
171
     3
172
     1
178
     0
271
     2
272
     2
274
     3
278
    44
283
     0
284
     8
340
11
  0
ENDTAB
  0
TABLE
  2
BLOCK_RECORD
  5
1
330
0
100
AcDbSymbolTable
 70
     1
  0
BLOCK_RECORD
  5
1F
330
1
100
AcDbSymbolTableRecord
100
AcDbBlockTableRecord
  2
*Model_Space
340
22
  0
BLOCK_RECORD
  5
1B
330
1
100
AcDbSymbolTableRecord
100
AcDbBlockTableRecord
  2
*Paper_Space
340
1E
  0
BLOCK_RECORD
  5
23
330
1
100
AcDbSymbolTableRecord
100
AcDbBlockTableRecord
  2
*Paper_Space0
340
26
  0
ENDTAB
  0
ENDSEC
  0
SECTION
  2
BLOCKS
  0
BLOCK
  5
20
330
1F
100
AcDbEntity
  8
0
100
AcDbBlockBegin
  2
*Model_Space
 70
     0
 10
0.0
 20
0.0
 30
0.0
  3
*Model_Space
  1

  0
ENDBLK
  5
21
330
1F
100
AcDbEntity
  8
0
100
AcDbBlockEnd
  0
BLOCK
  5
1C
330
1B
100
AcDbEntity
 67
     1
  8
0
100
AcDbBlockBegin
  2
*Paper_Space
 70
     0
 10
0.0
 20
0.0
 30
0.0
  3
*Paper_Space
  1

  0
ENDBLK
  5
1D
330
1B
100
AcDbEntity
 67
     1
  8
0
100
AcDbBlockEnd
  0
BLOCK
  5
24
330
23
100
AcDbEntity
  8
0
100
AcDbBlockBegin
  2
*Paper_Space0
 70
     0
 10
0.0
 20
0.0
 30
0.0
  3
*Paper_Space0
  1

  0
ENDBLK
  5
25
330
23
100
AcDbEntity
  8
0
100
AcDbBlockEnd
  0
ENDSEC
  0
SECTION
  2
ENTITIES
  0
SPLINE
  5
73
330
1F
100
AcDbEntity
  8
0
  6
Continuous
 62
     7
370
    25
100
AcDbSpline
210
0.0
220
0.0
230
1.0
 70
     8
 71
     3
 72
    12
 73
     8
 74
     0
 42
0.000000001
 43
0.00000001
 40
0.0
 40
0.0
 40
0.0
 40
0.0
 40
0.25
 40
0.25
 40
0.5
 40
0.5
 40
1.0
 40
1.0
 40
1.0
 40
1.0
 10
277.7829144953834
 20
52.54791249047033
 30
0.0
 10
272.5200566941935
 20
51.1377339927617
 30
0.0
 10
267.2136212878676
 20
49.86391095846204
 30
0.0
 10
256.5178197517225
 20
47.58251411185718
 30
0.0
 10
251.1285308230187
 20
46.57473491436506
 30
0.0
 10
234.8527391197565
 20
43.9283825885666
 30
0.0
 10
223.8572002237996
 20
42.66507743708231
 30
0.0
 10
212.7829144953834
 20
41.84030295265098
 30
0.0
  0
SPLINE
  5
74
330
1F
100
AcDbEntity
  8
0
  6
Continuous
 62
     7
370
    25
100
AcDbSpline
210
0.0
220
0.0
230
1.0
 70
     8
 71
     3
 72
    70
 73
    66
 74
     0
 42
0.000000001
 43
0.00000001
 40
0.0
 40
0.0
 40
0.0
 40
0.0
 40
0.03125
 40
0.03125
 40
0.0625
 40
0.0625
 40
0.09375
 40
0.09375
 40
0.125
 40
0.125
 40
0.15625
 40
0.15625
 40
0.1875
 40
0.1875
 40
0.21875
 40
0.21875
 40
0.25
 40
0.25
 40
0.28125
 40
0.28125
 40
0.3125
 40
0.3125
 40
0.34375
 40
0.34375
 40
0.375
 40
0.375
 40
0.40625
 40
0.40625
 40
0.4375
 40
0.4375
 40
0.46875
 40
0.46875
 40
0.5
 40
0.5
 40
0.53125
 40
0.53125
 40
0.5625
 40
0.5625
 40
0.59375
 40
0.59375
 40
0.625
 40
0.625
 40
0.65625
 40
0.65625
 40
0.6875
 40
0.6875
 40
0.71875
 40
0.71875
 40
0.75
 40
0.75
 40
0.78125
 40
0.78125
 40
0.8125
 40
0.8125
 40
0.84375
 40
0.84375
 40
0.875
 40
0.875
 40
0.90625
 40
0.90625
 40
0.9375
 40
0.9375
 40
0.96875
 40
0.96875
 40
1.0
 40
1.0
 40
1.0
 40
1.0
 10
212.7829144953834
 20
41.84030295265098
 30
0.0
 10
210.1519439990128
 20
42.46967549009692
 30
0.0
 10
208.0197088261211
 20
43.22445058675237
 30
0.0
 10
204.715803860492
 20
44.97813926889227
 30
0.0
 10
203.5438026247879
 20
45.97699136127542
 30
0.0
 10
202.0619177866388
 20
48.20006277910324
 30
0.0
 10
201.7517027412271
 20
49.42422061144666
 30
0.0
 10
201.8440062316111
 20
52.06899540649573
 30
0.0
 10
202.2461341866878
 20
53.48955250666798
 30
0.0
 10
203.573092338239
 20
56.48991614823545
 30
0.0
 10
204.4973693607151
 20
58.06966731017912
 30
0.0
 10
206.6525527729549
 20
61.34462403755958
 30
0.0
 10
207.8829055977857
 20
63.0397742343238
 30
0.0
 10
210.4250551067703
 20
66.49680082820791
 30
0.0
 10
211.7363424372995
 20
68.25862206289324
 30
0.0
 10
214.2224439627613
 20
71.79698934572215
 30
0.0
 10
215.3971206430031
 20
73.57348196599403
 30
0.0
 10
217.4091852473522
 20
77.08754690959863
 30
0.0
 10
218.2464460273225
 20
78.82506585343634
 30
0.0
 10
219.4031247454706
 20
82.20749294356631
 30
0.0
 10
219.7223913665623
 20
83.85234764059818
 30
0.0
 10
219.6866947581019
 20
86.99731195752064
 30
0.0
 10
219.3307134840145
 20
88.49736562669302
 30
0.0
 10
217.8269317587325
 20
91.30378243097753
 30
0.0
 10
216.678010209904
 20
92.6100893179504
 30
0.0
 10
213.5439823154546
 20
94.98494565672216
 30
0.0
 10
211.5577593014315
 20
96.05343884710962
 30
0.0
 10
206.8118066739999
 20
97.9151675431315
 30
0.0
 10
204.052802549932
 20
98.70834126737255
 30
0.0
 10
197.9479891372756
 20
99.99023477908084
 30
0.0
 10
194.6035753599913
 20
100.4788907774497
 30
0.0
 10
187.599714797947
 20
101.1327615276937
 30
0.0
 10
183.9416635244913
 20
101.2979124904703
 30
0.0
 10
176.6241654662755
 20
101.2979124904703
 30
0.0
 10
172.9661141928198
 20
101.1327615276937
 30
0.0
 10
165.9622536307755
 20
100.4788907774497
 30
0.0
 10
162.6178398534912
 20
99.99023477908084
 30
0.0
 10
156.5130264408347
 20
98.70834126737257
 30
0.0
 10
153.7540223167668
 20
97.91516754313153
 30
0.0
 10
149.0080696893353
 20
96.05343884710962
 30
0.0
 10
147.0218466753121
 20
94.98494565672216
 30
0.0
 10
143.8878187808626
 20
92.61008931795048
 30
0.0
 10
142.7388972320341
 20
91.30378243097762
 30
0.0
 10
141.235115506752
 20
88.49736562669311
 30
0.0
 10
140.8791342326646
 20
86.99731195752072
 30
0.0
 10
140.8434376242042
 20
83.8523476405983
 30
0.0
 10
141.1627042452958
 20
82.20749294356649
 30
0.0
 10
142.3193829634438
 20
78.82506585343657
 30
0.0
 10
143.1566437434141
 20
77.08754690959884
 30
0.0
 10
145.1687083477632
 20
73.57348196599436
 30
0.0
 10
146.343385028005
 20
71.79698934572254
 30
0.0
 10
148.8294865534668
 20
68.25862206289362
 30
0.0
 10
150.1407738839959
 20
66.4968008282084
 30
0.0
 10
152.6829233929806
 20
63.03977423432433
 30
0.0
 10
153.9132762178114
 20
61.34462403756011
 30
0.0
 10
156.0684596300512
 20
58.06966731017968
 30
0.0
 10
156.9927366525274
 20
56.48991614823595
 30
0.0
 10
158.3196948040785
 20
53.48955250666845
 30
0.0
 10
158.7218227591553
 20
52.06899540649609
 30
0.0
 10
158.8141262495394
 20
49.42422061144697
 30
0.0
 10
158.5039112041278
 20
48.20006277910358
 30
0.0
 10
157.0220263659787
 20
45.9769913612755
 30
0.0
 10
155.8500251302746
 20
44.97813926889236
 30
0.0
 10
152.5461201646455
 20
43.22445058675231
 30
0.0
 10
150.4138849917539
 20
42.46967549009692
 30
0.0
 10
147.7829144953834
 20
41.84030295265098
 30
0.0
  0
SPLINE
  5
75
330
1F
100
AcDbEntity
  8
0
  6
Continuous
 62
     7
370
    25
100
AcDbSpline
210
0.0
220
0.0
230
1.0
 70
     8
 71
     3
 72
    12
 73
     8
 74
     0
 42
0.000000001
 43
0.00000001
 40
0.0
 40
0.0
 40
0.0
 40
0.0
 40
0.4999999999999999
 40
0.4999999999999999
 40
0.75
 40
0.75
 40
1.0
 40
1.0
 40
1.0
 40
1.0
 10
147.7829144953834
 20
41.84030295265162
 30
0.0
 10
136.7086287669673
 20
42.66507743708301
 30
0.0
 10
125.71308987101
 20
43.9283825885673
 30
0.0
 10
109.4372981677477
 20
46.57473491436554
 30
0.0
 10
104.0480092390438
 20
47.58251411185738
 30
0.0
 10
93.35220770289877
 20
49.86391095846216
 30
0.0
 10
88.04577229657299
 20
51.13773399276187
 30
0.0
 10
82.78291449538338
 20
52.54791249047033
 30
0.0
  0
SPLINE
  5
76
330
1F
100
AcDbEntity
  8
0
  6
Continuous
 62
     7
370
    25
100
AcDbSpline
210
0.0
220
0.0
230
1.0
 70
     8
 71
     3
 72
    12
 73
     8
 74
     0
 42
0.000000001
 43
0.00000001
 40
0.0
 40
0.0
 40
0.0
 40
0.0
 40
0.2499999999999996
 40
0.2499999999999996
 40
0.4999999999999997
 40
0.4999999999999997
 40
1.0
 40
1.0
 40
1.0
 40
1.0
 10
82.78291449538338
 20
52.54791249047033
 30
0.0
 10
84.19309299309197
 20
57.81077029166026
 30
0.0
 10
85.4669160273917
 20
63.11720569798612
 30
0.0
 10
87.74831287399657
 20
73.81300723413118
 30
0.0
 10
88.75609207148858
 20
79.20229616283497
 30
0.0
 10
91.40244439728718
 20
95.47808786609713
 30
0.0
 10
92.66574954877132
 20
106.4736267620538
 30
0.0
 10
93.49052403320273
 20
117.5479124904703
 30
0.0
  0
SPLINE
  5
77
330
1F
100
AcDbEntity
  8
0
  6
Continuous
 62
     7
370
    25
100
AcDbSpline
210
0.0
220
0.0
230
1.0
 70
     8
 71
     3
 72
    70
 73
    66
 74
     0
 42
0.000000001
 43
0.00000001
 40
0.0
 40
0.0
 40
0.0
 40
0.0
 40
0.0312499999999998
 40
0.0312499999999998
 40
0.0624999999999997
 40
0.0624999999999997
 40
0.0937499999999996
 40
0.0937499999999996
 40
0.1249999999999994
 40
0.1249999999999994
 40
0.1562499999999996
 40
0.1562499999999996
 40
0.1874999999999996
 40
0.1874999999999996
 40
0.2187499999999996
 40
0.2187499999999996
 40
0.2499999999999996
 40
0.2499999999999996
 40
0.2812499999999996
 40
0.2812499999999996
 40
0.3124999999999996
 40
0.3124999999999996
 40
0.3437499999999996
 40
0.3437499999999996
 40
0.3749999999999996
 40
0.3749999999999996
 40
0.4062499999999997
 40
0.4062499999999997
 40
0.4374999999999997
 40
0.4374999999999997
 40
0.4687499999999997
 40
0.4687499999999997
 40
0.4999999999999997
 40
0.4999999999999997
 40
0.5312499999999998
 40
0.5312499999999998
 40
0.5624999999999998
 40
0.5624999999999998
 40
0.5937499999999998
 40
0.5937499999999998
 40
0.6249999999999998
 40
0.6249999999999998
 40
0.6562499999999998
 40
0.6562499999999998
 40
0.6874999999999999
 40
0.6874999999999999
 40
0.7187499999999999
 40
0.7187499999999999
 40
0.7499999999999999
 40
0.7499999999999999
 40
0.7812499999999999
 40
0.7812499999999999
 40
0.8124999999999999
 40
0.8124999999999999
 40
0.84375
 40
0.84375
 40
0.875
 40
0.875
 40
0.90625
 40
0.90625
 40
0.9375
 40
0.9375
 40
0.96875
 40
0.96875
 40
1.0
 40
1.0
 40
1.0
 40
1.0
 10
147.7829144953834
 20
236.840302952651
 30
0.0
 10
150.4138849917539
 20
237.4696754900968
 30
0.0
 10
152.5461201646456
 20
238.2244505867523
 30
0.0
 10
155.8500251302747
 20
239.9781392688923
 30
0.0
 10
157.0220263659789
 20
240.9769913612754
 30
0.0
 10
158.503911204128
 20
243.2000627791033
 30
0.0
 10
158.8141262495397
 20
244.4242206114467
 30
0.0
 10
158.7218227591557
 20
247.0689954064958
 30
0.0
 10
158.3196948040789
 20
248.489552506668
 30
0.0
 10
156.9927366525279
 20
251.4899161482355
 30
0.0
 10
156.0684596300517
 20
253.0696673101791
 30
0.0
 10
153.9132762178119
 20
256.3446240375596
 30
0.0
 10
152.6829233929811
 20
258.0397742343238
 30
0.0
 10
150.1407738839965
 20
261.4968008282079
 30
0.0
 10
148.8294865534673
 20
263.2586220628933
 30
0.0
 10
146.3433850280055
 20
266.7969893457222
 30
0.0
 10
145.1687083477638
 20
268.5734819659941
 30
0.0
 10
143.1566437434145
 20
272.0875469095986
 30
0.0
 10
142.3193829634443
 20
273.8250658534363
 30
0.0
 10
141.1627042452962
 20
277.2074929435663
 30
0.0
 10
140.8434376242045
 20
278.8523476405983
 30
0.0
 10
140.8791342326649
 20
281.9973119575208
 30
0.0
 10
141.2351155067523
 20
283.4973656266931
 30
0.0
 10
142.7388972320343
 20
286.3037824309777
 30
0.0
 10
143.8878187808628
 20
287.6100893179506
 30
0.0
 10
147.0218466753123
 20
289.9849456567223
 30
0.0
 10
149.0080696893354
 20
291.0534388471096
 30
0.0
 10
153.7540223167669
 20
292.9151675431316
 30
0.0
 10
156.5130264408348
 20
293.7083412673726
 30
0.0
 10
162.6178398534912
 20
294.9902347790808
 30
0.0
 10
165.9622536307755
 20
295.4788907774497
 30
0.0
 10
172.9661141928198
 20
296.1327615276936
 30
0.0
 10
176.6241654662755
 20
296.2979124904702
 30
0.0
 10
183.9416635244913
 20
296.2979124904702
 30
0.0
 10
187.599714797947
 20
296.1327615276935
 30
0.0
 10
194.6035753599913
 20
295.4788907774496
 30
0.0
 10
197.9479891372756
 20
294.9902347790807
 30
0.0
 10
204.0528025499321
 20
293.7083412673724
 30
0.0
 10
206.811806674
 20
292.9151675431314
 30
0.0
 10
211.5577593014316
 20
291.0534388471095
 30
0.0
 10
213.5439823154547
 20
289.9849456567221
 30
0.0
 10
216.6780102099042
 20
287.6100893179503
 30
0.0
 10
217.8269317587327
 20
286.3037824309775
 30
0.0
 10
219.3307134840148
 20
283.497365626693
 30
0.0
 10
219.6866947581022
 20
281.9973119575207
 30
0.0
 10
219.7223913665626
 20
278.8523476405983
 30
0.0
 10
219.403124745471
 20
277.2074929435664
 30
0.0
 10
218.2464460273229
 20
273.8250658534366
 30
0.0
 10
217.4091852473527
 20
272.0875469095989
 30
0.0
 10
215.3971206430036
 20
268.5734819659944
 30
0.0
 10
214.2224439627618
 20
266.7969893457226
 30
0.0
 10
211.7363424373
 20
263.2586220628937
 30
0.0
 10
210.4250551067709
 20
261.4968008282084
 30
0.0
 10
207.8829055977862
 20
258.0397742343243
 30
0.0
 10
206.6525527729554
 20
256.3446240375601
 30
0.0
 10
204.4973693607156
 20
253.0696673101797
 30
0.0
 10
203.5730923382394
 20
251.4899161482359
 30
0.0
 10
202.2461341866882
 20
248.4895525066684
 30
0.0
 10
201.8440062316114
 20
247.0689954064961
 30
0.0
 10
201.7517027412273
 20
244.4242206114469
 30
0.0
 10
202.061917786639
 20
243.2000627791035
 30
0.0
 10
203.543802624788
 20
240.9769913612755
 30
0.0
 10
204.7158038604921
 20
239.9781392688924
 30
0.0
 10
208.0197088261212
 20
238.2244505867523
 30
0.0
 10
210.1519439990129
 20
237.4696754900969
 30
0.0
 10
212.7829144953834
 20
236.840302952651
 30
0.0
  0
SPLINE
  5
78
330
1F
100
AcDbEntity
  8
0
  6
Continuous
 62
     7
370
    25
100
AcDbSpline
210
0.0
220
0.0
230
1.0
 70
     8
 71
     3
 72
    12
 73
     8
 74
     0
 42
0.000000001
 43
0.00000001
 40
0.0
 40
0.0
 40
0.0
 40
0.0
 40
0.5
 40
0.5
 40
0.75
 40
0.75
 40
1.0
 40
1.0
 40
1.0
 40
1.0
 10
212.7829144953834
 20
236.8403029526516
 30
0.0
 10
223.8572002237995
 20
237.6650774370831
 30
0.0
 10
234.8527391197567
 20
238.9283825885672
 30
0.0
 10
251.128530823019
 20
241.5747349143655
 30
0.0
 10
256.5178197517229
 20
242.5825141118574
 30
0.0
 10
267.213621287868
 20
244.8639109584621
 30
0.0
 10
272.5200566941938
 20
246.1377339927618
 30
0.0
 10
277.7829144953834
 20
247.5479124904703
 30
0.0
  0
SPLINE
  5
79
330
1F
100
AcDbEntity
  8
0
  6
Continuous
 62
     7
370
    25
100
AcDbSpline
210
0.0
220
0.0
230
1.0
 70
     8
 71
     3
 72
    70
 73
    66
 74
     0
 42
0.000000001
 43
0.00000001
 40
0.0
 40
0.0
 40
0.0
 40
0.0
 40
0.03125
 40
0.03125
 40
0.0625
 40
0.0625
 40
0.0937500000000001
 40
0.0937500000000001
 40
0.1250000000000001
 40
0.1250000000000001
 40
0.1562500000000001
 40
0.1562500000000001
 40
0.1875000000000001
 40
0.1875000000000001
 40
0.2187500000000001
 40
0.2187500000000001
 40
0.2500000000000002
 40
0.2500000000000002
 40
0.2812500000000002
 40
0.2812500000000002
 40
0.3125000000000002
 40
0.3125000000000002
 40
0.3437500000000002
 40
0.3437500000000002
 40
0.3750000000000002
 40
0.3750000000000002
 40
0.4062500000000002
 40
0.4062500000000002
 40
0.4375000000000003
 40
0.4375000000000003
 40
0.4687500000000003
 40
0.4687500000000003
 40
0.5000000000000003
 40
0.5000000000000003
 40
0.5312500000000002
 40
0.5312500000000002
 40
0.5625000000000002
 40
0.5625000000000002
 40
0.5937500000000002
 40
0.5937500000000002
 40
0.6250000000000002
 40
0.6250000000000002
 40
0.6562500000000002
 40
0.6562500000000002
 40
0.6875000000000001
 40
0.6875000000000001
 40
0.7187500000000001
 40
0.7187500000000001
 40
0.75
 40
0.75
 40
0.78125
 40
0.78125
 40
0.8125
 40
0.8125
 40
0.84375
 40
0.84375
 40
0.8749999999999999
 40
0.8749999999999999
 40
0.90625
 40
0.90625
 40
0.9375
 40
0.9375
 40
0.96875
 40
0.96875
 40
1.0
 40
1.0
 40
1.0
 40
1.0
 10
288.4905240332027
 20
182.5479124904703
 30
0.0
 10
287.8611514957568
 20
179.9169419940997
 30
0.0
 10
287.1063763991014
 20
177.784706821208
 30
0.0
 10
285.3526877169614
 20
174.480801855579
 30
0.0
 10
284.3538356245783
 20
173.3088006198748
 30
0.0
 10
282.1307642067504
 20
171.8269157817257
 30
0.0
 10
280.906606374407
 20
171.5167007363141
 30
0.0
 10
278.261831579358
 20
171.6090042266981
 30
0.0
 10
276.8412744791857
 20
172.0111321817749
 30
0.0
 10
273.8409108376183
 20
173.3380903333259
 30
0.0
 10
272.2611596756745
 20
174.2623673558021
 30
0.0
 10
268.9862029482941
 20
176.4175507680418
 30
0.0
 10
267.2910527515299
 20
177.6479035928726
 30
0.0
 10
263.8340261576458
 20
180.1900531018572
 30
0.0
 10
262.0722049229605
 20
181.5013404323863
 30
0.0
 10
258.5338376401315
 20
183.9874419578481
 30
0.0
 10
256.7573450198597
 20
185.1621186380899
 30
0.0
 10
253.2432800762551
 20
187.174183242439
 30
0.0
 10
251.5057611324173
 20
188.0114440224093
 30
0.0
 10
248.1233340422873
 20
189.1681227405573
 30
0.0
 10
246.4784793452555
 20
189.487389361649
 30
0.0
 10
243.333515028333
 20
189.4516927531886
 30
0.0
 10
241.8334613591606
 20
189.0957114791012
 30
0.0
 10
239.027044554876
 20
187.5919297538192
 30
0.0
 10
237.7207376679031
 20
186.4430082049907
 30
0.0
 10
235.3458813291314
 20
183.3089803105413
 30
0.0
 10
234.277388138744
 20
181.3227572965182
 30
0.0
 10
232.415659442722
 20
176.5768046690867
 30
0.0
 10
231.6224857184811
 20
173.8178005450188
 30
0.0
 10
230.3405922067729
 20
167.7129871323624
 30
0.0
 10
229.851936208404
 20
164.3685733550781
 30
0.0
 10
229.1980654581601
 20
157.3647127930339
 30
0.0
 10
229.0329144953834
 20
153.7066615195781
 30
0.0
 10
229.0329144953835
 20
146.3891634613625
 30
0.0
 10
229.1980654581602
 20
142.7311121879067
 30
0.0
 10
229.8519362084041
 20
135.7272516258624
 30
0.0
 10
230.340592206773
 20
132.3828378485781
 30
0.0
 10
231.6224857184813
 20
126.2780244359218
 30
0.0
 10
232.4156594427223
 20
123.5190203118538
 30
0.0
 10
234.2773881387442
 20
118.7730676844222
 30
0.0
 10
235.3458813291317
 20
116.7868446703991
 30
0.0
 10
237.7207376679034
 20
113.6528167759496
 30
0.0
 10
239.0270445548762
 20
112.5038952271211
 30
0.0
 10
241.8334613591607
 20
111.000113501839
 30
0.0
 10
243.333515028333
 20
110.6441322277516
 30
0.0
 10
246.4784793452555
 20
110.6084356192912
 30
0.0
 10
248.1233340422872
 20
110.9277022403827
 30
0.0
 10
251.5057611324171
 20
112.0843809585308
 30
0.0
 10
253.2432800762548
 20
112.9216417385011
 30
0.0
 10
256.7573450198593
 20
114.9337063428501
 30
0.0
 10
258.5338376401311
 20
116.108383023092
 30
0.0
 10
262.07220492296
 20
118.5944845485537
 30
0.0
 10
263.8340261576453
 20
119.9057718790829
 30
0.0
 10
267.2910527515294
 20
122.4479213880676
 30
0.0
 10
268.9862029482936
 20
123.6782742128984
 30
0.0
 10
272.261159675674
 20
125.8334576251382
 30
0.0
 10
273.8409108376177
 20
126.7577346476144
 30
0.0
 10
276.8412744791852
 20
128.0846927991656
 30
0.0
 10
278.2618315793576
 20
128.4868207542424
 30
0.0
 10
280.9066063744068
 20
128.5791242446265
 30
0.0
 10
282.1307642067502
 20
128.2689091992148
 30
0.0
 10
284.3538356245782
 20
126.7870243610658
 30
0.0
 10
285.3526877169613
 20
125.6150231253616
 30
0.0
 10
287.1063763991013
 20
122.3111181597326
 30
0.0
 10
287.8611514957568
 20
120.1788829868409
 30
0.0
 10
288.4905240332027
 20
117.5479124904703
 30
0.0
  0
SPLINE
  5
7A
330
1F
100
AcDbEntity
  8
0
  6
Continuous
 62
     7
370
    25
100
AcDbSpline
210
0.0
220
0.0
230
1.0
 70
     8
 71
     3
 72
    12
 73
     8
 74
     0
 42
0.000000001
 43
0.00000001
 40
0.0
 40
0.0
 40
0.0
 40
0.0
 40
0.5000000000000006
 40
0.5000000000000006
 40
0.7500000000000007
 40
0.7500000000000007
 40
1.0
 40
1.0
 40
1.0
 40
1.0
 10
288.4905240332021
 20
117.5479124904703
 30
0.0
 10
287.6657495487706
 20
106.4736267620541
 30
0.0
 10
286.4024443972864
 20
95.47808786609674
 30
0.0
 10
283.7560920714882
 20
79.20229616283456
 30
0.0
 10
282.7483128739963
 20
73.81300723413072
 30
0.0
 10
280.4669160273916
 20
63.11720569798576
 30
0.0
 10
279.1930929930919
 20
57.81077029165993
 30
0.0
 10
277.7829144953834
 20
52.54791249047033
 30
0.0
  0
CIRCLE
  5
7B
330
1F
100
AcDbEntity
  8
0
  6
Continuous
 62
     7
370
    25
100
AcDbCircle
 10
259.8222713461
 20
222.8703029527
 30
0.0
 40
14.28750000000002
  0
CIRCLE
  5
7C
330
1F
100
AcDbEntity
  8
0
  6
Continuous
 62
     7
370
    25
100
AcDbCircle
 10
105.5499310414
 20
222.8703029527
 30
0.0
 40
14.28749999999999
  0
LINE
  5
7D
330
1F
100
AcDbEntity
  8
0
  6
Continuous
 62
     7
370
    25
100
AcDbLine
 10
120.6431240332
 20
127.6203029527
 30
0.0
 11
201.9231240332
 21
127.6203029527
 31
0.0
  0
LINE
  5
7E
330
1F
100
AcDbEntity
  8
0
  6
Continuous
 62
     7
370
    25
100
AcDbLine
 10
201.9231240332
 20
234.3003029527
 30
0.0
 11
201.9231240332
 21
127.6203029527
 31
0.0
  0
LINE
  5
7F
330
1F
100
AcDbEntity
  8
0
  6
Continuous
 62
     7
370
    25
100
AcDbLine
 10
120.6431240332
 20
234.3003029527
 30
0.0
 11
201.9231240332
 21
234.3003029527
 31
0.0
  0
LINE
  5
80
330
1F
100
AcDbEntity
  8
0
  6
Continuous
 62
     7
370
    25
100
AcDbLine
 10
120.6431240332
 20
234.3003029527
 30
0.0
 11
120.6431240332
 21
127.6203029527
 31
0.0
  0
SPLINE
  5
81
330
1F
100
AcDbEntity
  8
0
  6
Continuous
 62
     7
370
    25
100
AcDbSpline
210
0.0
220
0.0
230
1.0
 70
     8
 71
     3
 72
    70
 73
    66
 74
     0
 42
0.000000001
 43
0.00000001
 40
0.0
 40
0.0
 40
0.0
 40
0.0
 40
0.0312500000000002
 40
0.0312500000000002
 40
0.0625000000000003
 40
0.0625000000000003
 40
0.0937500000000003
 40
0.0937500000000003
 40
0.1250000000000003
 40
0.1250000000000003
 40
0.1562500000000002
 40
0.1562500000000002
 40
0.1875000000000002
 40
0.1875000000000002
 40
0.2187500000000002
 40
0.2187500000000002
 40
0.2500000000000002
 40
0.2500000000000002
 40
0.2812500000000002
 40
0.2812500000000002
 40
0.3125000000000002
 40
0.3125000000000002
 40
0.3437500000000002
 40
0.3437500000000002
 40
0.3750000000000002
 40
0.3750000000000002
 40
0.4062500000000001
 40
0.4062500000000001
 40
0.4375000000000001
 40
0.4375000000000001
 40
0.4687500000000001
 40
0.4687500000000001
 40
0.5000000000000001
 40
0.5000000000000001
 40
0.5312500000000002
 40
0.5312500000000002
 40
0.5625000000000002
 40
0.5625000000000002
 40
0.5937500000000002
 40
0.5937500000000002
 40
0.6250000000000002
 40
0.6250000000000002
 40
0.6562500000000002
 40
0.6562500000000002
 40
0.6875000000000001
 40
0.6875000000000001
 40
0.7187500000000001
 40
0.7187500000000001
 40
0.7500000000000001
 40
0.7500000000000001
 40
0.7812500000000001
 40
0.7812500000000001
 40
0.8125000000000001
 40
0.8125000000000001
 40
0.84375
 40
0.84375
 40
0.875
 40
0.875
 40
0.90625
 40
0.90625
 40
0.9375
 40
0.9375
 40
0.96875
 40
0.96875
 40
1.0
 40
1.0
 40
1.0
 40
1.0
 10
93.49052403320275
 20
117.5479124904702
 30
0.0
 10
92.8611514957568
 20
120.1788829868409
 30
0.0
 10
92.10637639910132
 20
122.3111181597325
 30
0.0
 10
90.35268771696137
 20
125.6150231253617
 30
0.0
 10
89.35383562457824
 20
126.7870243610658
 30
0.0
 10
87.13076420675036
 20
128.2689091992148
 30
0.0
 10
85.90660637440703
 20
128.5791242446265
 30
0.0
 10
83.26183157935793
 20
128.4868207542424
 30
0.0
 10
81.84127447918563
 20
128.0846927991657
 30
0.0
 10
78.84091083761818
 20
126.7577346476146
 30
0.0
 10
77.2611596756745
 20
125.8334576251385
 30
0.0
 10
73.98620294829412
 20
123.6782742128987
 30
0.0
 10
72.2910527515299
 20
122.447921388068
 30
0.0
 10
68.83402615764582
 20
119.9057718790834
 30
0.0
 10
67.07220492296048
 20
118.5944845485542
 30
0.0
 10
63.53383764013154
 20
116.1083830230925
 30
0.0
 10
61.75734501985966
 20
114.9337063428507
 30
0.0
 10
58.24328007625507
 20
112.9216417385016
 30
0.0
 10
56.50576113241734
 20
112.0843809585313
 30
0.0
 10
53.12333404228738
 20
110.9277022403833
 30
0.0
 10
51.47847934525553
 20
110.6084356192917
 30
0.0
 10
48.33351502833303
 20
110.644132227752
 30
0.0
 10
46.83346135916069
 20
111.0001135018394
 30
0.0
 10
44.02704455487618
 20
112.5038952271214
 30
0.0
 10
42.72073766790323
 20
113.6528167759498
 30
0.0
 10
40.34588132913143
 20
116.7868446703993
 30
0.0
 10
39.277388138744
 20
118.7730676844224
 30
0.0
 10
37.41565944272214
 20
123.5190203118539
 30
0.0
 10
36.62248571848119
 20
126.2780244359218
 30
0.0
 10
35.34059220677283
 20
132.3828378485782
 30
0.0
 10
34.85193620840399
 20
135.7272516258625
 30
0.0
 10
34.19806545816007
 20
142.7311121879067
 30
0.0
 10
34.03291449538332
 20
146.3891634613625
 30
0.0
 10
34.03291449538332
 20
153.7066615195781
 30
0.0
 10
34.19806545816001
 20
157.3647127930339
 30
0.0
 10
34.85193620840393
 20
164.3685733550782
 30
0.0
 10
35.34059220677277
 20
167.7129871323625
 30
0.0
 10
36.62248571848113
 20
173.8178005450189
 30
0.0
 10
37.41565944272219
 20
176.5768046690868
 30
0.0
 10
39.27738813874408
 20
181.3227572965183
 30
0.0
 10
40.34588132913152
 20
183.3089803105415
 30
0.0
 10
42.72073766790323
 20
186.443008204991
 30
0.0
 10
44.02704455487603
 20
187.5919297538195
 30
0.0
 10
46.83346135916057
 20
189.0957114791016
 30
0.0
 10
48.33351502833298
 20
189.451692753189
 30
0.0
 10
51.47847934525539
 20
189.4873893616495
 30
0.0
 10
53.12333404228723
 20
189.1681227405578
 30
0.0
 10
56.50576113241709
 20
188.0114440224098
 30
0.0
 10
58.24328007625479
 20
187.1741832424396
 30
0.0
 10
61.75734501985927
 20
185.1621186380904
 30
0.0
 10
63.53383764013111
 20
183.9874419578486
 30
0.0
 10
67.07220492295998
 20
181.5013404323868
 30
0.0
 10
68.83402615764523
 20
180.1900531018577
 30
0.0
 10
72.29105275152935
 20
177.647903592873
 30
0.0
 10
73.98620294829358
 20
176.4175507680422
 30
0.0
 10
77.26115967567401
 20
174.2623673558024
 30
0.0
 10
78.8409108376177
 20
173.3380903333261
 30
0.0
 10
81.84127447918523
 20
172.011132181775
 30
0.0
 10
83.2618315793576
 20
171.6090042266982
 30
0.0
 10
85.90660637440678
 20
171.5167007363141
 30
0.0
 10
87.1307642067502
 20
171.8269157817258
 30
0.0
 10
89.3538356245782
 20
173.3088006198748
 30
0.0
 10
90.35268771696137
 20
174.480801855579
 30
0.0
 10
92.10637639910138
 20
177.784706821208
 30
0.0
 10
92.86115149575681
 20
179.9169419940997
 30
0.0
 10
93.49052403320273
 20
182.5479124904703
 30
0.0
  0
SPLINE
  5
82
330
1F
100
AcDbEntity
  8
0
  6
Continuous
 62
     7
370
    25
100
AcDbSpline
210
0.0
220
0.0
230
1.0
 70
     8
 71
     3
 72
    12
 73
     8
 74
     0
 42
0.000000001
 43
0.00000001
 40
0.0
 40
0.0
 40
0.0
 40
0.0
 40
0.4999999999999999
 40
0.4999999999999999
 40
0.75
 40
0.75
 40
1.0
 40
1.0
 40
1.0
 40
1.0
 10
93.49052403320209
 20
182.5479124904703
 30
0.0
 10
92.66574954877058
 20
193.6221982188866
 30
0.0
 10
91.40244439728644
 20
204.6177371148439
 30
0.0
 10
88.75609207148818
 20
220.8935288181061
 30
0.0
 10
87.74831287399628
 20
226.28281774681
 30
0.0
 10
85.46691602739155
 20
236.978619282955
 30
0.0
 10
84.1930929930918
 20
242.2850546892807
 30
0.0
 10
82.78291449538338
 20
247.5479124904703
 30
0.0
  0
SPLINE
  5
83
330
1F
100
AcDbEntity
  8
0
  6
Continuous
 62
     7
370
    25
100
AcDbSpline
210
0.0
220
0.0
230
1.0
 70
     8
 71
     3
 72
    12
 73
     8
 74
     0
 42
0.000000001
 43
0.00000001
 40
0.0
 40
0.0
 40
0.0
 40
0.0
 40
0.25
 40
0.25
 40
0.5
 40
0.5
 40
1.0
 40
1.0
 40
1.0
 40
1.0
 10
82.78291449538338
 20
247.5479124904703
 30
0.0
 10
88.04577229657332
 20
246.1377339927617
 30
0.0
 10
93.35220770289915
 20
244.863910958462
 30
0.0
 10
104.0480092390443
 20
242.5825141118571
 30
0.0
 10
109.4372981677481
 20
241.5747349143651
 30
0.0
 10
125.7130898710102
 20
238.9283825885666
 30
0.0
 10
136.7086287669672
 20
237.6650774370824
 30
0.0
 10
147.7829144953834
 20
236.840302952651
 30
0.0
  0
SPLINE
  5
84
330
1F
100
AcDbEntity
  8
0
  6
Continuous
 62
     7
370
    25
100
AcDbSpline
210
0.0
220
0.0
230
1.0
 70
     8
 71
     3
 72
    12
 73
     8
 74
     0
 42
0.000000001
 43
0.00000001
 40
0.0
 40
0.0
 40
0.0
 40
0.0
 40
0.25
 40
0.25
 40
0.5
 40
0.5
 40
1.0
 40
1.0
 40
1.0
 40
1.0
 10
277.7829144953834
 20
247.5479124904703
 30
0.0
 10
279.1930929930919
 20
242.2850546892804
 30
0.0
 10
280.4669160273916
 20
236.9786192829545
 30
0.0
 10
282.7483128739965
 20
226.2828177468095
 30
0.0
 10
283.7560920714886
 20
220.8935288181057
 30
0.0
 10
286.4024443972871
 20
204.6177371148435
 30
0.0
 10
287.6657495487713
 20
193.6221982188869
 30
0.0
 10
288.4905240332027
 20
182.5479124904703
 30
0.0
  0
CIRCLE
  5
85
330
1F
100
AcDbEntity
  8
0
  6
Continuous
 62
     7
370
    25
100
AcDbCircle
 10
161.2831240332
 20
229.8553029527
 30
0.0
 40
0.1269999999999811
  0
LINE
  5
86
330
1F
100
AcDbEntity
  8
0
  6
Continuous
 62
     7
370
    25
100
AcDbLine
 10
129.5331240332
 20
136.5103029527
 30
0.0
 11
129.5331240332
 21
225.4103029527
 31
0.0
  0
CIRCLE
  5
87
330
1F
100
AcDbEntity
  8
0
  6
Continuous
 62
     7
370
    25
100
AcDbCircle
 10
161.2831240332
 20
132.0653029527
 30
0.0
 40
0.1270000000000095
  0
LINE
  5
88
330
1F
100
AcDbEntity
  8
0
  6
Continuous
 62
     7
370
    25
100
AcDbLine
 10
193.0331240332
 20
136.5103029527
 30
0.0
 11
129.5331240332
 21
136.5103029527
 31
0.0
  0
CIRCLE
  5
89
330
1F
100
AcDbEntity
  8
0
  6
Continuous
 62
     7
370
    25
100
AcDbCircle
 10
125.0881240332
 20
180.9603029527
 30
0.0
 40
0.1270000000000238
  0
CIRCLE
  5
8A
330
1F
100
AcDbEntity
  8
0
  6
Continuous
 62
     7
370
    25
100
AcDbCircle
 10
197.4781240332
 20
180.9603029527
 30
0.0
 40
0.1270000000000095
  0
LINE
  5
8B
330
1F
100
AcDbEntity
  8
0
  6
Continuous
 62
     7
370
    25
100
AcDbLine
 10
193.0331240332
 20
225.4103029527
 30
0.0
 11
129.5331240332
 21
225.4103029527
 31
0.0
  0
LINE
  5
8C
330
1F
100
AcDbEntity
  8
0
  6
Continuous
 62
     7
370
    25
100
AcDbLine
 10
193.0331240332
 20
136.5103029527
 30
0.0
 11
193.0331240332
 21
225.4103029527
 31
0.0
  0
LINE
  5
8D
330
1F
100
AcDbEntity
  8
0
  6
Continuous
 62
     7
370
    25
100
AcDbLine
 10
189.2231240332
 20
140.3203029527
 30
0.0
 11
133.3431240332
 21
140.3203029527
 31
0.0
  0
LINE
  5
8E
330
1F
100
AcDbEntity
  8
0
  6
Continuous
 62
     7
370
    25
100
AcDbLine
 10
133.3431240332
 20
140.3203029527
 30
0.0
 11
133.3431240332
 21
221.6003029527
 31
0.0
  0
LINE
  5
8F
330
1F
100
AcDbEntity
  8
0
  6
Continuous
 62
     7
370
    25
100
AcDbLine
 10
189.2231240332
 20
221.6003029527
 30
0.0
 11
133.3431240332
 21
221.6003029527
 31
0.0
  0
LINE
  5
90
330
1F
100
AcDbEntity
  8
0
  6
Continuous
 62
     7
370
    25
100
AcDbLine
 10
189.2231240332
 20
140.3203029527
 30
0.0
 11
189.2231240332
 21
221.6003029527
 31
0.0
  0
ENDSEC
  0
SECTION
  2
OBJECTS
  0
DICTIONARY
  5
C
330
0
100
AcDbDictionary
281
     1
  3
ACAD_GROUP
350
D
  3
ACAD_LAYOUT
350
1A
  3
ACAD_MLINESTYLE
350
17
  3
ACAD_PLOTSETTINGS
350
19
  3
ACAD_PLOTSTYLENAME
350
E
  3
ACAD_SCALELIST
350
47
  0
DICTIONARY
  5
D
102
{ACAD_REACTORS
330
C
102
}
330
C
100
AcDbDictionary
281
     1
  0
DICTIONARY
  5
1A
102
{ACAD_REACTORS
330
C
102
}
330
C
100
AcDbDictionary
281
     1
  3
Layout1
350
1E
  3
Layout2
350
26
  3
Model
350
22
  0
DICTIONARY
  5
17
102
{ACAD_REACTORS
330
C
102
}
330
C
100
AcDbDictionary
281
     1
  3
Standard
350
18
  0
DICTIONARY
  5
19
102
{ACAD_REACTORS
330
C
102
}
330
C
100
AcDbDictionary
281
     1
  0
ACDBDICTIONARYWDFLT
  5
E
102
{ACAD_REACTORS
330
C
102
}
330
C
100
AcDbDictionary
281
     1
  3
Normal
350
F
100
AcDbDictionaryWithDefault
340
F
  0
DICTIONARY
  5
47
102
{ACAD_REACTORS
330
C
102
}
330
C
100
AcDbDictionary
281
     1
  3
A0
350
48
  3
A1
350
49
  3
A2
350
4A
  3
A3
350
4B
  3
A4
350
4C
  3
A5
350
4D
  3
A6
350
4E
  3
A7
350
4F
  3
A8
350
50
  3
A9
350
51
  3
B0
350
52
  3
B1
350
53
  3
B2
350
54
  3
B3
350
55
  3
B4
350
56
  3
B5
350
57
  3
B6
350
58
  3
B7
350
59
  3
B8
350
5A
  3
B9
350
5B
  3
C0
350
5C
  3
C1
350
5D
  3
C2
350
5E
  3
C3
350
5F
  3
C4
350
60
  3
C5
350
61
  3
C6
350
62
  3
C7
350
63
  3
C8
350
64
  3
C9
350
65
  3
D0
350
66
  3
D1
350
67
  3
D2
350
68
  0
LAYOUT
  5
1E
102
{ACAD_REACTORS
330
1A
102
}
330
1A
100
AcDbPlotSettings
  1

  2
none_device
  4

  6

 40
0.0
 41
0.0
 42
0.0
 43
0.0
 44
0.0
 45
0.0
 46
0.0
 47
0.0
 48
0.0
 49
0.0
140
0.0
141
0.0
142
1.0
143
1.0
 70
   688
 72
     1
 73
     0
 74
     5
  7

 75
    16
147
1.0
148
0.0
149
0.0
100
AcDbLayout
  1
Layout1
 70
     1
 71
     1
 10
0.0
 20
0.0
 11
420.0
 21
297.0
 12
0.0
 22
0.0
 32
0.0
 14
1.0000000000E+20
 24
1.0000000000E+20
 34
1.0000000000E+20
 15
-1.0000000000E+20
 25
-1.0000000000E+20
 35
-1.0000000000E+20
146
0.0
 13
0.0
 23
0.0
 33
0.0
 16
1.0
 26
0.0
 36
0.0
 17
0.0
 27
1.0
 37
0.0
 76
     0
330
1B
  0
LAYOUT
  5
26
102
{ACAD_REACTORS
330
1A
102
}
330
1A
100
AcDbPlotSettings
  1

  2
none_device
  4

  6

 40
0.0
 41
0.0
 42
0.0
 43
0.0
 44
0.0
 45
0.0
 46
0.0
 47
0.0
 48
0.0
 49
0.0
140
0.0
141
0.0
142
1.0
143
1.0
 70
   688
 72
     1
 73
     0
 74
     5
  7

 75
    16
147
1.0
148
0.0
149
0.0
100
AcDbLayout
  1
Layout2
 70
     1
 71
     2
 10
0.0
 20
0.0
 11
0.0
 21
0.0
 12
0.0
 22
0.0
 32
0.0
 14
0.0
 24
0.0
 34
0.0
 15
0.0
 25
0.0
 35
0.0
146
0.0
 13
0.0
 23
0.0
 33
0.0
 16
1.0
 26
0.0
 36
0.0
 17
0.0
 27
1.0
 37
0.0
 76
     0
330
23
  0
LAYOUT
  5
22
102
{ACAD_REACTORS
330
1A
102
}
330
1A
100
AcDbPlotSettings
  1

  2
none_device
  4
Letter_(8.50_x_11.00_Inches)
  6

 40
6.35
 41
6.35
 42
6.35000508
 43
6.35000508
 44
215.9
 45
279.4
 46
0.0
 47
0.0
 48
0.0
 49
0.0
140
0.0
141
0.0
142
1.0
143
1.0
 70
  1712
 72
     1
 73
     0
 74
     0
  7

 75
     0
147
1.0
148
0.0
149
0.0
100
AcDbLayout
  1
Model
 70
     1
 71
     0
 10
0.0
 20
0.0
 11
1189.0
 21
841.0
 12
0.0
 22
0.0
 32
0.0
 14
0.0
 24
0.0
 34
0.0
 15
1189.0
 25
841.0
 35
0.0
146
0.0
 13
0.0
 23
0.0
 33
0.0
 16
1.0
 26
0.0
 36
0.0
 17
0.0
 27
1.0
 37
0.0
 76
     0
330
1F
331
29
  0
MLINESTYLE
  5
18
102
{ACAD_REACTORS
330
17
102
}
330
17
100
AcDbMlineStyle
  2
Standard
 70
     0
  3

 62
   256
 51
90.0
 52
90.0
 71
     2
 49
0.5
 62
   256
  6
BYLAYER
 49
-0.5
 62
   256
  6
BYLAYER
  0
ACDBPLACEHOLDER
  5
F
102
{ACAD_REACTORS
330
E
102
}
330
E
  0
SCALE
  5
48
102
{ACAD_REACTORS
330
47
102
}
330
47
100
AcDbScale
 70
     0
300
1:1
140
1.0
141
1.0
290
     1
  0
SCALE
  5
49
102
{ACAD_REACTORS
330
47
102
}
330
47
100
AcDbScale
 70
     0
300
1:2
140
1.0
141
2.0
290
     0
  0
SCALE
  5
4A
102
{ACAD_REACTORS
330
47
102
}
330
47
100
AcDbScale
 70
     0
300
1:4
140
1.0
141
4.0
290
     0
  0
SCALE
  5
4B
102
{ACAD_REACTORS
330
47
102
}
330
47
100
AcDbScale
 70
     0
300
1:5
140
1.0
141
5.0
290
     0
  0
SCALE
  5
4C
102
{ACAD_REACTORS
330
47
102
}
330
47
100
AcDbScale
 70
     0
300
1:8
140
1.0
141
8.0
290
     0
  0
SCALE
  5
4D
102
{ACAD_REACTORS
330
47
102
}
330
47
100
AcDbScale
 70
     0
300
1:10
140
1.0
141
10.0
290
     0
  0
SCALE
  5
4E
102
{ACAD_REACTORS
330
47
102
}
330
47
100
AcDbScale
 70
     0
300
1:16
140
1.0
141
16.0
290
     0
  0
SCALE
  5
4F
102
{ACAD_REACTORS
330
47
102
}
330
47
100
AcDbScale
 70
     0
300
1:20
140
1.0
141
20.0
290
     0
  0
SCALE
  5
50
102
{ACAD_REACTORS
330
47
102
}
330
47
100
AcDbScale
 70
     0
300
1:30
140
1.0
141
30.0
290
     0
  0
SCALE
  5
51
102
{ACAD_REACTORS
330
47
102
}
330
47
100
AcDbScale
 70
     0
300
1:40
140
1.0
141
40.0
290
     0
  0
SCALE
  5
52
102
{ACAD_REACTORS
330
47
102
}
330
47
100
AcDbScale
 70
     0
300
1:50
140
1.0
141
50.0
290
     0
  0
SCALE
  5
53
102
{ACAD_REACTORS
330
47
102
}
330
47
100
AcDbScale
 70
     0
300
1:100
140
1.0
141
100.0
290
     0
  0
SCALE
  5
54
102
{ACAD_REACTORS
330
47
102
}
330
47
100
AcDbScale
 70
     0
300
2:1
140
2.0
141
1.0
290
     0
  0
SCALE
  5
55
102
{ACAD_REACTORS
330
47
102
}
330
47
100
AcDbScale
 70
     0
300
4:1
140
4.0
141
1.0
290
     0
  0
SCALE
  5
56
102
{ACAD_REACTORS
330
47
102
}
330
47
100
AcDbScale
 70
     0
300
8:1
140
8.0
141
1.0
290
     0
  0
SCALE
  5
57
102
{ACAD_REACTORS
330
47
102
}
330
47
100
AcDbScale
 70
     0
300
10:1
140
10.0
141
1.0
290
     0
  0
SCALE
  5
58
102
{ACAD_REACTORS
330
47
102
}
330
47
100
AcDbScale
 70
     0
300
100:1
140
100.0
141
1.0
290
     0
  0
SCALE
  5
59
102
{ACAD_REACTORS
330
47
102
}
330
47
100
AcDbScale
 70
     0
300
1/128" = 1'-0"
140
0.0078125
141
12.0
290
     0
  0
SCALE
  5
5A
102
{ACAD_REACTORS
330
47
102
}
330
47
100
AcDbScale
 70
     0
300
1/64" = 1'-0"
140
0.015625
141
12.0
290
     0
  0
SCALE
  5
5B
102
{ACAD_REACTORS
330
47
102
}
330
47
100
AcDbScale
 70
     0
300
1/32" = 1'-0"
140
0.03125
141
12.0
290
     0
  0
SCALE
  5
5C
102
{ACAD_REACTORS
330
47
102
}
330
47
100
AcDbScale
 70
     0
300
1/16" = 1'-0"
140
0.0625
141
12.0
290
     0
  0
SCALE
  5
5D
102
{ACAD_REACTORS
330
47
102
}
330
47
100
AcDbScale
 70
     0
300
3/32" = 1'-0"
140
0.09375
141
12.0
290
     0
  0
SCALE
  5
5E
102
{ACAD_REACTORS
330
47
102
}
330
47
100
AcDbScale
 70
     0
300
1/8" = 1'-0"
140
0.125
141
12.0
290
     0
  0
SCALE
  5
5F
102
{ACAD_REACTORS
330
47
102
}
330
47
100
AcDbScale
 70
     0
300
3/16" = 1'-0"
140
0.1875
141
12.0
290
     0
  0
SCALE
  5
60
102
{ACAD_REACTORS
330
47
102
}
330
47
100
AcDbScale
 70
     0
300
1/4" = 1'-0"
140
0.25
141
12.0
290
     0
  0
SCALE
  5
61
102
{ACAD_REACTORS
330
47
102
}
330
47
100
AcDbScale
 70
     0
300
3/8" = 1'-0"
140
0.375
141
12.0
290
     0
  0
SCALE
  5
62
102
{ACAD_REACTORS
330
47
102
}
330
47
100
AcDbScale
 70
     0
300
1/2" = 1'-0"
140
0.5
141
12.0
290
     0
  0
SCALE
  5
63
102
{ACAD_REACTORS
330
47
102
}
330
47
100
AcDbScale
 70
     0
300
3/4" = 1'-0"
140
0.75
141
12.0
290
     0
  0
SCALE
  5
64
102
{ACAD_REACTORS
330
47
102
}
330
47
100
AcDbScale
 70
     0
300
1" = 1'-0"
140
1.0
141
12.0
290
     0
  0
SCALE
  5
65
102
{ACAD_REACTORS
330
47
102
}
330
47
100
AcDbScale
 70
     0
300
1-1/2" = 1'-0"
140
1.5
141
12.0
290
     0
  0
SCALE
  5
66
102
{ACAD_REACTORS
330
47
102
}
330
47
100
AcDbScale
 70
     0
300
3" = 1'-0"
140
3.0
141
12.0
290
     0
  0
SCALE
  5
67
102
{ACAD_REACTORS
330
47
102
}
330
47
100
AcDbScale
 70
     0
300
6" = 1'-0"
140
6.0
141
12.0
290
     0
  0
SCALE
  5
68
102
{ACAD_REACTORS
330
47
102
}
330
47
100
AcDbScale
 70
     0
300
1'-0" = 1'-0"
140
12.0
141
12.0
290
     0
  0
ENDSEC
  0
EOF
