  0
SECTION
  2
HEADER
  9
$ACADVER
  1
AC1009
  9
$INSBASE
 10
0.0
 20
0.0
 30
0.0
  9
$EXTMIN
 10
183.145055
 20
385.848575
 30
0.0
  9
$EXTMAX
 10
500.665055
 20
635.848575
 30
0.0
  9
$LIMMIN
 10
0.0
 20
0.0
  9
$LIMMAX
 10
1189.0
 20
841.0
  9
$ORTHOMODE
 70
     0
  9
$REGENMODE
 70
     1
  9
$FILLMODE
 70
     1
  9
$QTEXTMODE
 70
     0
  9
$MIRRTEXT
 70
     0
  9
$DRAGMODE
 70
     2
  9
$LTSCALE
 40
1.0
  9
$OSMODE
 70
     0
  9
$ATTMODE
 70
     1
  9
$TEXTSIZE
 40
3.5
  9
$TRACEWID
 40
1.0
  9
$TEXTSTYLE
  7
ISO_8
  9
$CLAYER
  8
03_DUENN
  9
$CELTYPE
  6
BYLAYER
  9
$CECOLOR
 62
   256
  9
$DIMSCALE
 40
1.0
  9
$DIMASZ
 40
3.5
  9
$DIMEXO
 40
0.0
  9
$DIMDLI
 40
7.0
  9
$DIMRND
 40
0.0
  9
$DIMDLE
 40
0.0
  9
$DIMEXE
 40
1.8
  9
$DIMTP
 40
0.0
  9
$DIMTM
 40
0.0
  9
$DIMTXT
 40
3.5
  9
$DIMCEN
 40
1.5
  9
$DIMTSZ
 40
0.0
  9
$DIMTOL
 70
     0
  9
$DIMLIM
 70
     0
  9
$DIMTIH
 70
     0
  9
$DIMTOH
 70
     0
  9
$DIMSE1
 70
     0
  9
$DIMSE2
 70
     0
  9
$DIMTAD
 70
     1
  9
$DIMZIN
 70
     8
  9
$DIMBLK
  1

  9
$DIMASO
 70
     1
  9
$DIMSHO
 70
     1
  9
$DIMPOST
  1

  9
$DIMAPOST
  1

  9
$DIMALT
 70
     0
  9
$DIMALTD
 70
     2
  9
$DIMALTF
 40
25.4
  9
$DIMLFAC
 40
1.0
  9
$DIMTOFL
 70
     0
  9
$DIMTVP
 40
0.0
  9
$DIMTIX
 70
     0
  9
$DIMSOXD
 70
     0
  9
$DIMSAH
 70
     0
  9
$DIMBLK1
  1

  9
$DIMBLK2
  1

  9
$DIMSTYLE
  2
HAIBUCH_NORMAL
  9
$DIMCLRD
 70
     0
  9
$DIMCLRE
 70
     0
  9
$DIMCLRT
 70
     2
  9
$DIMTFAC
 40
1.0
  9
$DIMGAP
 40
0.0
  9
$LUNITS
 70
     2
  9
$LUPREC
 70
     3
  9
$AXISMODE
 70
     0
  9
$AXISUNIT
 10
0.0
 20
0.0
  9
$SKETCHINC
 40
1.0
  9
$FILLETRAD
 40
0.8
  9
$AUNITS
 70
     0
  9
$AUPREC
 70
     3
  9
$MENU
  1
acad
  9
$ELEVATION
 40
0.0
  9
$PELEVATION
 40
0.0
  9
$THICKNESS
 40
0.0
  9
$LIMCHECK
 70
     1
  9
$BLIPMODE
 70
     0
  9
$CHAMFERA
 40
20.0
  9
$CHAMFERB
 40
20.0
  9
$SKPOLY
 70
     1
  9
$TDCREATE
 40
1759436.821018518
  9
$TDUPDATE
 40
1759436.821018518
  9
$TDINDWG
 40
6.0000000000
  9
$TDUSRTIMER
 40
6.0000000000
  9
$USRTIMER
 70
     1
  9
$ANGBASE
 50
0.0
  9
$ANGDIR
 70
     0
  9
$PDMODE
 70
     0
  9
$PDSIZE
 40
0.0
  9
$PLINEWID
 40
0.0
  9
$COORDS
 70
     2
  9
$SPLFRAME
 70
     0
  9
$SPLINETYPE
 70
     6
  9
$SPLINESEGS
 70
     8
  9
$ATTDIA
 70
     1
  9
$ATTREQ
 70
     1
  9
$HANDLING
 70
     1
  9
$HANDSEED
  5
A7F1
  9
$SURFTAB1
 70
     6
  9
$SURFTAB2
 70
     6
  9
$SURFTYPE
 70
     6
  9
$SURFU
 70
     6
  9
$SURFV
 70
     6
  9
$UCSNAME
  2

  9
$UCSORG
 10
0.0
 20
0.0
 30
0.0
  9
$UCSXDIR
 10
1.0
 20
0.0
 30
0.0
  9
$UCSYDIR
 10
0.0
 20
1.0
 30
0.0
  9
$PUCSNAME
  2

  9
$PUCSORG
 10
0.0
 20
0.0
 30
0.0
  9
$PUCSXDIR
 10
1.0
 20
0.0
 30
0.0
  9
$PUCSYDIR
 10
0.0
 20
1.0
 30
0.0
  9
$USERI1
 70
     0
  9
$USERI2
 70
     0
  9
$USERI3
 70
     0
  9
$USERI4
 70
     0
  9
$USERI5
 70
     0
  9
$USERR1
 40
0.0
  9
$USERR2
 40
0.0
  9
$USERR3
 40
1.0
  9
$USERR4
 40
0.0
  9
$USERR5
 40
0.0
  9
$WORLDVIEW
 70
     1
  9
$SHADEDGE
 70
     1
  9
$SHADEDIF
 70
    70
  9
$TILEMODE
 70
     1
  9
$MAXACTVP
 70
    16
  9
$PINSBASE
 10
0.0
 20
0.0
 30
0.0
  9
$PLIMCHECK
 70
     0
  9
$PEXTMIN
 10
1.000000E+20
 20
1.000000E+20
 30
1.000000E+20
  9
$PEXTMAX
 10
-1.000000E+20
 20
-1.000000E+20
 30
-1.000000E+20
  9
$PLIMMIN
 10
0.0
 20
0.0
  9
$PLIMMAX
 10
12.0
 20
9.0
  9
$UNITMODE
 70
     0
  9
$VISRETAIN
 70
     0
  9
$PLINEGEN
 70
     0
  9
$PSLTSCALE
 70
     1
  9
$TREEDEPTH
 70
  3020
  9
$DWGCODEPAGE
  3
dos850
  0
ENDSEC
  0
SECTION
  2
TABLES
  0
TABLE
  2
VPORT
 70
     1
  0
VPORT
  2
*ACTIVE
 70
     0
 10
0.0
 20
0.0
 11
1.0
 21
1.0
 12
341.905055
 22
510.848575
 13
0.0
 23
0.0
 14
0.5
 24
0.5
 15
5.0
 25
5.0
 16
0.0
 26
0.0
 36
1.0
 17
0.0
 27
0.0
 37
0.0
 40
262.5
 41
1.27008
 42
50.0
 43
0.0
 44
0.0
 50
0.0
 51
0.0
 71
     0
 72
  2000
 73
     1
 74
     1
 75
     0
 76
     0
 77
     0
 78
     0
  0
ENDTAB
  0
TABLE
  2
LTYPE
 70
    30
  0
LTYPE
  2
CONTINUOUS
 70
     0
  3
Solid line
 72
    65
 73
     0
 40
0.0
  0
LTYPE
  2
AUSGEZOGEN
 70
     0
  3
Ausgezogene Linie
 72
    65
 73
     0
 40
0.0
  0
LTYPE
  2
MITTELLINIE-KURZ
 70
     0
  3
__ _ __ _ __ _ __ _ __ _ __ _ __ _ __ _ __ _ __ _ __
 72
    65
 73
     4
 40
11.0
 49
5.0
 49
-2.5
 49
1.0
 49
-2.5
  0
LTYPE
  2
MITTELLINIE-MITT
 70
     0
  3
____ _ ____ _ ____ _ ____ _ ____ _ ____ _ ____ _ ____
 72
    65
 73
     4
 40
20.0
 49
12.5
 49
-2.5
 49
2.5
 49
-2.5
  0
LTYPE
  2
MITTELLINIE-LANG
 70
     0
  3
_________  __  _________  __  _________  __  ________
 72
    65
 73
     4
 40
35.0
 49
20.0
 49
-5.0
 49
5.0
 49
-5.0
  0
LTYPE
  2
UMRISS-KURZ
 70
     0
  3
___ _ _ ___ _ _ ___ _ _ ___ _ _ ___ __ ___ _ _ ___ _ _ ___
 72
    65
 73
     6
 40
10.5
 49
5.0
 49
-1.5
 49
0.5
 49
-1.5
 49
0.5
 49
-1.5
  0
LTYPE
  2
UMRISS-MITT
 70
     0
  3
____ _ ____ _ ____ _ ____ _ ____ _ ____ _ ____ _ ____
 72
    65
 73
     6
 40
25.0
 49
12.5
 49
-2.5
 49
2.5
 49
-2.5
 49
2.5
 49
-2.5
  0
LTYPE
  2
UMRISS-LANG
 70
     0
  3
_________  __  _________  __  _________  __  ________
 72
    65
 73
     6
 40
45.0
 49
20.0
 49
-5.0
 49
5.0
 49
-5.0
 49
5.0
 49
-5.0
  0
LTYPE
  2
PUNKTLINIE-KURZ
 70
     0
  3
................................................................
 72
    65
 73
     2
 40
1.25
 49
0.0
 49
-1.25
  0
LTYPE
  2
PUNKTLINIE-MITT
 70
     0
  3
. . . . . . . . . . . . . . . . . . . . . . . . . . . . . . . . .
 72
    65
 73
     2
 40
2.5
 49
0.0
 49
-2.5
  0
LTYPE
  2
PUNKTLINIE-LANG
 70
     0
  3
.  .  .  .  .  .  .  .  .  .  .  .  .  .  .  .  .  .  .  .  .
 72
    65
 73
     2
 40
5.0
 49
0.0
 49
-5.0
  0
LTYPE
  2
STRICHLINIE-KURZ
 70
     0
  3
__ __ __ __ __ __ __ __ __ __ __ __ __ __ __ __ __ __
 72
    65
 73
     2
 40
3.75
 49
2.5
 49
-1.25
  0
LTYPE
  2
STRICHLINIE-MITT
 70
     0
  3
____   ____   ____   ____   ____   ____   ____   ____
 72
    65
 73
     2
 40
7.5
 49
5.0
 49
-2.5
  0
LTYPE
  2
STRICHLINIE-LANG
 70
     0
  3
____   ____   ____   ____   ____   ____   ____   ____
 72
    65
 73
     2
 40
15.0
 49
10.0
 49
-5.0
  0
LTYPE
  2
VERDECKT-KURZ
 70
     0
  3
_ _ _ _ _ _ _ _ _ _ _ _ _ _ _ _ _ _ _ _ _ _ _ _ _ _ _ _ _ _ _
 72
    65
 73
     2
 40
1.75
 49
1.25
 49
-0.5
  0
LTYPE
  2
VERDECKT-MITT
 70
     0
  3
__ __ __ __ __ __ __ __ __ __ __ __ __ __ __ __ __ __ __ __ __
 72
    65
 73
     2
 40
3.75
 49
2.5
 49
-1.25
  0
LTYPE
  2
VERDECKT-LANG
 70
     0
  3
____ ____ ____ ____ ____ ____ ____ ____ ____ ____ ____ ____
 72
    65
 73
     2
 40
7.5
 49
5.0
 49
-2.5
  0
LTYPE
  2
STRICHPUNKT-KURZ
 70
     0
  3
_._._._._._._._._._._._._._._._._._._._._._._._._._._._._._.
 72
    65
 73
     4
 40
5.0
 49
2.5
 49
-1.25
 49
0.0
 49
-1.25
  0
LTYPE
  2
STRICHPUNKT-MITT
 70
     0
  3
__ . __ . __ . __ . __ . __ . __ . __ . __ . __ . __ . __ . _
 72
    65
 73
     4
 40
10.0
 49
5.0
 49
-2.5
 49
0.0
 49
-2.5
  0
LTYPE
  2
STRICHPUNKT-LANG
 70
     0
  3
____  .  ____  .  ____  .  ____  .  ____  .  ____  .  ____
 72
    65
 73
     4
 40
20.0
 49
10.0
 49
-5.0
 49
0.0
 49
-5.0
  0
LTYPE
  2
STRICH2PUNKT-KURZ
 70
     0
  3
__..__..__..__..__..__..__..__..__..__..__..__..__..__..__..__..
 72
    65
 73
     6
 40
6.25
 49
2.5
 49
-1.25
 49
0.0
 49
-1.25
 49
0.0
 49
-1.25
  0
LTYPE
  2
STRICH2PUNKT-MITT
 70
     0
  3
____ . . ____ . . ____ . . ____ . . ____ . . ____ . . ____ . .
 72
    65
 73
     6
 40
12.5
 49
5.0
 49
-2.5
 49
0.0
 49
-2.5
 49
0.0
 49
-2.5
  0
LTYPE
  2
STRICH2PUNKT-LANG
 70
     0
  3
________  .  .  ________  .  .  ________  .  .  ________  .  .
 72
    65
 73
     6
 40
25.0
 49
10.0
 49
-5.0
 49
0.0
 49
-5.0
 49
0.0
 49
-5.0
  0
LTYPE
  2
GRENZE
 70
     0
  3
__ __ . __ __ . __ __ . __ __ . __ __ . __ __ . __ __
 72
    65
 73
     6
 40
17.5
 49
5.0
 49
-2.5
 49
5.0
 49
-2.5
 49
0.0
 49
-2.5
  0
LTYPE
  2
STRICHA
 70
    64
  3
- - - - - 
 72
    65
 73
     2
 40
1.5
 49
1.2
 49
-0.3
  0
LTYPE
  2
STRICHPUNKT
 70
    64
  3
____ . ____ . ____ . ____ . ____ . ____ . ____
 72
    65
 73
     4
 40
15.0
 49
10.0
 49
-2.5
 49
0.0
 49
-2.5
  0
LTYPE
  2
STRICHPUNKTA
 70
    64
  3
__ . __ . __
 72
    65
 73
     4
 40
3.6
 49
2.4
 49
-0.6
 49
0.0
 49
-0.6
  0
LTYPE
  2
STRICH
 70
    64
  3
-- -- -- -- -- -- -- -- -- -- -- -- -- -- -- 
 72
    65
 73
     2
 40
6.25
 49
5.0
 49
-1.25
  0
LTYPE
  2
VERDECKT2
 70
     0
  3
_ _ _ _ _ _ _ _ _ _ _ _ _ _ _ _ _ _ _ _ _ _ _ _
 72
    65
 73
     2
 40
0.1875
 49
0.125
 49
-0.0625
  0
LTYPE
  2
VERDECKT
 70
     0
  3
__ __ __ __ __ __ __ __ __ __ __ __ __ __ __ __
 72
    65
 73
     2
 40
0.375
 49
0.25
 49
-0.125
  0
ENDTAB
  0
TABLE
  2
LAYER
 70
    27
  0
LAYER
  2
0
 70
     0
 62
     7
  6
AUSGEZOGEN
  0
LAYER
  2
DEF_LGRP
 70
    65
 62
     7
  6
AUSGEZOGEN
  0
LAYER
  2
24_UNSICHTBAR
 70
     0
 62
   163
  6
AUSGEZOGEN
  0
LAYER
  2
23_RAHMEN
 70
     0
 62
     7
  6
AUSGEZOGEN
  0
LAYER
  2
04_RESTKONTUR
 70
     0
 62
    31
  6
AUSGEZOGEN
  0
LAYER
  2
19_PHANTOM
 70
     0
 62
    41
  6
UMRISS-MITT
  0
LAYER
  2
18_TOL_2
 70
     0
 62
    21
  6
AUSGEZOGEN
  0
LAYER
  2
17_TOL_1
 70
     0
 62
   151
  6
AUSGEZOGEN
  0
LAYER
  2
16_BEM_2
 70
     0
 62
     1
  6
AUSGEZOGEN
  0
LAYER
  2
13_SCHNITT
 70
     0
 62
    51
  6
STRICHPUNKT-MITT
  0
LAYER
  2
20_BEM_KOORD
 70
     0
 62
     3
  6
AUSGEZOGEN
  0
LAYER
  2
22_KONTUR
 70
     0
 62
   255
  6
AUSGEZOGEN
  0
LAYER
  2
21_POSI
 70
     0
 62
     7
  6
AUSGEZOGEN
  0
LAYER
  2
11_INFO
 70
     0
 62
     1
  6
AUSGEZOGEN
  0
LAYER
  2
10_TEXT
 70
     0
 62
     2
  6
AUSGEZOGEN
  0
LAYER
  2
14_HILF
 70
     0
 62
     3
  6
AUSGEZOGEN
  0
LAYER
  2
06_VERDECKT
 70
     0
 62
     2
  6
VERDECKT-KURZ
  0
LAYER
  2
12_EINSATZ
 70
     0
 62
    51
  6
MITTELLINIE-MITT
  0
LAYER
  2
08_MIT-LANG
 70
     0
 62
     1
  6
MITTELLINIE-MITT
  0
LAYER
  2
07_MIT-KURZ
 70
     0
 62
     1
  6
MITTELLINIE-KURZ
  0
LAYER
  2
09_SCHRAFFUR
 70
     0
 62
     1
  6
AUSGEZOGEN
  0
LAYER
  2
15_BEM_1
 70
     0
 62
     3
  6
AUSGEZOGEN
  0
LAYER
  2
05_FEIN
 70
     0
 62
     1
  6
AUSGEZOGEN
  0
LAYER
  2
03_DUENN
 70
    64
 62
     1
  6
AUSGEZOGEN
  0
LAYER
  2
02_MITTEL
 70
    64
 62
     2
  6
AUSGEZOGEN
  0
LAYER
  2
01_DREHEN
 70
    64
 62
     7
  6
AUSGEZOGEN
  0
LAYER
  2
DEFPOINTS
 70
     0
 62
     7
  6
CONTINUOUS
  0
ENDTAB
  0
TABLE
  2
STYLE
 70
     3
  0
STYLE
  2
STANDARD
 70
    64
 40
0.0
 41
1.0
 50
0.0
 71
     0
 42
3.5
  3
TXT
  4

  0
STYLE
  2
ISO_8
 70
    64
 40
0.0
 41
1.0
 50
0.0
 71
     0
 42
3.5
  3
ISO8
  4

  0
STYLE
  2
DIN
 70
    64
 40
0.0
 41
1.0
 50
0.0
 71
     0
 42
0.2
  3
APNORM
  4

  0
ENDTAB
  0
TABLE
  2
VIEW
 70
     0
  0
ENDTAB
  0
TABLE
  2
UCS
 70
     0
  0
ENDTAB
  0
TABLE
  2
APPID
 70
    18
  0
APPID
  2
ACAD
 70
     0
  0
APPID
  2
CHANGE_ATTRIB
 70
    64
  0
APPID
  2
FCAD
 70
    64
  0
APPID
  2
APM_V11
 70
     0
  0
APPID
  2
APM_SUBINFOBLK
 70
     0
  0
APPID
  2
APM_SUPERBLOCK
 70
     0
  0
APPID
  2
APM_DIM
 70
    64
  0
APPID
  2
POSLIN
 70
    64
  0
APPID
  2
4CE1APM_
 70
    64
  0
APPID
  2
TOLERANZ
 70
    64
  0
APPID
  2
469BAPM_
 70
    64
  0
APPID
  2
723APM_
 70
    64
  0
APPID
  2
719APM_
 70
    64
  0
APPID
  2
705APM_
 70
    64
  0
APPID
  2
7AFAPM_
 70
    64
  0
APPID
  2
B73APM_
 70
    64
  0
APPID
  2
70FAPM_
 70
    64
  0
APPID
  2
TCAD
 70
     0
  0
ENDTAB
  0
TABLE
  2
DIMSTYLE
 70
    16
  0
DIMSTYLE
  2
STANDARD
 70
     0
  3

  4

  5

  6

  7

 40
1.0
 41
0.18
 42
0.0625
 43
0.38
 44
0.18
 45
0.0
 46
0.0
 47
0.0
 48
0.0
140
0.18
141
0.09
142
0.0
143
25.4
144
1.0
145
0.0
146
1.0
147
0.09
 71
     0
 72
     0
 73
     1
 74
     1
 75
     0
 76
     0
 77
     0
 78
     0
170
     0
171
     2
172
     0
173
     0
174
     0
175
     0
176
     0
177
     0
178
     0
  0
DIMSTYLE
  2
HAIBUCH_NORMAL
 70
     0
  3

  4

  5

  6

  7

 40
1.0
 41
3.5
 42
0.0
 43
7.0
 44
1.8
 45
0.0
 46
0.0
 47
0.0
 48
0.0
140
3.5
141
1.5
142
0.0
143
25.4
144
1.0
145
0.0
146
1.0
147
0.0
 71
     0
 72
     0
 73
     0
 74
     0
 75
     0
 76
     0
 77
     1
 78
     8
170
     0
171
     2
172
     0
173
     0
174
     0
175
     0
176
     0
177
     0
178
     2
  0
DIMSTYLE
  2
HAIBUCH_ZOLL
 70
     0
  3
<>"
  4

  5
ARROW
  6

  7

 40
1.0
 41
3.5
 42
0.0
 43
7.0
 44
1.8
 45
0.0
 46
0.0
 47
0.0
 48
0.0
140
3.5
141
1.5
142
0.0
143
0.03937
144
1.0
145
0.0
146
1.0
147
0.0
 71
     0
 72
     0
 73
     0
 74
     0
 75
     0
 76
     0
 77
     1
 78
     8
170
     1
171
     7
172
     0
173
     0
174
     0
175
     0
176
     0
177
     0
178
     2
  0
DIMSTYLE
  2
APM
 70
     0
  3

  4

  5

  6

  7

 40
1.0
 41
3.5
 42
0.0
 43
7.0
 44
1.8
 45
0.0
 46
0.0
 47
0.0
 48
0.0
140
3.5
141
1.5
142
0.0
143
25.4
144
1.0
145
0.0
146
1.0
147
0.0
 71
     0
 72
     0
 73
     0
 74
     0
 75
     0
 76
     0
 77
     1
 78
     8
170
     0
171
     2
172
     0
173
     0
174
     0
175
     0
176
     0
177
     0
178
     2
  0
DIMSTYLE
  2
DETAIL_21
 70
     0
  3

  4

  5

  6

  7

 40
1.0
 41
3.5
 42
0.0
 43
7.0
 44
1.8
 45
0.0
 46
0.0
 47
0.0
 48
0.0
140
3.5
141
1.5
142
0.0
143
25.4
144
0.5
145
0.0
146
1.0
147
0.0
 71
     0
 72
     0
 73
     0
 74
     0
 75
     0
 76
     0
 77
     1
 78
     8
170
     0
171
     2
172
     0
173
     0
174
     0
175
     0
176
     0
177
     0
178
     2
  0
DIMSTYLE
  2
DETAIL_51
 70
     0
  3

  4

  5

  6

  7

 40
1.0
 41
3.5
 42
0.0
 43
7.0
 44
1.8
 45
0.0
 46
0.0
 47
0.0
 48
0.0
140
3.5
141
1.5
142
0.0
143
25.4
144
0.2
145
0.0
146
1.0
147
0.0
 71
     0
 72
     0
 73
     0
 74
     0
 75
     0
 76
     0
 77
     1
 78
     8
170
     0
171
     2
172
     0
173
     0
174
     0
175
     0
176
     0
177
     0
178
     2
  0
DIMSTYLE
  2
DIMISO
 70
     0
  3

  4

  5
ARROW
  6

  7

 40
1.0
 41
3.5
 42
1.0
 43
8.0
 44
2.0
 45
0.0
 46
0.0
 47
0.1
 48
0.1
140
3.5
141
2.0
142
0.0
143
25.4
144
1.0
145
0.0
146
0.71
147
1.5
 71
     0
 72
     0
 73
     0
 74
     0
 75
     0
 76
     0
 77
     1
 78
     8
170
     0
171
     2
172
     1
173
     0
174
     0
175
     1
176
   256
177
   256
178
     2
  0
DIMSTYLE
  2
DIMISOAA
 70
     0
  3

  4

  5
ARROW
  6

  7

 40
1.0
 41
3.5
 42
1.0
 43
8.0
 44
2.0
 45
0.0
 46
0.0
 47
0.1
 48
0.1
140
3.5
141
2.0
142
0.0
143
25.4
144
1.0
145
0.0
146
0.71
147
1.5
 71
     0
 72
     0
 73
     0
 74
     0
 75
     0
 76
     0
 77
     1
 78
     8
170
     0
171
     2
172
     1
173
     0
174
     1
175
     0
176
   256
177
   256
178
     2
  0
DIMSTYLE
  2
DIMISOPP
 70
     0
  3

  4

  5
FCDPOINT
  6

  7

 40
1.0
 41
3.5
 42
1.0
 43
8.0
 44
2.0
 45
0.0
 46
0.0
 47
0.1
 48
0.1
140
3.5
141
2.0
142
0.0
143
25.4
144
1.0
145
0.0
146
0.71
147
1.5
 71
     0
 72
     0
 73
     0
 74
     0
 75
     0
 76
     0
 77
     1
 78
     8
170
     0
171
     2
172
     1
173
     0
174
     1
175
     0
176
   256
177
   256
178
     2
  0
DIMSTYLE
  2
DIMISOPA
 70
     0
  3

  4

  5

  6
FCDPOINT
  7
ARROW
 40
1.0
 41
3.5
 42
1.0
 43
8.0
 44
2.0
 45
0.0
 46
0.0
 47
0.1
 48
0.1
140
3.5
141
2.0
142
0.0
143
25.4
144
1.0
145
0.0
146
0.71
147
1.5
 71
     0
 72
     0
 73
     0
 74
     0
 75
     0
 76
     0
 77
     1
 78
     8
170
     0
171
     2
172
     1
173
     1
174
     1
175
     0
176
   256
177
   256
178
     2
  0
DIMSTYLE
  2
DIMISOPA1
 70
     0
  3

  4

  5

  6
FCDPOINT
  7
ARROW
 40
1.0
 41
3.5
 42
1.0
 43
8.0
 44
2.0
 45
0.0
 46
0.0
 47
0.1
 48
0.1
140
3.5
141
2.0
142
0.0
143
25.4
144
1.0
145
0.0
146
0.71
147
1.5
 71
     0
 72
     0
 73
     0
 74
     0
 75
     0
 76
     0
 77
     1
 78
     8
170
     0
171
     2
172
     1
173
     1
174
     0
175
     1
176
   256
177
   256
178
     2
  0
DIMSTYLE
  2
DIMISOAP
 70
     0
  3

  4

  5

  6
ARROW
  7
FCDPOINT
 40
1.0
 41
3.5
 42
1.0
 43
8.0
 44
2.0
 45
0.0
 46
0.0
 47
0.1
 48
0.1
140
3.5
141
2.0
142
0.0
143
25.4
144
1.0
145
0.0
146
0.71
147
1.5
 71
     0
 72
     0
 73
     0
 74
     0
 75
     0
 76
     0
 77
     1
 78
     8
170
     0
171
     2
172
     1
173
     1
174
     1
175
     0
176
   256
177
   256
178
     2
  0
DIMSTYLE
  2
DIMISOAP1
 70
     0
  3

  4

  5

  6
ARROW
  7
FCDPOINT
 40
1.0
 41
3.5
 42
1.0
 43
8.0
 44
2.0
 45
0.0
 46
0.0
 47
0.1
 48
0.1
140
3.5
141
2.0
142
0.0
143
25.4
144
1.0
145
0.0
146
0.71
147
1.5
 71
     0
 72
     0
 73
     0
 74
     0
 75
     0
 76
     0
 77
     1
 78
     8
170
     0
171
     2
172
     1
173
     1
174
     0
175
     1
176
   256
177
   256
178
     2
  0
DIMSTYLE
  2
DIMISOSYM
 70
     0
  3

  4

  5

  6
FCDLINE
  7
ARROW
 40
1.0
 41
3.5
 42
0.0
 43
8.0
 44
0.0
 45
0.0
 46
0.0
 47
0.1
 48
0.1
140
3.5
141
2.0
142
0.0
143
25.4
144
2.0
145
0.0
146
0.71
147
1.5
 71
     0
 72
     0
 73
     0
 74
     0
 75
     1
 76
     1
 77
     1
 78
     8
170
     0
171
     2
172
     1
173
     1
174
     0
175
     1
176
   256
177
   256
178
     2
  0
DIMSTYLE
  2
DIMISOSYM2
 70
     0
  3

  4

  5

  6
ARROW
  7
FCDLINE
 40
1.0
 41
3.5
 42
0.0
 43
8.0
 44
0.0
 45
0.0
 46
0.0
 47
0.1
 48
0.1
140
3.5
141
2.0
142
0.0
143
25.4
144
2.0
145
0.0
146
0.71
147
1.5
 71
     0
 72
     0
 73
     0
 74
     0
 75
     1
 76
     1
 77
     1
 78
     8
170
     0
171
     2
172
     1
173
     1
174
     0
175
     1
176
   256
177
   256
178
     2
  0
DIMSTYLE
  2
DIMISOAXE
 70
     0
  3

  4

  5
ARROW
  6

  7

 40
1.0
 41
3.5
 42
0.0
 43
8.0
 44
0.0
 45
0.0
 46
0.0
 47
0.1
 48
0.1
140
3.5
141
2.0
142
0.0
143
25.4
144
1.0
145
0.0
146
0.71
147
1.5
 71
     0
 72
     0
 73
     0
 74
     0
 75
     1
 76
     1
 77
     1
 78
     8
170
     0
171
     2
172
     1
173
     0
174
     1
175
     0
176
   256
177
   256
178
     2
  0
ENDTAB
  0
ENDSEC
  0
SECTION
  2
BLOCKS
  0
BLOCK
  8
DEF_LGRP
  5
A7ED
  2
DEF_LGRP
 70
    64
 10
0.0
 20
0.0
 30
0.0
  3
DEF_LGRP
  0
POINT
  8
DEF_LGRP
  5
6313
 10
0.0
 20
0.0
 30
0.0
  0
ENDBLK
  8
0
  5
A7EE
  0
ENDSEC
  0
SECTION
  2
ENTITIES
  0
INSERT
  8
01_DREHEN
  5
6317
  2
DEF_LGRP
 10
0.0
 20
0.0
 30
0.0
1001
CHANGE_ATTRIB
1002
{
1000
0
1000
0
1000
1
1000
_
1000
2
1000

1000
3
1000
NT
1000
STDPRT
1000
NT
1000
ACODE
1000
-
1000
LLOAD
1000
4
1000
LGDIR
1000
0
1000
GROUPS
1000
BASISLAYER
1000
GROUPS
1000
GRUPPE1
1000
GROUPS
1000
GRUPPE2
1002
}
  0
LINE
  8
02_MITTEL
  5
7DBC
 10
183.145055
 20
385.848575
 30
0.0
 11
183.145055
 21
635.848575
 31
0.0
  0
LINE
  8
02_MITTEL
  5
7DBD
 10
183.145055
 20
635.848575
 30
0.0
 11
500.665055
 21
635.848575
 31
0.0
  0
LINE
  8
02_MITTEL
  5
7DBE
 10
500.665055
 20
635.848575
 30
0.0
 11
500.665055
 21
385.848575
 31
0.0
  0
LINE
  8
02_MITTEL
  5
7DBF
 10
183.145055
 20
385.848575
 30
0.0
 11
500.665055
 21
385.848575
 31
0.0
  0
LINE
  8
03_DUENN
  5
7DC0
 10
419.467068
 20
543.757083
 30
0.0
 11
415.939053
 21
543.757083
 31
0.0
  0
LINE
  8
03_DUENN
  5
7DC1
 10
415.939053
 20
543.757083
 30
0.0
 11
415.939053
 21
547.285098
 31
0.0
  0
LINE
  8
03_DUENN
  5
7DC2
 10
415.939053
 20
547.285098
 30
0.0
 11
419.467068
 21
547.285098
 31
0.0
  0
LINE
  8
03_DUENN
  5
7DC3
 10
419.467068
 20
547.285098
 30
0.0
 11
419.467068
 21
543.757083
 31
0.0
  0
LINE
  8
01_DREHEN
  5
7DC4
 10
417.628235
 20
526.410438
 30
0.0
 11
413.345425
 21
526.410438
 31
0.0
  0
LINE
  8
01_DREHEN
  5
7DC5
 10
413.345425
 20
526.410438
 30
0.0
 11
413.345425
 21
533.465976
 31
0.0
  0
LINE
  8
01_DREHEN
  5
7DC6
 10
413.345425
 20
533.465976
 30
0.0
 11
410.69943
 21
533.465976
 31
0.0
  0
LINE
  8
01_DREHEN
  5
7DC7
 10
410.69943
 20
533.465976
 30
0.0
 11
410.69943
 21
536.993991
 31
0.0
  0
LINE
  8
01_DREHEN
  5
7DC8
 10
410.69943
 20
536.993991
 30
0.0
 11
413.345425
 21
536.993991
 31
0.0
  0
LINE
  8
01_DREHEN
  5
7DC9
 10
413.345425
 20
536.993991
 30
0.0
 11
413.345425
 21
548.700418
 31
0.0
  0
LINE
  8
01_DREHEN
  5
7DCA
 10
413.345425
 20
548.700418
 30
0.0
 11
415.963908
 21
552.340268
 31
0.0
  0
LINE
  8
01_DREHEN
  5
7DCB
 10
415.963908
 20
552.340268
 30
0.0
 11
415.963908
 21
582.067888
 31
0.0
  0
LINE
  8
01_DREHEN
  5
7DCC
 10
415.963908
 20
582.067888
 30
0.0
 11
426.711069
 21
582.067888
 31
0.0
  0
LINE
  8
01_DREHEN
  5
7DCD
 10
426.711069
 20
578.539895
 30
0.0
 11
419.491901
 21
578.539895
 31
0.0
  0
LINE
  8
01_DREHEN
  5
7DCE
 10
419.491901
 20
578.539895
 30
0.0
 11
419.491901
 21
552.43604
 31
0.0
  0
LINE
  8
01_DREHEN
  5
7DCF
 10
419.491901
 20
552.43604
 30
0.0
 11
422.165429
 21
548.700418
 31
0.0
  0
LINE
  8
01_DREHEN
  5
7DD0
 10
422.165429
 20
548.700418
 30
0.0
 11
422.165429
 21
536.993991
 31
0.0
  0
LINE
  8
01_DREHEN
  5
7DD1
 10
422.165429
 20
536.993991
 30
0.0
 11
424.811424
 21
536.993991
 31
0.0
  0
LINE
  8
01_DREHEN
  5
7DD2
 10
424.811424
 20
536.993991
 30
0.0
 11
424.811424
 21
533.465976
 31
0.0
  0
LINE
  8
01_DREHEN
  5
7DD3
 10
424.811424
 20
533.465976
 30
0.0
 11
422.165429
 21
533.465976
 31
0.0
  0
LINE
  8
01_DREHEN
  5
7DD4
 10
422.165429
 20
533.465976
 30
0.0
 11
422.165429
 21
526.410438
 31
0.0
  0
LINE
  8
01_DREHEN
  5
7DD5
 10
422.165429
 20
526.410438
 30
0.0
 11
419.491901
 21
526.410438
 31
0.0
  0
LINE
  8
01_DREHEN
  5
7DD6
 10
426.711069
 20
582.067888
 30
0.0
 11
426.711069
 21
578.539895
 31
0.0
  0
LINE
  8
01_DREHEN
  5
7E6D
 10
463.921423
 20
454.707376
 30
0.0
 11
464.042579
 21
452.916317
 31
0.0
  0
LINE
  8
01_DREHEN
  5
7E6E
 10
464.042579
 20
452.916317
 30
0.0
 11
464.395378
 21
451.197193
 31
0.0
  0
LINE
  8
01_DREHEN
  5
7E6F
 10
464.395378
 20
451.197193
 30
0.0
 11
464.963894
 21
449.566023
 31
0.0
  0
LINE
  8
01_DREHEN
  5
7E70
 10
464.963894
 20
449.566023
 30
0.0
 11
465.732108
 21
448.038757
 31
0.0
  0
LINE
  8
01_DREHEN
  5
7E71
 10
465.732108
 20
448.038757
 30
0.0
 11
466.68407
 21
446.631346
 31
0.0
  0
LINE
  8
01_DREHEN
  5
7E72
 10
466.68407
 20
446.631346
 30
0.0
 11
467.803829
 21
445.359785
 31
0.0
  0
LINE
  8
01_DREHEN
  5
7E73
 10
467.803829
 20
445.359785
 30
0.0
 11
469.07539
 21
444.240026
 31
0.0
  0
LINE
  8
01_DREHEN
  5
7E74
 10
469.07539
 20
444.240026
 30
0.0
 11
470.482801
 21
443.288064
 31
0.0
  0
LINE
  8
01_DREHEN
  5
7E75
 10
470.482801
 20
443.288064
 30
0.0
 11
472.010066
 21
442.51985
 31
0.0
  0
LINE
  8
01_DREHEN
  5
7E76
 10
472.010066
 20
442.51985
 30
0.0
 11
473.641237
 21
441.951334
 31
0.0
  0
LINE
  8
01_DREHEN
  5
7E77
 10
473.641237
 20
441.951334
 30
0.0
 11
475.360361
 21
441.598535
 31
0.0
  0
LINE
  8
01_DREHEN
  5
7E78
 10
475.360361
 20
441.598535
 30
0.0
 11
477.15142
 21
441.47738
 31
0.0
  0
LINE
  8
01_DREHEN
  5
7E79
 10
477.15142
 20
467.937372
 30
0.0
 11
475.360361
 21
467.816218
 31
0.0
  0
LINE
  8
01_DREHEN
  5
7E7A
 10
475.360361
 20
467.816218
 30
0.0
 11
473.641237
 21
467.463418
 31
0.0
  0
LINE
  8
01_DREHEN
  5
7E7B
 10
473.641237
 20
467.463418
 30
0.0
 11
472.010066
 21
466.894902
 31
0.0
  0
LINE
  8
01_DREHEN
  5
7E7C
 10
472.010066
 20
466.894902
 30
0.0
 11
470.482801
 21
466.126688
 31
0.0
  0
LINE
  8
01_DREHEN
  5
7E7D
 10
470.482801
 20
466.126688
 30
0.0
 11
469.07539
 21
465.174725
 31
0.0
  0
LINE
  8
01_DREHEN
  5
7E7E
 10
469.07539
 20
465.174725
 30
0.0
 11
467.803829
 21
464.054967
 31
0.0
  0
LINE
  8
01_DREHEN
  5
7E7F
 10
467.803829
 20
464.054967
 30
0.0
 11
466.68407
 21
462.783407
 31
0.0
  0
LINE
  8
01_DREHEN
  5
7E80
 10
466.68407
 20
462.783407
 30
0.0
 11
465.732108
 21
461.375995
 31
0.0
  0
LINE
  8
01_DREHEN
  5
7E81
 10
465.732108
 20
461.375995
 30
0.0
 11
464.963894
 21
459.848729
 31
0.0
  0
LINE
  8
01_DREHEN
  5
7E82
 10
464.963894
 20
459.848729
 30
0.0
 11
464.395378
 21
458.217559
 31
0.0
  0
LINE
  8
01_DREHEN
  5
7E83
 10
464.395378
 20
458.217559
 30
0.0
 11
464.042579
 21
456.498435
 31
0.0
  0
LINE
  8
01_DREHEN
  5
7E84
 10
464.042579
 20
456.498435
 30
0.0
 11
463.921423
 21
454.707376
 31
0.0
  0
LINE
  8
01_DREHEN
  5
7E85
 10
490.381416
 20
454.707376
 30
0.0
 11
490.260261
 21
456.498435
 31
0.0
  0
LINE
  8
01_DREHEN
  5
7E86
 10
490.260261
 20
456.498435
 30
0.0
 11
489.907462
 21
458.217559
 31
0.0
  0
LINE
  8
01_DREHEN
  5
7E87
 10
489.907462
 20
458.217559
 30
0.0
 11
489.338946
 21
459.848729
 31
0.0
  0
LINE
  8
01_DREHEN
  5
7E88
 10
489.338946
 20
459.848729
 30
0.0
 11
488.570732
 21
461.375995
 31
0.0
  0
LINE
  8
01_DREHEN
  5
7E89
 10
488.570732
 20
461.375995
 30
0.0
 11
487.618769
 21
462.783407
 31
0.0
  0
LINE
  8
01_DREHEN
  5
7E8A
 10
487.618769
 20
462.783407
 30
0.0
 11
486.49901
 21
464.054967
 31
0.0
  0
LINE
  8
01_DREHEN
  5
7E8B
 10
486.49901
 20
464.054967
 30
0.0
 11
485.22745
 21
465.174725
 31
0.0
  0
LINE
  8
01_DREHEN
  5
7E8C
 10
485.22745
 20
465.174725
 30
0.0
 11
483.820039
 21
466.126688
 31
0.0
  0
LINE
  8
01_DREHEN
  5
7E8D
 10
483.820039
 20
466.126688
 30
0.0
 11
482.292773
 21
466.894902
 31
0.0
  0
LINE
  8
01_DREHEN
  5
7E8E
 10
482.292773
 20
466.894902
 30
0.0
 11
480.661603
 21
467.463418
 31
0.0
  0
LINE
  8
01_DREHEN
  5
7E8F
 10
480.661603
 20
467.463418
 30
0.0
 11
478.942479
 21
467.816218
 31
0.0
  0
LINE
  8
01_DREHEN
  5
7E90
 10
478.942479
 20
467.816218
 30
0.0
 11
477.15142
 21
467.937372
 31
0.0
  0
LINE
  8
01_DREHEN
  5
7E91
 10
478.166872
 20
441.516092
 30
0.0
 11
479.987547
 21
441.784321
 31
0.0
  0
LINE
  8
01_DREHEN
  5
7E92
 10
479.987547
 20
441.784321
 30
0.0
 11
481.720023
 21
442.292596
 31
0.0
  0
LINE
  8
01_DREHEN
  5
7E93
 10
481.720023
 20
442.292596
 30
0.0
 11
483.346354
 21
443.022972
 31
0.0
  0
LINE
  8
01_DREHEN
  5
7E94
 10
483.346354
 20
443.022972
 30
0.0
 11
484.848596
 21
443.957482
 31
0.0
  0
LINE
  8
01_DREHEN
  5
7E95
 10
484.848596
 20
443.957482
 30
0.0
 11
486.20876
 21
445.078205
 31
0.0
  0
LINE
  8
01_DREHEN
  5
7E96
 10
486.20876
 20
445.078205
 30
0.0
 11
487.408945
 21
446.367172
 31
0.0
  0
LINE
  8
01_DREHEN
  5
7E97
 10
487.408945
 20
446.367172
 30
0.0
 11
488.431163
 21
447.80644
 31
0.0
  0
LINE
  8
01_DREHEN
  5
7E98
 10
488.431163
 20
447.80644
 30
0.0
 11
489.257467
 21
449.378041
 31
0.0
  0
LINE
  8
01_DREHEN
  5
7E99
 10
489.257467
 20
449.378041
 30
0.0
 11
489.869915
 21
451.064031
 31
0.0
  0
LINE
  8
01_DREHEN
  5
7E9A
 10
489.869915
 20
451.064031
 30
0.0
 11
490.250561
 21
452.846465
 31
0.0
  0
LINE
  8
01_DREHEN
  5
7E9B
 10
490.250561
 20
452.846465
 30
0.0
 11
490.381416
 21
454.707376
 31
0.0
  0
LINE
  8
03_DUENN
  5
7E9C
 10
353.92782
 20
523.098801
 30
0.0
 11
357.928132
 21
523.098801
 31
0.0
  0
LINE
  8
03_DUENN
  5
7E9D
 10
357.928132
 20
523.098801
 30
0.0
 11
357.928132
 21
518.68881
 31
0.0
  0
LINE
  8
03_DUENN
  5
7E9E
 10
357.928132
 20
518.68881
 30
0.0
 11
353.92782
 21
518.68881
 31
0.0
  0
LINE
  8
03_DUENN
  5
7E9F
 10
353.92782
 20
518.68881
 30
0.0
 11
353.92782
 21
523.098801
 31
0.0
  0
LINE
  8
01_DREHEN
  5
7EA0
 10
350.791944
 20
514.722013
 30
0.0
 11
331.284504
 21
514.722013
 31
0.0
  0
LINE
  8
01_DREHEN
  5
7EA1
 10
331.284504
 20
514.722013
 30
0.0
 11
331.284504
 21
530.598003
 31
0.0
  0
LINE
  8
01_DREHEN
  5
7EA2
 10
331.284504
 20
530.598003
 30
0.0
 11
334.812497
 21
530.598003
 31
0.0
  0
LINE
  8
01_DREHEN
  5
7EA3
 10
334.812497
 20
530.598003
 30
0.0
 11
334.812497
 21
539.418009
 31
0.0
  0
LINE
  8
01_DREHEN
  5
7EA4
 10
334.812497
 20
539.418009
 30
0.0
 11
327.756489
 21
539.418009
 31
0.0
  0
LINE
  8
01_DREHEN
  5
7EA5
 10
327.756489
 20
539.418009
 30
0.0
 11
327.756489
 21
548.238013
 31
0.0
  0
LINE
  8
01_DREHEN
  5
7EA6
 10
327.756489
 20
548.238013
 30
0.0
 11
331.284504
 21
548.238013
 31
0.0
  0
LINE
  8
01_DREHEN
  5
7EA7
 10
331.284504
 20
548.238013
 30
0.0
 11
331.284504
 21
555.293999
 31
0.0
  0
LINE
  8
01_DREHEN
  5
7EA8
 10
331.284504
 20
555.293999
 30
0.0
 11
378.912499
 21
565.234681
 31
0.0
  0
LINE
  8
01_DREHEN
  5
7EA9
 10
378.912499
 20
565.234681
 30
0.0
 11
378.912499
 21
514.722013
 31
0.0
  0
LINE
  8
01_DREHEN
  5
7EAA
 10
378.912499
 20
514.722013
 30
0.0
 11
354.279656
 21
514.722013
 31
0.0
  0
LINE
  8
01_DREHEN
  5
7EAB
 10
354.279656
 20
514.722013
 30
0.0
 11
350.791944
 21
514.722013
 31
0.0
  0
LINE
  8
03_DUENN
  5
7EAC
 10
375.384506
 20
539.418009
 30
0.0
 11
371.85649
 21
539.418009
 31
0.0
  0
LINE
  8
03_DUENN
  5
7EAD
 10
371.85649
 20
539.418009
 30
0.0
 11
371.85649
 21
548.238013
 31
0.0
  0
LINE
  8
03_DUENN
  5
7EAE
 10
371.85649
 20
548.238013
 30
0.0
 11
375.384506
 21
548.238013
 31
0.0
  0
LINE
  8
03_DUENN
  5
7EAF
 10
375.384506
 20
548.238013
 30
0.0
 11
375.384506
 21
539.418009
 31
0.0
  0
LINE
  8
03_DUENN
  5
7EB0
 10
311.458026
 20
449.855759
 30
0.0
 11
311.57918
 21
448.064699
 31
0.0
  0
LINE
  8
03_DUENN
  5
7EB1
 10
311.57918
 20
448.064699
 30
0.0
 11
311.931979
 21
446.345576
 31
0.0
  0
LINE
  8
03_DUENN
  5
7EB2
 10
311.931979
 20
446.345576
 30
0.0
 11
312.500473
 21
444.714405
 31
0.0
  0
LINE
  8
03_DUENN
  5
7EB3
 10
312.500473
 20
444.714405
 30
0.0
 11
313.26871
 21
443.187139
 31
0.0
  0
LINE
  8
03_DUENN
  5
7EB4
 10
313.26871
 20
443.187139
 30
0.0
 11
314.220672
 21
441.779728
 31
0.0
  0
LINE
  8
03_DUENN
  5
7EB5
 10
314.220672
 20
441.779728
 30
0.0
 11
315.340431
 21
440.508168
 31
0.0
  0
LINE
  8
03_DUENN
  5
7EB6
 10
315.340431
 20
440.508168
 30
0.0
 11
316.611992
 21
439.388409
 31
0.0
  0
LINE
  8
03_DUENN
  5
7EB7
 10
316.611992
 20
439.388409
 30
0.0
 11
318.019403
 21
438.436447
 31
0.0
  0
LINE
  8
03_DUENN
  5
7EB8
 10
318.019403
 20
438.436447
 30
0.0
 11
319.546669
 21
437.668232
 31
0.0
  0
LINE
  8
03_DUENN
  5
7EB9
 10
319.546669
 20
437.668232
 30
0.0
 11
321.177839
 21
437.099716
 31
0.0
  0
LINE
  8
03_DUENN
  5
7EBA
 10
321.177839
 20
437.099716
 30
0.0
 11
322.896941
 21
436.746916
 31
0.0
  0
LINE
  8
03_DUENN
  5
7EBB
 10
322.896941
 20
436.746916
 30
0.0
 11
324.688021
 21
436.625762
 31
0.0
  0
LINE
  8
03_DUENN
  5
7EBC
 10
324.688021
 20
463.085754
 30
0.0
 11
322.896941
 21
462.9646
 31
0.0
  0
LINE
  8
03_DUENN
  5
7EBD
 10
322.896941
 20
462.9646
 30
0.0
 11
321.177839
 21
462.611801
 31
0.0
  0
LINE
  8
03_DUENN
  5
7EBE
 10
321.177839
 20
462.611801
 30
0.0
 11
319.546669
 21
462.043285
 31
0.0
  0
LINE
  8
03_DUENN
  5
7EBF
 10
319.546669
 20
462.043285
 30
0.0
 11
318.019403
 21
461.27507
 31
0.0
  0
LINE
  8
03_DUENN
  5
7EC0
 10
318.019403
 20
461.27507
 30
0.0
 11
316.611992
 21
460.323108
 31
0.0
  0
LINE
  8
03_DUENN
  5
7EC1
 10
316.611992
 20
460.323108
 30
0.0
 11
315.340431
 21
459.203349
 31
0.0
  0
LINE
  8
03_DUENN
  5
7EC2
 10
315.340431
 20
459.203349
 30
0.0
 11
314.220672
 21
457.931788
 31
0.0
  0
LINE
  8
03_DUENN
  5
7EC3
 10
314.220672
 20
457.931788
 30
0.0
 11
313.26871
 21
456.524377
 31
0.0
  0
LINE
  8
03_DUENN
  5
7EC4
 10
313.26871
 20
456.524377
 30
0.0
 11
312.500473
 21
454.997111
 31
0.0
  0
LINE
  8
03_DUENN
  5
7EC5
 10
312.500473
 20
454.997111
 30
0.0
 11
311.931979
 21
453.365941
 31
0.0
  0
LINE
  8
03_DUENN
  5
7EC6
 10
311.931979
 20
453.365941
 30
0.0
 11
311.57918
 21
451.646818
 31
0.0
  0
LINE
  8
03_DUENN
  5
7EC7
 10
311.57918
 20
451.646818
 30
0.0
 11
311.458026
 21
449.855759
 31
0.0
  0
LINE
  8
03_DUENN
  5
7EC8
 10
337.918018
 20
449.855759
 30
0.0
 11
337.796864
 21
451.646818
 31
0.0
  0
LINE
  8
03_DUENN
  5
7EC9
 10
337.796864
 20
451.646818
 30
0.0
 11
337.444064
 21
453.365941
 31
0.0
  0
LINE
  8
03_DUENN
  5
7ECA
 10
337.444064
 20
453.365941
 30
0.0
 11
336.875549
 21
454.997111
 31
0.0
  0
LINE
  8
03_DUENN
  5
7ECB
 10
336.875549
 20
454.997111
 30
0.0
 11
336.107334
 21
456.524377
 31
0.0
  0
LINE
  8
03_DUENN
  5
7ECC
 10
336.107334
 20
456.524377
 30
0.0
 11
335.15535
 21
457.931788
 31
0.0
  0
LINE
  8
03_DUENN
  5
7ECD
 10
335.15535
 20
457.931788
 30
0.0
 11
334.035613
 21
459.203349
 31
0.0
  0
LINE
  8
03_DUENN
  5
7ECE
 10
334.035613
 20
459.203349
 30
0.0
 11
332.764052
 21
460.323108
 31
0.0
  0
LINE
  8
03_DUENN
  5
7ECF
 10
332.764052
 20
460.323108
 30
0.0
 11
331.356641
 21
461.27507
 31
0.0
  0
LINE
  8
03_DUENN
  5
7ED0
 10
331.356641
 20
461.27507
 30
0.0
 11
329.829375
 21
462.043285
 31
0.0
  0
LINE
  8
03_DUENN
  5
7ED1
 10
329.829375
 20
462.043285
 30
0.0
 11
328.198204
 21
462.611801
 31
0.0
  0
LINE
  8
03_DUENN
  5
7ED2
 10
328.198204
 20
462.611801
 30
0.0
 11
326.479081
 21
462.9646
 31
0.0
  0
LINE
  8
03_DUENN
  5
7ED3
 10
326.479081
 20
462.9646
 30
0.0
 11
324.688021
 21
463.085754
 31
0.0
  0
LINE
  8
03_DUENN
  5
7ED4
 10
324.688021
 20
436.625762
 30
0.0
 11
326.479081
 21
436.746916
 31
0.0
  0
LINE
  8
03_DUENN
  5
7ED5
 10
326.479081
 20
436.746916
 30
0.0
 11
328.198204
 21
437.099716
 31
0.0
  0
LINE
  8
03_DUENN
  5
7ED6
 10
328.198204
 20
437.099716
 30
0.0
 11
329.829375
 21
437.668232
 31
0.0
  0
LINE
  8
03_DUENN
  5
7ED7
 10
329.829375
 20
437.668232
 30
0.0
 11
331.356641
 21
438.436447
 31
0.0
  0
LINE
  8
03_DUENN
  5
7ED8
 10
331.356641
 20
438.436447
 30
0.0
 11
332.764052
 21
439.388409
 31
0.0
  0
LINE
  8
03_DUENN
  5
7ED9
 10
332.764052
 20
439.388409
 30
0.0
 11
334.035613
 21
440.508168
 31
0.0
  0
LINE
  8
03_DUENN
  5
7EDA
 10
334.035613
 20
440.508168
 30
0.0
 11
335.15535
 21
441.779728
 31
0.0
  0
LINE
  8
03_DUENN
  5
7EDB
 10
335.15535
 20
441.779728
 30
0.0
 11
336.107334
 21
443.187139
 31
0.0
  0
LINE
  8
03_DUENN
  5
7EDC
 10
336.107334
 20
443.187139
 30
0.0
 11
336.875549
 21
444.714405
 31
0.0
  0
LINE
  8
03_DUENN
  5
7EDD
 10
336.875549
 20
444.714405
 30
0.0
 11
337.444064
 21
446.345576
 31
0.0
  0
LINE
  8
03_DUENN
  5
7EDE
 10
337.444064
 20
446.345576
 30
0.0
 11
337.796864
 21
448.064699
 31
0.0
  0
LINE
  8
03_DUENN
  5
7EDF
 10
337.796864
 20
448.064699
 30
0.0
 11
337.918018
 21
449.855759
 31
0.0
  0
LINE
  8
03_DUENN
  5
7EE0
 10
333.73098
 20
501.012553
 30
0.0
 11
333.73098
 21
497.48456
 31
0.0
  0
LINE
  8
03_DUENN
  5
7EE1
 10
333.73098
 20
497.48456
 30
0.0
 11
315.644616
 21
497.48456
 31
0.0
  0
LINE
  8
03_DUENN
  5
7EE2
 10
315.644616
 20
497.48456
 30
0.0
 11
315.644616
 21
501.012553
 31
0.0
  0
LINE
  8
03_DUENN
  5
7EE3
 10
315.644616
 20
501.012553
 30
0.0
 11
333.73098
 21
501.012553
 31
0.0
  0
LINE
  8
01_DREHEN
  5
7EE4
 10
309.19913
 20
405.756541
 30
0.0
 11
315.867748
 21
405.756541
 31
0.0
  0
LINE
  8
01_DREHEN
  5
7EE5
 10
315.867748
 20
405.756541
 30
0.0
 11
315.867748
 21
409.284556
 31
0.0
  0
LINE
  8
01_DREHEN
  5
7EE6
 10
315.867748
 20
409.284556
 30
0.0
 11
333.507758
 21
409.284556
 31
0.0
  0
LINE
  8
01_DREHEN
  5
7EE7
 10
333.507758
 20
409.284556
 30
0.0
 11
333.507758
 21
405.756541
 31
0.0
  0
LINE
  8
01_DREHEN
  5
7EE8
 10
333.507758
 20
405.756541
 30
0.0
 11
351.147745
 21
405.756541
 31
0.0
  0
LINE
  8
01_DREHEN
  5
7EE9
 10
351.147745
 20
405.756541
 30
0.0
 11
351.147745
 21
409.284556
 31
0.0
  0
LINE
  8
01_DREHEN
  5
7EEA
 10
351.147745
 20
409.284556
 30
0.0
 11
359.96775
 21
409.284556
 31
0.0
  0
LINE
  8
01_DREHEN
  5
7EEB
 10
359.96775
 20
409.284556
 30
0.0
 11
359.96775
 21
405.756541
 31
0.0
  0
LINE
  8
01_DREHEN
  5
7EEC
 10
359.96775
 20
405.756541
 30
0.0
 11
363.485437
 21
405.756541
 31
0.0
  0
LINE
  8
01_DREHEN
  5
7EED
 10
363.485437
 20
405.756541
 30
0.0
 11
363.485437
 21
423.581867
 31
0.0
  0
LINE
  8
01_DREHEN
  5
7EEE
 10
363.485437
 20
423.581867
 30
0.0
 11
367.01343
 21
423.581867
 31
0.0
  0
LINE
  8
01_DREHEN
  5
7EEF
 10
367.01343
 20
423.581867
 30
0.0
 11
367.01343
 21
427.115237
 31
0.0
  0
LINE
  8
01_DREHEN
  5
7EF0
 10
367.01343
 20
427.115237
 30
0.0
 11
363.485437
 21
427.115237
 31
0.0
  0
LINE
  8
01_DREHEN
  5
7EF1
 10
363.485437
 20
427.115237
 30
0.0
 11
363.485437
 21
449.855938
 31
0.0
  0
LINE
  8
01_DREHEN
  5
7EF2
 10
363.485437
 20
449.855938
 30
0.0
 11
347.446623
 21
504.563127
 31
0.0
  0
LINE
  8
01_DREHEN
  5
7EF3
 10
347.446623
 20
504.563127
 30
0.0
 11
301.928883
 21
504.563127
 31
0.0
  0
LINE
  8
01_DREHEN
  5
7EF4
 10
301.928883
 20
504.563127
 30
0.0
 11
285.879763
 21
449.855938
 31
0.0
  0
LINE
  8
01_DREHEN
  5
7EF5
 10
285.879763
 20
449.855938
 30
0.0
 11
285.869436
 21
427.115237
 31
0.0
  0
LINE
  8
01_DREHEN
  5
7EF6
 10
285.869436
 20
427.115237
 30
0.0
 11
282.341443
 21
427.115237
 31
0.0
  0
LINE
  8
01_DREHEN
  5
7EF7
 10
282.341443
 20
427.115237
 30
0.0
 11
282.341443
 21
423.581867
 31
0.0
  0
LINE
  8
01_DREHEN
  5
7EF8
 10
282.341443
 20
423.581867
 30
0.0
 11
285.869436
 21
423.581867
 31
0.0
  0
LINE
  8
01_DREHEN
  5
7EF9
 10
285.869436
 20
423.581867
 30
0.0
 11
285.879763
 21
405.756541
 31
0.0
  0
LINE
  8
01_DREHEN
  5
7EFA
 10
285.879763
 20
405.756541
 30
0.0
 11
289.407756
 21
405.756541
 31
0.0
  0
LINE
  8
01_DREHEN
  5
7EFB
 10
289.407756
 20
405.756541
 30
0.0
 11
289.407756
 21
409.284556
 31
0.0
  0
LINE
  8
01_DREHEN
  5
7EFC
 10
289.407756
 20
409.284556
 30
0.0
 11
298.227761
 21
409.284556
 31
0.0
  0
LINE
  8
01_DREHEN
  5
7EFD
 10
298.227761
 20
409.284556
 30
0.0
 11
298.227761
 21
405.756541
 31
0.0
  0
LINE
  8
01_DREHEN
  5
7EFE
 10
298.227761
 20
405.756541
 30
0.0
 11
306.498091
 21
405.756541
 31
0.0
  0
LINE
  8
03_DUENN
  5
7EFF
 10
293.514525
 20
523.098801
 30
0.0
 11
297.514837
 21
523.098801
 31
0.0
  0
LINE
  8
03_DUENN
  5
7F00
 10
297.514837
 20
523.098801
 30
0.0
 11
297.514837
 21
518.68881
 31
0.0
  0
LINE
  8
03_DUENN
  5
7F01
 10
297.514837
 20
518.68881
 30
0.0
 11
293.514525
 21
518.68881
 31
0.0
  0
LINE
  8
03_DUENN
  5
7F02
 10
293.514525
 20
518.68881
 30
0.0
 11
293.514525
 21
523.098801
 31
0.0
  0
LINE
  8
01_DREHEN
  5
7F03
 10
290.378649
 20
514.722013
 30
0.0
 11
270.871209
 21
514.722013
 31
0.0
  0
LINE
  8
01_DREHEN
  5
7F04
 10
270.871209
 20
514.722013
 30
0.0
 11
270.871209
 21
530.598003
 31
0.0
  0
LINE
  8
01_DREHEN
  5
7F05
 10
270.871209
 20
530.598003
 30
0.0
 11
274.399202
 21
530.598003
 31
0.0
  0
LINE
  8
01_DREHEN
  5
7F06
 10
274.399202
 20
530.598003
 30
0.0
 11
274.399202
 21
539.418009
 31
0.0
  0
LINE
  8
01_DREHEN
  5
7F07
 10
274.399202
 20
539.418009
 30
0.0
 11
267.343194
 21
539.418009
 31
0.0
  0
LINE
  8
01_DREHEN
  5
7F08
 10
267.343194
 20
539.418009
 30
0.0
 11
267.343194
 21
548.238013
 31
0.0
  0
LINE
  8
01_DREHEN
  5
7F09
 10
267.343194
 20
548.238013
 30
0.0
 11
270.871209
 21
548.238013
 31
0.0
  0
LINE
  8
01_DREHEN
  5
7F0A
 10
270.871209
 20
548.238013
 30
0.0
 11
270.871209
 21
555.293999
 31
0.0
  0
LINE
  8
01_DREHEN
  5
7F0B
 10
270.871209
 20
555.293999
 30
0.0
 11
318.499204
 21
565.234681
 31
0.0
  0
LINE
  8
01_DREHEN
  5
7F0C
 10
318.499204
 20
565.234681
 30
0.0
 11
318.499204
 21
514.722013
 31
0.0
  0
LINE
  8
01_DREHEN
  5
7F0D
 10
318.499204
 20
514.722013
 30
0.0
 11
294.057928
 21
514.722013
 31
0.0
  0
LINE
  8
01_DREHEN
  5
7F0E
 10
294.057928
 20
514.722013
 30
0.0
 11
290.378649
 21
514.722013
 31
0.0
  0
LINE
  8
03_DUENN
  5
7F0F
 10
314.971211
 20
539.418009
 30
0.0
 11
311.443195
 21
539.418009
 31
0.0
  0
LINE
  8
03_DUENN
  5
7F10
 10
311.443195
 20
539.418009
 30
0.0
 11
311.443195
 21
548.238013
 31
0.0
  0
LINE
  8
03_DUENN
  5
7F11
 10
311.443195
 20
548.238013
 30
0.0
 11
314.971211
 21
548.238013
 31
0.0
  0
LINE
  8
03_DUENN
  5
7F12
 10
314.971211
 20
548.238013
 30
0.0
 11
314.971211
 21
539.418009
 31
0.0
  0
LINE
  8
01_DREHEN
  5
7F13
 10
463.921423
 20
419.067075
 30
0.0
 11
464.042579
 21
417.276016
 31
0.0
  0
LINE
  8
01_DREHEN
  5
7F14
 10
464.042579
 20
417.276016
 30
0.0
 11
464.395378
 21
415.556892
 31
0.0
  0
LINE
  8
01_DREHEN
  5
7F15
 10
464.395378
 20
415.556892
 30
0.0
 11
464.963894
 21
413.925722
 31
0.0
  0
LINE
  8
01_DREHEN
  5
7F16
 10
464.963894
 20
413.925722
 30
0.0
 11
465.732108
 21
412.398456
 31
0.0
  0
LINE
  8
01_DREHEN
  5
7F17
 10
465.732108
 20
412.398456
 30
0.0
 11
466.68407
 21
410.991045
 31
0.0
  0
LINE
  8
01_DREHEN
  5
7F18
 10
466.68407
 20
410.991045
 30
0.0
 11
467.803829
 21
409.719484
 31
0.0
  0
LINE
  8
01_DREHEN
  5
7F19
 10
467.803829
 20
409.719484
 30
0.0
 11
469.07539
 21
408.599747
 31
0.0
  0
LINE
  8
01_DREHEN
  5
7F1A
 10
469.07539
 20
408.599747
 30
0.0
 11
470.482801
 21
407.647763
 31
0.0
  0
LINE
  8
01_DREHEN
  5
7F1B
 10
470.482801
 20
407.647763
 30
0.0
 11
472.010066
 21
406.879548
 31
0.0
  0
LINE
  8
01_DREHEN
  5
7F1C
 10
472.010066
 20
406.879548
 30
0.0
 11
473.641237
 21
406.311032
 31
0.0
  0
LINE
  8
01_DREHEN
  5
7F1D
 10
473.641237
 20
406.311032
 30
0.0
 11
475.360361
 21
405.958233
 31
0.0
  0
LINE
  8
01_DREHEN
  5
7F1E
 10
475.360361
 20
405.958233
 30
0.0
 11
477.15142
 21
405.837079
 31
0.0
  0
LINE
  8
01_DREHEN
  5
7F1F
 10
477.15142
 20
432.297071
 30
0.0
 11
475.360361
 21
432.175917
 31
0.0
  0
LINE
  8
01_DREHEN
  5
7F20
 10
475.360361
 20
432.175917
 30
0.0
 11
473.641237
 21
431.823117
 31
0.0
  0
LINE
  8
01_DREHEN
  5
7F21
 10
473.641237
 20
431.823117
 30
0.0
 11
472.010066
 21
431.254602
 31
0.0
  0
LINE
  8
01_DREHEN
  5
7F22
 10
472.010066
 20
431.254602
 30
0.0
 11
470.482801
 21
430.486387
 31
0.0
  0
LINE
  8
01_DREHEN
  5
7F23
 10
470.482801
 20
430.486387
 30
0.0
 11
469.07539
 21
429.534425
 31
0.0
  0
LINE
  8
01_DREHEN
  5
7F24
 10
469.07539
 20
429.534425
 30
0.0
 11
467.803829
 21
428.414666
 31
0.0
  0
LINE
  8
01_DREHEN
  5
7F25
 10
467.803829
 20
428.414666
 30
0.0
 11
466.68407
 21
427.143105
 31
0.0
  0
LINE
  8
01_DREHEN
  5
7F26
 10
466.68407
 20
427.143105
 30
0.0
 11
465.732108
 21
425.735694
 31
0.0
  0
LINE
  8
01_DREHEN
  5
7F27
 10
465.732108
 20
425.735694
 30
0.0
 11
464.963894
 21
424.208428
 31
0.0
  0
LINE
  8
01_DREHEN
  5
7F28
 10
464.963894
 20
424.208428
 30
0.0
 11
464.395378
 21
422.577257
 31
0.0
  0
LINE
  8
01_DREHEN
  5
7F29
 10
464.395378
 20
422.577257
 30
0.0
 11
464.042579
 21
420.858157
 31
0.0
  0
LINE
  8
01_DREHEN
  5
7F2A
 10
464.042579
 20
420.858157
 30
0.0
 11
463.921423
 21
419.067075
 31
0.0
  0
LINE
  8
01_DREHEN
  5
7F2B
 10
490.381416
 20
419.067075
 30
0.0
 11
490.260261
 21
420.858157
 31
0.0
  0
LINE
  8
01_DREHEN
  5
7F2C
 10
490.260261
 20
420.858157
 30
0.0
 11
489.907462
 21
422.577257
 31
0.0
  0
LINE
  8
01_DREHEN
  5
7F2D
 10
489.907462
 20
422.577257
 30
0.0
 11
489.338946
 21
424.208428
 31
0.0
  0
LINE
  8
01_DREHEN
  5
7F2E
 10
489.338946
 20
424.208428
 30
0.0
 11
488.570732
 21
425.735694
 31
0.0
  0
LINE
  8
01_DREHEN
  5
7F2F
 10
488.570732
 20
425.735694
 30
0.0
 11
487.618769
 21
427.143105
 31
0.0
  0
LINE
  8
01_DREHEN
  5
7F30
 10
487.618769
 20
427.143105
 30
0.0
 11
486.49901
 21
428.414666
 31
0.0
  0
LINE
  8
01_DREHEN
  5
7F31
 10
486.49901
 20
428.414666
 30
0.0
 11
485.22745
 21
429.534425
 31
0.0
  0
LINE
  8
01_DREHEN
  5
7F32
 10
485.22745
 20
429.534425
 30
0.0
 11
483.820039
 21
430.486387
 31
0.0
  0
LINE
  8
01_DREHEN
  5
7F33
 10
483.820039
 20
430.486387
 30
0.0
 11
482.292773
 21
431.254602
 31
0.0
  0
LINE
  8
01_DREHEN
  5
7F34
 10
482.292773
 20
431.254602
 30
0.0
 11
480.661603
 21
431.823117
 31
0.0
  0
LINE
  8
01_DREHEN
  5
7F35
 10
480.661603
 20
431.823117
 30
0.0
 11
478.942479
 21
432.175917
 31
0.0
  0
LINE
  8
01_DREHEN
  5
7F36
 10
478.942479
 20
432.175917
 30
0.0
 11
477.15142
 21
432.297071
 31
0.0
  0
LINE
  8
01_DREHEN
  5
7F37
 10
478.166872
 20
405.875791
 30
0.0
 11
479.987547
 21
406.14402
 31
0.0
  0
LINE
  8
01_DREHEN
  5
7F38
 10
479.987547
 20
406.14402
 30
0.0
 11
481.720023
 21
406.652295
 31
0.0
  0
LINE
  8
01_DREHEN
  5
7F39
 10
481.720023
 20
406.652295
 30
0.0
 11
483.346354
 21
407.38267
 31
0.0
  0
LINE
  8
01_DREHEN
  5
7F3A
 10
483.346354
 20
407.38267
 30
0.0
 11
484.848596
 21
408.317181
 31
0.0
  0
LINE
  8
01_DREHEN
  5
7F3B
 10
484.848596
 20
408.317181
 30
0.0
 11
486.20876
 21
409.437903
 31
0.0
  0
LINE
  8
01_DREHEN
  5
7F3C
 10
486.20876
 20
409.437903
 30
0.0
 11
487.408945
 21
410.726871
 31
0.0
  0
LINE
  8
01_DREHEN
  5
7F3D
 10
487.408945
 20
410.726871
 30
0.0
 11
488.431163
 21
412.166139
 31
0.0
  0
LINE
  8
01_DREHEN
  5
7F3E
 10
488.431163
 20
412.166139
 30
0.0
 11
489.257467
 21
413.737741
 31
0.0
  0
LINE
  8
01_DREHEN
  5
7F3F
 10
489.257467
 20
413.737741
 30
0.0
 11
489.869915
 21
415.42373
 31
0.0
  0
LINE
  8
01_DREHEN
  5
7F40
 10
489.869915
 20
415.42373
 30
0.0
 11
490.250561
 21
417.206164
 31
0.0
  0
LINE
  8
01_DREHEN
  5
7F41
 10
490.250561
 20
417.206164
 30
0.0
 11
490.381416
 21
419.067075
 31
0.0
  0
LINE
  8
03_DUENN
  5
7F4E
 10
458.689334
 20
550.146257
 30
0.0
 11
467.662014
 21
550.142112
 31
0.0
  0
LINE
  8
03_DUENN
  5
7F4F
 10
467.662014
 20
550.142112
 30
0.0
 11
467.660334
 21
546.474842
 31
0.0
  0
LINE
  8
03_DUENN
  5
7F50
 10
467.660334
 20
546.474842
 30
0.0
 11
458.687677
 21
546.478986
 31
0.0
  0
LINE
  8
03_DUENN
  5
7F51
 10
458.687677
 20
546.478986
 30
0.0
 11
458.689334
 21
550.146257
 31
0.0
  0
LINE
  8
01_DREHEN
  5
7F52
 10
461.110158
 20
539.430751
 30
0.0
 11
454.359613
 21
539.432947
 31
0.0
  0
LINE
  8
01_DREHEN
  5
7F53
 10
454.359613
 20
539.432947
 30
0.0
 11
454.361024
 21
542.96094
 31
0.0
  0
LINE
  8
01_DREHEN
  5
7F54
 10
454.361024
 20
542.96094
 30
0.0
 11
439.366919
 21
542.966339
 31
0.0
  0
LINE
  8
01_DREHEN
  5
7F55
 10
439.366919
 20
542.966339
 30
0.0
 11
441.807592
 21
550.990327
 31
0.0
  0
LINE
  8
01_DREHEN
  5
7F56
 10
441.807592
 20
550.990327
 30
0.0
 11
438.432454
 21
552.018212
 31
0.0
  0
LINE
  8
01_DREHEN
  5
7F57
 10
438.432454
 20
552.018212
 30
0.0
 11
441.002077
 21
560.45551
 31
0.0
  0
LINE
  8
01_DREHEN
  5
7F58
 10
441.002077
 20
560.45551
 30
0.0
 11
444.377216
 21
559.427715
 31
0.0
  0
LINE
  8
01_DREHEN
  5
7F59
 10
444.377216
 20
559.427715
 30
0.0
 11
446.947802
 21
567.863063
 31
0.0
  0
LINE
  8
01_DREHEN
  5
7F5A
 10
446.947802
 20
567.863063
 30
0.0
 11
452.693516
 21
568.64752
 31
0.0
  0
LINE
  8
01_DREHEN
  5
7F5B
 10
452.693516
 20
568.64752
 30
0.0
 11
452.234863
 21
572.147912
 31
0.0
  0
LINE
  8
01_DREHEN
  5
7F5C
 10
452.234863
 20
572.147912
 30
0.0
 11
455.732971
 21
572.606207
 31
0.0
  0
LINE
  8
01_DREHEN
  5
7F5D
 10
455.732971
 20
572.606207
 30
0.0
 11
456.191602
 21
569.105814
 31
0.0
  0
LINE
  8
01_DREHEN
  5
7F5E
 10
456.191602
 20
569.105814
 30
0.0
 11
463.1871
 21
570.022469
 31
0.0
  0
LINE
  8
01_DREHEN
  5
7F5F
 10
463.1871
 20
570.022469
 30
0.0
 11
470.181007
 21
569.083142
 31
0.0
  0
LINE
  8
01_DREHEN
  5
7F60
 10
470.181007
 20
569.083142
 30
0.0
 11
470.651018
 21
572.582124
 31
0.0
  0
LINE
  8
01_DREHEN
  5
7F61
 10
470.651018
 20
572.582124
 30
0.0
 11
474.147535
 21
572.112538
 31
0.0
  0
LINE
  8
01_DREHEN
  5
7F62
 10
474.147535
 20
572.112538
 30
0.0
 11
473.677703
 21
568.613557
 31
0.0
  0
LINE
  8
01_DREHEN
  5
7F63
 10
473.677703
 20
568.613557
 30
0.0
 11
479.425792
 21
567.851346
 31
0.0
  0
LINE
  8
01_DREHEN
  5
7F64
 10
479.425792
 20
567.851346
 30
0.0
 11
481.993982
 21
559.412548
 31
0.0
  0
LINE
  8
01_DREHEN
  5
7F65
 10
481.993982
 20
559.412548
 30
0.0
 11
485.369568
 21
560.438753
 31
0.0
  0
LINE
  8
01_DREHEN
  5
7F66
 10
485.369568
 20
560.438753
 30
0.0
 11
487.934689
 21
551.999954
 31
0.0
  0
LINE
  8
01_DREHEN
  5
7F67
 10
487.934689
 20
551.999954
 30
0.0
 11
484.559012
 21
550.973749
 31
0.0
  0
LINE
  8
01_DREHEN
  5
7F68
 10
484.559012
 20
550.973749
 30
0.0
 11
486.994936
 21
542.949133
 31
0.0
  0
LINE
  8
01_DREHEN
  5
7F69
 10
486.994936
 20
542.949133
 30
0.0
 11
472.001011
 21
542.95451
 31
0.0
  0
LINE
  8
01_DREHEN
  5
7F6A
 10
472.001011
 20
542.95451
 30
0.0
 11
471.999778
 21
539.426517
 31
0.0
  0
LINE
  8
01_DREHEN
  5
7F6B
 10
471.999778
 20
539.426517
 30
0.0
 11
463.298934
 21
539.429676
 31
0.0
  0
LINE
  8
03_DUENN
  5
7F6C
 10
222.174489
 20
445.009965
 30
0.0
 11
224.398527
 21
444.648676
 31
0.0
  0
LINE
  8
03_DUENN
  5
7F6D
 10
224.398527
 20
444.648676
 30
0.0
 11
226.334689
 21
443.643887
 31
0.0
  0
LINE
  8
03_DUENN
  5
7F6E
 10
226.334689
 20
443.643887
 30
0.0
 11
227.864442
 21
442.114135
 31
0.0
  0
LINE
  8
03_DUENN
  5
7F6F
 10
227.864442
 20
442.114135
 30
0.0
 11
228.869208
 21
440.177973
 31
0.0
  0
LINE
  8
03_DUENN
  5
7F70
 10
228.869208
 20
440.177973
 30
0.0
 11
229.230475
 21
437.953957
 31
0.0
  0
LINE
  8
03_DUENN
  5
7F71
 10
229.230475
 20
437.953957
 30
0.0
 11
229.230475
 21
422.930326
 31
0.0
  0
LINE
  8
03_DUENN
  5
7F72
 10
229.230475
 20
422.930326
 30
0.0
 11
215.118481
 21
422.930326
 31
0.0
  0
LINE
  8
03_DUENN
  5
7F73
 10
215.118481
 20
422.930326
 30
0.0
 11
215.118481
 21
437.953957
 31
0.0
  0
LINE
  8
03_DUENN
  5
7F74
 10
215.118481
 20
437.953957
 30
0.0
 11
215.479748
 21
440.178017
 31
0.0
  0
LINE
  8
03_DUENN
  5
7F75
 10
215.479748
 20
440.178017
 30
0.0
 11
216.484514
 21
442.114179
 31
0.0
  0
LINE
  8
03_DUENN
  5
7F76
 10
216.484514
 20
442.114179
 30
0.0
 11
218.014267
 21
443.64391
 31
0.0
  0
LINE
  8
03_DUENN
  5
7F77
 10
218.014267
 20
443.64391
 30
0.0
 11
219.950429
 21
444.648698
 31
0.0
  0
LINE
  8
03_DUENN
  5
7F78
 10
219.950429
 20
444.648698
 30
0.0
 11
222.174489
 21
445.009965
 31
0.0
  0
LINE
  8
03_DUENN
  5
7F79
 10
250.362678
 20
445.009965
 30
0.0
 11
252.586716
 21
444.648676
 31
0.0
  0
LINE
  8
03_DUENN
  5
7F7A
 10
252.586716
 20
444.648676
 30
0.0
 11
254.5229
 21
443.643887
 31
0.0
  0
LINE
  8
03_DUENN
  5
7F7B
 10
254.5229
 20
443.643887
 30
0.0
 11
256.052631
 21
442.114135
 31
0.0
  0
LINE
  8
03_DUENN
  5
7F7C
 10
256.052631
 20
442.114135
 30
0.0
 11
257.057397
 21
440.177973
 31
0.0
  0
LINE
  8
03_DUENN
  5
7F7D
 10
257.057397
 20
440.177973
 30
0.0
 11
257.418664
 21
437.953957
 31
0.0
  0
LINE
  8
03_DUENN
  5
7F7E
 10
257.418664
 20
437.953957
 30
0.0
 11
257.418664
 21
422.930326
 31
0.0
  0
LINE
  8
03_DUENN
  5
7F7F
 10
257.418664
 20
422.930326
 30
0.0
 11
243.30667
 21
422.930326
 31
0.0
  0
LINE
  8
03_DUENN
  5
7F80
 10
243.30667
 20
422.930326
 30
0.0
 11
243.30667
 21
437.953957
 31
0.0
  0
LINE
  8
03_DUENN
  5
7F81
 10
243.30667
 20
437.953957
 30
0.0
 11
243.667937
 21
440.178017
 31
0.0
  0
LINE
  8
03_DUENN
  5
7F82
 10
243.667937
 20
440.178017
 30
0.0
 11
244.672703
 21
442.114179
 31
0.0
  0
LINE
  8
03_DUENN
  5
7F83
 10
244.672703
 20
442.114179
 30
0.0
 11
246.202456
 21
443.64391
 31
0.0
  0
LINE
  8
03_DUENN
  5
7F84
 10
246.202456
 20
443.64391
 30
0.0
 11
248.138618
 21
444.648698
 31
0.0
  0
LINE
  8
03_DUENN
  5
7F85
 10
248.138618
 20
444.648698
 30
0.0
 11
250.362678
 21
445.009965
 31
0.0
  0
LINE
  8
03_DUENN
  5
7F92
 10
262.947048
 20
410.27998
 30
0.0
 11
262.945816
 21
413.80851
 31
0.0
  0
LINE
  8
03_DUENN
  5
7F93
 10
262.945816
 20
413.80851
 30
0.0
 11
244.865524
 21
413.802149
 31
0.0
  0
LINE
  8
03_DUENN
  5
7F94
 10
244.865524
 20
413.802149
 30
0.0
 11
244.866845
 21
410.273528
 31
0.0
  0
LINE
  8
03_DUENN
  5
7F95
 10
244.866845
 20
410.273528
 30
0.0
 11
262.947048
 21
410.27998
 31
0.0
  0
LINE
  8
01_DREHEN
  5
7F96
 10
233.591539
 20
405.863268
 30
0.0
 11
197.46102
 21
405.863268
 31
0.0
  0
LINE
  8
01_DREHEN
  5
7F97
 10
197.46102
 20
405.863268
 30
0.0
 11
197.46102
 21
410.273282
 31
0.0
  0
LINE
  8
01_DREHEN
  5
7F98
 10
197.46102
 20
410.273282
 30
0.0
 11
201.207126
 21
410.257309
 31
0.0
  0
LINE
  8
01_DREHEN
  5
7F99
 10
201.207126
 20
410.257309
 30
0.0
 11
201.205804
 21
413.786019
 31
0.0
  0
LINE
  8
01_DREHEN
  5
7F9A
 10
201.205804
 20
413.786019
 30
0.0
 11
197.467987
 21
413.784696
 31
0.0
  0
LINE
  8
01_DREHEN
  5
7F9B
 10
197.467987
 20
413.784696
 30
0.0
 11
202.079782
 21
429.050166
 31
0.0
  0
LINE
  8
01_DREHEN
  5
7F9C
 10
202.079782
 20
429.050166
 30
0.0
 11
198.70507
 21
430.078947
 31
0.0
  0
LINE
  8
01_DREHEN
  5
7F9D
 10
198.70507
 20
430.078947
 30
0.0
 11
201.277426
 21
438.515618
 31
0.0
  0
LINE
  8
01_DREHEN
  5
7F9E
 10
201.277426
 20
438.515618
 30
0.0
 11
204.65205
 21
437.486859
 31
0.0
  0
LINE
  8
01_DREHEN
  5
7F9F
 10
204.65205
 20
437.486859
 30
0.0
 11
209.790759
 21
454.360581
 31
0.0
  0
LINE
  8
01_DREHEN
  5
7FA0
 10
209.790759
 20
454.360581
 30
0.0
 11
221.375202
 21
455.954607
 31
0.0
  0
LINE
  8
01_DREHEN
  5
7FA1
 10
221.375202
 20
455.954607
 30
0.0
 11
220.918611
 21
459.447674
 31
0.0
  0
LINE
  8
01_DREHEN
  5
7FA2
 10
220.918611
 20
459.447674
 30
0.0
 11
224.416785
 21
459.905005
 31
0.0
  0
LINE
  8
01_DREHEN
  5
7FA3
 10
224.416785
 20
459.905005
 30
0.0
 11
224.87331
 21
456.411848
 31
0.0
  0
LINE
  8
01_DREHEN
  5
7FA4
 10
224.87331
 20
456.411848
 30
0.0
 11
236.248824
 21
457.898364
 31
0.0
  0
LINE
  8
01_DREHEN
  5
7FA5
 10
236.248824
 20
457.898364
 30
0.0
 11
247.606865
 21
456.374974
 31
0.0
  0
LINE
  8
01_DREHEN
  5
7FA6
 10
247.606865
 20
456.374974
 30
0.0
 11
248.075374
 21
459.86636
 31
0.0
  0
LINE
  8
01_DREHEN
  5
7FA7
 10
248.075374
 20
459.86636
 30
0.0
 11
251.571981
 21
459.397223
 31
0.0
  0
LINE
  8
01_DREHEN
  5
7FA8
 10
251.571981
 20
459.397223
 30
0.0
 11
251.103382
 21
455.905657
 31
0.0
  0
LINE
  8
01_DREHEN
  5
7FA9
 10
251.103382
 20
455.905657
 30
0.0
 11
262.710765
 21
454.380071
 31
0.0
  0
LINE
  8
01_DREHEN
  5
7FAA
 10
262.710765
 20
454.380071
 30
0.0
 11
267.825571
 21
437.504759
 31
0.0
  0
LINE
  8
01_DREHEN
  5
7FAB
 10
267.825571
 20
437.504759
 30
0.0
 11
271.215719
 21
438.534235
 31
0.0
  0
LINE
  8
01_DREHEN
  5
7FAC
 10
271.215719
 20
438.534235
 30
0.0
 11
273.778264
 21
430.094629
 31
0.0
  0
LINE
  8
01_DREHEN
  5
7FAD
 10
273.778264
 20
430.094629
 30
0.0
 11
270.388138
 21
429.065086
 31
0.0
  0
LINE
  8
01_DREHEN
  5
7FAE
 10
270.388138
 20
429.065086
 30
0.0
 11
275.073571
 21
413.81326
 31
0.0
  0
LINE
  8
01_DREHEN
  5
7FAF
 10
275.073571
 20
413.81326
 30
0.0
 11
271.325426
 21
413.811849
 31
0.0
  0
LINE
  8
01_DREHEN
  5
7FB0
 10
271.325426
 20
413.811849
 30
0.0
 11
271.326837
 21
410.283251
 31
0.0
  0
LINE
  8
01_DREHEN
  5
7FB1
 10
271.326837
 20
410.283251
 30
0.0
 11
275.082308
 21
410.273282
 31
0.0
  0
LINE
  8
01_DREHEN
  5
7FB2
 10
275.082308
 20
410.273282
 30
0.0
 11
275.082308
 21
405.863268
 31
0.0
  0
LINE
  8
01_DREHEN
  5
7FB3
 10
275.082308
 20
405.863268
 30
0.0
 11
236.276872
 21
405.863268
 31
0.0
  0
LINE
  8
01_DREHEN
  5
7FB4
 10
236.276872
 20
405.863268
 30
0.0
 11
233.591539
 21
405.863268
 31
0.0
  0
LINE
  8
03_DUENN
  5
7FB5
 10
227.66714
 20
410.267099
 30
0.0
 11
227.665819
 21
413.795719
 31
0.0
  0
LINE
  8
03_DUENN
  5
7FB6
 10
227.665819
 20
413.795719
 30
0.0
 11
209.585527
 21
413.789199
 31
0.0
  0
LINE
  8
03_DUENN
  5
7FB7
 10
209.585527
 20
413.789199
 30
0.0
 11
209.58676
 21
410.260579
 31
0.0
  0
LINE
  8
03_DUENN
  5
7FB8
 10
209.58676
 20
410.260579
 30
0.0
 11
227.66714
 21
410.267099
 31
0.0
  0
LINE
  8
03_DUENN
  5
7FB9
 10
430.352934
 20
506.146243
 30
0.0
 11
433.880949
 21
506.146243
 31
0.0
  0
LINE
  8
03_DUENN
  5
7FBA
 10
433.880949
 20
506.146243
 30
0.0
 11
433.880949
 21
501.91599
 31
0.0
  0
LINE
  8
03_DUENN
  5
7FBB
 10
433.880949
 20
501.91599
 30
0.0
 11
430.352934
 21
501.91599
 31
0.0
  0
LINE
  8
03_DUENN
  5
7FBC
 10
430.352934
 20
501.91599
 30
0.0
 11
430.352934
 21
506.146243
 31
0.0
  0
LINE
  8
03_DUENN
  5
7FBD
 10
434.762947
 20
414.191822
 30
0.0
 11
438.29094
 21
414.191822
 31
0.0
  0
LINE
  8
03_DUENN
  5
7FBE
 10
438.29094
 20
414.191822
 30
0.0
 11
438.29094
 21
410.186225
 31
0.0
  0
LINE
  8
03_DUENN
  5
7FBF
 10
438.29094
 20
410.186225
 30
0.0
 11
434.762947
 21
410.186225
 31
0.0
  0
LINE
  8
03_DUENN
  5
7FC0
 10
434.762947
 20
410.186225
 30
0.0
 11
434.762947
 21
414.191822
 31
0.0
  0
LINE
  8
01_DREHEN
  5
7FC1
 10
434.81127
 20
405.81909
 30
0.0
 11
454.126359
 21
405.81909
 31
0.0
  0
LINE
  8
01_DREHEN
  5
7FC2
 10
454.126359
 20
405.81909
 30
0.0
 11
456.340092
 21
454.311362
 31
0.0
  0
LINE
  8
01_DREHEN
  5
7FC3
 10
456.340092
 20
454.311362
 30
0.0
 11
443.914402
 21
514.722013
 31
0.0
  0
LINE
  8
01_DREHEN
  5
7FC4
 10
443.914402
 20
514.722013
 30
0.0
 11
423.255481
 21
514.722013
 31
0.0
  0
LINE
  8
01_DREHEN
  5
7FC5
 10
423.255481
 20
514.722013
 30
0.0
 11
423.255481
 21
501.957077
 31
0.0
  0
LINE
  8
01_DREHEN
  5
7FC6
 10
423.255481
 20
501.957077
 30
0.0
 11
419.727129
 21
501.957077
 31
0.0
  0
LINE
  8
01_DREHEN
  5
7FC7
 10
419.727129
 20
501.957077
 30
0.0
 11
419.727129
 21
494.02261
 31
0.0
  0
LINE
  8
01_DREHEN
  5
7FC8
 10
419.727129
 20
494.02261
 30
0.0
 11
426.783317
 21
494.02261
 31
0.0
  0
LINE
  8
01_DREHEN
  5
7FC9
 10
426.783317
 20
494.02261
 30
0.0
 11
426.783317
 21
476.382622
 31
0.0
  0
LINE
  8
01_DREHEN
  5
7FCA
 10
426.783317
 20
476.382622
 30
0.0
 11
419.727129
 21
476.382622
 31
0.0
  0
LINE
  8
01_DREHEN
  5
7FCB
 10
419.727129
 20
476.382622
 30
0.0
 11
419.727129
 21
457.857075
 31
0.0
  0
LINE
  8
01_DREHEN
  5
7FCC
 10
419.727129
 20
457.857075
 30
0.0
 11
426.783317
 21
457.857075
 31
0.0
  0
LINE
  8
01_DREHEN
  5
7FCD
 10
426.783317
 20
457.857075
 30
0.0
 11
426.783317
 21
441.102604
 31
0.0
  0
LINE
  8
01_DREHEN
  5
7FCE
 10
426.783317
 20
441.102604
 30
0.0
 11
419.727129
 21
441.102604
 31
0.0
  0
LINE
  8
01_DREHEN
  5
7FCF
 10
419.727129
 20
441.102604
 30
0.0
 11
419.727129
 21
423.462616
 31
0.0
  0
LINE
  8
01_DREHEN
  5
7FD0
 10
419.727129
 20
423.462616
 30
0.0
 11
426.783317
 21
423.462616
 31
0.0
  0
LINE
  8
01_DREHEN
  5
7FD1
 10
426.783317
 20
423.462616
 30
0.0
 11
426.783317
 21
413.757096
 31
0.0
  0
LINE
  8
01_DREHEN
  5
7FD2
 10
426.783317
 20
413.757096
 30
0.0
 11
423.255481
 21
413.757096
 31
0.0
  0
LINE
  8
01_DREHEN
  5
7FD3
 10
423.255481
 20
413.757096
 30
0.0
 11
423.256466
 21
405.81909
 31
0.0
  0
LINE
  8
01_DREHEN
  5
7FD4
 10
423.256466
 20
405.81909
 30
0.0
 11
431.923952
 21
405.81909
 31
0.0
  0
LINE
  8
03_DUENN
  5
7FD5
 10
396.558579
 20
506.134236
 30
0.0
 11
400.086572
 21
506.134236
 31
0.0
  0
LINE
  8
03_DUENN
  5
7FD6
 10
400.086572
 20
506.134236
 30
0.0
 11
400.086572
 21
501.922957
 31
0.0
  0
LINE
  8
03_DUENN
  5
7FD7
 10
400.086572
 20
501.922957
 30
0.0
 11
396.558579
 21
501.922957
 31
0.0
  0
LINE
  8
03_DUENN
  5
7FD8
 10
396.558579
 20
501.922957
 30
0.0
 11
396.558579
 21
506.134236
 31
0.0
  0
LINE
  8
03_DUENN
  5
7FD9
 10
392.148588
 20
414.171974
 30
0.0
 11
395.676581
 21
414.171974
 31
0.0
  0
LINE
  8
03_DUENN
  5
7FDA
 10
395.676581
 20
414.171974
 30
0.0
 11
395.676581
 21
410.193192
 31
0.0
  0
LINE
  8
03_DUENN
  5
7FDB
 10
395.676581
 20
410.193192
 30
0.0
 11
392.148588
 21
410.193192
 31
0.0
  0
LINE
  8
03_DUENN
  5
7FDC
 10
392.148588
 20
410.193192
 30
0.0
 11
392.148588
 21
414.171974
 31
0.0
  0
LINE
  8
01_DREHEN
  5
7FDD
 10
388.399367
 20
405.81909
 30
0.0
 11
376.271701
 21
405.81909
 31
0.0
  0
LINE
  8
01_DREHEN
  5
7FDE
 10
376.271701
 20
405.81909
 30
0.0
 11
374.062471
 21
454.311362
 31
0.0
  0
LINE
  8
01_DREHEN
  5
7FDF
 10
374.062471
 20
454.311362
 30
0.0
 11
386.483592
 21
514.722013
 31
0.0
  0
LINE
  8
01_DREHEN
  5
7FE0
 10
386.483592
 20
514.722013
 30
0.0
 11
407.142311
 21
514.722013
 31
0.0
  0
LINE
  8
01_DREHEN
  5
7FE1
 10
407.142311
 20
514.722013
 30
0.0
 11
407.142311
 21
501.957077
 31
0.0
  0
LINE
  8
01_DREHEN
  5
7FE2
 10
407.142311
 20
501.957077
 30
0.0
 11
403.613691
 21
501.957077
 31
0.0
  0
LINE
  8
01_DREHEN
  5
7FE3
 10
403.613691
 20
501.957077
 30
0.0
 11
403.613691
 21
494.02261
 31
0.0
  0
LINE
  8
01_DREHEN
  5
7FE4
 10
403.613691
 20
494.02261
 30
0.0
 11
410.6697
 21
494.02261
 31
0.0
  0
LINE
  8
01_DREHEN
  5
7FE5
 10
410.6697
 20
494.02261
 30
0.0
 11
410.6697
 21
476.382622
 31
0.0
  0
LINE
  8
01_DREHEN
  5
7FE6
 10
410.6697
 20
476.382622
 30
0.0
 11
403.613691
 21
476.382622
 31
0.0
  0
LINE
  8
01_DREHEN
  5
7FE7
 10
403.613691
 20
476.382622
 30
0.0
 11
403.613691
 21
457.857075
 31
0.0
  0
LINE
  8
01_DREHEN
  5
7FE8
 10
403.613691
 20
457.857075
 30
0.0
 11
410.6697
 21
457.857075
 31
0.0
  0
LINE
  8
01_DREHEN
  5
7FE9
 10
410.6697
 20
457.857075
 30
0.0
 11
410.6697
 21
441.102604
 31
0.0
  0
LINE
  8
01_DREHEN
  5
7FEA
 10
410.6697
 20
441.102604
 30
0.0
 11
403.613691
 21
441.102604
 31
0.0
  0
LINE
  8
01_DREHEN
  5
7FEB
 10
403.613691
 20
441.102604
 30
0.0
 11
403.613691
 21
423.462616
 31
0.0
  0
LINE
  8
01_DREHEN
  5
7FEC
 10
403.613691
 20
423.462616
 30
0.0
 11
410.6697
 21
423.462616
 31
0.0
  0
LINE
  8
01_DREHEN
  5
7FED
 10
410.6697
 20
423.462616
 30
0.0
 11
410.6697
 21
413.757096
 31
0.0
  0
LINE
  8
01_DREHEN
  5
7FEE
 10
410.6697
 20
413.757096
 30
0.0
 11
407.142311
 21
413.757096
 31
0.0
  0
LINE
  8
01_DREHEN
  5
7FEF
 10
407.142311
 20
413.757096
 30
0.0
 11
407.141527
 21
405.81909
 31
0.0
  0
LINE
  8
01_DREHEN
  5
7FF0
 10
407.141527
 20
405.81909
 30
0.0
 11
390.914127
 21
405.81909
 31
0.0
  0
LINE
  8
01_DREHEN
  5
7FF1
 10
222.184116
 20
475.562194
 30
0.0
 11
214.994318
 21
475.562194
 31
0.0
  0
LINE
  8
01_DREHEN
  5
7FF2
 10
214.994318
 20
475.562194
 30
0.0
 11
214.994318
 21
479.090187
 31
0.0
  0
LINE
  8
01_DREHEN
  5
7FF3
 10
214.994318
 20
479.090187
 30
0.0
 11
196.482638
 21
479.090187
 31
0.0
  0
LINE
  8
01_DREHEN
  5
7FF4
 10
196.482638
 20
479.090187
 30
0.0
 11
198.058608
 21
505.619425
 31
0.0
  0
LINE
  8
01_DREHEN
  5
7FF5
 10
198.058608
 20
505.619425
 30
0.0
 11
201.587408
 21
505.529903
 31
0.0
  0
LINE
  8
01_DREHEN
  5
7FF6
 10
201.587408
 20
505.529903
 30
0.0
 11
203.14792
 21
532.010193
 31
0.0
  0
LINE
  8
01_DREHEN
  5
7FF7
 10
203.14792
 20
532.010193
 30
0.0
 11
199.623802
 21
531.969621
 31
0.0
  0
LINE
  8
01_DREHEN
  5
7FF8
 10
199.623802
 20
531.969621
 30
0.0
 11
201.211847
 21
558.470184
 31
0.0
  0
LINE
  8
01_DREHEN
  5
7FF9
 10
201.211847
 20
558.470184
 30
0.0
 11
204.740467
 21
558.470184
 31
0.0
  0
LINE
  8
01_DREHEN
  5
7FFA
 10
204.740467
 20
558.470184
 30
0.0
 11
206.300374
 21
584.930176
 31
0.0
  0
LINE
  8
01_DREHEN
  5
7FFB
 10
206.300374
 20
584.930176
 30
0.0
 11
202.731698
 21
584.930176
 31
0.0
  0
LINE
  8
01_DREHEN
  5
7FFC
 10
202.731698
 20
584.930176
 30
0.0
 11
204.131604
 21
607.862175
 31
0.0
  0
LINE
  8
01_DREHEN
  5
7FFD
 10
204.131604
 20
607.862175
 30
0.0
 11
214.850022
 21
607.862175
 31
0.0
  0
LINE
  8
01_DREHEN
  5
7FFE
 10
214.850022
 20
607.862175
 30
0.0
 11
214.850022
 21
604.334182
 31
0.0
  0
LINE
  8
01_DREHEN
  5
7FFF
 10
214.850022
 20
604.334182
 30
0.0
 11
232.778624
 21
604.334182
 31
0.0
  0
LINE
  8
01_DREHEN
  5
8000
 10
232.778624
 20
604.334182
 30
0.0
 11
232.778624
 21
607.862175
 31
0.0
  0
LINE
  8
01_DREHEN
  5
8001
 10
232.778624
 20
607.862175
 30
0.0
 11
240.502034
 21
607.862175
 31
0.0
  0
LINE
  8
01_DREHEN
  5
8002
 10
240.502034
 20
607.862175
 30
0.0
 11
241.833769
 21
584.930176
 31
0.0
  0
LINE
  8
01_DREHEN
  5
8003
 10
241.833769
 20
584.930176
 30
0.0
 11
245.367586
 21
584.930176
 31
0.0
  0
LINE
  8
01_DREHEN
  5
8004
 10
245.367586
 20
584.930176
 30
0.0
 11
246.92308
 21
558.509703
 31
0.0
  0
LINE
  8
01_DREHEN
  5
8005
 10
246.92308
 20
558.509703
 30
0.0
 11
243.365896
 21
558.479616
 31
0.0
  0
LINE
  8
01_DREHEN
  5
8006
 10
243.365896
 20
558.479616
 30
0.0
 11
244.935324
 21
531.998274
 31
0.0
  0
LINE
  8
01_DREHEN
  5
8007
 10
244.935324
 20
531.998274
 30
0.0
 11
248.459867
 21
532.028451
 31
0.0
  0
LINE
  8
01_DREHEN
  5
8008
 10
248.459867
 20
532.028451
 30
0.0
 11
250.02524
 21
505.548857
 31
0.0
  0
LINE
  8
01_DREHEN
  5
8009
 10
250.02524
 20
505.548857
 30
0.0
 11
246.481723
 21
505.547265
 31
0.0
  0
LINE
  8
01_DREHEN
  5
800A
 10
246.481723
 20
505.547265
 30
0.0
 11
248.030517
 21
479.090187
 31
0.0
  0
LINE
  8
01_DREHEN
  5
800B
 10
248.030517
 20
479.090187
 30
0.0
 11
232.634328
 21
479.090187
 31
0.0
  0
LINE
  8
01_DREHEN
  5
800C
 10
232.634328
 20
479.090187
 30
0.0
 11
232.634328
 21
475.562194
 31
0.0
  0
LINE
  8
01_DREHEN
  5
800D
 10
232.634328
 20
475.562194
 30
0.0
 11
224.892659
 21
475.562194
 31
0.0
  0
LINE
  8
01_DREHEN
  5
800E
 10
224.892659
 20
475.562194
 30
0.0
 11
222.184116
 21
475.562194
 31
0.0
  0
LINE
  8
03_DUENN
  5
800F
 10
217.199336
 20
523.190188
 30
0.0
 11
217.286461
 21
524.780249
 31
0.0
  0
LINE
  8
03_DUENN
  5
8010
 10
217.286461
 20
524.780249
 30
0.0
 11
217.536476
 21
526.211317
 31
0.0
  0
LINE
  8
03_DUENN
  5
8011
 10
217.536476
 20
526.211317
 30
0.0
 11
217.932176
 21
527.483371
 31
0.0
  0
LINE
  8
03_DUENN
  5
8012
 10
217.932176
 20
527.483371
 30
0.0
 11
218.456469
 21
528.596409
 31
0.0
  0
LINE
  8
03_DUENN
  5
8013
 10
218.456469
 20
528.596409
 30
0.0
 11
219.092193
 21
529.550454
 31
0.0
  0
LINE
  8
03_DUENN
  5
8014
 10
219.092193
 20
529.550454
 30
0.0
 11
219.822189
 21
530.345485
 31
0.0
  0
LINE
  8
03_DUENN
  5
8015
 10
219.822189
 20
530.345485
 30
0.0
 11
220.629317
 21
530.9815
 31
0.0
  0
LINE
  8
03_DUENN
  5
8016
 10
220.629317
 20
530.9815
 30
0.0
 11
221.496462
 21
531.458524
 31
0.0
  0
LINE
  8
03_DUENN
  5
8017
 10
221.496462
 20
531.458524
 30
0.0
 11
222.406464
 21
531.776509
 31
0.0
  0
LINE
  8
03_DUENN
  5
8018
 10
222.406464
 20
531.776509
 30
0.0
 11
223.342184
 21
531.935524
 31
0.0
  0
LINE
  8
03_DUENN
  5
8019
 10
223.342184
 20
531.935524
 30
0.0
 11
224.286462
 21
531.935524
 31
0.0
  0
LINE
  8
03_DUENN
  5
801A
 10
224.286462
 20
531.935524
 30
0.0
 11
225.222182
 21
531.776509
 31
0.0
  0
LINE
  8
03_DUENN
  5
801B
 10
225.222182
 20
531.776509
 30
0.0
 11
226.132184
 21
531.458479
 31
0.0
  0
LINE
  8
03_DUENN
  5
801C
 10
226.132184
 20
531.458479
 30
0.0
 11
226.999329
 21
530.981456
 31
0.0
  0
LINE
  8
03_DUENN
  5
801D
 10
226.999329
 20
530.981456
 30
0.0
 11
227.80648
 21
530.345441
 31
0.0
  0
LINE
  8
03_DUENN
  5
801E
 10
227.80648
 20
530.345441
 30
0.0
 11
228.536475
 21
529.550409
 31
0.0
  0
LINE
  8
03_DUENN
  5
801F
 10
228.536475
 20
529.550409
 30
0.0
 11
229.172176
 21
528.596364
 31
0.0
  0
LINE
  8
03_DUENN
  5
8020
 10
229.172176
 20
528.596364
 30
0.0
 11
229.69647
 21
527.483326
 31
0.0
  0
LINE
  8
03_DUENN
  5
8021
 10
229.69647
 20
527.483326
 30
0.0
 11
230.092192
 21
526.211272
 31
0.0
  0
LINE
  8
03_DUENN
  5
8022
 10
230.092192
 20
526.211272
 30
0.0
 11
230.342185
 21
524.780226
 31
0.0
  0
LINE
  8
03_DUENN
  5
8023
 10
230.342185
 20
524.780226
 30
0.0
 11
230.429332
 21
523.190188
 31
0.0
  0
LINE
  8
03_DUENN
  5
8024
 10
230.429332
 20
523.190188
 30
0.0
 11
230.429332
 21
523.190188
 31
0.0
  0
LINE
  8
03_DUENN
  5
8025
 10
230.429332
 20
523.190188
 30
0.0
 11
230.429332
 21
484.170761
 31
0.0
  0
LINE
  8
03_DUENN
  5
8026
 10
230.429332
 20
484.170761
 30
0.0
 11
217.199336
 21
484.170761
 31
0.0
  0
LINE
  8
03_DUENN
  5
8027
 10
217.199336
 20
484.170761
 30
0.0
 11
217.199336
 21
523.190188
 31
0.0
  0
LINE
  8
03_DUENN
  5
8028
 10
217.199336
 20
576.110194
 30
0.0
 11
217.286461
 21
577.700255
 31
0.0
  0
LINE
  8
03_DUENN
  5
8029
 10
217.286461
 20
577.700255
 30
0.0
 11
217.536476
 21
579.131323
 31
0.0
  0
LINE
  8
03_DUENN
  5
802A
 10
217.536476
 20
579.131323
 30
0.0
 11
217.932176
 21
580.403377
 31
0.0
  0
LINE
  8
03_DUENN
  5
802B
 10
217.932176
 20
580.403377
 30
0.0
 11
218.456469
 21
581.516415
 31
0.0
  0
LINE
  8
03_DUENN
  5
802C
 10
218.456469
 20
581.516415
 30
0.0
 11
219.092193
 21
582.470461
 31
0.0
  0
LINE
  8
03_DUENN
  5
802D
 10
219.092193
 20
582.470461
 30
0.0
 11
219.822189
 21
583.265491
 31
0.0
  0
LINE
  8
03_DUENN
  5
802E
 10
219.822189
 20
583.265491
 30
0.0
 11
220.629317
 21
583.901529
 31
0.0
  0
LINE
  8
03_DUENN
  5
802F
 10
220.629317
 20
583.901529
 30
0.0
 11
221.496462
 21
584.37853
 31
0.0
  0
LINE
  8
03_DUENN
  5
8030
 10
221.496462
 20
584.37853
 30
0.0
 11
222.406464
 21
584.696538
 31
0.0
  0
LINE
  8
03_DUENN
  5
8031
 10
222.406464
 20
584.696538
 30
0.0
 11
223.342184
 21
584.855553
 31
0.0
  0
LINE
  8
03_DUENN
  5
8032
 10
223.342184
 20
584.855553
 30
0.0
 11
224.286462
 21
584.855553
 31
0.0
  0
LINE
  8
03_DUENN
  5
8033
 10
224.286462
 20
584.855553
 30
0.0
 11
225.222182
 21
584.696538
 31
0.0
  0
LINE
  8
03_DUENN
  5
8034
 10
225.222182
 20
584.696538
 30
0.0
 11
226.132184
 21
584.37853
 31
0.0
  0
LINE
  8
03_DUENN
  5
8035
 10
226.132184
 20
584.37853
 30
0.0
 11
226.999329
 21
583.901506
 31
0.0
  0
LINE
  8
03_DUENN
  5
8036
 10
226.999329
 20
583.901506
 30
0.0
 11
227.80648
 21
583.265469
 31
0.0
  0
LINE
  8
03_DUENN
  5
8037
 10
227.80648
 20
583.265469
 30
0.0
 11
228.536475
 21
582.470439
 31
0.0
  0
LINE
  8
03_DUENN
  5
8038
 10
228.536475
 20
582.470439
 30
0.0
 11
229.172176
 21
581.516392
 31
0.0
  0
LINE
  8
03_DUENN
  5
8039
 10
229.172176
 20
581.516392
 30
0.0
 11
229.69647
 21
580.403354
 31
0.0
  0
LINE
  8
03_DUENN
  5
803A
 10
229.69647
 20
580.403354
 30
0.0
 11
230.092192
 21
579.131301
 31
0.0
  0
LINE
  8
03_DUENN
  5
803B
 10
230.092192
 20
579.131301
 30
0.0
 11
230.342185
 21
577.700255
 31
0.0
  0
LINE
  8
03_DUENN
  5
803C
 10
230.342185
 20
577.700255
 30
0.0
 11
230.429332
 21
576.110194
 31
0.0
  0
LINE
  8
03_DUENN
  5
803D
 10
230.429332
 20
576.110194
 30
0.0
 11
230.429332
 21
576.110194
 31
0.0
  0
LINE
  8
03_DUENN
  5
803E
 10
230.429332
 20
576.110194
 30
0.0
 11
230.429332
 21
558.470184
 31
0.0
  0
LINE
  8
03_DUENN
  5
803F
 10
230.429332
 20
558.470184
 30
0.0
 11
217.199336
 21
558.470184
 31
0.0
  0
LINE
  8
03_DUENN
  5
8040
 10
217.199336
 20
558.470184
 30
0.0
 11
217.199336
 21
576.110194
 31
0.0
  0
LINE
  8
01_DREHEN
  5
8043
 10
256.343419
 20
619.726416
 30
0.0
 11
403.19633
 21
619.726416
 31
0.0
  0
LINE
  8
01_DREHEN
  5
8045
 10
256.343419
 20
619.726416
 30
0.0
 11
256.343419
 21
615.726416
 31
0.0
  0
LINE
  8
01_DREHEN
  5
8046
 10
416.343419
 20
619.726416
 30
0.0
 11
416.343419
 21
615.726416
 31
0.0
  0
LINE
  8
01_DREHEN
  5
8047
 10
256.343419
 20
615.726416
 30
0.0
 11
268.439127
 21
615.726416
 31
0.0
  0
CIRCLE
  8
01_DREHEN
  5
804A
 10
273.373076
 20
589.359939
 30
0.0
 40
7.112991
  0
CIRCLE
  8
03_DUENN
  5
8051
 10
273.373076
 20
589.359939
 30
0.0
 40
2.5
  0
CIRCLE
  8
01_DREHEN
  5
8052
 10
293.440563
 20
589.359939
 30
0.0
 40
7.112991
  0
CIRCLE
  8
03_DUENN
  5
8053
 10
293.440563
 20
589.359939
 30
0.0
 40
2.5
  0
CIRCLE
  8
01_DREHEN
  5
8054
 10
312.95062
 20
589.359939
 30
0.0
 40
7.112991
  0
CIRCLE
  8
03_DUENN
  5
8055
 10
312.95062
 20
589.359939
 30
0.0
 40
2.5
  0
CIRCLE
  8
01_DREHEN
  5
8056
 10
333.018107
 20
589.359939
 30
0.0
 40
7.112991
  0
CIRCLE
  8
03_DUENN
  5
8057
 10
333.018107
 20
589.359939
 30
0.0
 40
2.5
  0
CIRCLE
  8
01_DREHEN
  5
8058
 10
352.528164
 20
589.359939
 30
0.0
 40
7.112991
  0
CIRCLE
  8
03_DUENN
  5
8059
 10
352.528164
 20
589.359939
 30
0.0
 40
2.5
  0
CIRCLE
  8
01_DREHEN
  5
805A
 10
372.595651
 20
589.359939
 30
0.0
 40
7.112991
  0
CIRCLE
  8
03_DUENN
  5
805B
 10
372.595651
 20
589.359939
 30
0.0
 40
2.5
  0
CIRCLE
  8
03_DUENN
  5
805F
 10
236.243729
 20
433.568358
 30
0.0
 40
2.75
  0
CIRCLE
  8
03_DUENN
  5
8060
 10
463.177419
 20
555.263412
 30
0.0
 40
2.75
  0
LINE
  8
01_DREHEN
  5
8063
 10
271.368632
 20
615.726416
 30
0.0
 11
416.343419
 21
615.726416
 31
0.0
  0
LINE
  8
01_DREHEN
  5
8064
 10
405.800334
 20
619.726416
 30
0.0
 11
416.343419
 21
619.726416
 31
0.0
  0
ENDSEC
  0
EOF
