  0
SECTION
  2
HEADER
  9
$ACADVER
  1
AC1009
  0
ENDSEC
  0
SECTION
  2
TABLES
  0
TABLE
  2
LTYPE
 70
    25
  0
LTYPE
  2
CONTINUOUS
 70
    64
  3
Solid line
 72
    64
 73
     0
 40
0.00000000
  0
LTYPE
  2
DASHDOT
 70
    64
  3
__ . __ . __ . __ . __ . __ . __ . __ . __ . __
 72
    65
 73
     4
 40
1.00000000
 49
0.50000000
 49
-0.25000000
 49
0.00000000
 49
-0.25000000
  0
LTYPE
  2
DASHED
 70
    64
  3
__ __ __ __ __ __ __ __ __ __ __ __ __ __ __ __
 72
    65
 73
     2
 40
0.75000000
 49
0.50000000
 49
-0.25000000
  0
LTYPE
  2
DIVIDE
 70
    64
  3
____ . . ____ . . ____ . . ____ . . ____ . . __
 72
    65
 73
     6
 40
1.25000000
 49
0.50000000
 49
-0.25000000
 49
0.00000000
 49
-0.25000000
 49
0.00000000
 49
-0.25000000
  0
LTYPE
  2
DOT
 70
    64
  3
. . . . . . . . . . . . . . . . . . . . . . . . 
 72
    65
 73
     2
 40
0.25000000
 49
0.00000000
 49
-0.25000000
  0
ENDTAB
  0
TABLE
  2
LAYER
 70
     2
  0
LAYER
  2
Layer_1
 70
    64
 62
     7
  6
CONTINUOUS
  0
LAYER
  2
-1
 70
     0
 62
     7
  6
CONTINUOUS
  0
ENDTAB
  0
ENDSEC
  0
SECTION
  2
BLOCKS
  0
ENDSEC
  0
SECTION
  2
ENTITIES
  0
LINE
  8
Layer_1
 62
     7
  6
CONTINUOUS
 10
5.50000000
 20
0.00000000
 30
0.00000000
 11
5.49820366
 21
0.14195733
 31
0.00000000
  0
LINE
  8
Layer_1
 62
     7
  6
CONTINUOUS
 10
5.49820366
 20
0.14195733
 30
0.00000000
 11
5.49284344
 21
0.28302899
 31
0.00000000
  0
LINE
  8
Layer_1
 62
     7
  6
CONTINUOUS
 10
5.49284344
 20
0.28302899
 30
0.00000000
 11
5.48396253
 21
0.42317180
 31
0.00000000
  0
LINE
  8
Layer_1
 62
     7
  6
CONTINUOUS
 10
5.48396253
 20
0.42317180
 30
0.00000000
 11
5.47160413
 21
0.56234253
 31
0.00000000
  0
LINE
  8
Layer_1
 62
     7
  6
CONTINUOUS
 10
5.47160413
 20
0.56234253
 30
0.00000000
 11
5.45581144
 21
0.70049801
 31
0.00000000
  0
LINE
  8
Layer_1
 62
     7
  6
CONTINUOUS
 10
5.45581144
 20
0.70049801
 30
0.00000000
 11
5.43662766
 21
0.83759504
 31
0.00000000
  0
LINE
  8
Layer_1
 62
     7
  6
CONTINUOUS
 10
5.43662766
 20
0.83759504
 30
0.00000000
 11
5.41409597
 21
0.97359041
 31
0.00000000
  0
LINE
  8
Layer_1
 62
     7
  6
CONTINUOUS
 10
5.41409597
 20
0.97359041
 30
0.00000000
 11
5.38825959
 21
1.10844094
 31
0.00000000
  0
LINE
  8
Layer_1
 62
     7
  6
CONTINUOUS
 10
5.38825959
 20
1.10844094
 30
0.00000000
 11
5.35916170
 21
1.24210341
 31
0.00000000
  0
LINE
  8
Layer_1
 62
     7
  6
CONTINUOUS
 10
5.35916170
 20
1.24210341
 30
0.00000000
 11
5.32684551
 21
1.37453465
 31
0.00000000
  0
LINE
  8
Layer_1
 62
     7
  6
CONTINUOUS
 10
5.32684551
 20
1.37453465
 30
0.00000000
 11
5.29135420
 21
1.50569144
 31
0.00000000
  0
LINE
  8
Layer_1
 62
     7
  6
CONTINUOUS
 10
5.29135420
 20
1.50569144
 30
0.00000000
 11
5.25273098
 21
1.63553059
 31
0.00000000
  0
LINE
  8
Layer_1
 62
     7
  6
CONTINUOUS
 10
5.25273098
 20
1.63553059
 30
0.00000000
 11
5.21101905
 21
1.76400891
 31
0.00000000
  0
LINE
  8
Layer_1
 62
     7
  6
CONTINUOUS
 10
5.21101905
 20
1.76400891
 30
0.00000000
 11
5.16626159
 21
1.89108320
 31
0.00000000
  0
LINE
  8
Layer_1
 62
     7
  6
CONTINUOUS
 10
5.16626159
 20
1.89108320
 30
0.00000000
 11
5.11850181
 21
2.01671026
 31
0.00000000
  0
LINE
  8
Layer_1
 62
     7
  6
CONTINUOUS
 10
5.11850181
 20
2.01671026
 30
0.00000000
 11
5.06778291
 21
2.14084689
 31
0.00000000
  0
LINE
  8
Layer_1
 62
     7
  6
CONTINUOUS
 10
5.06778291
 20
2.14084689
 30
0.00000000
 11
5.01414808
 21
2.26344989
 31
0.00000000
  0
LINE
  8
Layer_1
 62
     7
  6
CONTINUOUS
 10
5.01414808
 20
2.26344989
 30
0.00000000
 11
4.95764052
 21
2.38447608
 31
0.00000000
  0
LINE
  8
Layer_1
 62
     7
  6
CONTINUOUS
 10
4.95764052
 20
2.38447608
 30
0.00000000
 11
4.89830342
 21
2.50388225
 31
0.00000000
  0
LINE
  8
Layer_1
 62
     7
  6
CONTINUOUS
 10
4.89830342
 20
2.50388225
 30
0.00000000
 11
4.83617998
 21
2.62162520
 31
0.00000000
  0
LINE
  8
Layer_1
 62
     7
  6
CONTINUOUS
 10
4.83617998
 20
2.62162520
 30
0.00000000
 11
4.77131341
 21
2.73766174
 31
0.00000000
  0
LINE
  8
Layer_1
 62
     7
  6
CONTINUOUS
 10
4.77131341
 20
2.73766174
 30
0.00000000
 11
4.70374689
 21
2.85194868
 31
0.00000000
  0
LINE
  8
Layer_1
 62
     7
  6
CONTINUOUS
 10
4.70374689
 20
2.85194868
 30
0.00000000
 11
4.63352362
 21
2.96444280
 31
0.00000000
  0
LINE
  8
Layer_1
 62
     7
  6
CONTINUOUS
 10
4.63352362
 20
2.96444280
 30
0.00000000
 11
4.56068680
 21
3.07510092
 31
0.00000000
  0
LINE
  8
Layer_1
 62
     7
  6
CONTINUOUS
 10
4.56068680
 20
3.07510092
 30
0.00000000
 11
4.48527963
 21
3.18387985
 31
0.00000000
  0
LINE
  8
Layer_1
 62
     7
  6
CONTINUOUS
 10
4.48527963
 20
3.18387985
 30
0.00000000
 11
4.40734530
 21
3.29073637
 31
0.00000000
  0
LINE
  8
Layer_1
 62
     7
  6
CONTINUOUS
 10
4.40734530
 20
3.29073637
 30
0.00000000
 11
4.32692702
 21
3.39562730
 31
0.00000000
  0
LINE
  8
Layer_1
 62
     7
  6
CONTINUOUS
 10
4.32692702
 20
3.39562730
 30
0.00000000
 11
4.24406797
 21
3.49850944
 31
0.00000000
  0
LINE
  8
Layer_1
 62
     7
  6
CONTINUOUS
 10
4.24406797
 20
3.49850944
 30
0.00000000
 11
4.15881135
 21
3.59933958
 31
0.00000000
  0
LINE
  8
Layer_1
 62
     7
  6
CONTINUOUS
 10
4.15881135
 20
3.59933958
 30
0.00000000
 11
4.07120037
 21
3.69807455
 31
0.00000000
  0
LINE
  8
Layer_1
 62
     7
  6
CONTINUOUS
 10
4.07120037
 20
3.69807455
 30
0.00000000
 11
3.98127822
 21
3.79467112
 31
0.00000000
  0
LINE
  8
Layer_1
 62
     7
  6
CONTINUOUS
 10
3.98127822
 20
3.79467112
 30
0.00000000
 11
3.88908809
 21
3.88908612
 31
0.00000000
  0
LINE
  8
Layer_1
 62
     7
  6
CONTINUOUS
 10
3.88908809
 20
3.88908612
 30
0.00000000
 11
3.79467318
 21
3.98127634
 31
0.00000000
  0
LINE
  8
Layer_1
 62
     7
  6
CONTINUOUS
 10
3.79467318
 20
3.98127634
 30
0.00000000
 11
3.69807670
 21
4.07119859
 31
0.00000000
  0
LINE
  8
Layer_1
 62
     7
  6
CONTINUOUS
 10
3.69807670
 20
4.07119859
 30
0.00000000
 11
3.59934183
 21
4.15880966
 31
0.00000000
  0
LINE
  8
Layer_1
 62
     7
  6
CONTINUOUS
 10
3.59934183
 20
4.15880966
 30
0.00000000
 11
3.49851177
 21
4.24406637
 31
0.00000000
  0
LINE
  8
Layer_1
 62
     7
  6
CONTINUOUS
 10
3.49851177
 20
4.24406637
 30
0.00000000
 11
3.39562972
 21
4.32692551
 31
0.00000000
  0
LINE
  8
Layer_1
 62
     7
  6
CONTINUOUS
 10
3.39562972
 20
4.32692551
 30
0.00000000
 11
3.29073889
 21
4.40734388
 31
0.00000000
  0
LINE
  8
Layer_1
 62
     7
  6
CONTINUOUS
 10
3.29073889
 20
4.40734388
 30
0.00000000
 11
3.18388245
 21
4.48527830
 31
0.00000000
  0
LINE
  8
Layer_1
 62
     7
  6
CONTINUOUS
 10
3.18388245
 20
4.48527830
 30
0.00000000
 11
3.07510362
 21
4.56068555
 31
0.00000000
  0
LINE
  8
Layer_1
 62
     7
  6
CONTINUOUS
 10
3.07510362
 20
4.56068555
 30
0.00000000
 11
2.96444558
 21
4.63352246
 31
0.00000000
  0
LINE
  8
Layer_1
 62
     7
  6
CONTINUOUS
 10
2.96444558
 20
4.63352246
 30
0.00000000
 11
2.85195154
 21
4.70374581
 31
0.00000000
  0
LINE
  8
Layer_1
 62
     7
  6
CONTINUOUS
 10
2.85195154
 20
4.70374581
 30
0.00000000
 11
2.73766469
 21
4.77131241
 31
0.00000000
  0
LINE
  8
Layer_1
 62
     7
  6
CONTINUOUS
 10
2.73766469
 20
4.77131241
 30
0.00000000
 11
2.62162823
 21
4.83617907
 31
0.00000000
  0
LINE
  8
Layer_1
 62
     7
  6
CONTINUOUS
 10
2.62162823
 20
4.83617907
 30
0.00000000
 11
2.50388535
 21
4.89830258
 31
0.00000000
  0
LINE
  8
Layer_1
 62
     7
  6
CONTINUOUS
 10
2.50388535
 20
4.89830258
 30
0.00000000
 11
2.38447926
 21
4.95763976
 31
0.00000000
  0
LINE
  8
Layer_1
 62
     7
  6
CONTINUOUS
 10
2.38447926
 20
4.95763976
 30
0.00000000
 11
2.26345315
 21
5.01414739
 31
0.00000000
  0
LINE
  8
Layer_1
 62
     7
  6
CONTINUOUS
 10
2.26345315
 20
5.01414739
 30
0.00000000
 11
2.14085021
 21
5.06778230
 31
0.00000000
  0
LINE
  8
Layer_1
 62
     7
  6
CONTINUOUS
 10
2.14085021
 20
5.06778230
 30
0.00000000
 11
2.01671365
 21
5.11850127
 31
0.00000000
  0
LINE
  8
Layer_1
 62
     7
  6
CONTINUOUS
 10
2.01671365
 20
5.11850127
 30
0.00000000
 11
1.89108665
 21
5.16626111
 31
0.00000000
  0
LINE
  8
Layer_1
 62
     7
  6
CONTINUOUS
 10
1.89108665
 20
5.16626111
 30
0.00000000
 11
1.76401243
 21
5.21101862
 31
0.00000000
  0
LINE
  8
Layer_1
 62
     7
  6
CONTINUOUS
 10
1.76401243
 20
5.21101862
 30
0.00000000
 11
1.63553417
 21
5.25273062
 31
0.00000000
  0
LINE
  8
Layer_1
 62
     7
  6
CONTINUOUS
 10
1.63553417
 20
5.25273062
 30
0.00000000
 11
1.50569507
 21
5.29135389
 31
0.00000000
  0
LINE
  8
Layer_1
 62
     7
  6
CONTINUOUS
 10
1.50569507
 20
5.29135389
 30
0.00000000
 11
1.37453833
 21
5.32684525
 31
0.00000000
  0
LINE
  8
Layer_1
 62
     7
  6
CONTINUOUS
 10
1.37453833
 20
5.32684525
 30
0.00000000
 11
1.24210714
 21
5.35916149
 31
0.00000000
  0
LINE
  8
Layer_1
 62
     7
  6
CONTINUOUS
 10
1.24210714
 20
5.35916149
 30
0.00000000
 11
1.10844471
 21
5.38825942
 31
0.00000000
  0
LINE
  8
Layer_1
 62
     7
  6
CONTINUOUS
 10
1.10844471
 20
5.38825942
 30
0.00000000
 11
0.97359422
 21
5.41409584
 31
0.00000000
  0
LINE
  8
Layer_1
 62
     7
  6
CONTINUOUS
 10
0.97359422
 20
5.41409584
 30
0.00000000
 11
0.83759888
 21
5.43662756
 31
0.00000000
  0
LINE
  8
Layer_1
 62
     7
  6
CONTINUOUS
 10
0.83759888
 20
5.43662756
 30
0.00000000
 11
0.70050188
 21
5.45581137
 31
0.00000000
  0
LINE
  8
Layer_1
 62
     7
  6
CONTINUOUS
 10
0.70050188
 20
5.45581137
 30
0.00000000
 11
0.56234643
 21
5.47160409
 31
0.00000000
  0
LINE
  8
Layer_1
 62
     7
  6
CONTINUOUS
 10
0.56234643
 20
5.47160409
 30
0.00000000
 11
0.42317571
 21
5.48396250
 31
0.00000000
  0
LINE
  8
Layer_1
 62
     7
  6
CONTINUOUS
 10
0.42317571
 20
5.48396250
 30
0.00000000
 11
0.28303292
 21
5.49284343
 31
0.00000000
  0
LINE
  8
Layer_1
 62
     7
  6
CONTINUOUS
 10
0.28303292
 20
5.49284343
 30
0.00000000
 11
0.14196127
 21
5.49820366
 31
0.00000000
  0
LINE
  8
Layer_1
 62
     7
  6
CONTINUOUS
 10
0.14196127
 20
5.49820366
 30
0.00000000
 11
0.00000394
 21
5.50000000
 31
0.00000000
  0
LINE
  8
Layer_1
 62
     7
  6
CONTINUOUS
 10
0.00000394
 20
5.50000000
 30
0.00000000
 11
-0.14195321
 21
5.49820385
 31
0.00000000
  0
LINE
  8
Layer_1
 62
     7
  6
CONTINUOUS
 10
-0.14195321
 20
5.49820385
 30
0.00000000
 11
-0.28302470
 21
5.49284382
 31
0.00000000
  0
LINE
  8
Layer_1
 62
     7
  6
CONTINUOUS
 10
-0.28302470
 20
5.49284382
 30
0.00000000
 11
-0.42316733
 21
5.48396311
 31
0.00000000
  0
LINE
  8
Layer_1
 62
     7
  6
CONTINUOUS
 10
-0.42316733
 20
5.48396311
 30
0.00000000
 11
-0.56233791
 21
5.47160491
 31
0.00000000
  0
LINE
  8
Layer_1
 62
     7
  6
CONTINUOUS
 10
-0.56233791
 20
5.47160491
 30
0.00000000
 11
-0.70049323
 21
5.45581243
 31
0.00000000
  0
LINE
  8
Layer_1
 62
     7
  6
CONTINUOUS
 10
-0.70049323
 20
5.45581243
 30
0.00000000
 11
-0.83759010
 21
5.43662885
 31
0.00000000
  0
LINE
  8
Layer_1
 62
     7
  6
CONTINUOUS
 10
-0.83759010
 20
5.43662885
 30
0.00000000
 11
-0.97358533
 21
5.41409739
 31
0.00000000
  0
LINE
  8
Layer_1
 62
     7
  6
CONTINUOUS
 10
-0.97358533
 20
5.41409739
 30
0.00000000
 11
-1.10843571
 21
5.38826122
 31
0.00000000
  0
LINE
  8
Layer_1
 62
     7
  6
CONTINUOUS
 10
-1.10843571
 20
5.38826122
 30
0.00000000
 11
-1.24209805
 21
5.35916355
 31
0.00000000
  0
LINE
  8
Layer_1
 62
     7
  6
CONTINUOUS
 10
-1.24209805
 20
5.35916355
 30
0.00000000
 11
-1.37452915
 21
5.32684758
 31
0.00000000
  0
LINE
  8
Layer_1
 62
     7
  6
CONTINUOUS
 10
-1.37452915
 20
5.32684758
 30
0.00000000
 11
-1.50568582
 21
5.29135650
 31
0.00000000
  0
LINE
  8
Layer_1
 62
     7
  6
CONTINUOUS
 10
-1.50568582
 20
5.29135650
 30
0.00000000
 11
-1.63552486
 21
5.25273351
 31
0.00000000
  0
LINE
  8
Layer_1
 62
     7
  6
CONTINUOUS
 10
-1.63552486
 20
5.25273351
 30
0.00000000
 11
-1.76400306
 21
5.21102180
 31
0.00000000
  0
LINE
  8
Layer_1
 62
     7
  6
CONTINUOUS
 10
-1.76400306
 20
5.21102180
 30
0.00000000
 11
-1.89107724
 21
5.16626458
 31
0.00000000
  0
LINE
  8
Layer_1
 62
     7
  6
CONTINUOUS
 10
-1.89107724
 20
5.16626458
 30
0.00000000
 11
-2.01670420
 21
5.11850503
 31
0.00000000
  0
LINE
  8
Layer_1
 62
     7
  6
CONTINUOUS
 10
-2.01670420
 20
5.11850503
 30
0.00000000
 11
-2.14084074
 21
5.06778636
 31
0.00000000
  0
LINE
  8
Layer_1
 62
     7
  6
CONTINUOUS
 10
-2.14084074
 20
5.06778636
 30
0.00000000
 11
-2.26344365
 21
5.01415175
 31
0.00000000
  0
LINE
  8
Layer_1
 62
     7
  6
CONTINUOUS
 10
-2.26344365
 20
5.01415175
 30
0.00000000
 11
-2.38446976
 21
4.95764442
 31
0.00000000
  0
LINE
  8
Layer_1
 62
     7
  6
CONTINUOUS
 10
-2.38446976
 20
4.95764442
 30
0.00000000
 11
-2.50387585
 21
4.89830755
 31
0.00000000
  0
LINE
  8
Layer_1
 62
     7
  6
CONTINUOUS
 10
-2.50387585
 20
4.89830755
 30
0.00000000
 11
-2.62161873
 21
4.83618435
 31
0.00000000
  0
LINE
  8
Layer_1
 62
     7
  6
CONTINUOUS
 10
-2.62161873
 20
4.83618435
 30
0.00000000
 11
-2.73765520
 21
4.77131800
 31
0.00000000
  0
LINE
  8
Layer_1
 62
     7
  6
CONTINUOUS
 10
-2.73765520
 20
4.77131800
 30
0.00000000
 11
-2.85194207
 21
4.70375170
 31
0.00000000
  0
LINE
  8
Layer_1
 62
     7
  6
CONTINUOUS
 10
-2.85194207
 20
4.70375170
 30
0.00000000
 11
-2.96443615
 21
4.63352866
 31
0.00000000
  0
LINE
  8
Layer_1
 62
     7
  6
CONTINUOUS
 10
-2.96443615
 20
4.63352866
 30
0.00000000
 11
-3.07509422
 21
4.56069206
 31
0.00000000
  0
LINE
  8
Layer_1
 62
     7
  6
CONTINUOUS
 10
-3.07509422
 20
4.56069206
 30
0.00000000
 11
-3.18387310
 21
4.48528511
 31
0.00000000
  0
LINE
  8
Layer_1
 62
     7
  6
CONTINUOUS
 10
-3.18387310
 20
4.48528511
 30
0.00000000
 11
-3.29072958
 21
4.40735099
 31
0.00000000
  0
LINE
  8
Layer_1
 62
     7
  6
CONTINUOUS
 10
-3.29072958
 20
4.40735099
 30
0.00000000
 11
-3.39562048
 21
4.32693292
 31
0.00000000
  0
LINE
  8
Layer_1
 62
     7
  6
CONTINUOUS
 10
-3.39562048
 20
4.32693292
 30
0.00000000
 11
-3.49850259
 21
4.24407408
 31
0.00000000
  0
LINE
  8
Layer_1
 62
     7
  6
CONTINUOUS
 10
-3.49850259
 20
4.24407408
 30
0.00000000
 11
-3.59933272
 21
4.15881767
 31
0.00000000
  0
LINE
  8
Layer_1
 62
     7
  6
CONTINUOUS
 10
-3.59933272
 20
4.15881767
 30
0.00000000
 11
-3.69806767
 21
4.07120688
 31
0.00000000
  0
LINE
  8
Layer_1
 62
     7
  6
CONTINUOUS
 10
-3.69806767
 20
4.07120688
 30
0.00000000
 11
-3.79466424
 21
3.98128492
 31
0.00000000
  0
LINE
  8
Layer_1
 62
     7
  6
CONTINUOUS
 10
-3.79466424
 20
3.98128492
 30
0.00000000
 11
-3.88907923
 21
3.88909498
 31
0.00000000
  0
LINE
  8
Layer_1
 62
     7
  6
CONTINUOUS
 10
-3.88907923
 20
3.88909498
 30
0.00000000
 11
-3.98126946
 21
3.79468026
 31
0.00000000
  0
LINE
  8
Layer_1
 62
     7
  6
CONTINUOUS
 10
-3.98126946
 20
3.79468026
 30
0.00000000
 11
-4.07119171
 21
3.69808395
 31
0.00000000
  0
LINE
  8
Layer_1
 62
     7
  6
CONTINUOUS
 10
-4.07119171
 20
3.69808395
 30
0.00000000
 11
-4.15880280
 21
3.59934924
 31
0.00000000
  0
LINE
  8
Layer_1
 62
     7
  6
CONTINUOUS
 10
-4.15880280
 20
3.59934924
 30
0.00000000
 11
-4.24405952
 21
3.49851935
 31
0.00000000
  0
LINE
  8
Layer_1
 62
     7
  6
CONTINUOUS
 10
-4.24405952
 20
3.49851935
 30
0.00000000
 11
-4.32691869
 21
3.39563746
 31
0.00000000
  0
LINE
  8
Layer_1
 62
     7
  6
CONTINUOUS
 10
-4.32691869
 20
3.39563746
 30
0.00000000
 11
-4.40733710
 21
3.29074677
 31
0.00000000
  0
LINE
  8
Layer_1
 62
     7
  6
CONTINUOUS
 10
-4.40733710
 20
3.29074677
 30
0.00000000
 11
-4.48527155
 21
3.18389047
 31
0.00000000
  0
LINE
  8
Layer_1
 62
     7
  6
CONTINUOUS
 10
-4.48527155
 20
3.18389047
 30
0.00000000
 11
-4.56067885
 21
3.07511177
 31
0.00000000
  0
LINE
  8
Layer_1
 62
     7
  6
CONTINUOUS
 10
-4.56067885
 20
3.07511177
 30
0.00000000
 11
-4.63351580
 21
2.96445385
 31
0.00000000
  0
LINE
  8
Layer_1
 62
     7
  6
CONTINUOUS
 10
-4.63351580
 20
2.96445385
 30
0.00000000
 11
-4.70373921
 21
2.85195992
 31
0.00000000
  0
LINE
  8
Layer_1
 62
     7
  6
CONTINUOUS
 10
-4.70373921
 20
2.85195992
 30
0.00000000
 11
-4.77130587
 21
2.73767318
 31
0.00000000
  0
LINE
  8
Layer_1
 62
     7
  6
CONTINUOUS
 10
-4.77130587
 20
2.73767318
 30
0.00000000
 11
-4.83617259
 21
2.62163681
 31
0.00000000
  0
LINE
  8
Layer_1
 62
     7
  6
CONTINUOUS
 10
-4.83617259
 20
2.62163681
 30
0.00000000
 11
-4.89829618
 21
2.50389402
 31
0.00000000
  0
LINE
  8
Layer_1
 62
     7
  6
CONTINUOUS
 10
-4.89829618
 20
2.50389402
 30
0.00000000
 11
-4.95763343
 21
2.38448800
 31
0.00000000
  0
LINE
  8
Layer_1
 62
     7
  6
CONTINUOUS
 10
-4.95763343
 20
2.38448800
 30
0.00000000
 11
-5.01414115
 21
2.26346195
 31
0.00000000
  0
LINE
  8
Layer_1
 62
     7
  6
CONTINUOUS
 10
-5.01414115
 20
2.26346195
 30
0.00000000
 11
-5.06777614
 21
2.14085907
 31
0.00000000
  0
LINE
  8
Layer_1
 62
     7
  6
CONTINUOUS
 10
-5.06777614
 20
2.14085907
 30
0.00000000
 11
-5.11849521
 21
2.01672254
 31
0.00000000
  0
LINE
  8
Layer_1
 62
     7
  6
CONTINUOUS
 10
-5.11849521
 20
2.01672254
 30
0.00000000
 11
-5.16625515
 21
1.89109558
 31
0.00000000
  0
LINE
  8
Layer_1
 62
     7
  6
CONTINUOUS
 10
-5.16625515
 20
1.89109558
 30
0.00000000
 11
-5.21101278
 21
1.76402137
 31
0.00000000
  0
LINE
  8
Layer_1
 62
     7
  6
CONTINUOUS
 10
-5.21101278
 20
1.76402137
 30
0.00000000
 11
-5.25272488
 21
1.63554311
 31
0.00000000
  0
LINE
  8
Layer_1
 62
     7
  6
CONTINUOUS
 10
-5.25272488
 20
1.63554311
 30
0.00000000
 11
-5.29134827
 21
1.50570400
 31
0.00000000
  0
LINE
  8
Layer_1
 62
     7
  6
CONTINUOUS
 10
-5.29134827
 20
1.50570400
 30
0.00000000
 11
-5.32683975
 21
1.37454724
 31
0.00000000
  0
LINE
  8
Layer_1
 62
     7
  6
CONTINUOUS
 10
-5.32683975
 20
1.37454724
 30
0.00000000
 11
-5.35915612
 21
1.24211602
 31
0.00000000
  0
LINE
  8
Layer_1
 62
     7
  6
CONTINUOUS
 10
-5.35915612
 20
1.24211602
 30
0.00000000
 11
-5.38825419
 21
1.10845353
 31
0.00000000
  0
LINE
  8
Layer_1
 62
     7
  6
CONTINUOUS
 10
-5.38825419
 20
1.10845353
 30
0.00000000
 11
-5.41409075
 21
0.97360298
 31
0.00000000
  0
LINE
  8
Layer_1
 62
     7
  6
CONTINUOUS
 10
-5.41409075
 20
0.97360298
 30
0.00000000
 11
-5.43662262
 21
0.83760756
 31
0.00000000
  0
LINE
  8
Layer_1
 62
     7
  6
CONTINUOUS
 10
-5.43662262
 20
0.83760756
 30
0.00000000
 11
-5.45580658
 21
0.70051047
 31
0.00000000
  0
LINE
  8
Layer_1
 62
     7
  6
CONTINUOUS
 10
-5.45580658
 20
0.70051047
 30
0.00000000
 11
-5.47159946
 21
0.56235490
 31
0.00000000
  0
LINE
  8
Layer_1
 62
     7
  6
CONTINUOUS
 10
-5.47159946
 20
0.56235490
 30
0.00000000
 11
-5.48395804
 21
0.42318406
 31
0.00000000
  0
LINE
  8
Layer_1
 62
     7
  6
CONTINUOUS
 10
-5.48395804
 20
0.42318406
 30
0.00000000
 11
-5.49283913
 21
0.28304113
 31
0.00000000
  0
LINE
  8
Layer_1
 62
     7
  6
CONTINUOUS
 10
-5.49283913
 20
0.28304113
 30
0.00000000
 11
-5.49819954
 21
0.14196932
 31
0.00000000
  0
LINE
  8
Layer_1
 62
     7
  6
CONTINUOUS
 10
-5.49819954
 20
0.14196932
 30
0.00000000
 11
-5.49999606
 21
0.00001181
 31
0.00000000
  0
LINE
  8
Layer_1
 62
     7
  6
CONTINUOUS
 10
-5.49999606
 20
0.00001181
 30
0.00000000
 11
-5.49820028
 21
-0.14194534
 31
0.00000000
  0
LINE
  8
Layer_1
 62
     7
  6
CONTINUOUS
 10
-5.49820028
 20
-0.14194534
 30
0.00000000
 11
-5.49284061
 21
-0.28301685
 31
0.00000000
  0
LINE
  8
Layer_1
 62
     7
  6
CONTINUOUS
 10
-5.49284061
 20
-0.28301685
 30
0.00000000
 11
-5.48396025
 21
-0.42315951
 31
0.00000000
  0
LINE
  8
Layer_1
 62
     7
  6
CONTINUOUS
 10
-5.48396025
 20
-0.42315951
 30
0.00000000
 11
-5.47160240
 21
-0.56233012
 31
0.00000000
  0
LINE
  8
Layer_1
 62
     7
  6
CONTINUOUS
 10
-5.47160240
 20
-0.56233012
 30
0.00000000
 11
-5.45581027
 21
-0.70048549
 31
0.00000000
  0
LINE
  8
Layer_1
 62
     7
  6
CONTINUOUS
 10
-5.45581027
 20
-0.70048549
 30
0.00000000
 11
-5.43662703
 21
-0.83758242
 31
0.00000000
  0
LINE
  8
Layer_1
 62
     7
  6
CONTINUOUS
 10
-5.43662703
 20
-0.83758242
 30
0.00000000
 11
-5.41409590
 21
-0.97357772
 31
0.00000000
  0
LINE
  8
Layer_1
 62
     7
  6
CONTINUOUS
 10
-5.41409590
 20
-0.97357772
 30
0.00000000
 11
-5.38826006
 21
-1.10842818
 31
0.00000000
  0
LINE
  8
Layer_1
 62
     7
  6
CONTINUOUS
 10
-5.38826006
 20
-1.10842818
 30
0.00000000
 11
-5.35916271
 21
-1.24209061
 31
0.00000000
  0
LINE
  8
Layer_1
 62
     7
  6
CONTINUOUS
 10
-5.35916271
 20
-1.24209061
 30
0.00000000
 11
-5.32684706
 21
-1.37452181
 31
0.00000000
  0
LINE
  8
Layer_1
 62
     7
  6
CONTINUOUS
 10
-5.32684706
 20
-1.37452181
 30
0.00000000
 11
-5.29135629
 21
-1.50567859
 31
0.00000000
  0
LINE
  8
Layer_1
 62
     7
  6
CONTINUOUS
 10
-5.29135629
 20
-1.50567859
 30
0.00000000
 11
-5.25273361
 21
-1.63551774
 31
0.00000000
  0
LINE
  8
Layer_1
 62
     7
  6
CONTINUOUS
 10
-5.25273361
 20
-1.63551774
 30
0.00000000
 11
-5.21102221
 21
-1.76399607
 31
0.00000000
  0
LINE
  8
Layer_1
 62
     7
  6
CONTINUOUS
 10
-5.21102221
 20
-1.76399607
 30
0.00000000
 11
-5.16626528
 21
-1.89107038
 31
0.00000000
  0
LINE
  8
Layer_1
 62
     7
  6
CONTINUOUS
 10
-5.16626528
 20
-1.89107038
 30
0.00000000
 11
-5.11850603
 21
-2.01669747
 31
0.00000000
  0
LINE
  8
Layer_1
 62
     7
  6
CONTINUOUS
 10
-5.11850603
 20
-2.01669747
 30
0.00000000
 11
-5.06778765
 21
-2.14083415
 31
0.00000000
  0
LINE
  8
Layer_1
 62
     7
  6
CONTINUOUS
 10
-5.06778765
 20
-2.14083415
 30
0.00000000
 11
-5.01415333
 21
-2.26343722
 31
0.00000000
  0
LINE
  8
Layer_1
 62
     7
  6
CONTINUOUS
 10
-5.01415333
 20
-2.26343722
 30
0.00000000
 11
-4.95764628
 21
-2.38446349
 31
0.00000000
  0
LINE
  8
Layer_1
 62
     7
  6
CONTINUOUS
 10
-4.95764628
 20
-2.38446349
 30
0.00000000
 11
-4.89830969
 21
-2.50386975
 31
0.00000000
  0
LINE
  8
Layer_1
 62
     7
  6
CONTINUOUS
 10
-4.89830969
 20
-2.50386975
 30
0.00000000
 11
-4.83618676
 21
-2.62161280
 31
0.00000000
  0
LINE
  8
Layer_1
 62
     7
  6
CONTINUOUS
 10
-4.83618676
 20
-2.62161280
 30
0.00000000
 11
-4.77132068
 21
-2.73764946
 31
0.00000000
  0
LINE
  8
Layer_1
 62
     7
  6
CONTINUOUS
 10
-4.77132068
 20
-2.73764946
 30
0.00000000
 11
-4.70375465
 21
-2.85193651
 31
0.00000000
  0
LINE
  8
Layer_1
 62
     7
  6
CONTINUOUS
 10
-4.70375465
 20
-2.85193651
 30
0.00000000
 11
-4.63353187
 21
-2.96443077
 31
0.00000000
  0
LINE
  8
Layer_1
 62
     7
  6
CONTINUOUS
 10
-4.63353187
 20
-2.96443077
 30
0.00000000
 11
-4.56069553
 21
-3.07508904
 31
0.00000000
  0
LINE
  8
Layer_1
 62
     7
  6
CONTINUOUS
 10
-4.56069553
 20
-3.07508904
 30
0.00000000
 11
-4.48528883
 21
-3.18386812
 31
0.00000000
  0
LINE
  8
Layer_1
 62
     7
  6
CONTINUOUS
 10
-4.48528883
 20
-3.18386812
 30
0.00000000
 11
-4.40735497
 21
-3.29072482
 31
0.00000000
  0
LINE
  8
Layer_1
 62
     7
  6
CONTINUOUS
 10
-4.40735497
 20
-3.29072482
 30
0.00000000
 11
-4.32693714
 21
-3.39561592
 31
0.00000000
  0
LINE
  8
Layer_1
 62
     7
  6
CONTINUOUS
 10
-4.32693714
 20
-3.39561592
 30
0.00000000
 11
-4.24407854
 21
-3.49849825
 31
0.00000000
  0
LINE
  8
Layer_1
 62
     7
  6
CONTINUOUS
 10
-4.24407854
 20
-3.49849825
 30
0.00000000
 11
-4.15882237
 21
-3.59932860
 31
0.00000000
  0
LINE
  8
Layer_1
 62
     7
  6
CONTINUOUS
 10
-4.15882237
 20
-3.59932860
 30
0.00000000
 11
-4.07121183
 21
-3.69806377
 31
0.00000000
  0
LINE
  8
Layer_1
 62
     7
  6
CONTINUOUS
 10
-4.07121183
 20
-3.69806377
 30
0.00000000
 11
-3.98129010
 21
-3.79466056
 31
0.00000000
  0
LINE
  8
Layer_1
 62
     7
  6
CONTINUOUS
 10
-3.98129010
 20
-3.79466056
 30
0.00000000
 11
-3.88910039
 21
-3.88907579
 31
0.00000000
  0
LINE
  8
Layer_1
 62
     7
  6
CONTINUOUS
 10
-3.88910039
 20
-3.88907579
 30
0.00000000
 11
-3.79468590
 21
-3.98126624
 31
0.00000000
  0
LINE
  8
Layer_1
 62
     7
  6
CONTINUOUS
 10
-3.79468590
 20
-3.98126624
 30
0.00000000
 11
-3.69808981
 21
-4.07118873
 31
0.00000000
  0
LINE
  8
Layer_1
 62
     7
  6
CONTINUOUS
 10
-3.69808981
 20
-4.07118873
 30
0.00000000
 11
-3.59935534
 21
-4.15880006
 31
0.00000000
  0
LINE
  8
Layer_1
 62
     7
  6
CONTINUOUS
 10
-3.59935534
 20
-4.15880006
 30
0.00000000
 11
-3.49852566
 21
-4.24405702
 31
0.00000000
  0
LINE
  8
Layer_1
 62
     7
  6
CONTINUOUS
 10
-3.49852566
 20
-4.24405702
 30
0.00000000
 11
-3.39564399
 21
-4.32691643
 31
0.00000000
  0
LINE
  8
Layer_1
 62
     7
  6
CONTINUOUS
 10
-3.39564399
 20
-4.32691643
 30
0.00000000
 11
-3.29075351
 21
-4.40733508
 31
0.00000000
  0
LINE
  8
Layer_1
 62
     7
  6
CONTINUOUS
 10
-3.29075351
 20
-4.40733508
 30
0.00000000
 11
-3.18389743
 21
-4.48526977
 31
0.00000000
  0
LINE
  8
Layer_1
 62
     7
  6
CONTINUOUS
 10
-3.18389743
 20
-4.48526977
 30
0.00000000
 11
-3.07511894
 21
-4.56067732
 31
0.00000000
  0
LINE
  8
Layer_1
 62
     7
  6
CONTINUOUS
 10
-3.07511894
 20
-4.56067732
 30
0.00000000
 11
-2.96446124
 21
-4.63351452
 31
0.00000000
  0
LINE
  8
Layer_1
 62
     7
  6
CONTINUOUS
 10
-2.96446124
 20
-4.63351452
 30
0.00000000
 11
-2.85196752
 21
-4.70373817
 31
0.00000000
  0
LINE
  8
Layer_1
 62
     7
  6
CONTINUOUS
 10
-2.85196752
 20
-4.70373817
 30
0.00000000
 11
-2.73768098
 21
-4.77130508
 31
0.00000000
  0
LINE
  8
Layer_1
 62
     7
  6
CONTINUOUS
 10
-2.73768098
 20
-4.77130508
 30
0.00000000
 11
-2.62164481
 21
-4.83617205
 31
0.00000000
  0
LINE
  8
Layer_1
 62
     7
  6
CONTINUOUS
 10
-2.62164481
 20
-4.83617205
 30
0.00000000
 11
-2.50390222
 21
-4.89829588
 31
0.00000000
  0
LINE
  8
Layer_1
 62
     7
  6
CONTINUOUS
 10
-2.50390222
 20
-4.89829588
 30
0.00000000
 11
-2.38449640
 21
-4.95763338
 31
0.00000000
  0
LINE
  8
Layer_1
 62
     7
  6
CONTINUOUS
 10
-2.38449640
 20
-4.95763338
 30
0.00000000
 11
-2.26347055
 21
-5.01414134
 31
0.00000000
  0
LINE
  8
Layer_1
 62
     7
  6
CONTINUOUS
 10
-2.26347055
 20
-5.01414134
 30
0.00000000
 11
-2.14086786
 21
-5.06777657
 31
0.00000000
  0
LINE
  8
Layer_1
 62
     7
  6
CONTINUOUS
 10
-2.14086786
 20
-5.06777657
 30
0.00000000
 11
-2.01673154
 21
-5.11849588
 31
0.00000000
  0
LINE
  8
Layer_1
 62
     7
  6
CONTINUOUS
 10
-2.01673154
 20
-5.11849588
 30
0.00000000
 11
-1.89110477
 21
-5.16625606
 31
0.00000000
  0
LINE
  8
Layer_1
 62
     7
  6
CONTINUOUS
 10
-1.89110477
 20
-5.16625606
 30
0.00000000
 11
-1.76403075
 21
-5.21101393
 31
0.00000000
  0
LINE
  8
Layer_1
 62
     7
  6
CONTINUOUS
 10
-1.76403075
 20
-5.21101393
 30
0.00000000
 11
-1.63555268
 21
-5.25272627
 31
0.00000000
  0
LINE
  8
Layer_1
 62
     7
  6
CONTINUOUS
 10
-1.63555268
 20
-5.25272627
 30
0.00000000
 11
-1.50571377
 21
-5.29134989
 31
0.00000000
  0
LINE
  8
Layer_1
 62
     7
  6
CONTINUOUS
 10
-1.50571377
 20
-5.29134989
 30
0.00000000
 11
-1.37455719
 21
-5.32684160
 31
0.00000000
  0
LINE
  8
Layer_1
 62
     7
  6
CONTINUOUS
 10
-1.37455719
 20
-5.32684160
 30
0.00000000
 11
-1.24212616
 21
-5.35915820
 31
0.00000000
  0
LINE
  8
Layer_1
 62
     7
  6
CONTINUOUS
 10
-1.24212616
 20
-5.35915820
 30
0.00000000
 11
-1.10846386
 21
-5.38825649
 31
0.00000000
  0
LINE
  8
Layer_1
 62
     7
  6
CONTINUOUS
 10
-1.10846386
 20
-5.38825649
 30
0.00000000
 11
-0.97361350
 21
-5.41409327
 31
0.00000000
  0
LINE
  8
Layer_1
 62
     7
  6
CONTINUOUS
 10
-0.97361350
 20
-5.41409327
 30
0.00000000
 11
-0.83761826
 21
-5.43662535
 31
0.00000000
  0
LINE
  8
Layer_1
 62
     7
  6
CONTINUOUS
 10
-0.83761826
 20
-5.43662535
 30
0.00000000
 11
-0.70052136
 21
-5.45580953
 31
0.00000000
  0
LINE
  8
Layer_1
 62
     7
  6
CONTINUOUS
 10
-0.70052136
 20
-5.45580953
 30
0.00000000
 11
-0.56236598
 21
-5.47160261
 31
0.00000000
  0
LINE
  8
Layer_1
 62
     7
  6
CONTINUOUS
 10
-0.56236598
 20
-5.47160261
 30
0.00000000
 11
-0.42319532
 21
-5.48396140
 31
0.00000000
  0
LINE
  8
Layer_1
 62
     7
  6
CONTINUOUS
 10
-0.42319532
 20
-5.48396140
 30
0.00000000
 11
-0.28305257
 21
-5.49284269
 31
0.00000000
  0
LINE
  8
Layer_1
 62
     7
  6
CONTINUOUS
 10
-0.28305257
 20
-5.49284269
 30
0.00000000
 11
-0.14198094
 21
-5.49820329
 31
0.00000000
  0
LINE
  8
Layer_1
 62
     7
  6
CONTINUOUS
 10
-0.14198094
 20
-5.49820329
 30
0.00000000
 11
-0.00002362
 21
-5.50000000
 31
0.00000000
  0
LINE
  8
Layer_1
 62
     7
  6
CONTINUOUS
 10
-0.00002362
 20
-5.50000000
 30
0.00000000
 11
0.14193371
 21
-5.49820421
 31
0.00000000
  0
LINE
  8
Layer_1
 62
     7
  6
CONTINUOUS
 10
0.14193371
 20
-5.49820421
 30
0.00000000
 11
0.28300540
 21
-5.49284454
 31
0.00000000
  0
LINE
  8
Layer_1
 62
     7
  6
CONTINUOUS
 10
0.28300540
 20
-5.49284454
 30
0.00000000
 11
0.42314822
 21
-5.48396419
 31
0.00000000
  0
LINE
  8
Layer_1
 62
     7
  6
CONTINUOUS
 10
0.42314822
 20
-5.48396419
 30
0.00000000
 11
0.56231900
 21
-5.47160634
 31
0.00000000
  0
LINE
  8
Layer_1
 62
     7
  6
CONTINUOUS
 10
0.56231900
 20
-5.47160634
 30
0.00000000
 11
0.70047454
 21
-5.45581420
 31
0.00000000
  0
LINE
  8
Layer_1
 62
     7
  6
CONTINUOUS
 10
0.70047454
 20
-5.45581420
 30
0.00000000
 11
0.83757162
 21
-5.43663097
 31
0.00000000
  0
LINE
  8
Layer_1
 62
     7
  6
CONTINUOUS
 10
0.83757162
 20
-5.43663097
 30
0.00000000
 11
0.97356707
 21
-5.41409983
 31
0.00000000
  0
LINE
  8
Layer_1
 62
     7
  6
CONTINUOUS
 10
0.97356707
 20
-5.41409983
 30
0.00000000
 11
1.10841768
 21
-5.38826399
 31
0.00000000
  0
LINE
  8
Layer_1
 62
     7
  6
CONTINUOUS
 10
1.10841768
 20
-5.38826399
 30
0.00000000
 11
1.24208025
 21
-5.35916665
 31
0.00000000
  0
LINE
  8
Layer_1
 62
     7
  6
CONTINUOUS
 10
1.24208025
 20
-5.35916665
 30
0.00000000
 11
1.37451159
 21
-5.32685100
 31
0.00000000
  0
LINE
  8
Layer_1
 62
     7
  6
CONTINUOUS
 10
1.37451159
 20
-5.32685100
 30
0.00000000
 11
1.50566850
 21
-5.29136023
 31
0.00000000
  0
LINE
  8
Layer_1
 62
     7
  6
CONTINUOUS
 10
1.50566850
 20
-5.29136023
 30
0.00000000
 11
1.63550778
 21
-5.25273755
 31
0.00000000
  0
LINE
  8
Layer_1
 62
     7
  6
CONTINUOUS
 10
1.63550778
 20
-5.25273755
 30
0.00000000
 11
1.76398623
 21
-5.21102614
 31
0.00000000
  0
LINE
  8
Layer_1
 62
     7
  6
CONTINUOUS
 10
1.76398623
 20
-5.21102614
 30
0.00000000
 11
1.89106067
 21
-5.16626922
 31
0.00000000
  0
LINE
  8
Layer_1
 62
     7
  6
CONTINUOUS
 10
1.89106067
 20
-5.16626922
 30
0.00000000
 11
2.01668788
 21
-5.11850997
 31
0.00000000
  0
LINE
  8
Layer_1
 62
     7
  6
CONTINUOUS
 10
2.01668788
 20
-5.11850997
 30
0.00000000
 11
2.14082468
 21
-5.06779158
 31
0.00000000
  0
LINE
  8
Layer_1
 62
     7
  6
CONTINUOUS
 10
2.14082468
 20
-5.06779158
 30
0.00000000
 11
2.26342787
 21
-5.01415727
 31
0.00000000
  0
LINE
  8
Layer_1
 62
     7
  6
CONTINUOUS
 10
2.26342787
 20
-5.01415727
 30
0.00000000
 11
2.38445424
 21
-4.95765022
 31
0.00000000
  0
LINE
  8
Layer_1
 62
     7
  6
CONTINUOUS
 10
2.38445424
 20
-4.95765022
 30
0.00000000
 11
2.50386061
 21
-4.89831363
 31
0.00000000
  0
LINE
  8
Layer_1
 62
     7
  6
CONTINUOUS
 10
2.50386061
 20
-4.89831363
 30
0.00000000
 11
2.62160377
 21
-4.83619069
 31
0.00000000
  0
LINE
  8
Layer_1
 62
     7
  6
CONTINUOUS
 10
2.62160377
 20
-4.83619069
 30
0.00000000
 11
2.73764053
 21
-4.77132462
 31
0.00000000
  0
LINE
  8
Layer_1
 62
     7
  6
CONTINUOUS
 10
2.73764053
 20
-4.77132462
 30
0.00000000
 11
2.85192769
 21
-4.70375859
 31
0.00000000
  0
LINE
  8
Layer_1
 62
     7
  6
CONTINUOUS
 10
2.85192769
 20
-4.70375859
 30
0.00000000
 11
2.96442205
 21
-4.63353580
 31
0.00000000
  0
LINE
  8
Layer_1
 62
     7
  6
CONTINUOUS
 10
2.96442205
 20
-4.63353580
 30
0.00000000
 11
3.07508042
 21
-4.56069946
 31
0.00000000
  0
LINE
  8
Layer_1
 62
     7
  6
CONTINUOUS
 10
3.07508042
 20
-4.56069946
 30
0.00000000
 11
3.18385959
 21
-4.48529277
 31
0.00000000
  0
LINE
  8
Layer_1
 62
     7
  6
CONTINUOUS
 10
3.18385959
 20
-4.48529277
 30
0.00000000
 11
3.29071638
 21
-4.40735891
 31
0.00000000
  0
LINE
  8
Layer_1
 62
     7
  6
CONTINUOUS
 10
3.29071638
 20
-4.40735891
 30
0.00000000
 11
3.39560759
 21
-4.32694108
 31
0.00000000
  0
LINE
  8
Layer_1
 62
     7
  6
CONTINUOUS
 10
3.39560759
 20
-4.32694108
 30
0.00000000
 11
3.49849001
 21
-4.24408248
 31
0.00000000
  0
LINE
  8
Layer_1
 62
     7
  6
CONTINUOUS
 10
3.49849001
 20
-4.24408248
 30
0.00000000
 11
3.59932045
 21
-4.15882631
 31
0.00000000
  0
LINE
  8
Layer_1
 62
     7
  6
CONTINUOUS
 10
3.59932045
 20
-4.15882631
 30
0.00000000
 11
3.69805571
 21
-4.07121577
 31
0.00000000
  0
LINE
  8
Layer_1
 62
     7
  6
CONTINUOUS
 10
3.69805571
 20
-4.07121577
 30
0.00000000
 11
3.79465260
 21
-3.98129404
 31
0.00000000
  0
LINE
  8
Layer_1
 62
     7
  6
CONTINUOUS
 10
3.79465260
 20
-3.98129404
 30
0.00000000
 11
3.88906791
 21
-3.88910433
 31
0.00000000
  0
LINE
  8
Layer_1
 62
     7
  6
CONTINUOUS
 10
3.88906791
 20
-3.88910433
 30
0.00000000
 11
3.98125846
 21
-3.79468984
 31
0.00000000
  0
LINE
  8
Layer_1
 62
     7
  6
CONTINUOUS
 10
3.98125846
 20
-3.79468984
 30
0.00000000
 11
4.07118104
 21
-3.69809375
 31
0.00000000
  0
LINE
  8
Layer_1
 62
     7
  6
CONTINUOUS
 10
4.07118104
 20
-3.69809375
 30
0.00000000
 11
4.15879246
 21
-3.59935927
 31
0.00000000
  0
LINE
  8
Layer_1
 62
     7
  6
CONTINUOUS
 10
4.15879246
 20
-3.59935927
 30
0.00000000
 11
4.24404952
 21
-3.49852960
 31
0.00000000
  0
LINE
  8
Layer_1
 62
     7
  6
CONTINUOUS
 10
4.24404952
 20
-3.49852960
 30
0.00000000
 11
4.32690902
 21
-3.39564793
 31
0.00000000
  0
LINE
  8
Layer_1
 62
     7
  6
CONTINUOUS
 10
4.32690902
 20
-3.39564793
 30
0.00000000
 11
4.40732776
 21
-3.29075745
 31
0.00000000
  0
LINE
  8
Layer_1
 62
     7
  6
CONTINUOUS
 10
4.40732776
 20
-3.29075745
 30
0.00000000
 11
4.48526256
 21
-3.18390137
 31
0.00000000
  0
LINE
  8
Layer_1
 62
     7
  6
CONTINUOUS
 10
4.48526256
 20
-3.18390137
 30
0.00000000
 11
4.56067020
 21
-3.07512288
 31
0.00000000
  0
LINE
  8
Layer_1
 62
     7
  6
CONTINUOUS
 10
4.56067020
 20
-3.07512288
 30
0.00000000
 11
4.63350750
 21
-2.96446517
 31
0.00000000
  0
LINE
  8
Layer_1
 62
     7
  6
CONTINUOUS
 10
4.63350750
 20
-2.96446517
 30
0.00000000
 11
4.70373125
 21
-2.85197145
 31
0.00000000
  0
LINE
  8
Layer_1
 62
     7
  6
CONTINUOUS
 10
4.70373125
 20
-2.85197145
 30
0.00000000
 11
4.77129826
 21
-2.73768491
 31
0.00000000
  0
LINE
  8
Layer_1
 62
     7
  6
CONTINUOUS
 10
4.77129826
 20
-2.73768491
 30
0.00000000
 11
4.83616533
 21
-2.62164875
 31
0.00000000
  0
LINE
  8
Layer_1
 62
     7
  6
CONTINUOUS
 10
4.83616533
 20
-2.62164875
 30
0.00000000
 11
4.89828927
 21
-2.50390616
 31
0.00000000
  0
LINE
  8
Layer_1
 62
     7
  6
CONTINUOUS
 10
4.89828927
 20
-2.50390616
 30
0.00000000
 11
4.95762688
 21
-2.38450034
 31
0.00000000
  0
LINE
  8
Layer_1
 62
     7
  6
CONTINUOUS
 10
4.95762688
 20
-2.38450034
 30
0.00000000
 11
5.01413495
 21
-2.26347449
 31
0.00000000
  0
LINE
  8
Layer_1
 62
     7
  6
CONTINUOUS
 10
5.01413495
 20
-2.26347449
 30
0.00000000
 11
5.06777030
 21
-2.14087180
 31
0.00000000
  0
LINE
  8
Layer_1
 62
     7
  6
CONTINUOUS
 10
5.06777030
 20
-2.14087180
 30
0.00000000
 11
5.11848972
 21
-2.01673547
 31
0.00000000
  0
LINE
  8
Layer_1
 62
     7
  6
CONTINUOUS
 10
5.11848972
 20
-2.01673547
 30
0.00000000
 11
5.16625003
 21
-1.89110870
 31
0.00000000
  0
LINE
  8
Layer_1
 62
     7
  6
CONTINUOUS
 10
5.16625003
 20
-1.89110870
 30
0.00000000
 11
5.21100801
 21
-1.76403469
 31
0.00000000
  0
LINE
  8
Layer_1
 62
     7
  6
CONTINUOUS
 10
5.21100801
 20
-1.76403469
 30
0.00000000
 11
5.25272048
 21
-1.63555662
 31
0.00000000
  0
LINE
  8
Layer_1
 62
     7
  6
CONTINUOUS
 10
5.25272048
 20
-1.63555662
 30
0.00000000
 11
5.29134423
 21
-1.50571770
 31
0.00000000
  0
LINE
  8
Layer_1
 62
     7
  6
CONTINUOUS
 10
5.29134423
 20
-1.50571770
 30
0.00000000
 11
5.32683608
 21
-1.37456113
 31
0.00000000
  0
LINE
  8
Layer_1
 62
     7
  6
CONTINUOUS
 10
5.32683608
 20
-1.37456113
 30
0.00000000
 11
5.35915281
 21
-1.24213009
 31
0.00000000
  0
LINE
  8
Layer_1
 62
     7
  6
CONTINUOUS
 10
5.35915281
 20
-1.24213009
 30
0.00000000
 11
5.38825125
 21
-1.10846780
 31
0.00000000
  0
LINE
  8
Layer_1
 62
     7
  6
CONTINUOUS
 10
5.38825125
 20
-1.10846780
 30
0.00000000
 11
5.41408818
 21
-0.97361743
 31
0.00000000
  0
LINE
  8
Layer_1
 62
     7
  6
CONTINUOUS
 10
5.41408818
 20
-0.97361743
 30
0.00000000
 11
5.43662041
 21
-0.83762220
 31
0.00000000
  0
LINE
  8
Layer_1
 62
     7
  6
CONTINUOUS
 10
5.43662041
 20
-0.83762220
 30
0.00000000
 11
5.45580474
 21
-0.70052530
 31
0.00000000
  0
LINE
  8
Layer_1
 62
     7
  6
CONTINUOUS
 10
5.45580474
 20
-0.70052530
 30
0.00000000
 11
5.47159798
 21
-0.56236991
 31
0.00000000
  0
LINE
  8
Layer_1
 62
     7
  6
CONTINUOUS
 10
5.47159798
 20
-0.56236991
 30
0.00000000
 11
5.48395693
 21
-0.42319925
 31
0.00000000
  0
LINE
  8
Layer_1
 62
     7
  6
CONTINUOUS
 10
5.48395693
 20
-0.42319925
 30
0.00000000
 11
5.49283839
 21
-0.28305651
 31
0.00000000
  0
LINE
  8
Layer_1
 62
     7
  6
CONTINUOUS
 10
5.49283839
 20
-0.28305651
 30
0.00000000
 11
5.49819917
 21
-0.14198488
 31
0.00000000
  0
LINE
  8
Layer_1
 62
     7
  6
CONTINUOUS
 10
5.49819917
 20
-0.14198488
 30
0.00000000
 11
5.49999606
 21
-0.00002756
 31
0.00000000
  0
LINE
  8
Layer_1
 62
     7
  6
CONTINUOUS
 10
-0.18603937
 20
2.75221260
 30
0.00000000
 11
-0.36034504
 21
2.82030236
 31
0.00000000
  0
LINE
  8
Layer_1
 62
     7
  6
CONTINUOUS
 10
-0.36034504
 20
2.82030236
 30
0.00000000
 11
-0.53653220
 21
2.88217716
 31
0.00000000
  0
LINE
  8
Layer_1
 62
     7
  6
CONTINUOUS
 10
-0.53653220
 20
2.88217716
 30
0.00000000
 11
-0.71443539
 21
2.93781813
 31
0.00000000
  0
LINE
  8
Layer_1
 62
     7
  6
CONTINUOUS
 10
-0.71443539
 20
2.93781813
 30
0.00000000
 11
-0.89388921
 21
2.98720639
 31
0.00000000
  0
LINE
  8
Layer_1
 62
     7
  6
CONTINUOUS
 10
-0.89388921
 20
2.98720639
 30
0.00000000
 11
-1.07472821
 21
3.03032306
 31
0.00000000
  0
LINE
  8
Layer_1
 62
     7
  6
CONTINUOUS
 10
-1.07472821
 20
3.03032306
 30
0.00000000
 11
-1.25678698
 21
3.06714928
 31
0.00000000
  0
LINE
  8
Layer_1
 62
     7
  6
CONTINUOUS
 10
-1.25678698
 20
3.06714928
 30
0.00000000
 11
-1.43990007
 21
3.09766615
 31
0.00000000
  0
LINE
  8
Layer_1
 62
     7
  6
CONTINUOUS
 10
-1.43990007
 20
3.09766615
 30
0.00000000
 11
-1.62390207
 21
3.12185482
 31
0.00000000
  0
LINE
  8
Layer_1
 62
     7
  6
CONTINUOUS
 10
-1.62390207
 20
3.12185482
 30
0.00000000
 11
-1.80862753
 21
3.13969640
 31
0.00000000
  0
LINE
  8
Layer_1
 62
     7
  6
CONTINUOUS
 10
-1.80862753
 20
3.13969640
 30
0.00000000
 11
-1.99391104
 21
3.15117202
 31
0.00000000
  0
LINE
  8
Layer_1
 62
     7
  6
CONTINUOUS
 10
-1.99391104
 20
3.15117202
 30
0.00000000
 11
-2.17958716
 21
3.15626280
 31
0.00000000
  0
LINE
  8
Layer_1
 62
     7
  6
CONTINUOUS
 10
-2.17958716
 20
3.15626280
 30
0.00000000
 11
-2.36549047
 21
3.15494986
 31
0.00000000
  0
LINE
  8
Layer_1
 62
     7
  6
CONTINUOUS
 10
-2.36549047
 20
3.15494986
 30
0.00000000
 11
-2.55145552
 21
3.14721434
 31
0.00000000
  0
LINE
  8
Layer_1
 62
     7
  6
CONTINUOUS
 10
-2.55145552
 20
3.14721434
 30
0.00000000
 11
-2.73731691
 21
3.13303735
 31
0.00000000
  0
LINE
  8
Layer_1
 62
     7
  6
CONTINUOUS
 10
-2.73731691
 20
3.13303735
 30
0.00000000
 11
-2.92290918
 21
3.11240001
 31
0.00000000
  0
LINE
  8
Layer_1
 62
     7
  6
CONTINUOUS
 10
-2.92290918
 20
3.11240001
 30
0.00000000
 11
-3.10806693
 21
3.08528346
 31
0.00000000
  0
LINE
  8
Layer_1
 62
     7
  6
CONTINUOUS
 10
-0.30838976
 20
2.45436220
 30
0.00000000
 11
-0.47228433
 21
2.51838519
 31
0.00000000
  0
LINE
  8
Layer_1
 62
     7
  6
CONTINUOUS
 10
-0.47228433
 20
2.51838519
 30
0.00000000
 11
-0.63794799
 21
2.57656438
 31
0.00000000
  0
LINE
  8
Layer_1
 62
     7
  6
CONTINUOUS
 10
-0.63794799
 20
2.57656438
 30
0.00000000
 11
-0.80522519
 21
2.62888204
 31
0.00000000
  0
LINE
  8
Layer_1
 62
     7
  6
CONTINUOUS
 10
-0.80522519
 20
2.62888204
 30
0.00000000
 11
-0.97396038
 21
2.67532044
 31
0.00000000
  0
LINE
  8
Layer_1
 62
     7
  6
CONTINUOUS
 10
-0.97396038
 20
2.67532044
 30
0.00000000
 11
-1.14399802
 21
2.71586183
 31
0.00000000
  0
LINE
  8
Layer_1
 62
     7
  6
CONTINUOUS
 10
-1.14399802
 20
2.71586183
 30
0.00000000
 11
-1.31518255
 21
2.75048849
 31
0.00000000
  0
LINE
  8
Layer_1
 62
     7
  6
CONTINUOUS
 10
-1.31518255
 20
2.75048849
 30
0.00000000
 11
-1.48735842
 21
2.77918268
 31
0.00000000
  0
LINE
  8
Layer_1
 62
     7
  6
CONTINUOUS
 10
-1.48735842
 20
2.77918268
 30
0.00000000
 11
-1.66037008
 21
2.80192667
 31
0.00000000
  0
LINE
  8
Layer_1
 62
     7
  6
CONTINUOUS
 10
-1.66037008
 20
2.80192667
 30
0.00000000
 11
-1.83406198
 21
2.81870273
 31
0.00000000
  0
LINE
  8
Layer_1
 62
     7
  6
CONTINUOUS
 10
-1.83406198
 20
2.81870273
 30
0.00000000
 11
-2.00827857
 21
2.82949312
 31
0.00000000
  0
LINE
  8
Layer_1
 62
     7
  6
CONTINUOUS
 10
-2.00827857
 20
2.82949312
 30
0.00000000
 11
-2.18286431
 21
2.83428010
 31
0.00000000
  0
LINE
  8
Layer_1
 62
     7
  6
CONTINUOUS
 10
-2.18286431
 20
2.83428010
 30
0.00000000
 11
-2.35766363
 21
2.83304595
 31
0.00000000
  0
LINE
  8
Layer_1
 62
     7
  6
CONTINUOUS
 10
-2.35766363
 20
2.83304595
 30
0.00000000
 11
-2.53252100
 21
2.82577293
 31
0.00000000
  0
LINE
  8
Layer_1
 62
     7
  6
CONTINUOUS
 10
-2.53252100
 20
2.82577293
 30
0.00000000
 11
-2.70728085
 21
2.81244331
 31
0.00000000
  0
LINE
  8
Layer_1
 62
     7
  6
CONTINUOUS
 10
-2.70728085
 20
2.81244331
 30
0.00000000
 11
-2.88178764
 21
2.79303934
 31
0.00000000
  0
LINE
  8
Layer_1
 62
     7
  6
CONTINUOUS
 10
-2.88178764
 20
2.79303934
 30
0.00000000
 11
-3.05588583
 21
2.76754331
 31
0.00000000
  0
LINE
  8
Layer_1
 62
     7
  6
CONTINUOUS
 10
0.00000000
 20
2.23099606
 30
0.00000000
 11
-0.16246979
 21
2.22855349
 31
0.00000000
  0
LINE
  8
Layer_1
 62
     7
  6
CONTINUOUS
 10
-0.16246979
 20
2.22855349
 30
0.00000000
 11
-0.32422303
 21
2.22125778
 31
0.00000000
  0
LINE
  8
Layer_1
 62
     7
  6
CONTINUOUS
 10
-0.32422303
 20
2.22125778
 30
0.00000000
 11
-0.48516609
 21
2.20915697
 31
0.00000000
  0
LINE
  8
Layer_1
 62
     7
  6
CONTINUOUS
 10
-0.48516609
 20
2.20915697
 30
0.00000000
 11
-0.64520540
 21
2.19229907
 31
0.00000000
  0
LINE
  8
Layer_1
 62
     7
  6
CONTINUOUS
 10
-0.64520540
 20
2.19229907
 30
0.00000000
 11
-0.80424735
 21
2.17073213
 31
0.00000000
  0
LINE
  8
Layer_1
 62
     7
  6
CONTINUOUS
 10
-0.80424735
 20
2.17073213
 30
0.00000000
 11
-0.96219833
 21
2.14450416
 31
0.00000000
  0
LINE
  8
Layer_1
 62
     7
  6
CONTINUOUS
 10
-0.96219833
 20
2.14450416
 30
0.00000000
 11
-1.11896475
 21
2.11366320
 31
0.00000000
  0
LINE
  8
Layer_1
 62
     7
  6
CONTINUOUS
 10
-1.11896475
 20
2.11366320
 30
0.00000000
 11
-1.27445300
 21
2.07825726
 31
0.00000000
  0
LINE
  8
Layer_1
 62
     7
  6
CONTINUOUS
 10
-1.27445300
 20
2.07825726
 30
0.00000000
 11
-1.42856950
 21
2.03833438
 31
0.00000000
  0
LINE
  8
Layer_1
 62
     7
  6
CONTINUOUS
 10
-1.42856950
 20
2.03833438
 30
0.00000000
 11
-1.58122063
 21
1.99394258
 31
0.00000000
  0
LINE
  8
Layer_1
 62
     7
  6
CONTINUOUS
 10
-1.58122063
 20
1.99394258
 30
0.00000000
 11
-1.73231279
 21
1.94512989
 31
0.00000000
  0
LINE
  8
Layer_1
 62
     7
  6
CONTINUOUS
 10
-1.73231279
 20
1.94512989
 30
0.00000000
 11
-1.88175240
 21
1.89194434
 31
0.00000000
  0
LINE
  8
Layer_1
 62
     7
  6
CONTINUOUS
 10
-1.88175240
 20
1.89194434
 30
0.00000000
 11
-2.02944584
 21
1.83443396
 31
0.00000000
  0
LINE
  8
Layer_1
 62
     7
  6
CONTINUOUS
 10
-2.02944584
 20
1.83443396
 30
0.00000000
 11
-2.17529952
 21
1.77264676
 31
0.00000000
  0
LINE
  8
Layer_1
 62
     7
  6
CONTINUOUS
 10
-2.17529952
 20
1.77264676
 30
0.00000000
 11
-2.31921984
 21
1.70663079
 31
0.00000000
  0
LINE
  8
Layer_1
 62
     7
  6
CONTINUOUS
 10
-2.31921984
 20
1.70663079
 30
0.00000000
 11
-2.46111319
 21
1.63643406
 31
0.00000000
  0
LINE
  8
Layer_1
 62
     7
  6
CONTINUOUS
 10
-2.46111319
 20
1.63643406
 30
0.00000000
 11
-2.60088598
 21
1.56210460
 31
0.00000000
  0
LINE
  8
Layer_1
 62
     7
  6
CONTINUOUS
 10
-2.60088598
 20
1.56210460
 30
0.00000000
 11
-2.73844461
 21
1.48369044
 31
0.00000000
  0
LINE
  8
Layer_1
 62
     7
  6
CONTINUOUS
 10
-2.73844461
 20
1.48369044
 30
0.00000000
 11
-2.87369547
 21
1.40123960
 31
0.00000000
  0
LINE
  8
Layer_1
 62
     7
  6
CONTINUOUS
 10
-2.87369547
 20
1.40123960
 30
0.00000000
 11
-3.00654497
 21
1.31480012
 31
0.00000000
  0
LINE
  8
Layer_1
 62
     7
  6
CONTINUOUS
 10
-3.00654497
 20
1.31480012
 30
0.00000000
 11
-3.13689950
 21
1.22442002
 31
0.00000000
  0
LINE
  8
Layer_1
 62
     7
  6
CONTINUOUS
 10
-3.13689950
 20
1.22442002
 30
0.00000000
 11
-3.26466548
 21
1.13014732
 31
0.00000000
  0
LINE
  8
Layer_1
 62
     7
  6
CONTINUOUS
 10
-3.26466548
 20
1.13014732
 30
0.00000000
 11
-3.38974929
 21
1.03203006
 31
0.00000000
  0
LINE
  8
Layer_1
 62
     7
  6
CONTINUOUS
 10
-3.38974929
 20
1.03203006
 30
0.00000000
 11
-3.51205733
 21
0.93011626
 31
0.00000000
  0
LINE
  8
Layer_1
 62
     7
  6
CONTINUOUS
 10
-3.51205733
 20
0.93011626
 30
0.00000000
 11
-3.63149601
 21
0.82445395
 31
0.00000000
  0
LINE
  8
Layer_1
 62
     7
  6
CONTINUOUS
 10
-3.63149601
 20
0.82445395
 30
0.00000000
 11
-3.74797173
 21
0.71509116
 31
0.00000000
  0
LINE
  8
Layer_1
 62
     7
  6
CONTINUOUS
 10
-3.74797173
 20
0.71509116
 30
0.00000000
 11
-3.86139089
 21
0.60207590
 31
0.00000000
  0
LINE
  8
Layer_1
 62
     7
  6
CONTINUOUS
 10
-3.86139089
 20
0.60207590
 30
0.00000000
 11
-3.97165988
 21
0.48545622
 31
0.00000000
  0
LINE
  8
Layer_1
 62
     7
  6
CONTINUOUS
 10
-3.97165988
 20
0.48545622
 30
0.00000000
 11
-4.07868511
 21
0.36528013
 31
0.00000000
  0
LINE
  8
Layer_1
 62
     7
  6
CONTINUOUS
 10
-4.07868511
 20
0.36528013
 30
0.00000000
 11
-4.18237297
 21
0.24159566
 31
0.00000000
  0
LINE
  8
Layer_1
 62
     7
  6
CONTINUOUS
 10
-4.18237297
 20
0.24159566
 30
0.00000000
 11
-4.28262987
 21
0.11445084
 31
0.00000000
  0
LINE
  8
Layer_1
 62
     7
  6
CONTINUOUS
 10
-4.28262987
 20
0.11445084
 30
0.00000000
 11
-4.37936220
 21
-0.01610630
 31
0.00000000
  0
LINE
  8
Layer_1
 62
     7
  6
CONTINUOUS
 10
0.00000000
 20
1.90899606
 30
0.00000000
 11
-0.15276554
 21
1.90669938
 31
0.00000000
  0
LINE
  8
Layer_1
 62
     7
  6
CONTINUOUS
 10
-0.15276554
 20
1.90669938
 30
0.00000000
 11
-0.30485731
 21
1.89983943
 31
0.00000000
  0
LINE
  8
Layer_1
 62
     7
  6
CONTINUOUS
 10
-0.30485731
 20
1.89983943
 30
0.00000000
 11
-0.45618731
 21
1.88846138
 31
0.00000000
  0
LINE
  8
Layer_1
 62
     7
  6
CONTINUOUS
 10
-0.45618731
 20
1.88846138
 30
0.00000000
 11
-0.60666754
 21
1.87261038
 31
0.00000000
  0
LINE
  8
Layer_1
 62
     7
  6
CONTINUOUS
 10
-0.60666754
 20
1.87261038
 30
0.00000000
 11
-0.75620997
 21
1.85233160
 31
0.00000000
  0
LINE
  8
Layer_1
 62
     7
  6
CONTINUOUS
 10
-0.75620997
 20
1.85233160
 30
0.00000000
 11
-0.90472661
 21
1.82767018
 31
0.00000000
  0
LINE
  8
Layer_1
 62
     7
  6
CONTINUOUS
 10
-0.90472661
 20
1.82767018
 30
0.00000000
 11
-1.05212944
 21
1.79867130
 31
0.00000000
  0
LINE
  8
Layer_1
 62
     7
  6
CONTINUOUS
 10
-1.05212944
 20
1.79867130
 30
0.00000000
 11
-1.19833046
 21
1.76538011
 31
0.00000000
  0
LINE
  8
Layer_1
 62
     7
  6
CONTINUOUS
 10
-1.19833046
 20
1.76538011
 30
0.00000000
 11
-1.34324166
 21
1.72784176
 31
0.00000000
  0
LINE
  8
Layer_1
 62
     7
  6
CONTINUOUS
 10
-1.34324166
 20
1.72784176
 30
0.00000000
 11
-1.48677502
 21
1.68610142
 31
0.00000000
  0
LINE
  8
Layer_1
 62
     7
  6
CONTINUOUS
 10
-1.48677502
 20
1.68610142
 30
0.00000000
 11
-1.62884254
 21
1.64020424
 31
0.00000000
  0
LINE
  8
Layer_1
 62
     7
  6
CONTINUOUS
 10
-1.62884254
 20
1.64020424
 30
0.00000000
 11
-1.76935621
 21
1.59019538
 31
0.00000000
  0
LINE
  8
Layer_1
 62
     7
  6
CONTINUOUS
 10
-1.76935621
 20
1.59019538
 30
0.00000000
 11
-1.90822802
 21
1.53612001
 31
0.00000000
  0
LINE
  8
Layer_1
 62
     7
  6
CONTINUOUS
 10
-1.90822802
 20
1.53612001
 30
0.00000000
 11
-2.04536996
 21
1.47802327
 31
0.00000000
  0
LINE
  8
Layer_1
 62
     7
  6
CONTINUOUS
 10
-2.04536996
 20
1.47802327
 30
0.00000000
 11
-2.18069402
 21
1.41595034
 31
0.00000000
  0
LINE
  8
Layer_1
 62
     7
  6
CONTINUOUS
 10
-2.18069402
 20
1.41595034
 30
0.00000000
 11
-2.31411220
 21
1.34994636
 31
0.00000000
  0
LINE
  8
Layer_1
 62
     7
  6
CONTINUOUS
 10
-2.31411220
 20
1.34994636
 30
0.00000000
 11
-2.44553649
 21
1.28005649
 31
0.00000000
  0
LINE
  8
Layer_1
 62
     7
  6
CONTINUOUS
 10
-2.44553649
 20
1.28005649
 30
0.00000000
 11
-2.57487887
 21
1.20632591
 31
0.00000000
  0
LINE
  8
Layer_1
 62
     7
  6
CONTINUOUS
 10
-2.57487887
 20
1.20632591
 30
0.00000000
 11
-2.70205134
 21
1.12879975
 31
0.00000000
  0
LINE
  8
Layer_1
 62
     7
  6
CONTINUOUS
 10
-2.70205134
 20
1.12879975
 30
0.00000000
 11
-2.82696589
 21
1.04752318
 31
0.00000000
  0
LINE
  8
Layer_1
 62
     7
  6
CONTINUOUS
 10
-2.82696589
 20
1.04752318
 30
0.00000000
 11
-2.94953451
 21
0.96254137
 31
0.00000000
  0
LINE
  8
Layer_1
 62
     7
  6
CONTINUOUS
 10
-2.94953451
 20
0.96254137
 30
0.00000000
 11
-3.06966919
 21
0.87389946
 31
0.00000000
  0
LINE
  8
Layer_1
 62
     7
  6
CONTINUOUS
 10
-3.06966919
 20
0.87389946
 30
0.00000000
 11
-3.18728192
 21
0.78164262
 31
0.00000000
  0
LINE
  8
Layer_1
 62
     7
  6
CONTINUOUS
 10
-3.18728192
 20
0.78164262
 30
0.00000000
 11
-3.30228469
 21
0.68581601
 31
0.00000000
  0
LINE
  8
Layer_1
 62
     7
  6
CONTINUOUS
 10
-3.30228469
 20
0.68581601
 30
0.00000000
 11
-3.41458950
 21
0.58646478
 31
0.00000000
  0
LINE
  8
Layer_1
 62
     7
  6
CONTINUOUS
 10
-3.41458950
 20
0.58646478
 30
0.00000000
 11
-3.52410834
 21
0.48363409
 31
0.00000000
  0
LINE
  8
Layer_1
 62
     7
  6
CONTINUOUS
 10
-3.52410834
 20
0.48363409
 30
0.00000000
 11
-3.63075319
 21
0.37736910
 31
0.00000000
  0
LINE
  8
Layer_1
 62
     7
  6
CONTINUOUS
 10
-3.63075319
 20
0.37736910
 30
0.00000000
 11
-3.73443605
 21
0.26771497
 31
0.00000000
  0
LINE
  8
Layer_1
 62
     7
  6
CONTINUOUS
 10
-3.73443605
 20
0.26771497
 30
0.00000000
 11
-3.83506891
 21
0.15471687
 31
0.00000000
  0
LINE
  8
Layer_1
 62
     7
  6
CONTINUOUS
 10
-3.83506891
 20
0.15471687
 30
0.00000000
 11
-3.93256376
 21
0.03841993
 31
0.00000000
  0
LINE
  8
Layer_1
 62
     7
  6
CONTINUOUS
 10
-3.93256376
 20
0.03841993
 30
0.00000000
 11
-4.02683260
 21
-0.08113066
 31
0.00000000
  0
LINE
  8
Layer_1
 62
     7
  6
CONTINUOUS
 10
-4.02683260
 20
-0.08113066
 30
0.00000000
 11
-4.11778740
 21
-0.20388976
 31
0.00000000
  0
LINE
  8
Layer_1
 62
     7
  6
CONTINUOUS
 10
-2.75221260
 20
-0.18603937
 30
0.00000000
 11
-2.82030236
 21
-0.36034504
 31
0.00000000
  0
LINE
  8
Layer_1
 62
     7
  6
CONTINUOUS
 10
-2.82030236
 20
-0.36034504
 30
0.00000000
 11
-2.88217716
 21
-0.53653220
 31
0.00000000
  0
LINE
  8
Layer_1
 62
     7
  6
CONTINUOUS
 10
-2.88217716
 20
-0.53653220
 30
0.00000000
 11
-2.93781813
 21
-0.71443539
 31
0.00000000
  0
LINE
  8
Layer_1
 62
     7
  6
CONTINUOUS
 10
-2.93781813
 20
-0.71443539
 30
0.00000000
 11
-2.98720639
 21
-0.89388921
 31
0.00000000
  0
LINE
  8
Layer_1
 62
     7
  6
CONTINUOUS
 10
-2.98720639
 20
-0.89388921
 30
0.00000000
 11
-3.03032306
 21
-1.07472821
 31
0.00000000
  0
LINE
  8
Layer_1
 62
     7
  6
CONTINUOUS
 10
-3.03032306
 20
-1.07472821
 30
0.00000000
 11
-3.06714928
 21
-1.25678698
 31
0.00000000
  0
LINE
  8
Layer_1
 62
     7
  6
CONTINUOUS
 10
-3.06714928
 20
-1.25678698
 30
0.00000000
 11
-3.09766615
 21
-1.43990007
 31
0.00000000
  0
LINE
  8
Layer_1
 62
     7
  6
CONTINUOUS
 10
-3.09766615
 20
-1.43990007
 30
0.00000000
 11
-3.12185482
 21
-1.62390207
 31
0.00000000
  0
LINE
  8
Layer_1
 62
     7
  6
CONTINUOUS
 10
-3.12185482
 20
-1.62390207
 30
0.00000000
 11
-3.13969640
 21
-1.80862753
 31
0.00000000
  0
LINE
  8
Layer_1
 62
     7
  6
CONTINUOUS
 10
-3.13969640
 20
-1.80862753
 30
0.00000000
 11
-3.15117202
 21
-1.99391104
 31
0.00000000
  0
LINE
  8
Layer_1
 62
     7
  6
CONTINUOUS
 10
-3.15117202
 20
-1.99391104
 30
0.00000000
 11
-3.15626280
 21
-2.17958716
 31
0.00000000
  0
LINE
  8
Layer_1
 62
     7
  6
CONTINUOUS
 10
-3.15626280
 20
-2.17958716
 30
0.00000000
 11
-3.15494986
 21
-2.36549047
 31
0.00000000
  0
LINE
  8
Layer_1
 62
     7
  6
CONTINUOUS
 10
-3.15494986
 20
-2.36549047
 30
0.00000000
 11
-3.14721434
 21
-2.55145552
 31
0.00000000
  0
LINE
  8
Layer_1
 62
     7
  6
CONTINUOUS
 10
-3.14721434
 20
-2.55145552
 30
0.00000000
 11
-3.13303735
 21
-2.73731691
 31
0.00000000
  0
LINE
  8
Layer_1
 62
     7
  6
CONTINUOUS
 10
-3.13303735
 20
-2.73731691
 30
0.00000000
 11
-3.11240001
 21
-2.92290918
 31
0.00000000
  0
LINE
  8
Layer_1
 62
     7
  6
CONTINUOUS
 10
-3.11240001
 20
-2.92290918
 30
0.00000000
 11
-3.08528346
 21
-3.10806693
 31
0.00000000
  0
LINE
  8
Layer_1
 62
     7
  6
CONTINUOUS
 10
-2.45436220
 20
-0.30838976
 30
0.00000000
 11
-2.51838519
 21
-0.47228433
 31
0.00000000
  0
LINE
  8
Layer_1
 62
     7
  6
CONTINUOUS
 10
-2.51838519
 20
-0.47228433
 30
0.00000000
 11
-2.57656438
 21
-0.63794799
 31
0.00000000
  0
LINE
  8
Layer_1
 62
     7
  6
CONTINUOUS
 10
-2.57656438
 20
-0.63794799
 30
0.00000000
 11
-2.62888204
 21
-0.80522519
 31
0.00000000
  0
LINE
  8
Layer_1
 62
     7
  6
CONTINUOUS
 10
-2.62888204
 20
-0.80522519
 30
0.00000000
 11
-2.67532044
 21
-0.97396038
 31
0.00000000
  0
LINE
  8
Layer_1
 62
     7
  6
CONTINUOUS
 10
-2.67532044
 20
-0.97396038
 30
0.00000000
 11
-2.71586183
 21
-1.14399802
 31
0.00000000
  0
LINE
  8
Layer_1
 62
     7
  6
CONTINUOUS
 10
-2.71586183
 20
-1.14399802
 30
0.00000000
 11
-2.75048849
 21
-1.31518255
 31
0.00000000
  0
LINE
  8
Layer_1
 62
     7
  6
CONTINUOUS
 10
-2.75048849
 20
-1.31518255
 30
0.00000000
 11
-2.77918268
 21
-1.48735842
 31
0.00000000
  0
LINE
  8
Layer_1
 62
     7
  6
CONTINUOUS
 10
-2.77918268
 20
-1.48735842
 30
0.00000000
 11
-2.80192667
 21
-1.66037008
 31
0.00000000
  0
LINE
  8
Layer_1
 62
     7
  6
CONTINUOUS
 10
-2.80192667
 20
-1.66037008
 30
0.00000000
 11
-2.81870273
 21
-1.83406198
 31
0.00000000
  0
LINE
  8
Layer_1
 62
     7
  6
CONTINUOUS
 10
-2.81870273
 20
-1.83406198
 30
0.00000000
 11
-2.82949312
 21
-2.00827857
 31
0.00000000
  0
LINE
  8
Layer_1
 62
     7
  6
CONTINUOUS
 10
-2.82949312
 20
-2.00827857
 30
0.00000000
 11
-2.83428010
 21
-2.18286431
 31
0.00000000
  0
LINE
  8
Layer_1
 62
     7
  6
CONTINUOUS
 10
-2.83428010
 20
-2.18286431
 30
0.00000000
 11
-2.83304595
 21
-2.35766363
 31
0.00000000
  0
LINE
  8
Layer_1
 62
     7
  6
CONTINUOUS
 10
-2.83304595
 20
-2.35766363
 30
0.00000000
 11
-2.82577293
 21
-2.53252100
 31
0.00000000
  0
LINE
  8
Layer_1
 62
     7
  6
CONTINUOUS
 10
-2.82577293
 20
-2.53252100
 30
0.00000000
 11
-2.81244331
 21
-2.70728085
 31
0.00000000
  0
LINE
  8
Layer_1
 62
     7
  6
CONTINUOUS
 10
-2.81244331
 20
-2.70728085
 30
0.00000000
 11
-2.79303934
 21
-2.88178764
 31
0.00000000
  0
LINE
  8
Layer_1
 62
     7
  6
CONTINUOUS
 10
-2.79303934
 20
-2.88178764
 30
0.00000000
 11
-2.76754331
 21
-3.05588583
 31
0.00000000
  0
LINE
  8
Layer_1
 62
     7
  6
CONTINUOUS
 10
-2.23099606
 20
0.00000000
 30
0.00000000
 11
-2.22855349
 21
-0.16246979
 31
0.00000000
  0
LINE
  8
Layer_1
 62
     7
  6
CONTINUOUS
 10
-2.22855349
 20
-0.16246979
 30
0.00000000
 11
-2.22125778
 21
-0.32422303
 31
0.00000000
  0
LINE
  8
Layer_1
 62
     7
  6
CONTINUOUS
 10
-2.22125778
 20
-0.32422303
 30
0.00000000
 11
-2.20915697
 21
-0.48516609
 31
0.00000000
  0
LINE
  8
Layer_1
 62
     7
  6
CONTINUOUS
 10
-2.20915697
 20
-0.48516609
 30
0.00000000
 11
-2.19229907
 21
-0.64520540
 31
0.00000000
  0
LINE
  8
Layer_1
 62
     7
  6
CONTINUOUS
 10
-2.19229907
 20
-0.64520540
 30
0.00000000
 11
-2.17073213
 21
-0.80424735
 31
0.00000000
  0
LINE
  8
Layer_1
 62
     7
  6
CONTINUOUS
 10
-2.17073213
 20
-0.80424735
 30
0.00000000
 11
-2.14450416
 21
-0.96219833
 31
0.00000000
  0
LINE
  8
Layer_1
 62
     7
  6
CONTINUOUS
 10
-2.14450416
 20
-0.96219833
 30
0.00000000
 11
-2.11366320
 21
-1.11896475
 31
0.00000000
  0
LINE
  8
Layer_1
 62
     7
  6
CONTINUOUS
 10
-2.11366320
 20
-1.11896475
 30
0.00000000
 11
-2.07825726
 21
-1.27445300
 31
0.00000000
  0
LINE
  8
Layer_1
 62
     7
  6
CONTINUOUS
 10
-2.07825726
 20
-1.27445300
 30
0.00000000
 11
-2.03833438
 21
-1.42856950
 31
0.00000000
  0
LINE
  8
Layer_1
 62
     7
  6
CONTINUOUS
 10
-2.03833438
 20
-1.42856950
 30
0.00000000
 11
-1.99394258
 21
-1.58122063
 31
0.00000000
  0
LINE
  8
Layer_1
 62
     7
  6
CONTINUOUS
 10
-1.99394258
 20
-1.58122063
 30
0.00000000
 11
-1.94512989
 21
-1.73231279
 31
0.00000000
  0
LINE
  8
Layer_1
 62
     7
  6
CONTINUOUS
 10
-1.94512989
 20
-1.73231279
 30
0.00000000
 11
-1.89194434
 21
-1.88175240
 31
0.00000000
  0
LINE
  8
Layer_1
 62
     7
  6
CONTINUOUS
 10
-1.89194434
 20
-1.88175240
 30
0.00000000
 11
-1.83443396
 21
-2.02944584
 31
0.00000000
  0
LINE
  8
Layer_1
 62
     7
  6
CONTINUOUS
 10
-1.83443396
 20
-2.02944584
 30
0.00000000
 11
-1.77264676
 21
-2.17529952
 31
0.00000000
  0
LINE
  8
Layer_1
 62
     7
  6
CONTINUOUS
 10
-1.77264676
 20
-2.17529952
 30
0.00000000
 11
-1.70663079
 21
-2.31921984
 31
0.00000000
  0
LINE
  8
Layer_1
 62
     7
  6
CONTINUOUS
 10
-1.70663079
 20
-2.31921984
 30
0.00000000
 11
-1.63643406
 21
-2.46111319
 31
0.00000000
  0
LINE
  8
Layer_1
 62
     7
  6
CONTINUOUS
 10
-1.63643406
 20
-2.46111319
 30
0.00000000
 11
-1.56210460
 21
-2.60088598
 31
0.00000000
  0
LINE
  8
Layer_1
 62
     7
  6
CONTINUOUS
 10
-1.56210460
 20
-2.60088598
 30
0.00000000
 11
-1.48369044
 21
-2.73844461
 31
0.00000000
  0
LINE
  8
Layer_1
 62
     7
  6
CONTINUOUS
 10
-1.48369044
 20
-2.73844461
 30
0.00000000
 11
-1.40123960
 21
-2.87369547
 31
0.00000000
  0
LINE
  8
Layer_1
 62
     7
  6
CONTINUOUS
 10
-1.40123960
 20
-2.87369547
 30
0.00000000
 11
-1.31480012
 21
-3.00654497
 31
0.00000000
  0
LINE
  8
Layer_1
 62
     7
  6
CONTINUOUS
 10
-1.31480012
 20
-3.00654497
 30
0.00000000
 11
-1.22442002
 21
-3.13689950
 31
0.00000000
  0
LINE
  8
Layer_1
 62
     7
  6
CONTINUOUS
 10
-1.22442002
 20
-3.13689950
 30
0.00000000
 11
-1.13014732
 21
-3.26466548
 31
0.00000000
  0
LINE
  8
Layer_1
 62
     7
  6
CONTINUOUS
 10
-1.13014732
 20
-3.26466548
 30
0.00000000
 11
-1.03203006
 21
-3.38974929
 31
0.00000000
  0
LINE
  8
Layer_1
 62
     7
  6
CONTINUOUS
 10
-1.03203006
 20
-3.38974929
 30
0.00000000
 11
-0.93011626
 21
-3.51205733
 31
0.00000000
  0
LINE
  8
Layer_1
 62
     7
  6
CONTINUOUS
 10
-0.93011626
 20
-3.51205733
 30
0.00000000
 11
-0.82445395
 21
-3.63149601
 31
0.00000000
  0
LINE
  8
Layer_1
 62
     7
  6
CONTINUOUS
 10
-0.82445395
 20
-3.63149601
 30
0.00000000
 11
-0.71509116
 21
-3.74797173
 31
0.00000000
  0
LINE
  8
Layer_1
 62
     7
  6
CONTINUOUS
 10
-0.71509116
 20
-3.74797173
 30
0.00000000
 11
-0.60207590
 21
-3.86139089
 31
0.00000000
  0
LINE
  8
Layer_1
 62
     7
  6
CONTINUOUS
 10
-0.60207590
 20
-3.86139089
 30
0.00000000
 11
-0.48545622
 21
-3.97165988
 31
0.00000000
  0
LINE
  8
Layer_1
 62
     7
  6
CONTINUOUS
 10
-0.48545622
 20
-3.97165988
 30
0.00000000
 11
-0.36528013
 21
-4.07868511
 31
0.00000000
  0
LINE
  8
Layer_1
 62
     7
  6
CONTINUOUS
 10
-0.36528013
 20
-4.07868511
 30
0.00000000
 11
-0.24159566
 21
-4.18237297
 31
0.00000000
  0
LINE
  8
Layer_1
 62
     7
  6
CONTINUOUS
 10
-0.24159566
 20
-4.18237297
 30
0.00000000
 11
-0.11445084
 21
-4.28262987
 31
0.00000000
  0
LINE
  8
Layer_1
 62
     7
  6
CONTINUOUS
 10
-0.11445084
 20
-4.28262987
 30
0.00000000
 11
0.01610630
 21
-4.37936220
 31
0.00000000
  0
LINE
  8
Layer_1
 62
     7
  6
CONTINUOUS
 10
-1.90899606
 20
0.00000000
 30
0.00000000
 11
-1.90669938
 21
-0.15276554
 31
0.00000000
  0
LINE
  8
Layer_1
 62
     7
  6
CONTINUOUS
 10
-1.90669938
 20
-0.15276554
 30
0.00000000
 11
-1.89983943
 21
-0.30485731
 31
0.00000000
  0
LINE
  8
Layer_1
 62
     7
  6
CONTINUOUS
 10
-1.89983943
 20
-0.30485731
 30
0.00000000
 11
-1.88846138
 21
-0.45618731
 31
0.00000000
  0
LINE
  8
Layer_1
 62
     7
  6
CONTINUOUS
 10
-1.88846138
 20
-0.45618731
 30
0.00000000
 11
-1.87261038
 21
-0.60666754
 31
0.00000000
  0
LINE
  8
Layer_1
 62
     7
  6
CONTINUOUS
 10
-1.87261038
 20
-0.60666754
 30
0.00000000
 11
-1.85233160
 21
-0.75620997
 31
0.00000000
  0
LINE
  8
Layer_1
 62
     7
  6
CONTINUOUS
 10
-1.85233160
 20
-0.75620997
 30
0.00000000
 11
-1.82767018
 21
-0.90472661
 31
0.00000000
  0
LINE
  8
Layer_1
 62
     7
  6
CONTINUOUS
 10
-1.82767018
 20
-0.90472661
 30
0.00000000
 11
-1.79867130
 21
-1.05212944
 31
0.00000000
  0
LINE
  8
Layer_1
 62
     7
  6
CONTINUOUS
 10
-1.79867130
 20
-1.05212944
 30
0.00000000
 11
-1.76538011
 21
-1.19833046
 31
0.00000000
  0
LINE
  8
Layer_1
 62
     7
  6
CONTINUOUS
 10
-1.76538011
 20
-1.19833046
 30
0.00000000
 11
-1.72784176
 21
-1.34324166
 31
0.00000000
  0
LINE
  8
Layer_1
 62
     7
  6
CONTINUOUS
 10
-1.72784176
 20
-1.34324166
 30
0.00000000
 11
-1.68610142
 21
-1.48677502
 31
0.00000000
  0
LINE
  8
Layer_1
 62
     7
  6
CONTINUOUS
 10
-1.68610142
 20
-1.48677502
 30
0.00000000
 11
-1.64020424
 21
-1.62884254
 31
0.00000000
  0
LINE
  8
Layer_1
 62
     7
  6
CONTINUOUS
 10
-1.64020424
 20
-1.62884254
 30
0.00000000
 11
-1.59019538
 21
-1.76935621
 31
0.00000000
  0
LINE
  8
Layer_1
 62
     7
  6
CONTINUOUS
 10
-1.59019538
 20
-1.76935621
 30
0.00000000
 11
-1.53612001
 21
-1.90822802
 31
0.00000000
  0
LINE
  8
Layer_1
 62
     7
  6
CONTINUOUS
 10
-1.53612001
 20
-1.90822802
 30
0.00000000
 11
-1.47802327
 21
-2.04536996
 31
0.00000000
  0
LINE
  8
Layer_1
 62
     7
  6
CONTINUOUS
 10
-1.47802327
 20
-2.04536996
 30
0.00000000
 11
-1.41595034
 21
-2.18069402
 31
0.00000000
  0
LINE
  8
Layer_1
 62
     7
  6
CONTINUOUS
 10
-1.41595034
 20
-2.18069402
 30
0.00000000
 11
-1.34994636
 21
-2.31411220
 31
0.00000000
  0
LINE
  8
Layer_1
 62
     7
  6
CONTINUOUS
 10
-1.34994636
 20
-2.31411220
 30
0.00000000
 11
-1.28005649
 21
-2.44553649
 31
0.00000000
  0
LINE
  8
Layer_1
 62
     7
  6
CONTINUOUS
 10
-1.28005649
 20
-2.44553649
 30
0.00000000
 11
-1.20632591
 21
-2.57487887
 31
0.00000000
  0
LINE
  8
Layer_1
 62
     7
  6
CONTINUOUS
 10
-1.20632591
 20
-2.57487887
 30
0.00000000
 11
-1.12879975
 21
-2.70205134
 31
0.00000000
  0
LINE
  8
Layer_1
 62
     7
  6
CONTINUOUS
 10
-1.12879975
 20
-2.70205134
 30
0.00000000
 11
-1.04752318
 21
-2.82696589
 31
0.00000000
  0
LINE
  8
Layer_1
 62
     7
  6
CONTINUOUS
 10
-1.04752318
 20
-2.82696589
 30
0.00000000
 11
-0.96254137
 21
-2.94953451
 31
0.00000000
  0
LINE
  8
Layer_1
 62
     7
  6
CONTINUOUS
 10
-0.96254137
 20
-2.94953451
 30
0.00000000
 11
-0.87389946
 21
-3.06966919
 31
0.00000000
  0
LINE
  8
Layer_1
 62
     7
  6
CONTINUOUS
 10
-0.87389946
 20
-3.06966919
 30
0.00000000
 11
-0.78164262
 21
-3.18728192
 31
0.00000000
  0
LINE
  8
Layer_1
 62
     7
  6
CONTINUOUS
 10
-0.78164262
 20
-3.18728192
 30
0.00000000
 11
-0.68581601
 21
-3.30228469
 31
0.00000000
  0
LINE
  8
Layer_1
 62
     7
  6
CONTINUOUS
 10
-0.68581601
 20
-3.30228469
 30
0.00000000
 11
-0.58646478
 21
-3.41458950
 31
0.00000000
  0
LINE
  8
Layer_1
 62
     7
  6
CONTINUOUS
 10
-0.58646478
 20
-3.41458950
 30
0.00000000
 11
-0.48363409
 21
-3.52410834
 31
0.00000000
  0
LINE
  8
Layer_1
 62
     7
  6
CONTINUOUS
 10
-0.48363409
 20
-3.52410834
 30
0.00000000
 11
-0.37736910
 21
-3.63075319
 31
0.00000000
  0
LINE
  8
Layer_1
 62
     7
  6
CONTINUOUS
 10
-0.37736910
 20
-3.63075319
 30
0.00000000
 11
-0.26771497
 21
-3.73443605
 31
0.00000000
  0
LINE
  8
Layer_1
 62
     7
  6
CONTINUOUS
 10
-0.26771497
 20
-3.73443605
 30
0.00000000
 11
-0.15471687
 21
-3.83506891
 31
0.00000000
  0
LINE
  8
Layer_1
 62
     7
  6
CONTINUOUS
 10
-0.15471687
 20
-3.83506891
 30
0.00000000
 11
-0.03841993
 21
-3.93256376
 31
0.00000000
  0
LINE
  8
Layer_1
 62
     7
  6
CONTINUOUS
 10
-0.03841993
 20
-3.93256376
 30
0.00000000
 11
0.08113066
 21
-4.02683260
 31
0.00000000
  0
LINE
  8
Layer_1
 62
     7
  6
CONTINUOUS
 10
0.08113066
 20
-4.02683260
 30
0.00000000
 11
0.20388976
 21
-4.11778740
 31
0.00000000
  0
LINE
  8
Layer_1
 62
     7
  6
CONTINUOUS
 10
0.00000000
 20
-1.90899606
 30
0.00000000
 11
0.15276554
 21
-1.90669938
 31
0.00000000
  0
LINE
  8
Layer_1
 62
     7
  6
CONTINUOUS
 10
0.15276554
 20
-1.90669938
 30
0.00000000
 11
0.30485731
 21
-1.89983943
 31
0.00000000
  0
LINE
  8
Layer_1
 62
     7
  6
CONTINUOUS
 10
0.30485731
 20
-1.89983943
 30
0.00000000
 11
0.45618731
 21
-1.88846138
 31
0.00000000
  0
LINE
  8
Layer_1
 62
     7
  6
CONTINUOUS
 10
0.45618731
 20
-1.88846138
 30
0.00000000
 11
0.60666754
 21
-1.87261038
 31
0.00000000
  0
LINE
  8
Layer_1
 62
     7
  6
CONTINUOUS
 10
0.60666754
 20
-1.87261038
 30
0.00000000
 11
0.75620997
 21
-1.85233160
 31
0.00000000
  0
LINE
  8
Layer_1
 62
     7
  6
CONTINUOUS
 10
0.75620997
 20
-1.85233160
 30
0.00000000
 11
0.90472661
 21
-1.82767018
 31
0.00000000
  0
LINE
  8
Layer_1
 62
     7
  6
CONTINUOUS
 10
0.90472661
 20
-1.82767018
 30
0.00000000
 11
1.05212944
 21
-1.79867130
 31
0.00000000
  0
LINE
  8
Layer_1
 62
     7
  6
CONTINUOUS
 10
1.05212944
 20
-1.79867130
 30
0.00000000
 11
1.19833046
 21
-1.76538011
 31
0.00000000
  0
LINE
  8
Layer_1
 62
     7
  6
CONTINUOUS
 10
1.19833046
 20
-1.76538011
 30
0.00000000
 11
1.34324166
 21
-1.72784176
 31
0.00000000
  0
LINE
  8
Layer_1
 62
     7
  6
CONTINUOUS
 10
1.34324166
 20
-1.72784176
 30
0.00000000
 11
1.48677502
 21
-1.68610142
 31
0.00000000
  0
LINE
  8
Layer_1
 62
     7
  6
CONTINUOUS
 10
1.48677502
 20
-1.68610142
 30
0.00000000
 11
1.62884254
 21
-1.64020424
 31
0.00000000
  0
LINE
  8
Layer_1
 62
     7
  6
CONTINUOUS
 10
1.62884254
 20
-1.64020424
 30
0.00000000
 11
1.76935621
 21
-1.59019538
 31
0.00000000
  0
LINE
  8
Layer_1
 62
     7
  6
CONTINUOUS
 10
1.76935621
 20
-1.59019538
 30
0.00000000
 11
1.90822802
 21
-1.53612001
 31
0.00000000
  0
LINE
  8
Layer_1
 62
     7
  6
CONTINUOUS
 10
1.90822802
 20
-1.53612001
 30
0.00000000
 11
2.04536996
 21
-1.47802327
 31
0.00000000
  0
LINE
  8
Layer_1
 62
     7
  6
CONTINUOUS
 10
2.04536996
 20
-1.47802327
 30
0.00000000
 11
2.18069402
 21
-1.41595034
 31
0.00000000
  0
LINE
  8
Layer_1
 62
     7
  6
CONTINUOUS
 10
2.18069402
 20
-1.41595034
 30
0.00000000
 11
2.31411220
 21
-1.34994636
 31
0.00000000
  0
LINE
  8
Layer_1
 62
     7
  6
CONTINUOUS
 10
2.31411220
 20
-1.34994636
 30
0.00000000
 11
2.44553649
 21
-1.28005649
 31
0.00000000
  0
LINE
  8
Layer_1
 62
     7
  6
CONTINUOUS
 10
2.44553649
 20
-1.28005649
 30
0.00000000
 11
2.57487887
 21
-1.20632591
 31
0.00000000
  0
LINE
  8
Layer_1
 62
     7
  6
CONTINUOUS
 10
2.57487887
 20
-1.20632591
 30
0.00000000
 11
2.70205134
 21
-1.12879975
 31
0.00000000
  0
LINE
  8
Layer_1
 62
     7
  6
CONTINUOUS
 10
2.70205134
 20
-1.12879975
 30
0.00000000
 11
2.82696589
 21
-1.04752318
 31
0.00000000
  0
LINE
  8
Layer_1
 62
     7
  6
CONTINUOUS
 10
2.82696589
 20
-1.04752318
 30
0.00000000
 11
2.94953451
 21
-0.96254137
 31
0.00000000
  0
LINE
  8
Layer_1
 62
     7
  6
CONTINUOUS
 10
2.94953451
 20
-0.96254137
 30
0.00000000
 11
3.06966919
 21
-0.87389946
 31
0.00000000
  0
LINE
  8
Layer_1
 62
     7
  6
CONTINUOUS
 10
3.06966919
 20
-0.87389946
 30
0.00000000
 11
3.18728192
 21
-0.78164262
 31
0.00000000
  0
LINE
  8
Layer_1
 62
     7
  6
CONTINUOUS
 10
3.18728192
 20
-0.78164262
 30
0.00000000
 11
3.30228469
 21
-0.68581601
 31
0.00000000
  0
LINE
  8
Layer_1
 62
     7
  6
CONTINUOUS
 10
3.30228469
 20
-0.68581601
 30
0.00000000
 11
3.41458950
 21
-0.58646478
 31
0.00000000
  0
LINE
  8
Layer_1
 62
     7
  6
CONTINUOUS
 10
3.41458950
 20
-0.58646478
 30
0.00000000
 11
3.52410834
 21
-0.48363409
 31
0.00000000
  0
LINE
  8
Layer_1
 62
     7
  6
CONTINUOUS
 10
3.52410834
 20
-0.48363409
 30
0.00000000
 11
3.63075319
 21
-0.37736910
 31
0.00000000
  0
LINE
  8
Layer_1
 62
     7
  6
CONTINUOUS
 10
3.63075319
 20
-0.37736910
 30
0.00000000
 11
3.73443605
 21
-0.26771497
 31
0.00000000
  0
LINE
  8
Layer_1
 62
     7
  6
CONTINUOUS
 10
3.73443605
 20
-0.26771497
 30
0.00000000
 11
3.83506891
 21
-0.15471687
 31
0.00000000
  0
LINE
  8
Layer_1
 62
     7
  6
CONTINUOUS
 10
3.83506891
 20
-0.15471687
 30
0.00000000
 11
3.93256376
 21
-0.03841993
 31
0.00000000
  0
LINE
  8
Layer_1
 62
     7
  6
CONTINUOUS
 10
3.93256376
 20
-0.03841993
 30
0.00000000
 11
4.02683260
 21
0.08113066
 31
0.00000000
  0
LINE
  8
Layer_1
 62
     7
  6
CONTINUOUS
 10
4.02683260
 20
0.08113066
 30
0.00000000
 11
4.11778740
 21
0.20388976
 31
0.00000000
  0
LINE
  8
Layer_1
 62
     7
  6
CONTINUOUS
 10
0.00000000
 20
-2.23099606
 30
0.00000000
 11
0.16246979
 21
-2.22855349
 31
0.00000000
  0
LINE
  8
Layer_1
 62
     7
  6
CONTINUOUS
 10
0.16246979
 20
-2.22855349
 30
0.00000000
 11
0.32422303
 21
-2.22125778
 31
0.00000000
  0
LINE
  8
Layer_1
 62
     7
  6
CONTINUOUS
 10
0.32422303
 20
-2.22125778
 30
0.00000000
 11
0.48516609
 21
-2.20915697
 31
0.00000000
  0
LINE
  8
Layer_1
 62
     7
  6
CONTINUOUS
 10
0.48516609
 20
-2.20915697
 30
0.00000000
 11
0.64520540
 21
-2.19229907
 31
0.00000000
  0
LINE
  8
Layer_1
 62
     7
  6
CONTINUOUS
 10
0.64520540
 20
-2.19229907
 30
0.00000000
 11
0.80424735
 21
-2.17073213
 31
0.00000000
  0
LINE
  8
Layer_1
 62
     7
  6
CONTINUOUS
 10
0.80424735
 20
-2.17073213
 30
0.00000000
 11
0.96219833
 21
-2.14450416
 31
0.00000000
  0
LINE
  8
Layer_1
 62
     7
  6
CONTINUOUS
 10
0.96219833
 20
-2.14450416
 30
0.00000000
 11
1.11896475
 21
-2.11366320
 31
0.00000000
  0
LINE
  8
Layer_1
 62
     7
  6
CONTINUOUS
 10
1.11896475
 20
-2.11366320
 30
0.00000000
 11
1.27445300
 21
-2.07825726
 31
0.00000000
  0
LINE
  8
Layer_1
 62
     7
  6
CONTINUOUS
 10
1.27445300
 20
-2.07825726
 30
0.00000000
 11
1.42856950
 21
-2.03833438
 31
0.00000000
  0
LINE
  8
Layer_1
 62
     7
  6
CONTINUOUS
 10
1.42856950
 20
-2.03833438
 30
0.00000000
 11
1.58122063
 21
-1.99394258
 31
0.00000000
  0
LINE
  8
Layer_1
 62
     7
  6
CONTINUOUS
 10
1.58122063
 20
-1.99394258
 30
0.00000000
 11
1.73231279
 21
-1.94512989
 31
0.00000000
  0
LINE
  8
Layer_1
 62
     7
  6
CONTINUOUS
 10
1.73231279
 20
-1.94512989
 30
0.00000000
 11
1.88175240
 21
-1.89194434
 31
0.00000000
  0
LINE
  8
Layer_1
 62
     7
  6
CONTINUOUS
 10
1.88175240
 20
-1.89194434
 30
0.00000000
 11
2.02944584
 21
-1.83443396
 31
0.00000000
  0
LINE
  8
Layer_1
 62
     7
  6
CONTINUOUS
 10
2.02944584
 20
-1.83443396
 30
0.00000000
 11
2.17529952
 21
-1.77264676
 31
0.00000000
  0
LINE
  8
Layer_1
 62
     7
  6
CONTINUOUS
 10
2.17529952
 20
-1.77264676
 30
0.00000000
 11
2.31921984
 21
-1.70663079
 31
0.00000000
  0
LINE
  8
Layer_1
 62
     7
  6
CONTINUOUS
 10
2.31921984
 20
-1.70663079
 30
0.00000000
 11
2.46111319
 21
-1.63643406
 31
0.00000000
  0
LINE
  8
Layer_1
 62
     7
  6
CONTINUOUS
 10
2.46111319
 20
-1.63643406
 30
0.00000000
 11
2.60088598
 21
-1.56210460
 31
0.00000000
  0
LINE
  8
Layer_1
 62
     7
  6
CONTINUOUS
 10
2.60088598
 20
-1.56210460
 30
0.00000000
 11
2.73844461
 21
-1.48369044
 31
0.00000000
  0
LINE
  8
Layer_1
 62
     7
  6
CONTINUOUS
 10
2.73844461
 20
-1.48369044
 30
0.00000000
 11
2.87369547
 21
-1.40123960
 31
0.00000000
  0
LINE
  8
Layer_1
 62
     7
  6
CONTINUOUS
 10
2.87369547
 20
-1.40123960
 30
0.00000000
 11
3.00654497
 21
-1.31480012
 31
0.00000000
  0
LINE
  8
Layer_1
 62
     7
  6
CONTINUOUS
 10
3.00654497
 20
-1.31480012
 30
0.00000000
 11
3.13689950
 21
-1.22442002
 31
0.00000000
  0
LINE
  8
Layer_1
 62
     7
  6
CONTINUOUS
 10
3.13689950
 20
-1.22442002
 30
0.00000000
 11
3.26466548
 21
-1.13014732
 31
0.00000000
  0
LINE
  8
Layer_1
 62
     7
  6
CONTINUOUS
 10
3.26466548
 20
-1.13014732
 30
0.00000000
 11
3.38974929
 21
-1.03203006
 31
0.00000000
  0
LINE
  8
Layer_1
 62
     7
  6
CONTINUOUS
 10
3.38974929
 20
-1.03203006
 30
0.00000000
 11
3.51205733
 21
-0.93011626
 31
0.00000000
  0
LINE
  8
Layer_1
 62
     7
  6
CONTINUOUS
 10
3.51205733
 20
-0.93011626
 30
0.00000000
 11
3.63149601
 21
-0.82445395
 31
0.00000000
  0
LINE
  8
Layer_1
 62
     7
  6
CONTINUOUS
 10
3.63149601
 20
-0.82445395
 30
0.00000000
 11
3.74797173
 21
-0.71509116
 31
0.00000000
  0
LINE
  8
Layer_1
 62
     7
  6
CONTINUOUS
 10
3.74797173
 20
-0.71509116
 30
0.00000000
 11
3.86139089
 21
-0.60207590
 31
0.00000000
  0
LINE
  8
Layer_1
 62
     7
  6
CONTINUOUS
 10
3.86139089
 20
-0.60207590
 30
0.00000000
 11
3.97165988
 21
-0.48545622
 31
0.00000000
  0
LINE
  8
Layer_1
 62
     7
  6
CONTINUOUS
 10
3.97165988
 20
-0.48545622
 30
0.00000000
 11
4.07868511
 21
-0.36528013
 31
0.00000000
  0
LINE
  8
Layer_1
 62
     7
  6
CONTINUOUS
 10
4.07868511
 20
-0.36528013
 30
0.00000000
 11
4.18237297
 21
-0.24159566
 31
0.00000000
  0
LINE
  8
Layer_1
 62
     7
  6
CONTINUOUS
 10
4.18237297
 20
-0.24159566
 30
0.00000000
 11
4.28262987
 21
-0.11445084
 31
0.00000000
  0
LINE
  8
Layer_1
 62
     7
  6
CONTINUOUS
 10
4.28262987
 20
-0.11445084
 30
0.00000000
 11
4.37936220
 21
0.01610630
 31
0.00000000
  0
LINE
  8
Layer_1
 62
     7
  6
CONTINUOUS
 10
0.30838976
 20
-2.45436220
 30
0.00000000
 11
0.47228433
 21
-2.51838519
 31
0.00000000
  0
LINE
  8
Layer_1
 62
     7
  6
CONTINUOUS
 10
0.47228433
 20
-2.51838519
 30
0.00000000
 11
0.63794799
 21
-2.57656438
 31
0.00000000
  0
LINE
  8
Layer_1
 62
     7
  6
CONTINUOUS
 10
0.63794799
 20
-2.57656438
 30
0.00000000
 11
0.80522519
 21
-2.62888204
 31
0.00000000
  0
LINE
  8
Layer_1
 62
     7
  6
CONTINUOUS
 10
0.80522519
 20
-2.62888204
 30
0.00000000
 11
0.97396038
 21
-2.67532044
 31
0.00000000
  0
LINE
  8
Layer_1
 62
     7
  6
CONTINUOUS
 10
0.97396038
 20
-2.67532044
 30
0.00000000
 11
1.14399802
 21
-2.71586183
 31
0.00000000
  0
LINE
  8
Layer_1
 62
     7
  6
CONTINUOUS
 10
1.14399802
 20
-2.71586183
 30
0.00000000
 11
1.31518255
 21
-2.75048849
 31
0.00000000
  0
LINE
  8
Layer_1
 62
     7
  6
CONTINUOUS
 10
1.31518255
 20
-2.75048849
 30
0.00000000
 11
1.48735842
 21
-2.77918268
 31
0.00000000
  0
LINE
  8
Layer_1
 62
     7
  6
CONTINUOUS
 10
1.48735842
 20
-2.77918268
 30
0.00000000
 11
1.66037008
 21
-2.80192667
 31
0.00000000
  0
LINE
  8
Layer_1
 62
     7
  6
CONTINUOUS
 10
1.66037008
 20
-2.80192667
 30
0.00000000
 11
1.83406198
 21
-2.81870273
 31
0.00000000
  0
LINE
  8
Layer_1
 62
     7
  6
CONTINUOUS
 10
1.83406198
 20
-2.81870273
 30
0.00000000
 11
2.00827857
 21
-2.82949312
 31
0.00000000
  0
LINE
  8
Layer_1
 62
     7
  6
CONTINUOUS
 10
2.00827857
 20
-2.82949312
 30
0.00000000
 11
2.18286431
 21
-2.83428010
 31
0.00000000
  0
LINE
  8
Layer_1
 62
     7
  6
CONTINUOUS
 10
2.18286431
 20
-2.83428010
 30
0.00000000
 11
2.35766363
 21
-2.83304595
 31
0.00000000
  0
LINE
  8
Layer_1
 62
     7
  6
CONTINUOUS
 10
2.35766363
 20
-2.83304595
 30
0.00000000
 11
2.53252100
 21
-2.82577293
 31
0.00000000
  0
LINE
  8
Layer_1
 62
     7
  6
CONTINUOUS
 10
2.53252100
 20
-2.82577293
 30
0.00000000
 11
2.70728085
 21
-2.81244331
 31
0.00000000
  0
LINE
  8
Layer_1
 62
     7
  6
CONTINUOUS
 10
2.70728085
 20
-2.81244331
 30
0.00000000
 11
2.88178764
 21
-2.79303934
 31
0.00000000
  0
LINE
  8
Layer_1
 62
     7
  6
CONTINUOUS
 10
2.88178764
 20
-2.79303934
 30
0.00000000
 11
3.05588583
 21
-2.76754331
 31
0.00000000
  0
LINE
  8
Layer_1
 62
     7
  6
CONTINUOUS
 10
0.18603937
 20
-2.75221260
 30
0.00000000
 11
0.36034504
 21
-2.82030236
 31
0.00000000
  0
LINE
  8
Layer_1
 62
     7
  6
CONTINUOUS
 10
0.36034504
 20
-2.82030236
 30
0.00000000
 11
0.53653220
 21
-2.88217716
 31
0.00000000
  0
LINE
  8
Layer_1
 62
     7
  6
CONTINUOUS
 10
0.53653220
 20
-2.88217716
 30
0.00000000
 11
0.71443539
 21
-2.93781813
 31
0.00000000
  0
LINE
  8
Layer_1
 62
     7
  6
CONTINUOUS
 10
0.71443539
 20
-2.93781813
 30
0.00000000
 11
0.89388921
 21
-2.98720639
 31
0.00000000
  0
LINE
  8
Layer_1
 62
     7
  6
CONTINUOUS
 10
0.89388921
 20
-2.98720639
 30
0.00000000
 11
1.07472821
 21
-3.03032306
 31
0.00000000
  0
LINE
  8
Layer_1
 62
     7
  6
CONTINUOUS
 10
1.07472821
 20
-3.03032306
 30
0.00000000
 11
1.25678698
 21
-3.06714928
 31
0.00000000
  0
LINE
  8
Layer_1
 62
     7
  6
CONTINUOUS
 10
1.25678698
 20
-3.06714928
 30
0.00000000
 11
1.43990007
 21
-3.09766615
 31
0.00000000
  0
LINE
  8
Layer_1
 62
     7
  6
CONTINUOUS
 10
1.43990007
 20
-3.09766615
 30
0.00000000
 11
1.62390207
 21
-3.12185482
 31
0.00000000
  0
LINE
  8
Layer_1
 62
     7
  6
CONTINUOUS
 10
1.62390207
 20
-3.12185482
 30
0.00000000
 11
1.80862753
 21
-3.13969640
 31
0.00000000
  0
LINE
  8
Layer_1
 62
     7
  6
CONTINUOUS
 10
1.80862753
 20
-3.13969640
 30
0.00000000
 11
1.99391104
 21
-3.15117202
 31
0.00000000
  0
LINE
  8
Layer_1
 62
     7
  6
CONTINUOUS
 10
1.99391104
 20
-3.15117202
 30
0.00000000
 11
2.17958716
 21
-3.15626280
 31
0.00000000
  0
LINE
  8
Layer_1
 62
     7
  6
CONTINUOUS
 10
2.17958716
 20
-3.15626280
 30
0.00000000
 11
2.36549047
 21
-3.15494986
 31
0.00000000
  0
LINE
  8
Layer_1
 62
     7
  6
CONTINUOUS
 10
2.36549047
 20
-3.15494986
 30
0.00000000
 11
2.55145552
 21
-3.14721434
 31
0.00000000
  0
LINE
  8
Layer_1
 62
     7
  6
CONTINUOUS
 10
2.55145552
 20
-3.14721434
 30
0.00000000
 11
2.73731691
 21
-3.13303735
 31
0.00000000
  0
LINE
  8
Layer_1
 62
     7
  6
CONTINUOUS
 10
2.73731691
 20
-3.13303735
 30
0.00000000
 11
2.92290918
 21
-3.11240001
 31
0.00000000
  0
LINE
  8
Layer_1
 62
     7
  6
CONTINUOUS
 10
2.92290918
 20
-3.11240001
 30
0.00000000
 11
3.10806693
 21
-3.08528346
 31
0.00000000
  0
LINE
  8
Layer_1
 62
     7
  6
CONTINUOUS
 10
1.90900000
 20
0.00000000
 30
0.00000000
 11
1.90670296
 21
0.15276554
 31
0.00000000
  0
LINE
  8
Layer_1
 62
     7
  6
CONTINUOUS
 10
1.90670296
 20
0.15276554
 30
0.00000000
 11
1.89984268
 21
0.30485731
 31
0.00000000
  0
LINE
  8
Layer_1
 62
     7
  6
CONTINUOUS
 10
1.89984268
 20
0.30485731
 30
0.00000000
 11
1.88846431
 21
0.45618731
 31
0.00000000
  0
LINE
  8
Layer_1
 62
     7
  6
CONTINUOUS
 10
1.88846431
 20
0.45618731
 30
0.00000000
 11
1.87261302
 21
0.60666754
 31
0.00000000
  0
LINE
  8
Layer_1
 62
     7
  6
CONTINUOUS
 10
1.87261302
 20
0.60666754
 30
0.00000000
 11
1.85233396
 21
0.75620997
 31
0.00000000
  0
LINE
  8
Layer_1
 62
     7
  6
CONTINUOUS
 10
1.85233396
 20
0.75620997
 30
0.00000000
 11
1.82767230
 21
0.90472661
 31
0.00000000
  0
LINE
  8
Layer_1
 62
     7
  6
CONTINUOUS
 10
1.82767230
 20
0.90472661
 30
0.00000000
 11
1.79867318
 21
1.05212944
 31
0.00000000
  0
LINE
  8
Layer_1
 62
     7
  6
CONTINUOUS
 10
1.79867318
 20
1.05212944
 30
0.00000000
 11
1.76538177
 21
1.19833046
 31
0.00000000
  0
LINE
  8
Layer_1
 62
     7
  6
CONTINUOUS
 10
1.76538177
 20
1.19833046
 30
0.00000000
 11
1.72784322
 21
1.34324166
 31
0.00000000
  0
LINE
  8
Layer_1
 62
     7
  6
CONTINUOUS
 10
1.72784322
 20
1.34324166
 30
0.00000000
 11
1.68610269
 21
1.48677502
 31
0.00000000
  0
LINE
  8
Layer_1
 62
     7
  6
CONTINUOUS
 10
1.68610269
 20
1.48677502
 30
0.00000000
 11
1.64020535
 21
1.62884254
 31
0.00000000
  0
LINE
  8
Layer_1
 62
     7
  6
CONTINUOUS
 10
1.64020535
 20
1.62884254
 30
0.00000000
 11
1.59019634
 21
1.76935621
 31
0.00000000
  0
LINE
  8
Layer_1
 62
     7
  6
CONTINUOUS
 10
1.59019634
 20
1.76935621
 30
0.00000000
 11
1.53612083
 21
1.90822802
 31
0.00000000
  0
LINE
  8
Layer_1
 62
     7
  6
CONTINUOUS
 10
1.53612083
 20
1.90822802
 30
0.00000000
 11
1.47802397
 21
2.04536996
 31
0.00000000
  0
LINE
  8
Layer_1
 62
     7
  6
CONTINUOUS
 10
1.47802397
 20
2.04536996
 30
0.00000000
 11
1.41595093
 21
2.18069402
 31
0.00000000
  0
LINE
  8
Layer_1
 62
     7
  6
CONTINUOUS
 10
1.41595093
 20
2.18069402
 30
0.00000000
 11
1.34994685
 21
2.31411220
 31
0.00000000
  0
LINE
  8
Layer_1
 62
     7
  6
CONTINUOUS
 10
1.34994685
 20
2.31411220
 30
0.00000000
 11
1.28005690
 21
2.44553649
 31
0.00000000
  0
LINE
  8
Layer_1
 62
     7
  6
CONTINUOUS
 10
1.28005690
 20
2.44553649
 30
0.00000000
 11
1.20632624
 21
2.57487887
 31
0.00000000
  0
LINE
  8
Layer_1
 62
     7
  6
CONTINUOUS
 10
1.20632624
 20
2.57487887
 30
0.00000000
 11
1.12880001
 21
2.70205134
 31
0.00000000
  0
LINE
  8
Layer_1
 62
     7
  6
CONTINUOUS
 10
1.12880001
 20
2.70205134
 30
0.00000000
 11
1.04752339
 21
2.82696589
 31
0.00000000
  0
LINE
  8
Layer_1
 62
     7
  6
CONTINUOUS
 10
1.04752339
 20
2.82696589
 30
0.00000000
 11
0.96254153
 21
2.94953451
 31
0.00000000
  0
LINE
  8
Layer_1
 62
     7
  6
CONTINUOUS
 10
0.96254153
 20
2.94953451
 30
0.00000000
 11
0.87389958
 21
3.06966919
 31
0.00000000
  0
LINE
  8
Layer_1
 62
     7
  6
CONTINUOUS
 10
0.87389958
 20
3.06966919
 30
0.00000000
 11
0.78164271
 21
3.18728192
 31
0.00000000
  0
LINE
  8
Layer_1
 62
     7
  6
CONTINUOUS
 10
0.78164271
 20
3.18728192
 30
0.00000000
 11
0.68581607
 21
3.30228469
 31
0.00000000
  0
LINE
  8
Layer_1
 62
     7
  6
CONTINUOUS
 10
0.68581607
 20
3.30228469
 30
0.00000000
 11
0.58646482
 21
3.41458950
 31
0.00000000
  0
LINE
  8
Layer_1
 62
     7
  6
CONTINUOUS
 10
0.58646482
 20
3.41458950
 30
0.00000000
 11
0.48363411
 21
3.52410834
 31
0.00000000
  0
LINE
  8
Layer_1
 62
     7
  6
CONTINUOUS
 10
0.48363411
 20
3.52410834
 30
0.00000000
 11
0.37736912
 21
3.63075319
 31
0.00000000
  0
LINE
  8
Layer_1
 62
     7
  6
CONTINUOUS
 10
0.37736912
 20
3.63075319
 30
0.00000000
 11
0.26771498
 21
3.73443605
 31
0.00000000
  0
LINE
  8
Layer_1
 62
     7
  6
CONTINUOUS
 10
0.26771498
 20
3.73443605
 30
0.00000000
 11
0.15471687
 21
3.83506891
 31
0.00000000
  0
LINE
  8
Layer_1
 62
     7
  6
CONTINUOUS
 10
0.15471687
 20
3.83506891
 30
0.00000000
 11
0.03841994
 21
3.93256376
 31
0.00000000
  0
LINE
  8
Layer_1
 62
     7
  6
CONTINUOUS
 10
0.03841994
 20
3.93256376
 30
0.00000000
 11
-0.08113066
 21
4.02683260
 31
0.00000000
  0
LINE
  8
Layer_1
 62
     7
  6
CONTINUOUS
 10
-0.08113066
 20
4.02683260
 30
0.00000000
 11
-0.20461427
 21
4.11832420
 31
0.00000000
  0
LINE
  8
Layer_1
 62
     7
  6
CONTINUOUS
 10
2.23100000
 20
0.00000000
 30
0.00000000
 11
2.22855707
 21
0.16246979
 31
0.00000000
  0
LINE
  8
Layer_1
 62
     7
  6
CONTINUOUS
 10
2.22855707
 20
0.16246979
 30
0.00000000
 11
2.22126102
 21
0.32422303
 31
0.00000000
  0
LINE
  8
Layer_1
 62
     7
  6
CONTINUOUS
 10
2.22126102
 20
0.32422303
 30
0.00000000
 11
2.20915990
 21
0.48516609
 31
0.00000000
  0
LINE
  8
Layer_1
 62
     7
  6
CONTINUOUS
 10
2.20915990
 20
0.48516609
 30
0.00000000
 11
2.19230171
 21
0.64520540
 31
0.00000000
  0
LINE
  8
Layer_1
 62
     7
  6
CONTINUOUS
 10
2.19230171
 20
0.64520540
 30
0.00000000
 11
2.17073450
 21
0.80424735
 31
0.00000000
  0
LINE
  8
Layer_1
 62
     7
  6
CONTINUOUS
 10
2.17073450
 20
0.80424735
 30
0.00000000
 11
2.14450627
 21
0.96219833
 31
0.00000000
  0
LINE
  8
Layer_1
 62
     7
  6
CONTINUOUS
 10
2.14450627
 20
0.96219833
 30
0.00000000
 11
2.11366507
 21
1.11896475
 31
0.00000000
  0
LINE
  8
Layer_1
 62
     7
  6
CONTINUOUS
 10
2.11366507
 20
1.11896475
 30
0.00000000
 11
2.07825892
 21
1.27445300
 31
0.00000000
  0
LINE
  8
Layer_1
 62
     7
  6
CONTINUOUS
 10
2.07825892
 20
1.27445300
 30
0.00000000
 11
2.03833584
 21
1.42856950
 31
0.00000000
  0
LINE
  8
Layer_1
 62
     7
  6
CONTINUOUS
 10
2.03833584
 20
1.42856950
 30
0.00000000
 11
1.99394386
 21
1.58122063
 31
0.00000000
  0
LINE
  8
Layer_1
 62
     7
  6
CONTINUOUS
 10
1.99394386
 20
1.58122063
 30
0.00000000
 11
1.94513101
 21
1.73231279
 31
0.00000000
  0
LINE
  8
Layer_1
 62
     7
  6
CONTINUOUS
 10
1.94513101
 20
1.73231279
 30
0.00000000
 11
1.89194530
 21
1.88175240
 31
0.00000000
  0
LINE
  8
Layer_1
 62
     7
  6
CONTINUOUS
 10
1.89194530
 20
1.88175240
 30
0.00000000
 11
1.83443478
 21
2.02944584
 31
0.00000000
  0
LINE
  8
Layer_1
 62
     7
  6
CONTINUOUS
 10
1.83443478
 20
2.02944584
 30
0.00000000
 11
1.77264746
 21
2.17529952
 31
0.00000000
  0
LINE
  8
Layer_1
 62
     7
  6
CONTINUOUS
 10
1.77264746
 20
2.17529952
 30
0.00000000
 11
1.70663138
 21
2.31921984
 31
0.00000000
  0
LINE
  8
Layer_1
 62
     7
  6
CONTINUOUS
 10
1.70663138
 20
2.31921984
 30
0.00000000
 11
1.63643455
 21
2.46111319
 31
0.00000000
  0
LINE
  8
Layer_1
 62
     7
  6
CONTINUOUS
 10
1.63643455
 20
2.46111319
 30
0.00000000
 11
1.56210500
 21
2.60088598
 31
0.00000000
  0
LINE
  8
Layer_1
 62
     7
  6
CONTINUOUS
 10
1.56210500
 20
2.60088598
 30
0.00000000
 11
1.48369077
 21
2.73844461
 31
0.00000000
  0
LINE
  8
Layer_1
 62
     7
  6
CONTINUOUS
 10
1.48369077
 20
2.73844461
 30
0.00000000
 11
1.40123987
 21
2.87369547
 31
0.00000000
  0
LINE
  8
Layer_1
 62
     7
  6
CONTINUOUS
 10
1.40123987
 20
2.87369547
 30
0.00000000
 11
1.31480033
 21
3.00654497
 31
0.00000000
  0
LINE
  8
Layer_1
 62
     7
  6
CONTINUOUS
 10
1.31480033
 20
3.00654497
 30
0.00000000
 11
1.22442018
 21
3.13689950
 31
0.00000000
  0
LINE
  8
Layer_1
 62
     7
  6
CONTINUOUS
 10
1.13014744
 20
3.26466548
 30
0.00000000
 11
1.22442018
 21
3.13689950
 31
0.00000000
  0
LINE
  8
Layer_1
 62
     7
  6
CONTINUOUS
 10
1.03203015
 20
3.38974929
 30
0.00000000
 11
1.13014744
 21
3.26466548
 31
0.00000000
  0
LINE
  8
Layer_1
 62
     7
  6
CONTINUOUS
 10
0.93011633
 20
3.51205733
 30
0.00000000
 11
1.03203015
 21
3.38974929
 31
0.00000000
  0
LINE
  8
Layer_1
 62
     7
  6
CONTINUOUS
 10
0.82445399
 20
3.63149601
 30
0.00000000
 11
0.93011633
 21
3.51205733
 31
0.00000000
  0
LINE
  8
Layer_1
 62
     7
  6
CONTINUOUS
 10
0.71509118
 20
3.74797173
 30
0.00000000
 11
0.82445399
 21
3.63149601
 31
0.00000000
  0
LINE
  8
Layer_1
 62
     7
  6
CONTINUOUS
 10
0.60207592
 20
3.86139089
 30
0.00000000
 11
0.71509118
 21
3.74797173
 31
0.00000000
  0
LINE
  8
Layer_1
 62
     7
  6
CONTINUOUS
 10
0.48545622
 20
3.97165988
 30
0.00000000
 11
0.60207592
 21
3.86139089
 31
0.00000000
  0
LINE
  8
Layer_1
 62
     7
  6
CONTINUOUS
 10
0.36528013
 20
4.07868511
 30
0.00000000
 11
0.48545622
 21
3.97165988
 31
0.00000000
  0
LINE
  8
Layer_1
 62
     7
  6
CONTINUOUS
 10
0.24159566
 20
4.18237297
 30
0.00000000
 11
0.36528013
 21
4.07868511
 31
0.00000000
  0
LINE
  8
Layer_1
 62
     7
  6
CONTINUOUS
 10
0.11445084
 20
4.28262987
 30
0.00000000
 11
0.24159566
 21
4.18237297
 31
0.00000000
  0
LINE
  8
Layer_1
 62
     7
  6
CONTINUOUS
 10
-0.01610630
 20
4.37936220
 30
0.00000000
 11
0.11445084
 21
4.28262987
 31
0.00000000
  0
LINE
  8
Layer_1
 62
     7
  6
CONTINUOUS
 10
2.45436220
 20
0.30838976
 30
0.00000000
 11
2.51838455
 21
0.47228285
 31
0.00000000
  0
LINE
  8
Layer_1
 62
     7
  6
CONTINUOUS
 10
2.51838455
 20
0.47228285
 30
0.00000000
 11
2.57656326
 21
0.63794504
 31
0.00000000
  0
LINE
  8
Layer_1
 62
     7
  6
CONTINUOUS
 10
2.57656326
 20
0.63794504
 30
0.00000000
 11
2.62888061
 21
0.80522076
 31
0.00000000
  0
LINE
  8
Layer_1
 62
     7
  6
CONTINUOUS
 10
2.62888061
 20
0.80522076
 30
0.00000000
 11
2.67531884
 21
0.97395448
 31
0.00000000
  0
LINE
  8
Layer_1
 62
     7
  6
CONTINUOUS
 10
2.67531884
 20
0.97395448
 30
0.00000000
 11
2.71586020
 21
1.14399064
 31
0.00000000
  0
LINE
  8
Layer_1
 62
     7
  6
CONTINUOUS
 10
2.71586020
 20
1.14399064
 30
0.00000000
 11
2.75048697
 21
1.31517369
 31
0.00000000
  0
LINE
  8
Layer_1
 62
     7
  6
CONTINUOUS
 10
2.75048697
 20
1.31517369
 30
0.00000000
 11
2.77918138
 21
1.48734808
 31
0.00000000
  0
LINE
  8
Layer_1
 62
     7
  6
CONTINUOUS
 10
2.77918138
 20
1.48734808
 30
0.00000000
 11
2.80192569
 21
1.66035827
 31
0.00000000
  0
LINE
  8
Layer_1
 62
     7
  6
CONTINUOUS
 10
2.80192569
 20
1.66035827
 30
0.00000000
 11
2.81870216
 21
1.83404869
 31
0.00000000
  0
LINE
  8
Layer_1
 62
     7
  6
CONTINUOUS
 10
2.81870216
 20
1.83404869
 30
0.00000000
 11
2.82949304
 21
2.00826381
 31
0.00000000
  0
LINE
  8
Layer_1
 62
     7
  6
CONTINUOUS
 10
2.82949304
 20
2.00826381
 30
0.00000000
 11
2.83428059
 21
2.18284807
 31
0.00000000
  0
LINE
  8
Layer_1
 62
     7
  6
CONTINUOUS
 10
2.83428059
 20
2.18284807
 30
0.00000000
 11
2.83304706
 21
2.35764592
 31
0.00000000
  0
LINE
  8
Layer_1
 62
     7
  6
CONTINUOUS
 10
2.83304706
 20
2.35764592
 30
0.00000000
 11
2.82577471
 21
2.53250180
 31
0.00000000
  0
LINE
  8
Layer_1
 62
     7
  6
CONTINUOUS
 10
2.82577471
 20
2.53250180
 30
0.00000000
 11
2.81244578
 21
2.70726018
 31
0.00000000
  0
LINE
  8
Layer_1
 62
     7
  6
CONTINUOUS
 10
2.81244578
 20
2.70726018
 30
0.00000000
 11
2.79304254
 21
2.88176550
 31
0.00000000
  0
LINE
  8
Layer_1
 62
     7
  6
CONTINUOUS
 10
2.79304254
 20
2.88176550
 30
0.00000000
 11
2.76754724
 21
3.05586220
 31
0.00000000
  0
LINE
  8
Layer_1
 62
     7
  6
CONTINUOUS
 10
2.75221260
 20
0.18603937
 30
0.00000000
 11
2.82030232
 21
0.36034288
 31
0.00000000
  0
LINE
  8
Layer_1
 62
     7
  6
CONTINUOUS
 10
2.82030232
 20
0.36034288
 30
0.00000000
 11
2.88217701
 21
0.53652794
 31
0.00000000
  0
LINE
  8
Layer_1
 62
     7
  6
CONTINUOUS
 10
2.88217701
 20
0.53652794
 30
0.00000000
 11
2.93781784
 21
0.71442914
 31
0.00000000
  0
LINE
  8
Layer_1
 62
     7
  6
CONTINUOUS
 10
2.93781784
 20
0.71442914
 30
0.00000000
 11
2.98720595
 21
0.89388103
 31
0.00000000
  0
LINE
  8
Layer_1
 62
     7
  6
CONTINUOUS
 10
2.98720595
 20
0.89388103
 30
0.00000000
 11
3.03032251
 21
1.07471818
 31
0.00000000
  0
LINE
  8
Layer_1
 62
     7
  6
CONTINUOUS
 10
3.03032251
 20
1.07471818
 30
0.00000000
 11
3.06714865
 21
1.25677514
 31
0.00000000
  0
LINE
  8
Layer_1
 62
     7
  6
CONTINUOUS
 10
3.06714865
 20
1.25677514
 30
0.00000000
 11
3.09766554
 21
1.43988650
 31
0.00000000
  0
LINE
  8
Layer_1
 62
     7
  6
CONTINUOUS
 10
3.09766554
 20
1.43988650
 30
0.00000000
 11
3.12185433
 21
1.62388681
 31
0.00000000
  0
LINE
  8
Layer_1
 62
     7
  6
CONTINUOUS
 10
3.12185433
 20
1.62388681
 30
0.00000000
 11
3.13969617
 21
1.80861064
 31
0.00000000
  0
LINE
  8
Layer_1
 62
     7
  6
CONTINUOUS
 10
3.13969617
 20
1.80861064
 30
0.00000000
 11
3.15117221
 21
1.99389255
 31
0.00000000
  0
LINE
  8
Layer_1
 62
     7
  6
CONTINUOUS
 10
3.15117221
 20
1.99389255
 30
0.00000000
 11
3.15626361
 21
2.17956710
 31
0.00000000
  0
LINE
  8
Layer_1
 62
     7
  6
CONTINUOUS
 10
3.15626361
 20
2.17956710
 30
0.00000000
 11
3.15495153
 21
2.36546887
 31
0.00000000
  0
LINE
  8
Layer_1
 62
     7
  6
CONTINUOUS
 10
3.15495153
 20
2.36546887
 30
0.00000000
 11
3.14721710
 21
2.55143242
 31
0.00000000
  0
LINE
  8
Layer_1
 62
     7
  6
CONTINUOUS
 10
3.14721710
 20
2.55143242
 30
0.00000000
 11
3.13304149
 21
2.73729231
 31
0.00000000
  0
LINE
  8
Layer_1
 62
     7
  6
CONTINUOUS
 10
3.13304149
 20
2.73729231
 30
0.00000000
 11
3.11240585
 21
2.92288310
 31
0.00000000
  0
LINE
  8
Layer_1
 62
     7
  6
CONTINUOUS
 10
3.11240585
 20
2.92288310
 30
0.00000000
 11
3.08529134
 21
3.10803937
 31
0.00000000
  0
LINE
  8
Layer_1
 62
     7
  6
CONTINUOUS
 10
-0.30838976
 20
2.45436220
 30
0.00000000
 11
-0.29284740
 21
2.44887606
 31
0.00000000
  0
LINE
  8
Layer_1
 62
     7
  6
CONTINUOUS
 10
-0.29284740
 20
2.44887606
 30
0.00000000
 11
-0.27713373
 21
2.44505849
 31
0.00000000
  0
LINE
  8
Layer_1
 62
     7
  6
CONTINUOUS
 10
-0.27713373
 20
2.44505849
 30
0.00000000
 11
-0.26135434
 21
2.44286539
 31
0.00000000
  0
LINE
  8
Layer_1
 62
     7
  6
CONTINUOUS
 10
-0.26135434
 20
2.44286539
 30
0.00000000
 11
-0.24561485
 21
2.44225265
 31
0.00000000
  0
LINE
  8
Layer_1
 62
     7
  6
CONTINUOUS
 10
-0.24561485
 20
2.44225265
 30
0.00000000
 11
-0.23002085
 21
2.44317614
 31
0.00000000
  0
LINE
  8
Layer_1
 62
     7
  6
CONTINUOUS
 10
-0.23002085
 20
2.44317614
 30
0.00000000
 11
-0.21467794
 21
2.44559176
 31
0.00000000
  0
LINE
  8
Layer_1
 62
     7
  6
CONTINUOUS
 10
-0.21467794
 20
2.44559176
 30
0.00000000
 11
-0.19969173
 21
2.44945539
 31
0.00000000
  0
LINE
  8
Layer_1
 62
     7
  6
CONTINUOUS
 10
-0.19969173
 20
2.44945539
 30
0.00000000
 11
-0.18516781
 21
2.45472293
 31
0.00000000
  0
LINE
  8
Layer_1
 62
     7
  6
CONTINUOUS
 10
-0.18516781
 20
2.45472293
 30
0.00000000
 11
-0.17121180
 21
2.46135026
 31
0.00000000
  0
LINE
  8
Layer_1
 62
     7
  6
CONTINUOUS
 10
-0.17121180
 20
2.46135026
 30
0.00000000
 11
-0.15792928
 21
2.46929327
 31
0.00000000
  0
LINE
  8
Layer_1
 62
     7
  6
CONTINUOUS
 10
-0.15792928
 20
2.46929327
 30
0.00000000
 11
-0.14542586
 21
2.47850784
 31
0.00000000
  0
LINE
  8
Layer_1
 62
     7
  6
CONTINUOUS
 10
-0.14542586
 20
2.47850784
 30
0.00000000
 11
-0.13380715
 21
2.48894986
 31
0.00000000
  0
LINE
  8
Layer_1
 62
     7
  6
CONTINUOUS
 10
-0.13380715
 20
2.48894986
 30
0.00000000
 11
-0.12317874
 21
2.50057523
 31
0.00000000
  0
LINE
  8
Layer_1
 62
     7
  6
CONTINUOUS
 10
-0.12317874
 20
2.50057523
 30
0.00000000
 11
-0.11364623
 21
2.51333982
 31
0.00000000
  0
LINE
  8
Layer_1
 62
     7
  6
CONTINUOUS
 10
-0.11364623
 20
2.51333982
 30
0.00000000
 11
-0.10531523
 21
2.52719953
 31
0.00000000
  0
LINE
  8
Layer_1
 62
     7
  6
CONTINUOUS
 10
-0.10531523
 20
2.52719953
 30
0.00000000
 11
-0.09829134
 21
2.54211024
 31
0.00000000
  0
LINE
  8
Layer_1
 62
     7
  6
CONTINUOUS
 10
-0.09829134
 20
2.54211024
 30
0.00000000
 11
-0.09280519
 21
2.55765264
 31
0.00000000
  0
LINE
  8
Layer_1
 62
     7
  6
CONTINUOUS
 10
-0.09280519
 20
2.55765264
 30
0.00000000
 11
-0.08898763
 21
2.57336643
 31
0.00000000
  0
LINE
  8
Layer_1
 62
     7
  6
CONTINUOUS
 10
-0.08898763
 20
2.57336643
 30
0.00000000
 11
-0.08679453
 21
2.58914599
 31
0.00000000
  0
LINE
  8
Layer_1
 62
     7
  6
CONTINUOUS
 10
-0.08679453
 20
2.58914599
 30
0.00000000
 11
-0.08618178
 21
2.60488570
 31
0.00000000
  0
LINE
  8
Layer_1
 62
     7
  6
CONTINUOUS
 10
-0.08618178
 20
2.60488570
 30
0.00000000
 11
-0.08710527
 21
2.62047994
 31
0.00000000
  0
LINE
  8
Layer_1
 62
     7
  6
CONTINUOUS
 10
-0.08710527
 20
2.62047994
 30
0.00000000
 11
-0.08952089
 21
2.63582310
 31
0.00000000
  0
LINE
  8
Layer_1
 62
     7
  6
CONTINUOUS
 10
-0.08952089
 20
2.63582310
 30
0.00000000
 11
-0.09338453
 21
2.65080954
 31
0.00000000
  0
LINE
  8
Layer_1
 62
     7
  6
CONTINUOUS
 10
-0.09338453
 20
2.65080954
 30
0.00000000
 11
-0.09865207
 21
2.66533366
 31
0.00000000
  0
LINE
  8
Layer_1
 62
     7
  6
CONTINUOUS
 10
-0.09865207
 20
2.66533366
 30
0.00000000
 11
-0.10527940
 21
2.67928984
 31
0.00000000
  0
LINE
  8
Layer_1
 62
     7
  6
CONTINUOUS
 10
-0.10527940
 20
2.67928984
 30
0.00000000
 11
-0.11322240
 21
2.69257245
 31
0.00000000
  0
LINE
  8
Layer_1
 62
     7
  6
CONTINUOUS
 10
-0.11322240
 20
2.69257245
 30
0.00000000
 11
-0.12243697
 21
2.70507588
 31
0.00000000
  0
LINE
  8
Layer_1
 62
     7
  6
CONTINUOUS
 10
-0.12243697
 20
2.70507588
 30
0.00000000
 11
-0.13287900
 21
2.71669451
 31
0.00000000
  0
LINE
  8
Layer_1
 62
     7
  6
CONTINUOUS
 10
-0.13287900
 20
2.71669451
 30
0.00000000
 11
-0.14450436
 21
2.72732273
 31
0.00000000
  0
LINE
  8
Layer_1
 62
     7
  6
CONTINUOUS
 10
-0.14450436
 20
2.72732273
 30
0.00000000
 11
-0.15726895
 21
2.73685490
 31
0.00000000
  0
LINE
  8
Layer_1
 62
     7
  6
CONTINUOUS
 10
-0.15726895
 20
2.73685490
 30
0.00000000
 11
-0.17112866
 21
2.74518542
 31
0.00000000
  0
LINE
  8
Layer_1
 62
     7
  6
CONTINUOUS
 10
-0.17112866
 20
2.74518542
 30
0.00000000
 11
-0.18603937
 21
2.75220866
 31
0.00000000
  0
LINE
  8
Layer_1
 62
     7
  6
CONTINUOUS
 10
-3.10806693
 20
3.08528346
 30
0.00000000
 11
-3.12377112
 21
3.08189479
 31
0.00000000
  0
LINE
  8
Layer_1
 62
     7
  6
CONTINUOUS
 10
-3.12377112
 20
3.08189479
 30
0.00000000
 11
-3.13889733
 21
3.07701896
 31
0.00000000
  0
LINE
  8
Layer_1
 62
     7
  6
CONTINUOUS
 10
-3.13889733
 20
3.07701896
 30
0.00000000
 11
-3.15335712
 21
3.07072841
 31
0.00000000
  0
LINE
  8
Layer_1
 62
     7
  6
CONTINUOUS
 10
-3.15335712
 20
3.07072841
 30
0.00000000
 11
-3.16706209
 21
3.06309558
 31
0.00000000
  0
LINE
  8
Layer_1
 62
     7
  6
CONTINUOUS
 10
-3.16706209
 20
3.06309558
 30
0.00000000
 11
-3.17992380
 21
3.05419292
 31
0.00000000
  0
LINE
  8
Layer_1
 62
     7
  6
CONTINUOUS
 10
-3.17992380
 20
3.05419292
 30
0.00000000
 11
-3.19185383
 21
3.04409288
 31
0.00000000
  0
LINE
  8
Layer_1
 62
     7
  6
CONTINUOUS
 10
-3.19185383
 20
3.04409288
 30
0.00000000
 11
-3.20276375
 21
3.03286790
 31
0.00000000
  0
LINE
  8
Layer_1
 62
     7
  6
CONTINUOUS
 10
-3.20276375
 20
3.03286790
 30
0.00000000
 11
-3.21256515
 21
3.02059043
 31
0.00000000
  0
LINE
  8
Layer_1
 62
     7
  6
CONTINUOUS
 10
-3.21256515
 20
3.02059043
 30
0.00000000
 11
-3.22116958
 21
3.00733290
 31
0.00000000
  0
LINE
  8
Layer_1
 62
     7
  6
CONTINUOUS
 10
-3.22116958
 20
3.00733290
 30
0.00000000
 11
-3.22848863
 21
2.99316777
 31
0.00000000
  0
LINE
  8
Layer_1
 62
     7
  6
CONTINUOUS
 10
-3.22848863
 20
2.99316777
 30
0.00000000
 11
-3.23442551
 21
2.97819168
 31
0.00000000
  0
LINE
  8
Layer_1
 62
     7
  6
CONTINUOUS
 10
-3.23442551
 20
2.97819168
 30
0.00000000
 11
-3.23881465
 21
2.96280354
 31
0.00000000
  0
LINE
  8
Layer_1
 62
     7
  6
CONTINUOUS
 10
-3.23881465
 20
2.96280354
 30
0.00000000
 11
-3.24163314
 21
2.94720994
 31
0.00000000
  0
LINE
  8
Layer_1
 62
     7
  6
CONTINUOUS
 10
-3.24163314
 20
2.94720994
 30
0.00000000
 11
-3.24289951
 21
2.93152367
 31
0.00000000
  0
LINE
  8
Layer_1
 62
     7
  6
CONTINUOUS
 10
-3.24289951
 20
2.93152367
 30
0.00000000
 11
-3.24263226
 21
2.91585753
 31
0.00000000
  0
LINE
  8
Layer_1
 62
     7
  6
CONTINUOUS
 10
-3.24263226
 20
2.91585753
 30
0.00000000
 11
-3.24084990
 21
2.90032431
 31
0.00000000
  0
LINE
  8
Layer_1
 62
     7
  6
CONTINUOUS
 10
-3.24084990
 20
2.90032431
 30
0.00000000
 11
-3.23757095
 21
2.88503680
 31
0.00000000
  0
LINE
  8
Layer_1
 62
     7
  6
CONTINUOUS
 10
-3.23757095
 20
2.88503680
 30
0.00000000
 11
-3.23281390
 21
2.87010780
 31
0.00000000
  0
LINE
  8
Layer_1
 62
     7
  6
CONTINUOUS
 10
-3.23281390
 20
2.87010780
 30
0.00000000
 11
-3.22659729
 21
2.85565010
 31
0.00000000
  0
LINE
  8
Layer_1
 62
     7
  6
CONTINUOUS
 10
-3.22659729
 20
2.85565010
 30
0.00000000
 11
-3.21893960
 21
2.84177649
 31
0.00000000
  0
LINE
  8
Layer_1
 62
     7
  6
CONTINUOUS
 10
-3.21893960
 20
2.84177649
 30
0.00000000
 11
-3.20985936
 21
2.82859977
 31
0.00000000
  0
LINE
  8
Layer_1
 62
     7
  6
CONTINUOUS
 10
-3.20985936
 20
2.82859977
 30
0.00000000
 11
-3.19944435
 21
2.81630907
 31
0.00000000
  0
LINE
  8
Layer_1
 62
     7
  6
CONTINUOUS
 10
-3.19944435
 20
2.81630907
 30
0.00000000
 11
-3.18797919
 21
2.80522896
 31
0.00000000
  0
LINE
  8
Layer_1
 62
     7
  6
CONTINUOUS
 10
-3.18797919
 20
2.80522896
 30
0.00000000
 11
-3.17558649
 21
2.79541972
 31
0.00000000
  0
LINE
  8
Layer_1
 62
     7
  6
CONTINUOUS
 10
-3.17558649
 20
2.79541972
 30
0.00000000
 11
-3.16237319
 21
2.78692173
 31
0.00000000
  0
LINE
  8
Layer_1
 62
     7
  6
CONTINUOUS
 10
-3.16237319
 20
2.78692173
 30
0.00000000
 11
-3.14844623
 21
2.77977537
 31
0.00000000
  0
LINE
  8
Layer_1
 62
     7
  6
CONTINUOUS
 10
-3.14844623
 20
2.77977537
 30
0.00000000
 11
-3.13391253
 21
2.77402104
 31
0.00000000
  0
LINE
  8
Layer_1
 62
     7
  6
CONTINUOUS
 10
-3.13391253
 20
2.77402104
 30
0.00000000
 11
-3.11887904
 21
2.76969912
 31
0.00000000
  0
LINE
  8
Layer_1
 62
     7
  6
CONTINUOUS
 10
-3.11887904
 20
2.76969912
 30
0.00000000
 11
-3.10345269
 21
2.76685000
 31
0.00000000
  0
LINE
  8
Layer_1
 62
     7
  6
CONTINUOUS
 10
-3.10345269
 20
2.76685000
 30
0.00000000
 11
-3.08774042
 21
2.76551406
 31
0.00000000
  0
LINE
  8
Layer_1
 62
     7
  6
CONTINUOUS
 10
-3.08774042
 20
2.76551406
 30
0.00000000
 11
-3.07184915
 21
2.76573170
 31
0.00000000
  0
LINE
  8
Layer_1
 62
     7
  6
CONTINUOUS
 10
-3.07184915
 20
2.76573170
 30
0.00000000
 11
-3.05588583
 21
2.76754331
 31
0.00000000
  0
LINE
  8
Layer_1
 62
     7
  6
CONTINUOUS
 10
0.00000000
 20
1.90900000
 30
0.00000000
 11
0.01646118
 21
1.90983119
 31
0.00000000
  0
LINE
  8
Layer_1
 62
     7
  6
CONTINUOUS
 10
0.01646118
 20
1.90983119
 30
0.00000000
 11
0.03244680
 21
1.91227080
 31
0.00000000
  0
LINE
  8
Layer_1
 62
     7
  6
CONTINUOUS
 10
0.03244680
 20
1.91227080
 30
0.00000000
 11
0.04787592
 21
1.91623792
 31
0.00000000
  0
LINE
  8
Layer_1
 62
     7
  6
CONTINUOUS
 10
0.04787592
 20
1.91623792
 30
0.00000000
 11
0.06266763
 21
1.92165164
 31
0.00000000
  0
LINE
  8
Layer_1
 62
     7
  6
CONTINUOUS
 10
0.06266763
 20
1.92165164
 30
0.00000000
 11
0.07674102
 21
1.92843102
 31
0.00000000
  0
LINE
  8
Layer_1
 62
     7
  6
CONTINUOUS
 10
0.07674102
 20
1.92843102
 30
0.00000000
 11
0.09001516
 21
1.93649516
 31
0.00000000
  0
LINE
  8
Layer_1
 62
     7
  6
CONTINUOUS
 10
0.09001516
 20
1.93649516
 30
0.00000000
 11
0.10240913
 21
1.94576314
 31
0.00000000
  0
LINE
  8
Layer_1
 62
     7
  6
CONTINUOUS
 10
0.10240913
 20
1.94576314
 30
0.00000000
 11
0.11384203
 21
1.95615404
 31
0.00000000
  0
LINE
  8
Layer_1
 62
     7
  6
CONTINUOUS
 10
0.11384203
 20
1.95615404
 30
0.00000000
 11
0.12423292
 21
1.96758693
 31
0.00000000
  0
LINE
  8
Layer_1
 62
     7
  6
CONTINUOUS
 10
0.12423292
 20
1.96758693
 30
0.00000000
 11
0.13350090
 21
1.97998091
 31
0.00000000
  0
LINE
  8
Layer_1
 62
     7
  6
CONTINUOUS
 10
0.13350090
 20
1.97998091
 30
0.00000000
 11
0.14156504
 21
1.99325505
 31
0.00000000
  0
LINE
  8
Layer_1
 62
     7
  6
CONTINUOUS
 10
0.14156504
 20
1.99325505
 30
0.00000000
 11
0.14834443
 21
2.00732843
 31
0.00000000
  0
LINE
  8
Layer_1
 62
     7
  6
CONTINUOUS
 10
0.14834443
 20
2.00732843
 30
0.00000000
 11
0.15375814
 21
2.02212015
 31
0.00000000
  0
LINE
  8
Layer_1
 62
     7
  6
CONTINUOUS
 10
0.15375814
 20
2.02212015
 30
0.00000000
 11
0.15772526
 21
2.03754927
 31
0.00000000
  0
LINE
  8
Layer_1
 62
     7
  6
CONTINUOUS
 10
0.15772526
 20
2.03754927
 30
0.00000000
 11
0.16016488
 21
2.05353488
 31
0.00000000
  0
LINE
  8
Layer_1
 62
     7
  6
CONTINUOUS
 10
0.16016488
 20
2.05353488
 30
0.00000000
 11
0.16099606
 21
2.06999606
 31
0.00000000
  0
LINE
  8
Layer_1
 62
     7
  6
CONTINUOUS
 10
0.16099606
 20
2.06999606
 30
0.00000000
 11
0.16016553
 21
2.08645729
 31
0.00000000
  0
LINE
  8
Layer_1
 62
     7
  6
CONTINUOUS
 10
0.16016553
 20
2.08645729
 30
0.00000000
 11
0.15772639
 21
2.10244303
 31
0.00000000
  0
LINE
  8
Layer_1
 62
     7
  6
CONTINUOUS
 10
0.15772639
 20
2.10244303
 30
0.00000000
 11
0.15375960
 21
2.11787234
 31
0.00000000
  0
LINE
  8
Layer_1
 62
     7
  6
CONTINUOUS
 10
0.15375960
 20
2.11787234
 30
0.00000000
 11
0.14834609
 21
2.13266431
 31
0.00000000
  0
LINE
  8
Layer_1
 62
     7
  6
CONTINUOUS
 10
0.14834609
 20
2.13266431
 30
0.00000000
 11
0.14156678
 21
2.14673799
 31
0.00000000
  0
LINE
  8
Layer_1
 62
     7
  6
CONTINUOUS
 10
0.14156678
 20
2.14673799
 30
0.00000000
 11
0.13350263
 21
2.16001246
 31
0.00000000
  0
LINE
  8
Layer_1
 62
     7
  6
CONTINUOUS
 10
0.13350263
 20
2.16001246
 30
0.00000000
 11
0.12423456
 21
2.17240680
 31
0.00000000
  0
LINE
  8
Layer_1
 62
     7
  6
CONTINUOUS
 10
0.12423456
 20
2.17240680
 30
0.00000000
 11
0.11384350
 21
2.18384006
 31
0.00000000
  0
LINE
  8
Layer_1
 62
     7
  6
CONTINUOUS
 10
0.11384350
 20
2.18384006
 30
0.00000000
 11
0.10241040
 21
2.19423132
 31
0.00000000
  0
LINE
  8
Layer_1
 62
     7
  6
CONTINUOUS
 10
0.10241040
 20
2.19423132
 30
0.00000000
 11
0.09001619
 21
2.20349965
 31
0.00000000
  0
LINE
  8
Layer_1
 62
     7
  6
CONTINUOUS
 10
0.09001619
 20
2.20349965
 30
0.00000000
 11
0.07674181
 21
2.21156413
 31
0.00000000
  0
LINE
  8
Layer_1
 62
     7
  6
CONTINUOUS
 10
0.07674181
 20
2.21156413
 30
0.00000000
 11
0.06266818
 21
2.21834381
 31
0.00000000
  0
LINE
  8
Layer_1
 62
     7
  6
CONTINUOUS
 10
0.06266818
 20
2.21834381
 30
0.00000000
 11
0.04787626
 21
2.22375778
 31
0.00000000
  0
LINE
  8
Layer_1
 62
     7
  6
CONTINUOUS
 10
0.04787626
 20
2.22375778
 30
0.00000000
 11
0.03244696
 21
2.22772509
 31
0.00000000
  0
LINE
  8
Layer_1
 62
     7
  6
CONTINUOUS
 10
0.03244696
 20
2.22772509
 30
0.00000000
 11
0.01646123
 21
2.23016483
 31
0.00000000
  0
LINE
  8
Layer_1
 62
     7
  6
CONTINUOUS
 10
0.01646123
 20
2.23016483
 30
0.00000000
 11
0.00000000
 21
2.23099606
 31
0.00000000
  0
LINE
  8
Layer_1
 62
     7
  6
CONTINUOUS
 10
1.90900000
 20
0.00000000
 30
0.00000000
 11
1.90979956
 21
-0.01604569
 31
0.00000000
  0
LINE
  8
Layer_1
 62
     7
  6
CONTINUOUS
 10
1.90979956
 20
-0.01604569
 30
0.00000000
 11
1.91216014
 21
-0.03176195
 31
0.00000000
  0
LINE
  8
Layer_1
 62
     7
  6
CONTINUOUS
 10
1.91216014
 20
-0.03176195
 30
0.00000000
 11
1.91602463
 21
-0.04704981
 31
0.00000000
  0
LINE
  8
Layer_1
 62
     7
  6
CONTINUOUS
 10
1.91602463
 20
-0.04704981
 30
0.00000000
 11
1.92133590
 21
-0.06181029
 31
0.00000000
  0
LINE
  8
Layer_1
 62
     7
  6
CONTINUOUS
 10
1.92133590
 20
-0.06181029
 30
0.00000000
 11
1.92803681
 21
-0.07594443
 31
0.00000000
  0
LINE
  8
Layer_1
 62
     7
  6
CONTINUOUS
 10
1.92803681
 20
-0.07594443
 30
0.00000000
 11
1.93607025
 21
-0.08935323
 31
0.00000000
  0
LINE
  8
Layer_1
 62
     7
  6
CONTINUOUS
 10
1.93607025
 20
-0.08935323
 30
0.00000000
 11
1.94537909
 21
-0.10193774
 31
0.00000000
  0
LINE
  8
Layer_1
 62
     7
  6
CONTINUOUS
 10
1.94537909
 20
-0.10193774
 30
0.00000000
 11
1.95590619
 21
-0.11359898
 31
0.00000000
  0
LINE
  8
Layer_1
 62
     7
  6
CONTINUOUS
 10
1.95590619
 20
-0.11359898
 30
0.00000000
 11
1.96759443
 21
-0.12423797
 31
0.00000000
  0
LINE
  8
Layer_1
 62
     7
  6
CONTINUOUS
 10
1.96759443
 20
-0.12423797
 30
0.00000000
 11
1.98038669
 21
-0.13375573
 31
0.00000000
  0
LINE
  8
Layer_1
 62
     7
  6
CONTINUOUS
 10
1.98038669
 20
-0.13375573
 30
0.00000000
 11
1.99420295
 21
-0.14204111
 31
0.00000000
  0
LINE
  8
Layer_1
 62
     7
  6
CONTINUOUS
 10
1.99420295
 20
-0.14204111
 30
0.00000000
 11
2.00867599
 21
-0.14886596
 31
0.00000000
  0
LINE
  8
Layer_1
 62
     7
  6
CONTINUOUS
 10
2.00867599
 20
-0.14886596
 30
0.00000000
 11
2.02360638
 21
-0.15417417
 31
0.00000000
  0
LINE
  8
Layer_1
 62
     7
  6
CONTINUOUS
 10
2.02360638
 20
-0.15417417
 30
0.00000000
 11
2.03887980
 21
-0.15796575
 31
0.00000000
  0
LINE
  8
Layer_1
 62
     7
  6
CONTINUOUS
 10
2.03887980
 20
-0.15796575
 30
0.00000000
 11
2.05438195
 21
-0.16024070
 31
0.00000000
  0
LINE
  8
Layer_1
 62
     7
  6
CONTINUOUS
 10
2.05438195
 20
-0.16024070
 30
0.00000000
 11
2.06999852
 21
-0.16099902
 31
0.00000000
  0
LINE
  8
Layer_1
 62
     7
  6
CONTINUOUS
 10
2.06999852
 20
-0.16099902
 30
0.00000000
 11
2.08561520
 21
-0.16024070
 31
0.00000000
  0
LINE
  8
Layer_1
 62
     7
  6
CONTINUOUS
 10
2.08561520
 20
-0.16024070
 30
0.00000000
 11
2.10111766
 21
-0.15796575
 31
0.00000000
  0
LINE
  8
Layer_1
 62
     7
  6
CONTINUOUS
 10
2.10111766
 20
-0.15796575
 30
0.00000000
 11
2.11639161
 21
-0.15417417
 31
0.00000000
  0
LINE
  8
Layer_1
 62
     7
  6
CONTINUOUS
 10
2.11639161
 20
-0.15417417
 30
0.00000000
 11
2.13132272
 21
-0.14886596
 31
0.00000000
  0
LINE
  8
Layer_1
 62
     7
  6
CONTINUOUS
 10
2.13132272
 20
-0.14886596
 30
0.00000000
 11
2.14579669
 21
-0.14204111
 31
0.00000000
  0
LINE
  8
Layer_1
 62
     7
  6
CONTINUOUS
 10
2.14579669
 20
-0.14204111
 30
0.00000000
 11
2.15961266
 21
-0.13375573
 31
0.00000000
  0
LINE
  8
Layer_1
 62
     7
  6
CONTINUOUS
 10
2.15961266
 20
-0.13375573
 30
0.00000000
 11
2.17240425
 21
-0.12423797
 31
0.00000000
  0
LINE
  8
Layer_1
 62
     7
  6
CONTINUOUS
 10
2.17240425
 20
-0.12423797
 30
0.00000000
 11
2.18409215
 21
-0.11359898
 31
0.00000000
  0
LINE
  8
Layer_1
 62
     7
  6
CONTINUOUS
 10
2.18409215
 20
-0.11359898
 30
0.00000000
 11
2.19461917
 21
-0.10193774
 31
0.00000000
  0
LINE
  8
Layer_1
 62
     7
  6
CONTINUOUS
 10
2.19461917
 20
-0.10193774
 30
0.00000000
 11
2.20392811
 21
-0.08935323
 31
0.00000000
  0
LINE
  8
Layer_1
 62
     7
  6
CONTINUOUS
 10
2.20392811
 20
-0.08935323
 30
0.00000000
 11
2.21196181
 21
-0.07594443
 31
0.00000000
  0
LINE
  8
Layer_1
 62
     7
  6
CONTINUOUS
 10
2.21196181
 20
-0.07594443
 30
0.00000000
 11
2.21866306
 21
-0.06181029
 31
0.00000000
  0
LINE
  8
Layer_1
 62
     7
  6
CONTINUOUS
 10
2.21866306
 20
-0.06181029
 30
0.00000000
 11
2.22397470
 21
-0.04704981
 31
0.00000000
  0
LINE
  8
Layer_1
 62
     7
  6
CONTINUOUS
 10
2.22397470
 20
-0.04704981
 30
0.00000000
 11
2.22783952
 21
-0.03176195
 31
0.00000000
  0
LINE
  8
Layer_1
 62
     7
  6
CONTINUOUS
 10
2.22783952
 20
-0.03176195
 30
0.00000000
 11
2.23020035
 21
-0.01604569
 31
0.00000000
  0
LINE
  8
Layer_1
 62
     7
  6
CONTINUOUS
 10
2.23020035
 20
-0.01604569
 30
0.00000000
 11
2.23100000
 21
0.00000000
 31
0.00000000
  0
LINE
  8
Layer_1
 62
     7
  6
CONTINUOUS
 10
2.45436220
 20
0.30838976
 30
0.00000000
 11
2.44900428
 21
0.29324394
 31
0.00000000
  0
LINE
  8
Layer_1
 62
     7
  6
CONTINUOUS
 10
2.44900428
 20
0.29324394
 30
0.00000000
 11
2.44521563
 21
0.27780965
 31
0.00000000
  0
LINE
  8
Layer_1
 62
     7
  6
CONTINUOUS
 10
2.44521563
 20
0.27780965
 30
0.00000000
 11
2.44298097
 21
0.26220014
 31
0.00000000
  0
LINE
  8
Layer_1
 62
     7
  6
CONTINUOUS
 10
2.44298097
 20
0.26220014
 30
0.00000000
 11
2.44228506
 21
0.24652867
 31
0.00000000
  0
LINE
  8
Layer_1
 62
     7
  6
CONTINUOUS
 10
2.44228506
 20
0.24652867
 30
0.00000000
 11
2.44311264
 21
0.23090852
 31
0.00000000
  0
LINE
  8
Layer_1
 62
     7
  6
CONTINUOUS
 10
2.44311264
 20
0.23090852
 30
0.00000000
 11
2.44544843
 21
0.21545293
 31
0.00000000
  0
LINE
  8
Layer_1
 62
     7
  6
CONTINUOUS
 10
2.44544843
 20
0.21545293
 30
0.00000000
 11
2.44927720
 21
0.20027517
 31
0.00000000
  0
LINE
  8
Layer_1
 62
     7
  6
CONTINUOUS
 10
2.44927720
 20
0.20027517
 30
0.00000000
 11
2.45458366
 21
0.18548850
 31
0.00000000
  0
LINE
  8
Layer_1
 62
     7
  6
CONTINUOUS
 10
2.45458366
 20
0.18548850
 30
0.00000000
 11
2.46135257
 21
0.17120618
 31
0.00000000
  0
LINE
  8
Layer_1
 62
     7
  6
CONTINUOUS
 10
2.46135257
 20
0.17120618
 30
0.00000000
 11
2.46956867
 21
0.15754147
 31
0.00000000
  0
LINE
  8
Layer_1
 62
     7
  6
CONTINUOUS
 10
2.46956867
 20
0.15754147
 30
0.00000000
 11
2.47920049
 21
0.14462747
 31
0.00000000
  0
LINE
  8
Layer_1
 62
     7
  6
CONTINUOUS
 10
2.47920049
 20
0.14462747
 30
0.00000000
 11
2.48999538
 21
0.13281477
 31
0.00000000
  0
LINE
  8
Layer_1
 62
     7
  6
CONTINUOUS
 10
2.48999538
 20
0.13281477
 30
0.00000000
 11
2.50178950
 21
0.12223133
 31
0.00000000
  0
LINE
  8
Layer_1
 62
     7
  6
CONTINUOUS
 10
2.50178950
 20
0.12223133
 30
0.00000000
 11
2.51447710
 21
0.11292058
 31
0.00000000
  0
LINE
  8
Layer_1
 62
     7
  6
CONTINUOUS
 10
2.51447710
 20
0.11292058
 30
0.00000000
 11
2.52795243
 21
0.10492594
 31
0.00000000
  0
LINE
  8
Layer_1
 62
     7
  6
CONTINUOUS
 10
2.52795243
 20
0.10492594
 30
0.00000000
 11
2.54210974
 21
0.09829085
 31
0.00000000
  0
LINE
  8
Layer_1
 62
     7
  6
CONTINUOUS
 10
2.54210974
 20
0.09829085
 30
0.00000000
 11
2.55684330
 21
0.09305871
 31
0.00000000
  0
LINE
  8
Layer_1
 62
     7
  6
CONTINUOUS
 10
2.55684330
 20
0.09305871
 30
0.00000000
 11
2.57204734
 21
0.08927297
 31
0.00000000
  0
LINE
  8
Layer_1
 62
     7
  6
CONTINUOUS
 10
2.57204734
 20
0.08927297
 30
0.00000000
 11
2.58761613
 21
0.08697703
 31
0.00000000
  0
LINE
  8
Layer_1
 62
     7
  6
CONTINUOUS
 10
2.58761613
 20
0.08697703
 30
0.00000000
 11
2.60344391
 21
0.08621433
 31
0.00000000
  0
LINE
  8
Layer_1
 62
     7
  6
CONTINUOUS
 10
2.60344391
 20
0.08621433
 30
0.00000000
 11
2.61942493
 21
0.08702829
 31
0.00000000
  0
LINE
  8
Layer_1
 62
     7
  6
CONTINUOUS
 10
2.61942493
 20
0.08702829
 30
0.00000000
 11
2.63535345
 21
0.08944234
 31
0.00000000
  0
LINE
  8
Layer_1
 62
     7
  6
CONTINUOUS
 10
2.63535345
 20
0.08944234
 30
0.00000000
 11
2.65080301
 21
0.09338527
 31
0.00000000
  0
LINE
  8
Layer_1
 62
     7
  6
CONTINUOUS
 10
2.65080301
 20
0.09338527
 30
0.00000000
 11
2.66565736
 21
0.09878488
 31
0.00000000
  0
LINE
  8
Layer_1
 62
     7
  6
CONTINUOUS
 10
2.66565736
 20
0.09878488
 30
0.00000000
 11
2.67982605
 21
0.10557131
 31
0.00000000
  0
LINE
  8
Layer_1
 62
     7
  6
CONTINUOUS
 10
2.67982605
 20
0.10557131
 30
0.00000000
 11
2.69321866
 21
0.11367470
 31
0.00000000
  0
LINE
  8
Layer_1
 62
     7
  6
CONTINUOUS
 10
2.69321866
 20
0.11367470
 30
0.00000000
 11
2.70574477
 21
0.12302520
 31
0.00000000
  0
LINE
  8
Layer_1
 62
     7
  6
CONTINUOUS
 10
2.70574477
 20
0.12302520
 30
0.00000000
 11
2.71731393
 21
0.13355296
 31
0.00000000
  0
LINE
  8
Layer_1
 62
     7
  6
CONTINUOUS
 10
2.71731393
 20
0.13355296
 30
0.00000000
 11
2.72783572
 21
0.14518811
 31
0.00000000
  0
LINE
  8
Layer_1
 62
     7
  6
CONTINUOUS
 10
2.72783572
 20
0.14518811
 30
0.00000000
 11
2.73721972
 21
0.15786080
 31
0.00000000
  0
LINE
  8
Layer_1
 62
     7
  6
CONTINUOUS
 10
2.73721972
 20
0.15786080
 30
0.00000000
 11
2.74537549
 21
0.17150117
 31
0.00000000
  0
LINE
  8
Layer_1
 62
     7
  6
CONTINUOUS
 10
2.74537549
 20
0.17150117
 30
0.00000000
 11
2.75221260
 21
0.18603937
 31
0.00000000
  0
LINE
  8
Layer_1
 62
     7
  6
CONTINUOUS
 10
3.08528346
 20
3.10806693
 30
0.00000000
 11
3.08189479
 21
3.12377112
 31
0.00000000
  0
LINE
  8
Layer_1
 62
     7
  6
CONTINUOUS
 10
3.08189479
 20
3.12377112
 30
0.00000000
 11
3.07701896
 21
3.13889733
 31
0.00000000
  0
LINE
  8
Layer_1
 62
     7
  6
CONTINUOUS
 10
3.07701896
 20
3.13889733
 30
0.00000000
 11
3.07072841
 21
3.15335712
 31
0.00000000
  0
LINE
  8
Layer_1
 62
     7
  6
CONTINUOUS
 10
3.07072841
 20
3.15335712
 30
0.00000000
 11
3.06309558
 21
3.16706209
 31
0.00000000
  0
LINE
  8
Layer_1
 62
     7
  6
CONTINUOUS
 10
3.06309558
 20
3.16706209
 30
0.00000000
 11
3.05419292
 21
3.17992380
 31
0.00000000
  0
LINE
  8
Layer_1
 62
     7
  6
CONTINUOUS
 10
3.05419292
 20
3.17992380
 30
0.00000000
 11
3.04409288
 21
3.19185383
 31
0.00000000
  0
LINE
  8
Layer_1
 62
     7
  6
CONTINUOUS
 10
3.04409288
 20
3.19185383
 30
0.00000000
 11
3.03286790
 21
3.20276375
 31
0.00000000
  0
LINE
  8
Layer_1
 62
     7
  6
CONTINUOUS
 10
3.03286790
 20
3.20276375
 30
0.00000000
 11
3.02059043
 21
3.21256515
 31
0.00000000
  0
LINE
  8
Layer_1
 62
     7
  6
CONTINUOUS
 10
3.02059043
 20
3.21256515
 30
0.00000000
 11
3.00733290
 21
3.22116958
 31
0.00000000
  0
LINE
  8
Layer_1
 62
     7
  6
CONTINUOUS
 10
3.00733290
 20
3.22116958
 30
0.00000000
 11
2.99316777
 21
3.22848863
 31
0.00000000
  0
LINE
  8
Layer_1
 62
     7
  6
CONTINUOUS
 10
2.99316777
 20
3.22848863
 30
0.00000000
 11
2.97819168
 21
3.23442551
 31
0.00000000
  0
LINE
  8
Layer_1
 62
     7
  6
CONTINUOUS
 10
2.97819168
 20
3.23442551
 30
0.00000000
 11
2.96280354
 21
3.23881465
 31
0.00000000
  0
LINE
  8
Layer_1
 62
     7
  6
CONTINUOUS
 10
2.96280354
 20
3.23881465
 30
0.00000000
 11
2.94720994
 21
3.24163314
 31
0.00000000
  0
LINE
  8
Layer_1
 62
     7
  6
CONTINUOUS
 10
2.94720994
 20
3.24163314
 30
0.00000000
 11
2.93152367
 21
3.24289951
 31
0.00000000
  0
LINE
  8
Layer_1
 62
     7
  6
CONTINUOUS
 10
2.93152367
 20
3.24289951
 30
0.00000000
 11
2.91585753
 21
3.24263226
 31
0.00000000
  0
LINE
  8
Layer_1
 62
     7
  6
CONTINUOUS
 10
2.91585753
 20
3.24263226
 30
0.00000000
 11
2.90032431
 21
3.24084990
 31
0.00000000
  0
LINE
  8
Layer_1
 62
     7
  6
CONTINUOUS
 10
2.90032431
 20
3.24084990
 30
0.00000000
 11
2.88503680
 21
3.23757095
 31
0.00000000
  0
LINE
  8
Layer_1
 62
     7
  6
CONTINUOUS
 10
2.88503680
 20
3.23757095
 30
0.00000000
 11
2.87010780
 21
3.23281390
 31
0.00000000
  0
LINE
  8
Layer_1
 62
     7
  6
CONTINUOUS
 10
2.87010780
 20
3.23281390
 30
0.00000000
 11
2.85565010
 21
3.22659729
 31
0.00000000
  0
LINE
  8
Layer_1
 62
     7
  6
CONTINUOUS
 10
2.85565010
 20
3.22659729
 30
0.00000000
 11
2.84177649
 21
3.21893960
 31
0.00000000
  0
LINE
  8
Layer_1
 62
     7
  6
CONTINUOUS
 10
2.84177649
 20
3.21893960
 30
0.00000000
 11
2.82859977
 21
3.20985936
 31
0.00000000
  0
LINE
  8
Layer_1
 62
     7
  6
CONTINUOUS
 10
2.82859977
 20
3.20985936
 30
0.00000000
 11
2.81630907
 21
3.19944435
 31
0.00000000
  0
LINE
  8
Layer_1
 62
     7
  6
CONTINUOUS
 10
2.81630907
 20
3.19944435
 30
0.00000000
 11
2.80522896
 21
3.18797919
 31
0.00000000
  0
LINE
  8
Layer_1
 62
     7
  6
CONTINUOUS
 10
2.80522896
 20
3.18797919
 30
0.00000000
 11
2.79541972
 21
3.17558649
 31
0.00000000
  0
LINE
  8
Layer_1
 62
     7
  6
CONTINUOUS
 10
2.79541972
 20
3.17558649
 30
0.00000000
 11
2.78692173
 21
3.16237319
 31
0.00000000
  0
LINE
  8
Layer_1
 62
     7
  6
CONTINUOUS
 10
2.78692173
 20
3.16237319
 30
0.00000000
 11
2.77977537
 21
3.14844623
 31
0.00000000
  0
LINE
  8
Layer_1
 62
     7
  6
CONTINUOUS
 10
2.77977537
 20
3.14844623
 30
0.00000000
 11
2.77402104
 21
3.13391253
 31
0.00000000
  0
LINE
  8
Layer_1
 62
     7
  6
CONTINUOUS
 10
2.77402104
 20
3.13391253
 30
0.00000000
 11
2.76969912
 21
3.11887904
 31
0.00000000
  0
LINE
  8
Layer_1
 62
     7
  6
CONTINUOUS
 10
2.76969912
 20
3.11887904
 30
0.00000000
 11
2.76685000
 21
3.10345269
 31
0.00000000
  0
LINE
  8
Layer_1
 62
     7
  6
CONTINUOUS
 10
2.76685000
 20
3.10345269
 30
0.00000000
 11
2.76551406
 21
3.08774042
 31
0.00000000
  0
LINE
  8
Layer_1
 62
     7
  6
CONTINUOUS
 10
2.76551406
 20
3.08774042
 30
0.00000000
 11
2.76573170
 21
3.07184915
 31
0.00000000
  0
LINE
  8
Layer_1
 62
     7
  6
CONTINUOUS
 10
2.76573170
 20
3.07184915
 30
0.00000000
 11
2.76754331
 21
3.05588583
 31
0.00000000
  0
LINE
  8
Layer_1
 62
     7
  6
CONTINUOUS
 10
4.37936220
 20
0.01610630
 30
0.00000000
 11
4.38828672
 21
0.02996335
 31
0.00000000
  0
LINE
  8
Layer_1
 62
     7
  6
CONTINUOUS
 10
4.38828672
 20
0.02996335
 30
0.00000000
 11
4.39562728
 21
0.04437213
 31
0.00000000
  0
LINE
  8
Layer_1
 62
     7
  6
CONTINUOUS
 10
4.39562728
 20
0.04437213
 30
0.00000000
 11
4.40140241
 21
0.05921970
 31
0.00000000
  0
LINE
  8
Layer_1
 62
     7
  6
CONTINUOUS
 10
4.40140241
 20
0.05921970
 30
0.00000000
 11
4.40563066
 21
0.07439315
 31
0.00000000
  0
LINE
  8
Layer_1
 62
     7
  6
CONTINUOUS
 10
4.40563066
 20
0.07439315
 30
0.00000000
 11
4.40833059
 21
0.08977953
 31
0.00000000
  0
LINE
  8
Layer_1
 62
     7
  6
CONTINUOUS
 10
4.40833059
 20
0.08977953
 30
0.00000000
 11
4.40952073
 21
0.10526594
 31
0.00000000
  0
LINE
  8
Layer_1
 62
     7
  6
CONTINUOUS
 10
4.40952073
 20
0.10526594
 30
0.00000000
 11
4.40921964
 21
0.12073944
 31
0.00000000
  0
LINE
  8
Layer_1
 62
     7
  6
CONTINUOUS
 10
4.40921964
 20
0.12073944
 30
0.00000000
 11
4.40744587
 21
0.13608711
 31
0.00000000
  0
LINE
  8
Layer_1
 62
     7
  6
CONTINUOUS
 10
4.40744587
 20
0.13608711
 30
0.00000000
 11
4.40421795
 21
0.15119602
 31
0.00000000
  0
LINE
  8
Layer_1
 62
     7
  6
CONTINUOUS
 10
4.40421795
 20
0.15119602
 30
0.00000000
 11
4.39955444
 21
0.16595324
 31
0.00000000
  0
LINE
  8
Layer_1
 62
     7
  6
CONTINUOUS
 10
4.39955444
 20
0.16595324
 30
0.00000000
 11
4.39347389
 21
0.18024586
 31
0.00000000
  0
LINE
  8
Layer_1
 62
     7
  6
CONTINUOUS
 10
4.39347389
 20
0.18024586
 30
0.00000000
 11
4.38599483
 21
0.19396094
 31
0.00000000
  0
LINE
  8
Layer_1
 62
     7
  6
CONTINUOUS
 10
4.38599483
 20
0.19396094
 30
0.00000000
 11
4.37713583
 21
0.20698556
 31
0.00000000
  0
LINE
  8
Layer_1
 62
     7
  6
CONTINUOUS
 10
4.37713583
 20
0.20698556
 30
0.00000000
 11
4.36691542
 21
0.21920679
 31
0.00000000
  0
LINE
  8
Layer_1
 62
     7
  6
CONTINUOUS
 10
4.36691542
 20
0.21920679
 30
0.00000000
 11
4.35535215
 21
0.23051172
 31
0.00000000
  0
LINE
  8
Layer_1
 62
     7
  6
CONTINUOUS
 10
4.35535215
 20
0.23051172
 30
0.00000000
 11
4.34246457
 21
0.24078740
 31
0.00000000
  0
LINE
  8
Layer_1
 62
     7
  6
CONTINUOUS
 10
4.34246457
 20
0.24078740
 30
0.00000000
 11
4.32860751
 21
0.24971192
 31
0.00000000
  0
LINE
  8
Layer_1
 62
     7
  6
CONTINUOUS
 10
4.32860751
 20
0.24971192
 30
0.00000000
 11
4.31419874
 21
0.25705247
 31
0.00000000
  0
LINE
  8
Layer_1
 62
     7
  6
CONTINUOUS
 10
4.31419874
 20
0.25705247
 30
0.00000000
 11
4.29935119
 21
0.26282760
 31
0.00000000
  0
LINE
  8
Layer_1
 62
     7
  6
CONTINUOUS
 10
4.29935119
 20
0.26282760
 30
0.00000000
 11
4.28417778
 21
0.26705586
 31
0.00000000
  0
LINE
  8
Layer_1
 62
     7
  6
CONTINUOUS
 10
4.28417778
 20
0.26705586
 30
0.00000000
 11
4.26879145
 21
0.26975578
 31
0.00000000
  0
LINE
  8
Layer_1
 62
     7
  6
CONTINUOUS
 10
4.26879145
 20
0.26975578
 30
0.00000000
 11
4.25330513
 21
0.27094593
 31
0.00000000
  0
LINE
  8
Layer_1
 62
     7
  6
CONTINUOUS
 10
4.25330513
 20
0.27094593
 30
0.00000000
 11
4.23783176
 21
0.27064484
 31
0.00000000
  0
LINE
  8
Layer_1
 62
     7
  6
CONTINUOUS
 10
4.23783176
 20
0.27064484
 30
0.00000000
 11
4.22248425
 21
0.26887106
 31
0.00000000
  0
LINE
  8
Layer_1
 62
     7
  6
CONTINUOUS
 10
4.22248425
 20
0.26887106
 30
0.00000000
 11
4.20737555
 21
0.26564315
 31
0.00000000
  0
LINE
  8
Layer_1
 62
     7
  6
CONTINUOUS
 10
4.20737555
 20
0.26564315
 30
0.00000000
 11
4.19261859
 21
0.26097964
 31
0.00000000
  0
LINE
  8
Layer_1
 62
     7
  6
CONTINUOUS
 10
4.19261859
 20
0.26097964
 30
0.00000000
 11
4.17832629
 21
0.25489908
 31
0.00000000
  0
LINE
  8
Layer_1
 62
     7
  6
CONTINUOUS
 10
4.17832629
 20
0.25489908
 30
0.00000000
 11
4.16461159
 21
0.24742003
 31
0.00000000
  0
LINE
  8
Layer_1
 62
     7
  6
CONTINUOUS
 10
4.16461159
 20
0.24742003
 30
0.00000000
 11
4.15158742
 21
0.23856102
 31
0.00000000
  0
LINE
  8
Layer_1
 62
     7
  6
CONTINUOUS
 10
4.15158742
 20
0.23856102
 30
0.00000000
 11
4.13936671
 21
0.22834061
 31
0.00000000
  0
LINE
  8
Layer_1
 62
     7
  6
CONTINUOUS
 10
4.13936671
 20
0.22834061
 30
0.00000000
 11
4.12806239
 21
0.21677734
 31
0.00000000
  0
LINE
  8
Layer_1
 62
     7
  6
CONTINUOUS
 10
4.12806239
 20
0.21677734
 30
0.00000000
 11
4.11778740
 21
0.20388976
 31
0.00000000
  0
LINE
  8
Layer_1
 62
     7
  6
CONTINUOUS
 10
0.00000000
 20
-1.90900000
 30
0.00000000
 11
-0.01604569
 21
-1.90979956
 31
0.00000000
  0
LINE
  8
Layer_1
 62
     7
  6
CONTINUOUS
 10
-0.01604569
 20
-1.90979956
 30
0.00000000
 11
-0.03176195
 21
-1.91216014
 31
0.00000000
  0
LINE
  8
Layer_1
 62
     7
  6
CONTINUOUS
 10
-0.03176195
 20
-1.91216014
 30
0.00000000
 11
-0.04704981
 21
-1.91602463
 31
0.00000000
  0
LINE
  8
Layer_1
 62
     7
  6
CONTINUOUS
 10
-0.04704981
 20
-1.91602463
 30
0.00000000
 11
-0.06181029
 21
-1.92133590
 31
0.00000000
  0
LINE
  8
Layer_1
 62
     7
  6
CONTINUOUS
 10
-0.06181029
 20
-1.92133590
 30
0.00000000
 11
-0.07594443
 21
-1.92803681
 31
0.00000000
  0
LINE
  8
Layer_1
 62
     7
  6
CONTINUOUS
 10
-0.07594443
 20
-1.92803681
 30
0.00000000
 11
-0.08935323
 21
-1.93607025
 31
0.00000000
  0
LINE
  8
Layer_1
 62
     7
  6
CONTINUOUS
 10
-0.08935323
 20
-1.93607025
 30
0.00000000
 11
-0.10193774
 21
-1.94537909
 31
0.00000000
  0
LINE
  8
Layer_1
 62
     7
  6
CONTINUOUS
 10
-0.10193774
 20
-1.94537909
 30
0.00000000
 11
-0.11359898
 21
-1.95590619
 31
0.00000000
  0
LINE
  8
Layer_1
 62
     7
  6
CONTINUOUS
 10
-0.11359898
 20
-1.95590619
 30
0.00000000
 11
-0.12423797
 21
-1.96759443
 31
0.00000000
  0
LINE
  8
Layer_1
 62
     7
  6
CONTINUOUS
 10
-0.12423797
 20
-1.96759443
 30
0.00000000
 11
-0.13375573
 21
-1.98038669
 31
0.00000000
  0
LINE
  8
Layer_1
 62
     7
  6
CONTINUOUS
 10
-0.13375573
 20
-1.98038669
 30
0.00000000
 11
-0.14204111
 21
-1.99420295
 31
0.00000000
  0
LINE
  8
Layer_1
 62
     7
  6
CONTINUOUS
 10
-0.14204111
 20
-1.99420295
 30
0.00000000
 11
-0.14886596
 21
-2.00867598
 31
0.00000000
  0
LINE
  8
Layer_1
 62
     7
  6
CONTINUOUS
 10
-0.14886596
 20
-2.00867598
 30
0.00000000
 11
-0.15417417
 21
-2.02360633
 31
0.00000000
  0
LINE
  8
Layer_1
 62
     7
  6
CONTINUOUS
 10
-0.15417417
 20
-2.02360633
 30
0.00000000
 11
-0.15796575
 21
-2.03887968
 31
0.00000000
  0
LINE
  8
Layer_1
 62
     7
  6
CONTINUOUS
 10
-0.15796575
 20
-2.03887968
 30
0.00000000
 11
-0.16024070
 21
-2.05438169
 31
0.00000000
  0
LINE
  8
Layer_1
 62
     7
  6
CONTINUOUS
 10
-0.16024070
 20
-2.05438169
 30
0.00000000
 11
-0.16099902
 21
-2.06999803
 31
0.00000000
  0
LINE
  8
Layer_1
 62
     7
  6
CONTINUOUS
 10
-0.16099902
 20
-2.06999803
 30
0.00000000
 11
-0.16024070
 21
-2.08561437
 31
0.00000000
  0
LINE
  8
Layer_1
 62
     7
  6
CONTINUOUS
 10
-0.16024070
 20
-2.08561437
 30
0.00000000
 11
-0.15796575
 21
-2.10111638
 31
0.00000000
  0
LINE
  8
Layer_1
 62
     7
  6
CONTINUOUS
 10
-0.15796575
 20
-2.10111638
 30
0.00000000
 11
-0.15417417
 21
-2.11638973
 31
0.00000000
  0
LINE
  8
Layer_1
 62
     7
  6
CONTINUOUS
 10
-0.15417417
 20
-2.11638973
 30
0.00000000
 11
-0.14886596
 21
-2.13132008
 31
0.00000000
  0
LINE
  8
Layer_1
 62
     7
  6
CONTINUOUS
 10
-0.14886596
 20
-2.13132008
 30
0.00000000
 11
-0.14204111
 21
-2.14579311
 31
0.00000000
  0
LINE
  8
Layer_1
 62
     7
  6
CONTINUOUS
 10
-0.14204111
 20
-2.14579311
 30
0.00000000
 11
-0.13375573
 21
-2.15960937
 31
0.00000000
  0
LINE
  8
Layer_1
 62
     7
  6
CONTINUOUS
 10
-0.13375573
 20
-2.15960937
 30
0.00000000
 11
-0.12423797
 21
-2.17240163
 31
0.00000000
  0
LINE
  8
Layer_1
 62
     7
  6
CONTINUOUS
 10
-0.12423797
 20
-2.17240163
 30
0.00000000
 11
-0.11359898
 21
-2.18408987
 31
0.00000000
  0
LINE
  8
Layer_1
 62
     7
  6
CONTINUOUS
 10
-0.11359898
 20
-2.18408987
 30
0.00000000
 11
-0.10193774
 21
-2.19461698
 31
0.00000000
  0
LINE
  8
Layer_1
 62
     7
  6
CONTINUOUS
 10
-0.10193774
 20
-2.19461698
 30
0.00000000
 11
-0.08935323
 21
-2.20392581
 31
0.00000000
  0
LINE
  8
Layer_1
 62
     7
  6
CONTINUOUS
 10
-0.08935323
 20
-2.20392581
 30
0.00000000
 11
-0.07594443
 21
-2.21195925
 31
0.00000000
  0
LINE
  8
Layer_1
 62
     7
  6
CONTINUOUS
 10
-0.07594443
 20
-2.21195925
 30
0.00000000
 11
-0.06181029
 21
-2.21866016
 31
0.00000000
  0
LINE
  8
Layer_1
 62
     7
  6
CONTINUOUS
 10
-0.06181029
 20
-2.21866016
 30
0.00000000
 11
-0.04704981
 21
-2.22397143
 31
0.00000000
  0
LINE
  8
Layer_1
 62
     7
  6
CONTINUOUS
 10
-0.04704981
 20
-2.22397143
 30
0.00000000
 11
-0.03176195
 21
-2.22783592
 31
0.00000000
  0
LINE
  8
Layer_1
 62
     7
  6
CONTINUOUS
 10
-0.03176195
 20
-2.22783592
 30
0.00000000
 11
-0.01604569
 21
-2.23019651
 31
0.00000000
  0
LINE
  8
Layer_1
 62
     7
  6
CONTINUOUS
 10
-0.01604569
 20
-2.23019651
 30
0.00000000
 11
0.00000000
 21
-2.23099606
 31
0.00000000
  0
LINE
  8
Layer_1
 62
     7
  6
CONTINUOUS
 10
0.30838976
 20
-2.45436220
 30
0.00000000
 11
0.29324394
 21
-2.44900428
 31
0.00000000
  0
LINE
  8
Layer_1
 62
     7
  6
CONTINUOUS
 10
0.29324394
 20
-2.44900428
 30
0.00000000
 11
0.27780965
 21
-2.44521563
 31
0.00000000
  0
LINE
  8
Layer_1
 62
     7
  6
CONTINUOUS
 10
0.27780965
 20
-2.44521563
 30
0.00000000
 11
0.26220014
 21
-2.44298097
 31
0.00000000
  0
LINE
  8
Layer_1
 62
     7
  6
CONTINUOUS
 10
0.26220014
 20
-2.44298097
 30
0.00000000
 11
0.24652867
 21
-2.44228506
 31
0.00000000
  0
LINE
  8
Layer_1
 62
     7
  6
CONTINUOUS
 10
0.24652867
 20
-2.44228506
 30
0.00000000
 11
0.23090852
 21
-2.44311264
 31
0.00000000
  0
LINE
  8
Layer_1
 62
     7
  6
CONTINUOUS
 10
0.23090852
 20
-2.44311264
 30
0.00000000
 11
0.21545293
 21
-2.44544843
 31
0.00000000
  0
LINE
  8
Layer_1
 62
     7
  6
CONTINUOUS
 10
0.21545293
 20
-2.44544843
 30
0.00000000
 11
0.20027517
 21
-2.44927720
 31
0.00000000
  0
LINE
  8
Layer_1
 62
     7
  6
CONTINUOUS
 10
0.20027517
 20
-2.44927720
 30
0.00000000
 11
0.18548850
 21
-2.45458366
 31
0.00000000
  0
LINE
  8
Layer_1
 62
     7
  6
CONTINUOUS
 10
0.18548850
 20
-2.45458366
 30
0.00000000
 11
0.17120618
 21
-2.46135257
 31
0.00000000
  0
LINE
  8
Layer_1
 62
     7
  6
CONTINUOUS
 10
0.17120618
 20
-2.46135257
 30
0.00000000
 11
0.15754147
 21
-2.46956867
 31
0.00000000
  0
LINE
  8
Layer_1
 62
     7
  6
CONTINUOUS
 10
0.15754147
 20
-2.46956867
 30
0.00000000
 11
0.14462747
 21
-2.47920049
 31
0.00000000
  0
LINE
  8
Layer_1
 62
     7
  6
CONTINUOUS
 10
0.14462747
 20
-2.47920049
 30
0.00000000
 11
0.13281477
 21
-2.48999538
 31
0.00000000
  0
LINE
  8
Layer_1
 62
     7
  6
CONTINUOUS
 10
0.13281477
 20
-2.48999538
 30
0.00000000
 11
0.12223133
 21
-2.50178950
 31
0.00000000
  0
LINE
  8
Layer_1
 62
     7
  6
CONTINUOUS
 10
0.12223133
 20
-2.50178950
 30
0.00000000
 11
0.11292058
 21
-2.51447710
 31
0.00000000
  0
LINE
  8
Layer_1
 62
     7
  6
CONTINUOUS
 10
0.11292058
 20
-2.51447710
 30
0.00000000
 11
0.10492594
 21
-2.52795243
 31
0.00000000
  0
LINE
  8
Layer_1
 62
     7
  6
CONTINUOUS
 10
0.10492594
 20
-2.52795243
 30
0.00000000
 11
0.09829085
 21
-2.54210974
 31
0.00000000
  0
LINE
  8
Layer_1
 62
     7
  6
CONTINUOUS
 10
0.09829085
 20
-2.54210974
 30
0.00000000
 11
0.09305871
 21
-2.55684330
 31
0.00000000
  0
LINE
  8
Layer_1
 62
     7
  6
CONTINUOUS
 10
0.09305871
 20
-2.55684330
 30
0.00000000
 11
0.08927297
 21
-2.57204734
 31
0.00000000
  0
LINE
  8
Layer_1
 62
     7
  6
CONTINUOUS
 10
0.08927297
 20
-2.57204734
 30
0.00000000
 11
0.08697703
 21
-2.58761613
 31
0.00000000
  0
LINE
  8
Layer_1
 62
     7
  6
CONTINUOUS
 10
0.08697703
 20
-2.58761613
 30
0.00000000
 11
0.08621433
 21
-2.60344391
 31
0.00000000
  0
LINE
  8
Layer_1
 62
     7
  6
CONTINUOUS
 10
0.08621433
 20
-2.60344391
 30
0.00000000
 11
0.08702829
 21
-2.61942493
 31
0.00000000
  0
LINE
  8
Layer_1
 62
     7
  6
CONTINUOUS
 10
0.08702829
 20
-2.61942493
 30
0.00000000
 11
0.08944234
 21
-2.63535345
 31
0.00000000
  0
LINE
  8
Layer_1
 62
     7
  6
CONTINUOUS
 10
0.08944234
 20
-2.63535345
 30
0.00000000
 11
0.09338527
 21
-2.65080301
 31
0.00000000
  0
LINE
  8
Layer_1
 62
     7
  6
CONTINUOUS
 10
0.09338527
 20
-2.65080301
 30
0.00000000
 11
0.09878488
 21
-2.66565736
 31
0.00000000
  0
LINE
  8
Layer_1
 62
     7
  6
CONTINUOUS
 10
0.09878488
 20
-2.66565736
 30
0.00000000
 11
0.10557131
 21
-2.67982605
 31
0.00000000
  0
LINE
  8
Layer_1
 62
     7
  6
CONTINUOUS
 10
0.10557131
 20
-2.67982605
 30
0.00000000
 11
0.11367470
 21
-2.69321866
 31
0.00000000
  0
LINE
  8
Layer_1
 62
     7
  6
CONTINUOUS
 10
0.11367470
 20
-2.69321866
 30
0.00000000
 11
0.12302520
 21
-2.70574477
 31
0.00000000
  0
LINE
  8
Layer_1
 62
     7
  6
CONTINUOUS
 10
0.12302520
 20
-2.70574477
 30
0.00000000
 11
0.13355296
 21
-2.71731393
 31
0.00000000
  0
LINE
  8
Layer_1
 62
     7
  6
CONTINUOUS
 10
0.13355296
 20
-2.71731393
 30
0.00000000
 11
0.14518811
 21
-2.72783572
 31
0.00000000
  0
LINE
  8
Layer_1
 62
     7
  6
CONTINUOUS
 10
0.14518811
 20
-2.72783572
 30
0.00000000
 11
0.15786080
 21
-2.73721972
 31
0.00000000
  0
LINE
  8
Layer_1
 62
     7
  6
CONTINUOUS
 10
0.15786080
 20
-2.73721972
 30
0.00000000
 11
0.17150117
 21
-2.74537549
 31
0.00000000
  0
LINE
  8
Layer_1
 62
     7
  6
CONTINUOUS
 10
0.17150117
 20
-2.74537549
 30
0.00000000
 11
0.18603937
 21
-2.75221260
 31
0.00000000
  0
LINE
  8
Layer_1
 62
     7
  6
CONTINUOUS
 10
3.10806693
 20
-3.08528346
 30
0.00000000
 11
3.12417619
 21
-3.08179630
 31
0.00000000
  0
LINE
  8
Layer_1
 62
     7
  6
CONTINUOUS
 10
3.12417619
 20
-3.08179630
 30
0.00000000
 11
3.13955547
 21
-3.07679886
 31
0.00000000
  0
LINE
  8
Layer_1
 62
     7
  6
CONTINUOUS
 10
3.13955547
 20
-3.07679886
 30
0.00000000
 11
3.15413804
 21
-3.07038412
 31
0.00000000
  0
LINE
  8
Layer_1
 62
     7
  6
CONTINUOUS
 10
3.15413804
 20
-3.07038412
 30
0.00000000
 11
3.16785716
 21
-3.06264505
 31
0.00000000
  0
LINE
  8
Layer_1
 62
     7
  6
CONTINUOUS
 10
3.16785716
 20
-3.06264505
 30
0.00000000
 11
3.18064612
 21
-3.05367465
 31
0.00000000
  0
LINE
  8
Layer_1
 62
     7
  6
CONTINUOUS
 10
3.18064612
 20
-3.05367465
 30
0.00000000
 11
3.19243819
 21
-3.04356587
 31
0.00000000
  0
LINE
  8
Layer_1
 62
     7
  6
CONTINUOUS
 10
3.19243819
 20
-3.04356587
 30
0.00000000
 11
3.20316665
 21
-3.03241170
 31
0.00000000
  0
LINE
  8
Layer_1
 62
     7
  6
CONTINUOUS
 10
3.20316665
 20
-3.03241170
 30
0.00000000
 11
3.21276476
 21
-3.02030512
 31
0.00000000
  0
LINE
  8
Layer_1
 62
     7
  6
CONTINUOUS
 10
3.21276476
 20
-3.02030512
 30
0.00000000
 11
3.22116581
 21
-3.00733910
 31
0.00000000
  0
LINE
  8
Layer_1
 62
     7
  6
CONTINUOUS
 10
3.22116581
 20
-3.00733910
 30
0.00000000
 11
3.22830307
 21
-2.99360662
 31
0.00000000
  0
LINE
  8
Layer_1
 62
     7
  6
CONTINUOUS
 10
3.22830307
 20
-2.99360662
 30
0.00000000
 11
3.23410982
 21
-2.97920066
 31
0.00000000
  0
LINE
  8
Layer_1
 62
     7
  6
CONTINUOUS
 10
3.23410982
 20
-2.97920066
 30
0.00000000
 11
3.23851932
 21
-2.96421420
 31
0.00000000
  0
LINE
  8
Layer_1
 62
     7
  6
CONTINUOUS
 10
3.23851932
 20
-2.96421420
 30
0.00000000
 11
3.24146485
 21
-2.94874021
 31
0.00000000
  0
LINE
  8
Layer_1
 62
     7
  6
CONTINUOUS
 10
3.24146485
 20
-2.94874021
 30
0.00000000
 11
3.24287969
 21
-2.93287166
 31
0.00000000
  0
LINE
  8
Layer_1
 62
     7
  6
CONTINUOUS
 10
3.24287969
 20
-2.93287166
 30
0.00000000
 11
3.24269711
 21
-2.91670155
 31
0.00000000
  0
LINE
  8
Layer_1
 62
     7
  6
CONTINUOUS
 10
3.24269711
 20
-2.91670155
 30
0.00000000
 11
3.24085039
 21
-2.90032283
 31
0.00000000
  0
LINE
  8
Layer_1
 62
     7
  6
CONTINUOUS
 10
3.24085039
 20
-2.90032283
 30
0.00000000
 11
3.23736254
 21
-2.88421422
 31
0.00000000
  0
LINE
  8
Layer_1
 62
     7
  6
CONTINUOUS
 10
3.23736254
 20
-2.88421422
 30
0.00000000
 11
3.23236449
 21
-2.86883542
 31
0.00000000
  0
LINE
  8
Layer_1
 62
     7
  6
CONTINUOUS
 10
3.23236449
 20
-2.86883542
 30
0.00000000
 11
3.22594922
 21
-2.85425319
 31
0.00000000
  0
LINE
  8
Layer_1
 62
     7
  6
CONTINUOUS
 10
3.22594922
 20
-2.85425319
 30
0.00000000
 11
3.21820971
 21
-2.84053426
 31
0.00000000
  0
LINE
  8
Layer_1
 62
     7
  6
CONTINUOUS
 10
3.21820971
 20
-2.84053426
 30
0.00000000
 11
3.20923892
 21
-2.82774539
 31
0.00000000
  0
LINE
  8
Layer_1
 62
     7
  6
CONTINUOUS
 10
3.20923892
 20
-2.82774539
 30
0.00000000
 11
3.19912982
 21
-2.81595330
 31
0.00000000
  0
LINE
  8
Layer_1
 62
     7
  6
CONTINUOUS
 10
3.19912982
 20
-2.81595330
 30
0.00000000
 11
3.18797539
 21
-2.80522475
 31
0.00000000
  0
LINE
  8
Layer_1
 62
     7
  6
CONTINUOUS
 10
3.18797539
 20
-2.80522475
 30
0.00000000
 11
3.17586860
 21
-2.79562648
 31
0.00000000
  0
LINE
  8
Layer_1
 62
     7
  6
CONTINUOUS
 10
3.17586860
 20
-2.79562648
 30
0.00000000
 11
3.16290242
 21
-2.78722522
 31
0.00000000
  0
LINE
  8
Layer_1
 62
     7
  6
CONTINUOUS
 10
3.16290242
 20
-2.78722522
 30
0.00000000
 11
3.14916982
 21
-2.78008773
 31
0.00000000
  0
LINE
  8
Layer_1
 62
     7
  6
CONTINUOUS
 10
3.14916982
 20
-2.78008773
 30
0.00000000
 11
3.13476377
 21
-2.77428074
 31
0.00000000
  0
LINE
  8
Layer_1
 62
     7
  6
CONTINUOUS
 10
3.13476377
 20
-2.77428074
 30
0.00000000
 11
3.11977725
 21
-2.76987100
 31
0.00000000
  0
LINE
  8
Layer_1
 62
     7
  6
CONTINUOUS
 10
3.11977725
 20
-2.76987100
 30
0.00000000
 11
3.10430322
 21
-2.76692525
 31
0.00000000
  0
LINE
  8
Layer_1
 62
     7
  6
CONTINUOUS
 10
3.10430322
 20
-2.76692525
 30
0.00000000
 11
3.08843466
 21
-2.76551023
 31
0.00000000
  0
LINE
  8
Layer_1
 62
     7
  6
CONTINUOUS
 10
3.08843466
 20
-2.76551023
 30
0.00000000
 11
3.07226454
 21
-2.76569269
 31
0.00000000
  0
LINE
  8
Layer_1
 62
     7
  6
CONTINUOUS
 10
3.07226454
 20
-2.76569269
 30
0.00000000
 11
3.05588583
 21
-2.76753937
 31
0.00000000
  0
LINE
  8
Layer_1
 62
     7
  6
CONTINUOUS
 10
-1.90899606
 20
0.00000000
 30
0.00000000
 11
-1.90979571
 21
0.01604569
 31
0.00000000
  0
LINE
  8
Layer_1
 62
     7
  6
CONTINUOUS
 10
-1.90979571
 20
0.01604569
 30
0.00000000
 11
-1.91215654
 21
0.03176195
 31
0.00000000
  0
LINE
  8
Layer_1
 62
     7
  6
CONTINUOUS
 10
-1.91215654
 20
0.03176195
 30
0.00000000
 11
-1.91602137
 21
0.04704981
 31
0.00000000
  0
LINE
  8
Layer_1
 62
     7
  6
CONTINUOUS
 10
-1.91602137
 20
0.04704981
 30
0.00000000
 11
-1.92133300
 21
0.06181029
 31
0.00000000
  0
LINE
  8
Layer_1
 62
     7
  6
CONTINUOUS
 10
-1.92133300
 20
0.06181029
 30
0.00000000
 11
-1.92803426
 21
0.07594443
 31
0.00000000
  0
LINE
  8
Layer_1
 62
     7
  6
CONTINUOUS
 10
-1.92803426
 20
0.07594443
 30
0.00000000
 11
-1.93606795
 21
0.08935323
 31
0.00000000
  0
LINE
  8
Layer_1
 62
     7
  6
CONTINUOUS
 10
-1.93606795
 20
0.08935323
 30
0.00000000
 11
-1.94537690
 21
0.10193774
 31
0.00000000
  0
LINE
  8
Layer_1
 62
     7
  6
CONTINUOUS
 10
-1.94537690
 20
0.10193774
 30
0.00000000
 11
-1.95590391
 21
0.11359898
 31
0.00000000
  0
LINE
  8
Layer_1
 62
     7
  6
CONTINUOUS
 10
-1.95590391
 20
0.11359898
 30
0.00000000
 11
-1.96759181
 21
0.12423797
 31
0.00000000
  0
LINE
  8
Layer_1
 62
     7
  6
CONTINUOUS
 10
-1.96759181
 20
0.12423797
 30
0.00000000
 11
-1.98038341
 21
0.13375573
 31
0.00000000
  0
LINE
  8
Layer_1
 62
     7
  6
CONTINUOUS
 10
-1.98038341
 20
0.13375573
 30
0.00000000
 11
-1.99419937
 21
0.14204111
 31
0.00000000
  0
LINE
  8
Layer_1
 62
     7
  6
CONTINUOUS
 10
-1.99419937
 20
0.14204111
 30
0.00000000
 11
-2.00867334
 21
0.14886596
 31
0.00000000
  0
LINE
  8
Layer_1
 62
     7
  6
CONTINUOUS
 10
-2.00867334
 20
0.14886596
 30
0.00000000
 11
-2.02360446
 21
0.15417417
 31
0.00000000
  0
LINE
  8
Layer_1
 62
     7
  6
CONTINUOUS
 10
-2.02360446
 20
0.15417417
 30
0.00000000
 11
-2.03887840
 21
0.15796575
 31
0.00000000
  0
LINE
  8
Layer_1
 62
     7
  6
CONTINUOUS
 10
-2.03887840
 20
0.15796575
 30
0.00000000
 11
-2.05438087
 21
0.16024070
 31
0.00000000
  0
LINE
  8
Layer_1
 62
     7
  6
CONTINUOUS
 10
-2.05438087
 20
0.16024070
 30
0.00000000
 11
-2.06999754
 21
0.16099902
 31
0.00000000
  0
LINE
  8
Layer_1
 62
     7
  6
CONTINUOUS
 10
-2.06999754
 20
0.16099902
 30
0.00000000
 11
-2.08561411
 21
0.16024070
 31
0.00000000
  0
LINE
  8
Layer_1
 62
     7
  6
CONTINUOUS
 10
-2.08561411
 20
0.16024070
 30
0.00000000
 11
-2.10111626
 21
0.15796575
 31
0.00000000
  0
LINE
  8
Layer_1
 62
     7
  6
CONTINUOUS
 10
-2.10111626
 20
0.15796575
 30
0.00000000
 11
-2.11638969
 21
0.15417417
 31
0.00000000
  0
LINE
  8
Layer_1
 62
     7
  6
CONTINUOUS
 10
-2.11638969
 20
0.15417417
 30
0.00000000
 11
-2.13132007
 21
0.14886596
 31
0.00000000
  0
LINE
  8
Layer_1
 62
     7
  6
CONTINUOUS
 10
-2.13132007
 20
0.14886596
 30
0.00000000
 11
-2.14579311
 21
0.14204111
 31
0.00000000
  0
LINE
  8
Layer_1
 62
     7
  6
CONTINUOUS
 10
-2.14579311
 20
0.14204111
 30
0.00000000
 11
-2.15960937
 21
0.13375573
 31
0.00000000
  0
LINE
  8
Layer_1
 62
     7
  6
CONTINUOUS
 10
-2.15960937
 20
0.13375573
 30
0.00000000
 11
-2.17240163
 21
0.12423797
 31
0.00000000
  0
LINE
  8
Layer_1
 62
     7
  6
CONTINUOUS
 10
-2.17240163
 20
0.12423797
 30
0.00000000
 11
-2.18408987
 21
0.11359898
 31
0.00000000
  0
LINE
  8
Layer_1
 62
     7
  6
CONTINUOUS
 10
-2.18408987
 20
0.11359898
 30
0.00000000
 11
-2.19461698
 21
0.10193774
 31
0.00000000
  0
LINE
  8
Layer_1
 62
     7
  6
CONTINUOUS
 10
-2.19461698
 20
0.10193774
 30
0.00000000
 11
-2.20392581
 21
0.08935323
 31
0.00000000
  0
LINE
  8
Layer_1
 62
     7
  6
CONTINUOUS
 10
-2.20392581
 20
0.08935323
 30
0.00000000
 11
-2.21195925
 21
0.07594443
 31
0.00000000
  0
LINE
  8
Layer_1
 62
     7
  6
CONTINUOUS
 10
-2.21195925
 20
0.07594443
 30
0.00000000
 11
-2.21866016
 21
0.06181029
 31
0.00000000
  0
LINE
  8
Layer_1
 62
     7
  6
CONTINUOUS
 10
-2.21866016
 20
0.06181029
 30
0.00000000
 11
-2.22397143
 21
0.04704981
 31
0.00000000
  0
LINE
  8
Layer_1
 62
     7
  6
CONTINUOUS
 10
-2.22397143
 20
0.04704981
 30
0.00000000
 11
-2.22783592
 21
0.03176195
 31
0.00000000
  0
LINE
  8
Layer_1
 62
     7
  6
CONTINUOUS
 10
-2.22783592
 20
0.03176195
 30
0.00000000
 11
-2.23019651
 21
0.01604569
 31
0.00000000
  0
LINE
  8
Layer_1
 62
     7
  6
CONTINUOUS
 10
-2.23019651
 20
0.01604569
 30
0.00000000
 11
-2.23099606
 21
0.00000000
 31
0.00000000
  0
LINE
  8
Layer_1
 62
     7
  6
CONTINUOUS
 10
-2.45436220
 20
-0.30838976
 30
0.00000000
 11
-2.44887606
 21
-0.29284740
 31
0.00000000
  0
LINE
  8
Layer_1
 62
     7
  6
CONTINUOUS
 10
-2.44887606
 20
-0.29284740
 30
0.00000000
 11
-2.44505849
 21
-0.27713373
 31
0.00000000
  0
LINE
  8
Layer_1
 62
     7
  6
CONTINUOUS
 10
-2.44505849
 20
-0.27713373
 30
0.00000000
 11
-2.44286539
 21
-0.26135434
 31
0.00000000
  0
LINE
  8
Layer_1
 62
     7
  6
CONTINUOUS
 10
-2.44286539
 20
-0.26135434
 30
0.00000000
 11
-2.44225265
 21
-0.24561485
 31
0.00000000
  0
LINE
  8
Layer_1
 62
     7
  6
CONTINUOUS
 10
-2.44225265
 20
-0.24561485
 30
0.00000000
 11
-2.44317614
 21
-0.23002085
 31
0.00000000
  0
LINE
  8
Layer_1
 62
     7
  6
CONTINUOUS
 10
-2.44317614
 20
-0.23002085
 30
0.00000000
 11
-2.44559176
 21
-0.21467794
 31
0.00000000
  0
LINE
  8
Layer_1
 62
     7
  6
CONTINUOUS
 10
-2.44559176
 20
-0.21467794
 30
0.00000000
 11
-2.44945539
 21
-0.19969173
 31
0.00000000
  0
LINE
  8
Layer_1
 62
     7
  6
CONTINUOUS
 10
-2.44945539
 20
-0.19969173
 30
0.00000000
 11
-2.45472293
 21
-0.18516781
 31
0.00000000
  0
LINE
  8
Layer_1
 62
     7
  6
CONTINUOUS
 10
-2.45472293
 20
-0.18516781
 30
0.00000000
 11
-2.46135026
 21
-0.17121180
 31
0.00000000
  0
LINE
  8
Layer_1
 62
     7
  6
CONTINUOUS
 10
-2.46135026
 20
-0.17121180
 30
0.00000000
 11
-2.46929327
 21
-0.15792928
 31
0.00000000
  0
LINE
  8
Layer_1
 62
     7
  6
CONTINUOUS
 10
-2.46929327
 20
-0.15792928
 30
0.00000000
 11
-2.47850784
 21
-0.14542586
 31
0.00000000
  0
LINE
  8
Layer_1
 62
     7
  6
CONTINUOUS
 10
-2.47850784
 20
-0.14542586
 30
0.00000000
 11
-2.48894986
 21
-0.13380715
 31
0.00000000
  0
LINE
  8
Layer_1
 62
     7
  6
CONTINUOUS
 10
-2.48894986
 20
-0.13380715
 30
0.00000000
 11
-2.50057523
 21
-0.12317874
 31
0.00000000
  0
LINE
  8
Layer_1
 62
     7
  6
CONTINUOUS
 10
-2.50057523
 20
-0.12317874
 30
0.00000000
 11
-2.51333982
 21
-0.11364623
 31
0.00000000
  0
LINE
  8
Layer_1
 62
     7
  6
CONTINUOUS
 10
-2.51333982
 20
-0.11364623
 30
0.00000000
 11
-2.52719953
 21
-0.10531523
 31
0.00000000
  0
LINE
  8
Layer_1
 62
     7
  6
CONTINUOUS
 10
-2.52719953
 20
-0.10531523
 30
0.00000000
 11
-2.54211024
 21
-0.09829134
 31
0.00000000
  0
LINE
  8
Layer_1
 62
     7
  6
CONTINUOUS
 10
-2.54211024
 20
-0.09829134
 30
0.00000000
 11
-2.55765264
 21
-0.09280519
 31
0.00000000
  0
LINE
  8
Layer_1
 62
     7
  6
CONTINUOUS
 10
-2.55765264
 20
-0.09280519
 30
0.00000000
 11
-2.57336643
 21
-0.08898763
 31
0.00000000
  0
LINE
  8
Layer_1
 62
     7
  6
CONTINUOUS
 10
-2.57336643
 20
-0.08898763
 30
0.00000000
 11
-2.58914599
 21
-0.08679453
 31
0.00000000
  0
LINE
  8
Layer_1
 62
     7
  6
CONTINUOUS
 10
-2.58914599
 20
-0.08679453
 30
0.00000000
 11
-2.60488570
 21
-0.08618178
 31
0.00000000
  0
LINE
  8
Layer_1
 62
     7
  6
CONTINUOUS
 10
-2.60488570
 20
-0.08618178
 30
0.00000000
 11
-2.62047994
 21
-0.08710527
 31
0.00000000
  0
LINE
  8
Layer_1
 62
     7
  6
CONTINUOUS
 10
-2.62047994
 20
-0.08710527
 30
0.00000000
 11
-2.63582310
 21
-0.08952089
 31
0.00000000
  0
LINE
  8
Layer_1
 62
     7
  6
CONTINUOUS
 10
-2.63582310
 20
-0.08952089
 30
0.00000000
 11
-2.65080954
 21
-0.09338453
 31
0.00000000
  0
LINE
  8
Layer_1
 62
     7
  6
CONTINUOUS
 10
-2.65080954
 20
-0.09338453
 30
0.00000000
 11
-2.66533366
 21
-0.09865207
 31
0.00000000
  0
LINE
  8
Layer_1
 62
     7
  6
CONTINUOUS
 10
-2.66533366
 20
-0.09865207
 30
0.00000000
 11
-2.67928984
 21
-0.10527940
 31
0.00000000
  0
LINE
  8
Layer_1
 62
     7
  6
CONTINUOUS
 10
-2.67928984
 20
-0.10527940
 30
0.00000000
 11
-2.69257245
 21
-0.11322240
 31
0.00000000
  0
LINE
  8
Layer_1
 62
     7
  6
CONTINUOUS
 10
-2.69257245
 20
-0.11322240
 30
0.00000000
 11
-2.70507588
 21
-0.12243697
 31
0.00000000
  0
LINE
  8
Layer_1
 62
     7
  6
CONTINUOUS
 10
-2.70507588
 20
-0.12243697
 30
0.00000000
 11
-2.71669451
 21
-0.13287900
 31
0.00000000
  0
LINE
  8
Layer_1
 62
     7
  6
CONTINUOUS
 10
-2.71669451
 20
-0.13287900
 30
0.00000000
 11
-2.72732273
 21
-0.14450436
 31
0.00000000
  0
LINE
  8
Layer_1
 62
     7
  6
CONTINUOUS
 10
-2.72732273
 20
-0.14450436
 30
0.00000000
 11
-2.73685490
 21
-0.15726895
 31
0.00000000
  0
LINE
  8
Layer_1
 62
     7
  6
CONTINUOUS
 10
-2.73685490
 20
-0.15726895
 30
0.00000000
 11
-2.74518542
 21
-0.17112866
 31
0.00000000
  0
LINE
  8
Layer_1
 62
     7
  6
CONTINUOUS
 10
-2.74518542
 20
-0.17112866
 30
0.00000000
 11
-2.75220866
 21
-0.18603937
 31
0.00000000
  0
LINE
  8
Layer_1
 62
     7
  6
CONTINUOUS
 10
-4.37936220
 20
-0.01610630
 30
0.00000000
 11
-4.38806990
 21
-0.02960787
 31
0.00000000
  0
LINE
  8
Layer_1
 62
     7
  6
CONTINUOUS
 10
-4.38806990
 20
-0.02960787
 30
0.00000000
 11
-4.39531736
 21
-0.04375207
 31
0.00000000
  0
LINE
  8
Layer_1
 62
     7
  6
CONTINUOUS
 10
-4.39531736
 20
-0.04375207
 30
0.00000000
 11
-4.40109330
 21
-0.05842520
 31
0.00000000
  0
LINE
  8
Layer_1
 62
     7
  6
CONTINUOUS
 10
-4.40109330
 20
-0.05842520
 30
0.00000000
 11
-4.40538641
 21
-0.07351355
 31
0.00000000
  0
LINE
  8
Layer_1
 62
     7
  6
CONTINUOUS
 10
-4.40538641
 20
-0.07351355
 30
0.00000000
 11
-4.40818542
 21
-0.08890341
 31
0.00000000
  0
LINE
  8
Layer_1
 62
     7
  6
CONTINUOUS
 10
-4.40818542
 20
-0.08890341
 30
0.00000000
 11
-4.40947903
 21
-0.10448107
 31
0.00000000
  0
LINE
  8
Layer_1
 62
     7
  6
CONTINUOUS
 10
-4.40947903
 20
-0.10448107
 30
0.00000000
 11
-4.40925596
 21
-0.12013282
 31
0.00000000
  0
LINE
  8
Layer_1
 62
     7
  6
CONTINUOUS
 10
-4.40925596
 20
-0.12013282
 30
0.00000000
 11
-4.40750492
 21
-0.13574496
 31
0.00000000
  0
LINE
  8
Layer_1
 62
     7
  6
CONTINUOUS
 10
-4.40750492
 20
-0.13574496
 30
0.00000000
 11
-4.40421462
 21
-0.15120377
 31
0.00000000
  0
LINE
  8
Layer_1
 62
     7
  6
CONTINUOUS
 10
-4.40421462
 20
-0.15120377
 30
0.00000000
 11
-4.39937376
 21
-0.16639555
 31
0.00000000
  0
LINE
  8
Layer_1
 62
     7
  6
CONTINUOUS
 10
-4.39937376
 20
-0.16639555
 30
0.00000000
 11
-4.39298223
 21
-0.18118354
 31
0.00000000
  0
LINE
  8
Layer_1
 62
     7
  6
CONTINUOUS
 10
-4.39298223
 20
-0.18118354
 30
0.00000000
 11
-4.38520488
 21
-0.19516842
 31
0.00000000
  0
LINE
  8
Layer_1
 62
     7
  6
CONTINUOUS
 10
-4.38520488
 20
-0.19516842
 30
0.00000000
 11
-4.37617155
 21
-0.20818786
 31
0.00000000
  0
LINE
  8
Layer_1
 62
     7
  6
CONTINUOUS
 10
-4.37617155
 20
-0.20818786
 30
0.00000000
 11
-4.36597514
 21
-0.22017520
 31
0.00000000
  0
LINE
  8
Layer_1
 62
     7
  6
CONTINUOUS
 10
-4.36597514
 20
-0.22017520
 30
0.00000000
 11
-4.35470851
 21
-0.23106377
 31
0.00000000
  0
LINE
  8
Layer_1
 62
     7
  6
CONTINUOUS
 10
-4.35470851
 20
-0.23106377
 30
0.00000000
 11
-4.34246457
 21
-0.24078691
 31
0.00000000
  0
LINE
  8
Layer_1
 62
     7
  6
CONTINUOUS
 10
-4.34246457
 20
-0.24078691
 30
0.00000000
 11
-4.32933618
 21
-0.24927795
 31
0.00000000
  0
LINE
  8
Layer_1
 62
     7
  6
CONTINUOUS
 10
-4.32933618
 20
-0.24927795
 30
0.00000000
 11
-4.31541623
 21
-0.25647024
 31
0.00000000
  0
LINE
  8
Layer_1
 62
     7
  6
CONTINUOUS
 10
-4.31541623
 20
-0.25647024
 30
0.00000000
 11
-4.30079760
 21
-0.26229710
 31
0.00000000
  0
LINE
  8
Layer_1
 62
     7
  6
CONTINUOUS
 10
-4.30079760
 20
-0.26229710
 30
0.00000000
 11
-4.28557317
 21
-0.26669188
 31
0.00000000
  0
LINE
  8
Layer_1
 62
     7
  6
CONTINUOUS
 10
-4.28557317
 20
-0.26669188
 30
0.00000000
 11
-4.26983583
 21
-0.26958790
 31
0.00000000
  0
LINE
  8
Layer_1
 62
     7
  6
CONTINUOUS
 10
-4.26983583
 20
-0.26958790
 30
0.00000000
 11
-4.25378084
 21
-0.27091471
 31
0.00000000
  0
LINE
  8
Layer_1
 62
     7
  6
CONTINUOUS
 10
-4.25378084
 20
-0.27091471
 30
0.00000000
 11
-4.23783905
 21
-0.27064324
 31
0.00000000
  0
LINE
  8
Layer_1
 62
     7
  6
CONTINUOUS
 10
-4.23783905
 20
-0.27064324
 30
0.00000000
 11
-4.22214001
 21
-0.26881699
 31
0.00000000
  0
LINE
  8
Layer_1
 62
     7
  6
CONTINUOUS
 10
-4.22214001
 20
-0.26881699
 30
0.00000000
 11
-4.20678790
 21
-0.26548309
 31
0.00000000
  0
LINE
  8
Layer_1
 62
     7
  6
CONTINUOUS
 10
-4.20678790
 20
-0.26548309
 30
0.00000000
 11
-4.19188688
 21
-0.26068866
 31
0.00000000
  0
LINE
  8
Layer_1
 62
     7
  6
CONTINUOUS
 10
-4.19188688
 20
-0.26068866
 30
0.00000000
 11
-4.17754113
 21
-0.25448082
 31
0.00000000
  0
LINE
  8
Layer_1
 62
     7
  6
CONTINUOUS
 10
-4.17754113
 20
-0.25448082
 30
0.00000000
 11
-4.16385482
 21
-0.24690669
 31
0.00000000
  0
LINE
  8
Layer_1
 62
     7
  6
CONTINUOUS
 10
-4.16385482
 20
-0.24690669
 30
0.00000000
 11
-4.15093212
 21
-0.23801340
 31
0.00000000
  0
LINE
  8
Layer_1
 62
     7
  6
CONTINUOUS
 10
-4.15093212
 20
-0.23801340
 30
0.00000000
 11
-4.13887721
 21
-0.22784806
 31
0.00000000
  0
LINE
  8
Layer_1
 62
     7
  6
CONTINUOUS
 10
-4.13887721
 20
-0.22784806
 30
0.00000000
 11
-4.12779424
 21
-0.21645781
 31
0.00000000
  0
LINE
  8
Layer_1
 62
     7
  6
CONTINUOUS
 10
-4.12779424
 20
-0.21645781
 30
0.00000000
 11
-4.11778740
 21
-0.20388976
 31
0.00000000
  0
LINE
  8
Layer_1
 62
     7
  6
CONTINUOUS
 10
-3.08528346
 20
-3.10806693
 30
0.00000000
 11
-3.08179630
 21
-3.12417619
 31
0.00000000
  0
LINE
  8
Layer_1
 62
     7
  6
CONTINUOUS
 10
-3.08179630
 20
-3.12417619
 30
0.00000000
 11
-3.07679886
 21
-3.13955547
 31
0.00000000
  0
LINE
  8
Layer_1
 62
     7
  6
CONTINUOUS
 10
-3.07679886
 20
-3.13955547
 30
0.00000000
 11
-3.07038412
 21
-3.15413804
 31
0.00000000
  0
LINE
  8
Layer_1
 62
     7
  6
CONTINUOUS
 10
-3.07038412
 20
-3.15413804
 30
0.00000000
 11
-3.06264505
 21
-3.16785716
 31
0.00000000
  0
LINE
  8
Layer_1
 62
     7
  6
CONTINUOUS
 10
-3.06264505
 20
-3.16785716
 30
0.00000000
 11
-3.05367465
 21
-3.18064612
 31
0.00000000
  0
LINE
  8
Layer_1
 62
     7
  6
CONTINUOUS
 10
-3.05367465
 20
-3.18064612
 30
0.00000000
 11
-3.04356587
 21
-3.19243819
 31
0.00000000
  0
LINE
  8
Layer_1
 62
     7
  6
CONTINUOUS
 10
-3.04356587
 20
-3.19243819
 30
0.00000000
 11
-3.03241170
 21
-3.20316665
 31
0.00000000
  0
LINE
  8
Layer_1
 62
     7
  6
CONTINUOUS
 10
-3.03241170
 20
-3.20316665
 30
0.00000000
 11
-3.02030512
 21
-3.21276476
 31
0.00000000
  0
LINE
  8
Layer_1
 62
     7
  6
CONTINUOUS
 10
-3.02030512
 20
-3.21276476
 30
0.00000000
 11
-3.00733910
 21
-3.22116581
 31
0.00000000
  0
LINE
  8
Layer_1
 62
     7
  6
CONTINUOUS
 10
-3.00733910
 20
-3.22116581
 30
0.00000000
 11
-2.99360662
 21
-3.22830307
 31
0.00000000
  0
LINE
  8
Layer_1
 62
     7
  6
CONTINUOUS
 10
-2.99360662
 20
-3.22830307
 30
0.00000000
 11
-2.97920066
 21
-3.23410982
 31
0.00000000
  0
LINE
  8
Layer_1
 62
     7
  6
CONTINUOUS
 10
-2.97920066
 20
-3.23410982
 30
0.00000000
 11
-2.96421420
 21
-3.23851932
 31
0.00000000
  0
LINE
  8
Layer_1
 62
     7
  6
CONTINUOUS
 10
-2.96421420
 20
-3.23851932
 30
0.00000000
 11
-2.94874021
 21
-3.24146485
 31
0.00000000
  0
LINE
  8
Layer_1
 62
     7
  6
CONTINUOUS
 10
-2.94874021
 20
-3.24146485
 30
0.00000000
 11
-2.93287166
 21
-3.24287969
 31
0.00000000
  0
LINE
  8
Layer_1
 62
     7
  6
CONTINUOUS
 10
-2.93287166
 20
-3.24287969
 30
0.00000000
 11
-2.91670155
 21
-3.24269711
 31
0.00000000
  0
LINE
  8
Layer_1
 62
     7
  6
CONTINUOUS
 10
-2.91670155
 20
-3.24269711
 30
0.00000000
 11
-2.90032283
 21
-3.24085039
 31
0.00000000
  0
LINE
  8
Layer_1
 62
     7
  6
CONTINUOUS
 10
-2.90032283
 20
-3.24085039
 30
0.00000000
 11
-2.88421422
 21
-3.23736254
 31
0.00000000
  0
LINE
  8
Layer_1
 62
     7
  6
CONTINUOUS
 10
-2.88421422
 20
-3.23736254
 30
0.00000000
 11
-2.86883542
 21
-3.23236449
 31
0.00000000
  0
LINE
  8
Layer_1
 62
     7
  6
CONTINUOUS
 10
-2.86883542
 20
-3.23236449
 30
0.00000000
 11
-2.85425319
 21
-3.22594922
 31
0.00000000
  0
LINE
  8
Layer_1
 62
     7
  6
CONTINUOUS
 10
-2.85425319
 20
-3.22594922
 30
0.00000000
 11
-2.84053426
 21
-3.21820971
 31
0.00000000
  0
LINE
  8
Layer_1
 62
     7
  6
CONTINUOUS
 10
-2.84053426
 20
-3.21820971
 30
0.00000000
 11
-2.82774539
 21
-3.20923892
 31
0.00000000
  0
LINE
  8
Layer_1
 62
     7
  6
CONTINUOUS
 10
-2.82774539
 20
-3.20923892
 30
0.00000000
 11
-2.81595330
 21
-3.19912982
 31
0.00000000
  0
LINE
  8
Layer_1
 62
     7
  6
CONTINUOUS
 10
-2.81595330
 20
-3.19912982
 30
0.00000000
 11
-2.80522475
 21
-3.18797539
 31
0.00000000
  0
LINE
  8
Layer_1
 62
     7
  6
CONTINUOUS
 10
-2.80522475
 20
-3.18797539
 30
0.00000000
 11
-2.79562648
 21
-3.17586860
 31
0.00000000
  0
LINE
  8
Layer_1
 62
     7
  6
CONTINUOUS
 10
-2.79562648
 20
-3.17586860
 30
0.00000000
 11
-2.78722522
 21
-3.16290242
 31
0.00000000
  0
LINE
  8
Layer_1
 62
     7
  6
CONTINUOUS
 10
-2.78722522
 20
-3.16290242
 30
0.00000000
 11
-2.78008773
 21
-3.14916982
 31
0.00000000
  0
LINE
  8
Layer_1
 62
     7
  6
CONTINUOUS
 10
-2.78008773
 20
-3.14916982
 30
0.00000000
 11
-2.77428074
 21
-3.13476377
 31
0.00000000
  0
LINE
  8
Layer_1
 62
     7
  6
CONTINUOUS
 10
-2.77428074
 20
-3.13476377
 30
0.00000000
 11
-2.76987100
 21
-3.11977725
 31
0.00000000
  0
LINE
  8
Layer_1
 62
     7
  6
CONTINUOUS
 10
-2.76987100
 20
-3.11977725
 30
0.00000000
 11
-2.76692525
 21
-3.10430322
 31
0.00000000
  0
LINE
  8
Layer_1
 62
     7
  6
CONTINUOUS
 10
-2.76692525
 20
-3.10430322
 30
0.00000000
 11
-2.76551023
 21
-3.08843466
 31
0.00000000
  0
LINE
  8
Layer_1
 62
     7
  6
CONTINUOUS
 10
-2.76551023
 20
-3.08843466
 30
0.00000000
 11
-2.76569269
 21
-3.07226454
 31
0.00000000
  0
LINE
  8
Layer_1
 62
     7
  6
CONTINUOUS
 10
-2.76569269
 20
-3.07226454
 30
0.00000000
 11
-2.76753937
 21
-3.05588583
 31
0.00000000
  0
LINE
  8
Layer_1
 62
     7
  6
CONTINUOUS
 10
0.01610630
 20
-4.37936220
 30
0.00000000
 11
0.02996335
 21
-4.38828672
 31
0.00000000
  0
LINE
  8
Layer_1
 62
     7
  6
CONTINUOUS
 10
0.02996335
 20
-4.38828672
 30
0.00000000
 11
0.04437213
 21
-4.39562728
 31
0.00000000
  0
LINE
  8
Layer_1
 62
     7
  6
CONTINUOUS
 10
0.04437213
 20
-4.39562728
 30
0.00000000
 11
0.05921970
 21
-4.40140241
 31
0.00000000
  0
LINE
  8
Layer_1
 62
     7
  6
CONTINUOUS
 10
0.05921970
 20
-4.40140241
 30
0.00000000
 11
0.07439315
 21
-4.40563066
 31
0.00000000
  0
LINE
  8
Layer_1
 62
     7
  6
CONTINUOUS
 10
0.07439315
 20
-4.40563066
 30
0.00000000
 11
0.08977953
 21
-4.40833059
 31
0.00000000
  0
LINE
  8
Layer_1
 62
     7
  6
CONTINUOUS
 10
0.08977953
 20
-4.40833059
 30
0.00000000
 11
0.10526594
 21
-4.40952073
 31
0.00000000
  0
LINE
  8
Layer_1
 62
     7
  6
CONTINUOUS
 10
0.10526594
 20
-4.40952073
 30
0.00000000
 11
0.12073944
 21
-4.40921964
 31
0.00000000
  0
LINE
  8
Layer_1
 62
     7
  6
CONTINUOUS
 10
0.12073944
 20
-4.40921964
 30
0.00000000
 11
0.13608711
 21
-4.40744587
 31
0.00000000
  0
LINE
  8
Layer_1
 62
     7
  6
CONTINUOUS
 10
0.13608711
 20
-4.40744587
 30
0.00000000
 11
0.15119602
 21
-4.40421795
 31
0.00000000
  0
LINE
  8
Layer_1
 62
     7
  6
CONTINUOUS
 10
0.15119602
 20
-4.40421795
 30
0.00000000
 11
0.16595324
 21
-4.39955444
 31
0.00000000
  0
LINE
  8
Layer_1
 62
     7
  6
CONTINUOUS
 10
0.16595324
 20
-4.39955444
 30
0.00000000
 11
0.18024586
 21
-4.39347389
 31
0.00000000
  0
LINE
  8
Layer_1
 62
     7
  6
CONTINUOUS
 10
0.18024586
 20
-4.39347389
 30
0.00000000
 11
0.19396094
 21
-4.38599483
 31
0.00000000
  0
LINE
  8
Layer_1
 62
     7
  6
CONTINUOUS
 10
0.19396094
 20
-4.38599483
 30
0.00000000
 11
0.20698556
 21
-4.37713583
 31
0.00000000
  0
LINE
  8
Layer_1
 62
     7
  6
CONTINUOUS
 10
0.20698556
 20
-4.37713583
 30
0.00000000
 11
0.21920679
 21
-4.36691542
 31
0.00000000
  0
LINE
  8
Layer_1
 62
     7
  6
CONTINUOUS
 10
0.21920679
 20
-4.36691542
 30
0.00000000
 11
0.23051172
 21
-4.35535215
 31
0.00000000
  0
LINE
  8
Layer_1
 62
     7
  6
CONTINUOUS
 10
0.23051172
 20
-4.35535215
 30
0.00000000
 11
0.24078740
 21
-4.34246457
 31
0.00000000
  0
LINE
  8
Layer_1
 62
     7
  6
CONTINUOUS
 10
0.24078740
 20
-4.34246457
 30
0.00000000
 11
0.24971192
 21
-4.32860751
 31
0.00000000
  0
LINE
  8
Layer_1
 62
     7
  6
CONTINUOUS
 10
0.24971192
 20
-4.32860751
 30
0.00000000
 11
0.25705247
 21
-4.31419874
 31
0.00000000
  0
LINE
  8
Layer_1
 62
     7
  6
CONTINUOUS
 10
0.25705247
 20
-4.31419874
 30
0.00000000
 11
0.26282760
 21
-4.29935119
 31
0.00000000
  0
LINE
  8
Layer_1
 62
     7
  6
CONTINUOUS
 10
0.26282760
 20
-4.29935119
 30
0.00000000
 11
0.26705586
 21
-4.28417778
 31
0.00000000
  0
LINE
  8
Layer_1
 62
     7
  6
CONTINUOUS
 10
0.26705586
 20
-4.28417778
 30
0.00000000
 11
0.26975578
 21
-4.26879145
 31
0.00000000
  0
LINE
  8
Layer_1
 62
     7
  6
CONTINUOUS
 10
0.26975578
 20
-4.26879145
 30
0.00000000
 11
0.27094593
 21
-4.25330513
 31
0.00000000
  0
LINE
  8
Layer_1
 62
     7
  6
CONTINUOUS
 10
0.27094593
 20
-4.25330513
 30
0.00000000
 11
0.27064484
 21
-4.23783176
 31
0.00000000
  0
LINE
  8
Layer_1
 62
     7
  6
CONTINUOUS
 10
0.27064484
 20
-4.23783176
 30
0.00000000
 11
0.26887106
 21
-4.22248425
 31
0.00000000
  0
LINE
  8
Layer_1
 62
     7
  6
CONTINUOUS
 10
0.26887106
 20
-4.22248425
 30
0.00000000
 11
0.26564315
 21
-4.20737555
 31
0.00000000
  0
LINE
  8
Layer_1
 62
     7
  6
CONTINUOUS
 10
0.26564315
 20
-4.20737555
 30
0.00000000
 11
0.26097964
 21
-4.19261859
 31
0.00000000
  0
LINE
  8
Layer_1
 62
     7
  6
CONTINUOUS
 10
0.26097964
 20
-4.19261859
 30
0.00000000
 11
0.25489908
 21
-4.17832629
 31
0.00000000
  0
LINE
  8
Layer_1
 62
     7
  6
CONTINUOUS
 10
0.25489908
 20
-4.17832629
 30
0.00000000
 11
0.24742003
 21
-4.16461159
 31
0.00000000
  0
LINE
  8
Layer_1
 62
     7
  6
CONTINUOUS
 10
0.24742003
 20
-4.16461159
 30
0.00000000
 11
0.23856102
 21
-4.15158742
 31
0.00000000
  0
LINE
  8
Layer_1
 62
     7
  6
CONTINUOUS
 10
0.23856102
 20
-4.15158742
 30
0.00000000
 11
0.22834061
 21
-4.13936671
 31
0.00000000
  0
LINE
  8
Layer_1
 62
     7
  6
CONTINUOUS
 10
0.22834061
 20
-4.13936671
 30
0.00000000
 11
0.21677734
 21
-4.12806239
 31
0.00000000
  0
LINE
  8
Layer_1
 62
     7
  6
CONTINUOUS
 10
0.21677734
 20
-4.12806239
 30
0.00000000
 11
0.20388976
 21
-4.11778740
 31
0.00000000
  0
LINE
  8
Layer_1
 62
     7
  6
CONTINUOUS
 10
-1.25140157
 20
3.92648425
 30
0.00000000
 11
-1.25333766
 21
3.96482639
 31
0.00000000
  0
LINE
  8
Layer_1
 62
     7
  6
CONTINUOUS
 10
-1.25333766
 20
3.96482639
 30
0.00000000
 11
-1.25902026
 21
4.00206082
 31
0.00000000
  0
LINE
  8
Layer_1
 62
     7
  6
CONTINUOUS
 10
-1.25902026
 20
4.00206082
 30
0.00000000
 11
-1.26826087
 21
4.03799906
 31
0.00000000
  0
LINE
  8
Layer_1
 62
     7
  6
CONTINUOUS
 10
-1.26826087
 20
4.03799906
 30
0.00000000
 11
-1.28087100
 21
4.07245263
 31
0.00000000
  0
LINE
  8
Layer_1
 62
     7
  6
CONTINUOUS
 10
-1.28087100
 20
4.07245263
 30
0.00000000
 11
-1.29666215
 21
4.10523305
 31
0.00000000
  0
LINE
  8
Layer_1
 62
     7
  6
CONTINUOUS
 10
-1.29666215
 20
4.10523305
 30
0.00000000
 11
-1.31544581
 21
4.13615184
 31
0.00000000
  0
LINE
  8
Layer_1
 62
     7
  6
CONTINUOUS
 10
-1.31544581
 20
4.13615184
 30
0.00000000
 11
-1.33703350
 21
4.16502051
 31
0.00000000
  0
LINE
  8
Layer_1
 62
     7
  6
CONTINUOUS
 10
-1.33703350
 20
4.16502051
 30
0.00000000
 11
-1.36123671
 21
4.19165059
 31
0.00000000
  0
LINE
  8
Layer_1
 62
     7
  6
CONTINUOUS
 10
-1.36123671
 20
4.19165059
 30
0.00000000
 11
-1.38786695
 21
4.21585360
 31
0.00000000
  0
LINE
  8
Layer_1
 62
     7
  6
CONTINUOUS
 10
-1.38786695
 20
4.21585360
 30
0.00000000
 11
-1.41673572
 21
4.23744105
 31
0.00000000
  0
LINE
  8
Layer_1
 62
     7
  6
CONTINUOUS
 10
-1.41673572
 20
4.23744105
 30
0.00000000
 11
-1.44765452
 21
4.25622447
 31
0.00000000
  0
LINE
  8
Layer_1
 62
     7
  6
CONTINUOUS
 10
-1.44765452
 20
4.25622447
 30
0.00000000
 11
-1.48043485
 21
4.27201538
 31
0.00000000
  0
LINE
  8
Layer_1
 62
     7
  6
CONTINUOUS
 10
-1.48043485
 20
4.27201538
 30
0.00000000
 11
-1.51488822
 21
4.28462529
 31
0.00000000
  0
LINE
  8
Layer_1
 62
     7
  6
CONTINUOUS
 10
-1.51488822
 20
4.28462529
 30
0.00000000
 11
-1.55082613
 21
4.29386573
 31
0.00000000
  0
LINE
  8
Layer_1
 62
     7
  6
CONTINUOUS
 10
-1.55082613
 20
4.29386573
 30
0.00000000
 11
-1.58806008
 21
4.29954821
 31
0.00000000
  0
LINE
  8
Layer_1
 62
     7
  6
CONTINUOUS
 10
-1.58806008
 20
4.29954821
 30
0.00000000
 11
-1.62640157
 21
4.30148425
 31
0.00000000
  0
LINE
  8
Layer_1
 62
     7
  6
CONTINUOUS
 10
-1.62640157
 20
4.30148425
 30
0.00000000
 11
-1.66474307
 21
4.29954886
 31
0.00000000
  0
LINE
  8
Layer_1
 62
     7
  6
CONTINUOUS
 10
-1.66474307
 20
4.29954886
 30
0.00000000
 11
-1.70197702
 21
4.29386686
 31
0.00000000
  0
LINE
  8
Layer_1
 62
     7
  6
CONTINUOUS
 10
-1.70197702
 20
4.29386686
 30
0.00000000
 11
-1.73791492
 21
4.28462678
 31
0.00000000
  0
LINE
  8
Layer_1
 62
     7
  6
CONTINUOUS
 10
-1.73791492
 20
4.28462678
 30
0.00000000
 11
-1.77236829
 21
4.27201710
 31
0.00000000
  0
LINE
  8
Layer_1
 62
     7
  6
CONTINUOUS
 10
-1.77236829
 20
4.27201710
 30
0.00000000
 11
-1.80514863
 21
4.25622634
 31
0.00000000
  0
LINE
  8
Layer_1
 62
     7
  6
CONTINUOUS
 10
-1.80514863
 20
4.25622634
 30
0.00000000
 11
-1.83606743
 21
4.23744299
 31
0.00000000
  0
LINE
  8
Layer_1
 62
     7
  6
CONTINUOUS
 10
-1.83606743
 20
4.23744299
 30
0.00000000
 11
-1.86493620
 21
4.21585556
 31
0.00000000
  0
LINE
  8
Layer_1
 62
     7
  6
CONTINUOUS
 10
-1.86493620
 20
4.21585556
 30
0.00000000
 11
-1.89156644
 21
4.19165256
 31
0.00000000
  0
LINE
  8
Layer_1
 62
     7
  6
CONTINUOUS
 10
-1.89156644
 20
4.19165256
 30
0.00000000
 11
-1.91576965
 21
4.16502248
 31
0.00000000
  0
LINE
  8
Layer_1
 62
     7
  6
CONTINUOUS
 10
-1.91576965
 20
4.16502248
 30
0.00000000
 11
-1.93735734
 21
4.13615384
 31
0.00000000
  0
LINE
  8
Layer_1
 62
     7
  6
CONTINUOUS
 10
-1.93735734
 20
4.13615384
 30
0.00000000
 11
-1.95614100
 21
4.10523512
 31
0.00000000
  0
LINE
  8
Layer_1
 62
     7
  6
CONTINUOUS
 10
-1.95614100
 20
4.10523512
 30
0.00000000
 11
-1.97193215
 21
4.07245485
 31
0.00000000
  0
LINE
  8
Layer_1
 62
     7
  6
CONTINUOUS
 10
-1.97193215
 20
4.07245485
 30
0.00000000
 11
-1.98454228
 21
4.03800151
 31
0.00000000
  0
LINE
  8
Layer_1
 62
     7
  6
CONTINUOUS
 10
-1.98454228
 20
4.03800151
 30
0.00000000
 11
-1.99378289
 21
4.00206362
 31
0.00000000
  0
LINE
  8
Layer_1
 62
     7
  6
CONTINUOUS
 10
-1.99378289
 20
4.00206362
 30
0.00000000
 11
-1.99946549
 21
3.96482968
 31
0.00000000
  0
LINE
  8
Layer_1
 62
     7
  6
CONTINUOUS
 10
-1.99946549
 20
3.96482968
 30
0.00000000
 11
-2.00140157
 21
3.92648819
 31
0.00000000
  0
LINE
  8
Layer_1
 62
     7
  6
CONTINUOUS
 10
-2.00140157
 20
3.92648819
 30
0.00000000
 11
-1.99946553
 21
3.88814670
 31
0.00000000
  0
LINE
  8
Layer_1
 62
     7
  6
CONTINUOUS
 10
-1.99946553
 20
3.88814670
 30
0.00000000
 11
-1.99378306
 21
3.85091274
 31
0.00000000
  0
LINE
  8
Layer_1
 62
     7
  6
CONTINUOUS
 10
-1.99378306
 20
3.85091274
 30
0.00000000
 11
-1.98454264
 21
3.81497481
 31
0.00000000
  0
LINE
  8
Layer_1
 62
     7
  6
CONTINUOUS
 10
-1.98454264
 20
3.81497481
 30
0.00000000
 11
-1.97193276
 21
3.78052141
 31
0.00000000
  0
LINE
  8
Layer_1
 62
     7
  6
CONTINUOUS
 10
-1.97193276
 20
3.78052141
 30
0.00000000
 11
-1.95614192
 21
3.74774101
 31
0.00000000
  0
LINE
  8
Layer_1
 62
     7
  6
CONTINUOUS
 10
-1.95614192
 20
3.74774101
 30
0.00000000
 11
-1.93735858
 21
3.71682213
 31
0.00000000
  0
LINE
  8
Layer_1
 62
     7
  6
CONTINUOUS
 10
-1.93735858
 20
3.71682213
 30
0.00000000
 11
-1.91577125
 21
3.68795324
 31
0.00000000
  0
LINE
  8
Layer_1
 62
     7
  6
CONTINUOUS
 10
-1.91577125
 20
3.68795324
 30
0.00000000
 11
-1.89156841
 21
3.66132283
 31
0.00000000
  0
LINE
  8
Layer_1
 62
     7
  6
CONTINUOUS
 10
-1.89156841
 20
3.66132283
 30
0.00000000
 11
-1.86493853
 21
3.63711941
 31
0.00000000
  0
LINE
  8
Layer_1
 62
     7
  6
CONTINUOUS
 10
-1.86493853
 20
3.63711941
 30
0.00000000
 11
-1.83607012
 21
3.61553147
 31
0.00000000
  0
LINE
  8
Layer_1
 62
     7
  6
CONTINUOUS
 10
-1.83607012
 20
3.61553147
 30
0.00000000
 11
-1.80515165
 21
3.59674748
 31
0.00000000
  0
LINE
  8
Layer_1
 62
     7
  6
CONTINUOUS
 10
-1.80515165
 20
3.59674748
 30
0.00000000
 11
-1.77237162
 21
3.58095595
 31
0.00000000
  0
LINE
  8
Layer_1
 62
     7
  6
CONTINUOUS
 10
-1.77237162
 20
3.58095595
 30
0.00000000
 11
-1.73791850
 21
3.56834538
 31
0.00000000
  0
LINE
  8
Layer_1
 62
     7
  6
CONTINUOUS
 10
-1.73791850
 20
3.56834538
 30
0.00000000
 11
-1.70198078
 21
3.55910424
 31
0.00000000
  0
LINE
  8
Layer_1
 62
     7
  6
CONTINUOUS
 10
-1.70198078
 20
3.55910424
 30
0.00000000
 11
-1.66474696
 21
3.55342103
 31
0.00000000
  0
LINE
  8
Layer_1
 62
     7
  6
CONTINUOUS
 10
-1.66474696
 20
3.55342103
 30
0.00000000
 11
-1.62640551
 21
3.55148425
 31
0.00000000
  0
LINE
  8
Layer_1
 62
     7
  6
CONTINUOUS
 10
-1.62640551
 20
3.55148425
 30
0.00000000
 11
-1.58806402
 21
3.55342034
 31
0.00000000
  0
LINE
  8
Layer_1
 62
     7
  6
CONTINUOUS
 10
-1.58806402
 20
3.55342034
 30
0.00000000
 11
-1.55083006
 21
3.55910294
 31
0.00000000
  0
LINE
  8
Layer_1
 62
     7
  6
CONTINUOUS
 10
-1.55083006
 20
3.55910294
 30
0.00000000
 11
-1.51489214
 21
3.56834355
 31
0.00000000
  0
LINE
  8
Layer_1
 62
     7
  6
CONTINUOUS
 10
-1.51489214
 20
3.56834355
 30
0.00000000
 11
-1.48043873
 21
3.58095368
 31
0.00000000
  0
LINE
  8
Layer_1
 62
     7
  6
CONTINUOUS
 10
-1.48043873
 20
3.58095368
 30
0.00000000
 11
-1.44765834
 21
3.59674482
 31
0.00000000
  0
LINE
  8
Layer_1
 62
     7
  6
CONTINUOUS
 10
-1.44765834
 20
3.59674482
 30
0.00000000
 11
-1.41673945
 21
3.61552849
 31
0.00000000
  0
LINE
  8
Layer_1
 62
     7
  6
CONTINUOUS
 10
-1.41673945
 20
3.61552849
 30
0.00000000
 11
-1.38787056
 21
3.63711618
 31
0.00000000
  0
LINE
  8
Layer_1
 62
     7
  6
CONTINUOUS
 10
-1.38787056
 20
3.63711618
 30
0.00000000
 11
-1.36124016
 21
3.66131939
 31
0.00000000
  0
LINE
  8
Layer_1
 62
     7
  6
CONTINUOUS
 10
-1.36124016
 20
3.66131939
 30
0.00000000
 11
-1.33703674
 21
3.68794963
 31
0.00000000
  0
LINE
  8
Layer_1
 62
     7
  6
CONTINUOUS
 10
-1.33703674
 20
3.68794963
 30
0.00000000
 11
-1.31544879
 21
3.71681840
 31
0.00000000
  0
LINE
  8
Layer_1
 62
     7
  6
CONTINUOUS
 10
-1.31544879
 20
3.71681840
 30
0.00000000
 11
-1.29666480
 21
3.74773720
 31
0.00000000
  0
LINE
  8
Layer_1
 62
     7
  6
CONTINUOUS
 10
-1.29666480
 20
3.74773720
 30
0.00000000
 11
-1.28087328
 21
3.78051753
 31
0.00000000
  0
LINE
  8
Layer_1
 62
     7
  6
CONTINUOUS
 10
-1.28087328
 20
3.78051753
 30
0.00000000
 11
-1.26826270
 21
3.81497090
 31
0.00000000
  0
LINE
  8
Layer_1
 62
     7
  6
CONTINUOUS
 10
-1.26826270
 20
3.81497090
 30
0.00000000
 11
-1.25902156
 21
3.85090881
 31
0.00000000
  0
LINE
  8
Layer_1
 62
     7
  6
CONTINUOUS
 10
-1.25902156
 20
3.85090881
 30
0.00000000
 11
-1.25333836
 21
3.88814276
 31
0.00000000
  0
LINE
  8
Layer_1
 62
     7
  6
CONTINUOUS
 10
-1.25333836
 20
3.88814276
 30
0.00000000
 11
-1.25140157
 21
3.92648425
 31
0.00000000
  0
LINE
  8
Layer_1
 62
     7
  6
CONTINUOUS
 10
4.30148425
 20
1.62640157
 30
0.00000000
 11
4.29954821
 21
1.66474307
 31
0.00000000
  0
LINE
  8
Layer_1
 62
     7
  6
CONTINUOUS
 10
4.29954821
 20
1.66474307
 30
0.00000000
 11
4.29386573
 21
1.70197702
 31
0.00000000
  0
LINE
  8
Layer_1
 62
     7
  6
CONTINUOUS
 10
4.29386573
 20
1.70197702
 30
0.00000000
 11
4.28462532
 21
1.73791492
 31
0.00000000
  0
LINE
  8
Layer_1
 62
     7
  6
CONTINUOUS
 10
4.28462532
 20
1.73791492
 30
0.00000000
 11
4.27201544
 21
1.77236829
 31
0.00000000
  0
LINE
  8
Layer_1
 62
     7
  6
CONTINUOUS
 10
4.27201544
 20
1.77236829
 30
0.00000000
 11
4.25622459
 21
1.80514863
 31
0.00000000
  0
LINE
  8
Layer_1
 62
     7
  6
CONTINUOUS
 10
4.25622459
 20
1.80514863
 30
0.00000000
 11
4.23744126
 21
1.83606743
 31
0.00000000
  0
LINE
  8
Layer_1
 62
     7
  6
CONTINUOUS
 10
4.23744126
 20
1.83606743
 30
0.00000000
 11
4.21585393
 21
1.86493620
 31
0.00000000
  0
LINE
  8
Layer_1
 62
     7
  6
CONTINUOUS
 10
4.21585393
 20
1.86493620
 30
0.00000000
 11
4.19165108
 21
1.89156644
 31
0.00000000
  0
LINE
  8
Layer_1
 62
     7
  6
CONTINUOUS
 10
4.19165108
 20
1.89156644
 30
0.00000000
 11
4.16502121
 21
1.91576965
 31
0.00000000
  0
LINE
  8
Layer_1
 62
     7
  6
CONTINUOUS
 10
4.16502121
 20
1.91576965
 30
0.00000000
 11
4.13615280
 21
1.93735734
 31
0.00000000
  0
LINE
  8
Layer_1
 62
     7
  6
CONTINUOUS
 10
4.13615280
 20
1.93735734
 30
0.00000000
 11
4.10523433
 21
1.95614100
 31
0.00000000
  0
LINE
  8
Layer_1
 62
     7
  6
CONTINUOUS
 10
4.10523433
 20
1.95614100
 30
0.00000000
 11
4.07245429
 21
1.97193215
 31
0.00000000
  0
LINE
  8
Layer_1
 62
     7
  6
CONTINUOUS
 10
4.07245429
 20
1.97193215
 30
0.00000000
 11
4.03800118
 21
1.98454228
 31
0.00000000
  0
LINE
  8
Layer_1
 62
     7
  6
CONTINUOUS
 10
4.03800118
 20
1.98454228
 30
0.00000000
 11
4.00206346
 21
1.99378289
 31
0.00000000
  0
LINE
  8
Layer_1
 62
     7
  6
CONTINUOUS
 10
4.00206346
 20
1.99378289
 30
0.00000000
 11
3.96482964
 21
1.99946549
 31
0.00000000
  0
LINE
  8
Layer_1
 62
     7
  6
CONTINUOUS
 10
3.96482964
 20
1.99946549
 30
0.00000000
 11
3.92648819
 21
2.00140157
 31
0.00000000
  0
LINE
  8
Layer_1
 62
     7
  6
CONTINUOUS
 10
3.92648819
 20
2.00140157
 30
0.00000000
 11
3.88814670
 21
1.99946553
 31
0.00000000
  0
LINE
  8
Layer_1
 62
     7
  6
CONTINUOUS
 10
3.88814670
 20
1.99946553
 30
0.00000000
 11
3.85091274
 21
1.99378306
 31
0.00000000
  0
LINE
  8
Layer_1
 62
     7
  6
CONTINUOUS
 10
3.85091274
 20
1.99378306
 30
0.00000000
 11
3.81497481
 21
1.98454264
 31
0.00000000
  0
LINE
  8
Layer_1
 62
     7
  6
CONTINUOUS
 10
3.81497481
 20
1.98454264
 30
0.00000000
 11
3.78052141
 21
1.97193276
 31
0.00000000
  0
LINE
  8
Layer_1
 62
     7
  6
CONTINUOUS
 10
3.78052141
 20
1.97193276
 30
0.00000000
 11
3.74774101
 21
1.95614192
 31
0.00000000
  0
LINE
  8
Layer_1
 62
     7
  6
CONTINUOUS
 10
3.74774101
 20
1.95614192
 30
0.00000000
 11
3.71682213
 21
1.93735858
 31
0.00000000
  0
LINE
  8
Layer_1
 62
     7
  6
CONTINUOUS
 10
3.71682213
 20
1.93735858
 30
0.00000000
 11
3.68795324
 21
1.91577125
 31
0.00000000
  0
LINE
  8
Layer_1
 62
     7
  6
CONTINUOUS
 10
3.68795324
 20
1.91577125
 30
0.00000000
 11
3.66132283
 21
1.89156841
 31
0.00000000
  0
LINE
  8
Layer_1
 62
     7
  6
CONTINUOUS
 10
3.66132283
 20
1.89156841
 30
0.00000000
 11
3.63711941
 21
1.86493853
 31
0.00000000
  0
LINE
  8
Layer_1
 62
     7
  6
CONTINUOUS
 10
3.63711941
 20
1.86493853
 30
0.00000000
 11
3.61553147
 21
1.83607012
 31
0.00000000
  0
LINE
  8
Layer_1
 62
     7
  6
CONTINUOUS
 10
3.61553147
 20
1.83607012
 30
0.00000000
 11
3.59674748
 21
1.80515165
 31
0.00000000
  0
LINE
  8
Layer_1
 62
     7
  6
CONTINUOUS
 10
3.59674748
 20
1.80515165
 30
0.00000000
 11
3.58095595
 21
1.77237162
 31
0.00000000
  0
LINE
  8
Layer_1
 62
     7
  6
CONTINUOUS
 10
3.58095595
 20
1.77237162
 30
0.00000000
 11
3.56834538
 21
1.73791850
 31
0.00000000
  0
LINE
  8
Layer_1
 62
     7
  6
CONTINUOUS
 10
3.56834538
 20
1.73791850
 30
0.00000000
 11
3.55910424
 21
1.70198078
 31
0.00000000
  0
LINE
  8
Layer_1
 62
     7
  6
CONTINUOUS
 10
3.55910424
 20
1.70198078
 30
0.00000000
 11
3.55342103
 21
1.66474696
 31
0.00000000
  0
LINE
  8
Layer_1
 62
     7
  6
CONTINUOUS
 10
3.55342103
 20
1.66474696
 30
0.00000000
 11
3.55148425
 21
1.62640551
 31
0.00000000
  0
LINE
  8
Layer_1
 62
     7
  6
CONTINUOUS
 10
3.55148425
 20
1.62640551
 30
0.00000000
 11
3.55342034
 21
1.58806333
 31
0.00000000
  0
LINE
  8
Layer_1
 62
     7
  6
CONTINUOUS
 10
3.55342034
 20
1.58806333
 30
0.00000000
 11
3.55910294
 21
1.55082877
 31
0.00000000
  0
LINE
  8
Layer_1
 62
     7
  6
CONTINUOUS
 10
3.55910294
 20
1.55082877
 30
0.00000000
 11
3.56834355
 21
1.51489034
 31
0.00000000
  0
LINE
  8
Layer_1
 62
     7
  6
CONTINUOUS
 10
3.56834355
 20
1.51489034
 30
0.00000000
 11
3.58095368
 21
1.48043652
 31
0.00000000
  0
LINE
  8
Layer_1
 62
     7
  6
CONTINUOUS
 10
3.58095368
 20
1.48043652
 30
0.00000000
 11
3.59674482
 21
1.44765580
 31
0.00000000
  0
LINE
  8
Layer_1
 62
     7
  6
CONTINUOUS
 10
3.59674482
 20
1.44765580
 30
0.00000000
 11
3.61552849
 21
1.41673668
 31
0.00000000
  0
LINE
  8
Layer_1
 62
     7
  6
CONTINUOUS
 10
3.61552849
 20
1.41673668
 30
0.00000000
 11
3.63711618
 21
1.38786765
 31
0.00000000
  0
LINE
  8
Layer_1
 62
     7
  6
CONTINUOUS
 10
3.63711618
 20
1.38786765
 30
0.00000000
 11
3.66131939
 21
1.36123720
 31
0.00000000
  0
LINE
  8
Layer_1
 62
     7
  6
CONTINUOUS
 10
3.66131939
 20
1.36123720
 30
0.00000000
 11
3.68794963
 21
1.33703383
 31
0.00000000
  0
LINE
  8
Layer_1
 62
     7
  6
CONTINUOUS
 10
3.68794963
 20
1.33703383
 30
0.00000000
 11
3.71681840
 21
1.31544602
 31
0.00000000
  0
LINE
  8
Layer_1
 62
     7
  6
CONTINUOUS
 10
3.71681840
 20
1.31544602
 30
0.00000000
 11
3.74773720
 21
1.29666227
 31
0.00000000
  0
LINE
  8
Layer_1
 62
     7
  6
CONTINUOUS
 10
3.74773720
 20
1.29666227
 30
0.00000000
 11
3.78051753
 21
1.28087106
 31
0.00000000
  0
LINE
  8
Layer_1
 62
     7
  6
CONTINUOUS
 10
3.78051753
 20
1.28087106
 30
0.00000000
 11
3.81497090
 21
1.26826090
 31
0.00000000
  0
LINE
  8
Layer_1
 62
     7
  6
CONTINUOUS
 10
3.81497090
 20
1.26826090
 30
0.00000000
 11
3.85090881
 21
1.25902027
 31
0.00000000
  0
LINE
  8
Layer_1
 62
     7
  6
CONTINUOUS
 10
3.85090881
 20
1.25902027
 30
0.00000000
 11
3.88814276
 21
1.25333766
 31
0.00000000
  0
LINE
  8
Layer_1
 62
     7
  6
CONTINUOUS
 10
3.88814276
 20
1.25333766
 30
0.00000000
 11
3.92648425
 21
1.25140157
 31
0.00000000
  0
LINE
  8
Layer_1
 62
     7
  6
CONTINUOUS
 10
3.92648425
 20
1.25140157
 30
0.00000000
 11
3.96482574
 21
1.25333766
 31
0.00000000
  0
LINE
  8
Layer_1
 62
     7
  6
CONTINUOUS
 10
3.96482574
 20
1.25333766
 30
0.00000000
 11
4.00205969
 21
1.25902026
 31
0.00000000
  0
LINE
  8
Layer_1
 62
     7
  6
CONTINUOUS
 10
4.00205969
 20
1.25902026
 30
0.00000000
 11
4.03799760
 21
1.26826087
 31
0.00000000
  0
LINE
  8
Layer_1
 62
     7
  6
CONTINUOUS
 10
4.03799760
 20
1.26826087
 30
0.00000000
 11
4.07245097
 21
1.28087100
 31
0.00000000
  0
LINE
  8
Layer_1
 62
     7
  6
CONTINUOUS
 10
4.07245097
 20
1.28087100
 30
0.00000000
 11
4.10523131
 21
1.29666215
 31
0.00000000
  0
LINE
  8
Layer_1
 62
     7
  6
CONTINUOUS
 10
4.10523131
 20
1.29666215
 30
0.00000000
 11
4.13615011
 21
1.31544581
 31
0.00000000
  0
LINE
  8
Layer_1
 62
     7
  6
CONTINUOUS
 10
4.13615011
 20
1.31544581
 30
0.00000000
 11
4.16501887
 21
1.33703350
 31
0.00000000
  0
LINE
  8
Layer_1
 62
     7
  6
CONTINUOUS
 10
4.16501887
 20
1.33703350
 30
0.00000000
 11
4.19164911
 21
1.36123671
 31
0.00000000
  0
LINE
  8
Layer_1
 62
     7
  6
CONTINUOUS
 10
4.19164911
 20
1.36123671
 30
0.00000000
 11
4.21585233
 21
1.38786695
 31
0.00000000
  0
LINE
  8
Layer_1
 62
     7
  6
CONTINUOUS
 10
4.21585233
 20
1.38786695
 30
0.00000000
 11
4.23744001
 21
1.41673572
 31
0.00000000
  0
LINE
  8
Layer_1
 62
     7
  6
CONTINUOUS
 10
4.23744001
 20
1.41673572
 30
0.00000000
 11
4.25622368
 21
1.44765452
 31
0.00000000
  0
LINE
  8
Layer_1
 62
     7
  6
CONTINUOUS
 10
4.25622368
 20
1.44765452
 30
0.00000000
 11
4.27201483
 21
1.48043485
 31
0.00000000
  0
LINE
  8
Layer_1
 62
     7
  6
CONTINUOUS
 10
4.27201483
 20
1.48043485
 30
0.00000000
 11
4.28462495
 21
1.51488822
 31
0.00000000
  0
LINE
  8
Layer_1
 62
     7
  6
CONTINUOUS
 10
4.28462495
 20
1.51488822
 30
0.00000000
 11
4.29386557
 21
1.55082613
 31
0.00000000
  0
LINE
  8
Layer_1
 62
     7
  6
CONTINUOUS
 10
4.29386557
 20
1.55082613
 30
0.00000000
 11
4.29954816
 21
1.58806008
 31
0.00000000
  0
LINE
  8
Layer_1
 62
     7
  6
CONTINUOUS
 10
4.29954816
 20
1.58806008
 30
0.00000000
 11
4.30148425
 21
1.62640157
 31
0.00000000
  0
LINE
  8
Layer_1
 62
     7
  6
CONTINUOUS
 10
2.00140157
 20
-3.92648425
 30
0.00000000
 11
1.99946549
 21
-3.88814280
 31
0.00000000
  0
LINE
  8
Layer_1
 62
     7
  6
CONTINUOUS
 10
1.99946549
 20
-3.88814280
 30
0.00000000
 11
1.99378289
 21
-3.85090897
 31
0.00000000
  0
LINE
  8
Layer_1
 62
     7
  6
CONTINUOUS
 10
1.99378289
 20
-3.85090897
 30
0.00000000
 11
1.98454228
 21
-3.81497124
 31
0.00000000
  0
LINE
  8
Layer_1
 62
     7
  6
CONTINUOUS
 10
1.98454228
 20
-3.81497124
 30
0.00000000
 11
1.97193215
 21
-3.78051809
 31
0.00000000
  0
LINE
  8
Layer_1
 62
     7
  6
CONTINUOUS
 10
1.97193215
 20
-3.78051809
 30
0.00000000
 11
1.95614100
 21
-3.74773799
 31
0.00000000
  0
LINE
  8
Layer_1
 62
     7
  6
CONTINUOUS
 10
1.95614100
 20
-3.74773799
 30
0.00000000
 11
1.93735734
 21
-3.71681944
 31
0.00000000
  0
LINE
  8
Layer_1
 62
     7
  6
CONTINUOUS
 10
1.93735734
 20
-3.71681944
 30
0.00000000
 11
1.91576965
 21
-3.68795090
 31
0.00000000
  0
LINE
  8
Layer_1
 62
     7
  6
CONTINUOUS
 10
1.91576965
 20
-3.68795090
 30
0.00000000
 11
1.89156644
 21
-3.66132087
 31
0.00000000
  0
LINE
  8
Layer_1
 62
     7
  6
CONTINUOUS
 10
1.89156644
 20
-3.66132087
 30
0.00000000
 11
1.86493620
 21
-3.63711781
 31
0.00000000
  0
LINE
  8
Layer_1
 62
     7
  6
CONTINUOUS
 10
1.86493620
 20
-3.63711781
 30
0.00000000
 11
1.83606743
 21
-3.61553022
 31
0.00000000
  0
LINE
  8
Layer_1
 62
     7
  6
CONTINUOUS
 10
1.83606743
 20
-3.61553022
 30
0.00000000
 11
1.80514863
 21
-3.59674657
 31
0.00000000
  0
LINE
  8
Layer_1
 62
     7
  6
CONTINUOUS
 10
1.80514863
 20
-3.59674657
 30
0.00000000
 11
1.77236829
 21
-3.58095534
 31
0.00000000
  0
LINE
  8
Layer_1
 62
     7
  6
CONTINUOUS
 10
1.77236829
 20
-3.58095534
 30
0.00000000
 11
1.73791492
 21
-3.56834501
 31
0.00000000
  0
LINE
  8
Layer_1
 62
     7
  6
CONTINUOUS
 10
1.73791492
 20
-3.56834501
 30
0.00000000
 11
1.70197702
 21
-3.55910407
 31
0.00000000
  0
LINE
  8
Layer_1
 62
     7
  6
CONTINUOUS
 10
1.70197702
 20
-3.55910407
 30
0.00000000
 11
1.66474307
 21
-3.55342099
 31
0.00000000
  0
LINE
  8
Layer_1
 62
     7
  6
CONTINUOUS
 10
1.66474307
 20
-3.55342099
 30
0.00000000
 11
1.62640157
 21
-3.55148425
 31
0.00000000
  0
LINE
  8
Layer_1
 62
     7
  6
CONTINUOUS
 10
1.62640157
 20
-3.55148425
 30
0.00000000
 11
1.58806008
 21
-3.55342034
 31
0.00000000
  0
LINE
  8
Layer_1
 62
     7
  6
CONTINUOUS
 10
1.58806008
 20
-3.55342034
 30
0.00000000
 11
1.55082613
 21
-3.55910294
 31
0.00000000
  0
LINE
  8
Layer_1
 62
     7
  6
CONTINUOUS
 10
1.55082613
 20
-3.55910294
 30
0.00000000
 11
1.51488822
 21
-3.56834355
 31
0.00000000
  0
LINE
  8
Layer_1
 62
     7
  6
CONTINUOUS
 10
1.51488822
 20
-3.56834355
 30
0.00000000
 11
1.48043485
 21
-3.58095368
 31
0.00000000
  0
LINE
  8
Layer_1
 62
     7
  6
CONTINUOUS
 10
1.48043485
 20
-3.58095368
 30
0.00000000
 11
1.44765452
 21
-3.59674482
 31
0.00000000
  0
LINE
  8
Layer_1
 62
     7
  6
CONTINUOUS
 10
1.44765452
 20
-3.59674482
 30
0.00000000
 11
1.41673572
 21
-3.61552849
 31
0.00000000
  0
LINE
  8
Layer_1
 62
     7
  6
CONTINUOUS
 10
1.41673572
 20
-3.61552849
 30
0.00000000
 11
1.38786695
 21
-3.63711618
 31
0.00000000
  0
LINE
  8
Layer_1
 62
     7
  6
CONTINUOUS
 10
1.38786695
 20
-3.63711618
 30
0.00000000
 11
1.36123671
 21
-3.66131939
 31
0.00000000
  0
LINE
  8
Layer_1
 62
     7
  6
CONTINUOUS
 10
1.36123671
 20
-3.66131939
 30
0.00000000
 11
1.33703350
 21
-3.68794963
 31
0.00000000
  0
LINE
  8
Layer_1
 62
     7
  6
CONTINUOUS
 10
1.33703350
 20
-3.68794963
 30
0.00000000
 11
1.31544581
 21
-3.71681840
 31
0.00000000
  0
LINE
  8
Layer_1
 62
     7
  6
CONTINUOUS
 10
1.31544581
 20
-3.71681840
 30
0.00000000
 11
1.29666215
 21
-3.74773720
 31
0.00000000
  0
LINE
  8
Layer_1
 62
     7
  6
CONTINUOUS
 10
1.29666215
 20
-3.74773720
 30
0.00000000
 11
1.28087100
 21
-3.78051753
 31
0.00000000
  0
LINE
  8
Layer_1
 62
     7
  6
CONTINUOUS
 10
1.28087100
 20
-3.78051753
 30
0.00000000
 11
1.26826087
 21
-3.81497090
 31
0.00000000
  0
LINE
  8
Layer_1
 62
     7
  6
CONTINUOUS
 10
1.26826087
 20
-3.81497090
 30
0.00000000
 11
1.25902026
 21
-3.85090881
 31
0.00000000
  0
LINE
  8
Layer_1
 62
     7
  6
CONTINUOUS
 10
1.25902026
 20
-3.85090881
 30
0.00000000
 11
1.25333766
 21
-3.88814276
 31
0.00000000
  0
LINE
  8
Layer_1
 62
     7
  6
CONTINUOUS
 10
1.25333766
 20
-3.88814276
 30
0.00000000
 11
1.25140157
 21
-3.92648425
 31
0.00000000
  0
LINE
  8
Layer_1
 62
     7
  6
CONTINUOUS
 10
1.25140157
 20
-3.92648425
 30
0.00000000
 11
1.25333766
 21
-3.96482574
 31
0.00000000
  0
LINE
  8
Layer_1
 62
     7
  6
CONTINUOUS
 10
1.25333766
 20
-3.96482574
 30
0.00000000
 11
1.25902026
 21
-4.00205969
 31
0.00000000
  0
LINE
  8
Layer_1
 62
     7
  6
CONTINUOUS
 10
1.25902026
 20
-4.00205969
 30
0.00000000
 11
1.26826087
 21
-4.03799760
 31
0.00000000
  0
LINE
  8
Layer_1
 62
     7
  6
CONTINUOUS
 10
1.26826087
 20
-4.03799760
 30
0.00000000
 11
1.28087100
 21
-4.07245097
 31
0.00000000
  0
LINE
  8
Layer_1
 62
     7
  6
CONTINUOUS
 10
1.28087100
 20
-4.07245097
 30
0.00000000
 11
1.29666215
 21
-4.10523131
 31
0.00000000
  0
LINE
  8
Layer_1
 62
     7
  6
CONTINUOUS
 10
1.29666215
 20
-4.10523131
 30
0.00000000
 11
1.31544581
 21
-4.13615011
 31
0.00000000
  0
LINE
  8
Layer_1
 62
     7
  6
CONTINUOUS
 10
1.31544581
 20
-4.13615011
 30
0.00000000
 11
1.33703350
 21
-4.16501887
 31
0.00000000
  0
LINE
  8
Layer_1
 62
     7
  6
CONTINUOUS
 10
1.33703350
 20
-4.16501887
 30
0.00000000
 11
1.36123671
 21
-4.19164911
 31
0.00000000
  0
LINE
  8
Layer_1
 62
     7
  6
CONTINUOUS
 10
1.36123671
 20
-4.19164911
 30
0.00000000
 11
1.38786695
 21
-4.21585233
 31
0.00000000
  0
LINE
  8
Layer_1
 62
     7
  6
CONTINUOUS
 10
1.38786695
 20
-4.21585233
 30
0.00000000
 11
1.41673572
 21
-4.23744001
 31
0.00000000
  0
LINE
  8
Layer_1
 62
     7
  6
CONTINUOUS
 10
1.41673572
 20
-4.23744001
 30
0.00000000
 11
1.44765452
 21
-4.25622368
 31
0.00000000
  0
LINE
  8
Layer_1
 62
     7
  6
CONTINUOUS
 10
1.44765452
 20
-4.25622368
 30
0.00000000
 11
1.48043485
 21
-4.27201483
 31
0.00000000
  0
LINE
  8
Layer_1
 62
     7
  6
CONTINUOUS
 10
1.48043485
 20
-4.27201483
 30
0.00000000
 11
1.51488822
 21
-4.28462495
 31
0.00000000
  0
LINE
  8
Layer_1
 62
     7
  6
CONTINUOUS
 10
1.51488822
 20
-4.28462495
 30
0.00000000
 11
1.55082613
 21
-4.29386557
 31
0.00000000
  0
LINE
  8
Layer_1
 62
     7
  6
CONTINUOUS
 10
1.55082613
 20
-4.29386557
 30
0.00000000
 11
1.58806008
 21
-4.29954816
 31
0.00000000
  0
LINE
  8
Layer_1
 62
     7
  6
CONTINUOUS
 10
1.58806008
 20
-4.29954816
 30
0.00000000
 11
1.62640157
 21
-4.30148425
 31
0.00000000
  0
LINE
  8
Layer_1
 62
     7
  6
CONTINUOUS
 10
1.62640157
 20
-4.30148425
 30
0.00000000
 11
1.66474307
 21
-4.29954886
 31
0.00000000
  0
LINE
  8
Layer_1
 62
     7
  6
CONTINUOUS
 10
1.66474307
 20
-4.29954886
 30
0.00000000
 11
1.70197702
 21
-4.29386686
 31
0.00000000
  0
LINE
  8
Layer_1
 62
     7
  6
CONTINUOUS
 10
1.70197702
 20
-4.29386686
 30
0.00000000
 11
1.73791492
 21
-4.28462678
 31
0.00000000
  0
LINE
  8
Layer_1
 62
     7
  6
CONTINUOUS
 10
1.73791492
 20
-4.28462678
 30
0.00000000
 11
1.77236829
 21
-4.27201710
 31
0.00000000
  0
LINE
  8
Layer_1
 62
     7
  6
CONTINUOUS
 10
1.77236829
 20
-4.27201710
 30
0.00000000
 11
1.80514863
 21
-4.25622634
 31
0.00000000
  0
LINE
  8
Layer_1
 62
     7
  6
CONTINUOUS
 10
1.80514863
 20
-4.25622634
 30
0.00000000
 11
1.83606743
 21
-4.23744299
 31
0.00000000
  0
LINE
  8
Layer_1
 62
     7
  6
CONTINUOUS
 10
1.83606743
 20
-4.23744299
 30
0.00000000
 11
1.86493620
 21
-4.21585556
 31
0.00000000
  0
LINE
  8
Layer_1
 62
     7
  6
CONTINUOUS
 10
1.86493620
 20
-4.21585556
 30
0.00000000
 11
1.89156644
 21
-4.19165256
 31
0.00000000
  0
LINE
  8
Layer_1
 62
     7
  6
CONTINUOUS
 10
1.89156644
 20
-4.19165256
 30
0.00000000
 11
1.91576965
 21
-4.16502248
 31
0.00000000
  0
LINE
  8
Layer_1
 62
     7
  6
CONTINUOUS
 10
1.91576965
 20
-4.16502248
 30
0.00000000
 11
1.93735734
 21
-4.13615384
 31
0.00000000
  0
LINE
  8
Layer_1
 62
     7
  6
CONTINUOUS
 10
1.93735734
 20
-4.13615384
 30
0.00000000
 11
1.95614100
 21
-4.10523512
 31
0.00000000
  0
LINE
  8
Layer_1
 62
     7
  6
CONTINUOUS
 10
1.95614100
 20
-4.10523512
 30
0.00000000
 11
1.97193215
 21
-4.07245485
 31
0.00000000
  0
LINE
  8
Layer_1
 62
     7
  6
CONTINUOUS
 10
1.97193215
 20
-4.07245485
 30
0.00000000
 11
1.98454228
 21
-4.03800151
 31
0.00000000
  0
LINE
  8
Layer_1
 62
     7
  6
CONTINUOUS
 10
1.98454228
 20
-4.03800151
 30
0.00000000
 11
1.99378289
 21
-4.00206362
 31
0.00000000
  0
LINE
  8
Layer_1
 62
     7
  6
CONTINUOUS
 10
1.99378289
 20
-4.00206362
 30
0.00000000
 11
1.99946549
 21
-3.96482968
 31
0.00000000
  0
LINE
  8
Layer_1
 62
     7
  6
CONTINUOUS
 10
1.99946549
 20
-3.96482968
 30
0.00000000
 11
2.00140157
 21
-3.92648819
 31
0.00000000
  0
LINE
  8
Layer_1
 62
     7
  6
CONTINUOUS
 10
-3.55148425
 20
-1.62640157
 30
0.00000000
 11
-3.55342034
 21
-1.58806008
 31
0.00000000
  0
LINE
  8
Layer_1
 62
     7
  6
CONTINUOUS
 10
-3.55342034
 20
-1.58806008
 30
0.00000000
 11
-3.55910294
 21
-1.55082613
 31
0.00000000
  0
LINE
  8
Layer_1
 62
     7
  6
CONTINUOUS
 10
-3.55910294
 20
-1.55082613
 30
0.00000000
 11
-3.56834355
 21
-1.51488822
 31
0.00000000
  0
LINE
  8
Layer_1
 62
     7
  6
CONTINUOUS
 10
-3.56834355
 20
-1.51488822
 30
0.00000000
 11
-3.58095368
 21
-1.48043485
 31
0.00000000
  0
LINE
  8
Layer_1
 62
     7
  6
CONTINUOUS
 10
-3.58095368
 20
-1.48043485
 30
0.00000000
 11
-3.59674482
 21
-1.44765452
 31
0.00000000
  0
LINE
  8
Layer_1
 62
     7
  6
CONTINUOUS
 10
-3.59674482
 20
-1.44765452
 30
0.00000000
 11
-3.61552849
 21
-1.41673572
 31
0.00000000
  0
LINE
  8
Layer_1
 62
     7
  6
CONTINUOUS
 10
-3.61552849
 20
-1.41673572
 30
0.00000000
 11
-3.63711618
 21
-1.38786695
 31
0.00000000
  0
LINE
  8
Layer_1
 62
     7
  6
CONTINUOUS
 10
-3.63711618
 20
-1.38786695
 30
0.00000000
 11
-3.66131939
 21
-1.36123671
 31
0.00000000
  0
LINE
  8
Layer_1
 62
     7
  6
CONTINUOUS
 10
-3.66131939
 20
-1.36123671
 30
0.00000000
 11
-3.68794963
 21
-1.33703350
 31
0.00000000
  0
LINE
  8
Layer_1
 62
     7
  6
CONTINUOUS
 10
-3.68794963
 20
-1.33703350
 30
0.00000000
 11
-3.71681840
 21
-1.31544581
 31
0.00000000
  0
LINE
  8
Layer_1
 62
     7
  6
CONTINUOUS
 10
-3.71681840
 20
-1.31544581
 30
0.00000000
 11
-3.74773720
 21
-1.29666215
 31
0.00000000
  0
LINE
  8
Layer_1
 62
     7
  6
CONTINUOUS
 10
-3.74773720
 20
-1.29666215
 30
0.00000000
 11
-3.78051753
 21
-1.28087100
 31
0.00000000
  0
LINE
  8
Layer_1
 62
     7
  6
CONTINUOUS
 10
-3.78051753
 20
-1.28087100
 30
0.00000000
 11
-3.81497090
 21
-1.26826087
 31
0.00000000
  0
LINE
  8
Layer_1
 62
     7
  6
CONTINUOUS
 10
-3.81497090
 20
-1.26826087
 30
0.00000000
 11
-3.85090881
 21
-1.25902026
 31
0.00000000
  0
LINE
  8
Layer_1
 62
     7
  6
CONTINUOUS
 10
-3.85090881
 20
-1.25902026
 30
0.00000000
 11
-3.88814276
 21
-1.25333766
 31
0.00000000
  0
LINE
  8
Layer_1
 62
     7
  6
CONTINUOUS
 10
-3.88814276
 20
-1.25333766
 30
0.00000000
 11
-3.92648425
 21
-1.25140157
 31
0.00000000
  0
LINE
  8
Layer_1
 62
     7
  6
CONTINUOUS
 10
-3.92648425
 20
-1.25140157
 30
0.00000000
 11
-3.96482574
 21
-1.25333766
 31
0.00000000
  0
LINE
  8
Layer_1
 62
     7
  6
CONTINUOUS
 10
-3.96482574
 20
-1.25333766
 30
0.00000000
 11
-4.00205969
 21
-1.25902026
 31
0.00000000
  0
LINE
  8
Layer_1
 62
     7
  6
CONTINUOUS
 10
-4.00205969
 20
-1.25902026
 30
0.00000000
 11
-4.03799760
 21
-1.26826087
 31
0.00000000
  0
LINE
  8
Layer_1
 62
     7
  6
CONTINUOUS
 10
-4.03799760
 20
-1.26826087
 30
0.00000000
 11
-4.07245097
 21
-1.28087100
 31
0.00000000
  0
LINE
  8
Layer_1
 62
     7
  6
CONTINUOUS
 10
-4.07245097
 20
-1.28087100
 30
0.00000000
 11
-4.10523131
 21
-1.29666215
 31
0.00000000
  0
LINE
  8
Layer_1
 62
     7
  6
CONTINUOUS
 10
-4.10523131
 20
-1.29666215
 30
0.00000000
 11
-4.13615011
 21
-1.31544581
 31
0.00000000
  0
LINE
  8
Layer_1
 62
     7
  6
CONTINUOUS
 10
-4.13615011
 20
-1.31544581
 30
0.00000000
 11
-4.16501887
 21
-1.33703350
 31
0.00000000
  0
LINE
  8
Layer_1
 62
     7
  6
CONTINUOUS
 10
-4.16501887
 20
-1.33703350
 30
0.00000000
 11
-4.19164911
 21
-1.36123671
 31
0.00000000
  0
LINE
  8
Layer_1
 62
     7
  6
CONTINUOUS
 10
-4.19164911
 20
-1.36123671
 30
0.00000000
 11
-4.21585233
 21
-1.38786695
 31
0.00000000
  0
LINE
  8
Layer_1
 62
     7
  6
CONTINUOUS
 10
-4.21585233
 20
-1.38786695
 30
0.00000000
 11
-4.23744001
 21
-1.41673572
 31
0.00000000
  0
LINE
  8
Layer_1
 62
     7
  6
CONTINUOUS
 10
-4.23744001
 20
-1.41673572
 30
0.00000000
 11
-4.25622368
 21
-1.44765452
 31
0.00000000
  0
LINE
  8
Layer_1
 62
     7
  6
CONTINUOUS
 10
-4.25622368
 20
-1.44765452
 30
0.00000000
 11
-4.27201483
 21
-1.48043485
 31
0.00000000
  0
LINE
  8
Layer_1
 62
     7
  6
CONTINUOUS
 10
-4.27201483
 20
-1.48043485
 30
0.00000000
 11
-4.28462495
 21
-1.51488822
 31
0.00000000
  0
LINE
  8
Layer_1
 62
     7
  6
CONTINUOUS
 10
-4.28462495
 20
-1.51488822
 30
0.00000000
 11
-4.29386557
 21
-1.55082613
 31
0.00000000
  0
LINE
  8
Layer_1
 62
     7
  6
CONTINUOUS
 10
-4.29386557
 20
-1.55082613
 30
0.00000000
 11
-4.29954816
 21
-1.58806008
 31
0.00000000
  0
LINE
  8
Layer_1
 62
     7
  6
CONTINUOUS
 10
-4.29954816
 20
-1.58806008
 30
0.00000000
 11
-4.30148425
 21
-1.62640157
 31
0.00000000
  0
LINE
  8
Layer_1
 62
     7
  6
CONTINUOUS
 10
-4.30148425
 20
-1.62640157
 30
0.00000000
 11
-4.29954886
 21
-1.66474307
 31
0.00000000
  0
LINE
  8
Layer_1
 62
     7
  6
CONTINUOUS
 10
-4.29954886
 20
-1.66474307
 30
0.00000000
 11
-4.29386686
 21
-1.70197702
 31
0.00000000
  0
LINE
  8
Layer_1
 62
     7
  6
CONTINUOUS
 10
-4.29386686
 20
-1.70197702
 30
0.00000000
 11
-4.28462678
 21
-1.73791492
 31
0.00000000
  0
LINE
  8
Layer_1
 62
     7
  6
CONTINUOUS
 10
-4.28462678
 20
-1.73791492
 30
0.00000000
 11
-4.27201710
 21
-1.77236829
 31
0.00000000
  0
LINE
  8
Layer_1
 62
     7
  6
CONTINUOUS
 10
-4.27201710
 20
-1.77236829
 30
0.00000000
 11
-4.25622634
 21
-1.80514863
 31
0.00000000
  0
LINE
  8
Layer_1
 62
     7
  6
CONTINUOUS
 10
-4.25622634
 20
-1.80514863
 30
0.00000000
 11
-4.23744299
 21
-1.83606743
 31
0.00000000
  0
LINE
  8
Layer_1
 62
     7
  6
CONTINUOUS
 10
-4.23744299
 20
-1.83606743
 30
0.00000000
 11
-4.21585556
 21
-1.86493620
 31
0.00000000
  0
LINE
  8
Layer_1
 62
     7
  6
CONTINUOUS
 10
-4.21585556
 20
-1.86493620
 30
0.00000000
 11
-4.19165256
 21
-1.89156644
 31
0.00000000
  0
LINE
  8
Layer_1
 62
     7
  6
CONTINUOUS
 10
-4.19165256
 20
-1.89156644
 30
0.00000000
 11
-4.16502248
 21
-1.91576965
 31
0.00000000
  0
LINE
  8
Layer_1
 62
     7
  6
CONTINUOUS
 10
-4.16502248
 20
-1.91576965
 30
0.00000000
 11
-4.13615384
 21
-1.93735734
 31
0.00000000
  0
LINE
  8
Layer_1
 62
     7
  6
CONTINUOUS
 10
-4.13615384
 20
-1.93735734
 30
0.00000000
 11
-4.10523512
 21
-1.95614100
 31
0.00000000
  0
LINE
  8
Layer_1
 62
     7
  6
CONTINUOUS
 10
-4.10523512
 20
-1.95614100
 30
0.00000000
 11
-4.07245485
 21
-1.97193215
 31
0.00000000
  0
LINE
  8
Layer_1
 62
     7
  6
CONTINUOUS
 10
-4.07245485
 20
-1.97193215
 30
0.00000000
 11
-4.03800151
 21
-1.98454228
 31
0.00000000
  0
LINE
  8
Layer_1
 62
     7
  6
CONTINUOUS
 10
-4.03800151
 20
-1.98454228
 30
0.00000000
 11
-4.00206362
 21
-1.99378289
 31
0.00000000
  0
LINE
  8
Layer_1
 62
     7
  6
CONTINUOUS
 10
-4.00206362
 20
-1.99378289
 30
0.00000000
 11
-3.96482968
 21
-1.99946549
 31
0.00000000
  0
LINE
  8
Layer_1
 62
     7
  6
CONTINUOUS
 10
-3.96482968
 20
-1.99946549
 30
0.00000000
 11
-3.92648819
 21
-2.00140157
 31
0.00000000
  0
LINE
  8
Layer_1
 62
     7
  6
CONTINUOUS
 10
-3.92648819
 20
-2.00140157
 30
0.00000000
 11
-3.88814670
 21
-1.99946553
 31
0.00000000
  0
LINE
  8
Layer_1
 62
     7
  6
CONTINUOUS
 10
-3.88814670
 20
-1.99946553
 30
0.00000000
 11
-3.85091274
 21
-1.99378306
 31
0.00000000
  0
LINE
  8
Layer_1
 62
     7
  6
CONTINUOUS
 10
-3.85091274
 20
-1.99378306
 30
0.00000000
 11
-3.81497481
 21
-1.98454264
 31
0.00000000
  0
LINE
  8
Layer_1
 62
     7
  6
CONTINUOUS
 10
-3.81497481
 20
-1.98454264
 30
0.00000000
 11
-3.78052141
 21
-1.97193276
 31
0.00000000
  0
LINE
  8
Layer_1
 62
     7
  6
CONTINUOUS
 10
-3.78052141
 20
-1.97193276
 30
0.00000000
 11
-3.74774101
 21
-1.95614192
 31
0.00000000
  0
LINE
  8
Layer_1
 62
     7
  6
CONTINUOUS
 10
-3.74774101
 20
-1.95614192
 30
0.00000000
 11
-3.71682213
 21
-1.93735858
 31
0.00000000
  0
LINE
  8
Layer_1
 62
     7
  6
CONTINUOUS
 10
-3.71682213
 20
-1.93735858
 30
0.00000000
 11
-3.68795324
 21
-1.91577125
 31
0.00000000
  0
LINE
  8
Layer_1
 62
     7
  6
CONTINUOUS
 10
-3.68795324
 20
-1.91577125
 30
0.00000000
 11
-3.66132283
 21
-1.89156841
 31
0.00000000
  0
LINE
  8
Layer_1
 62
     7
  6
CONTINUOUS
 10
-3.66132283
 20
-1.89156841
 30
0.00000000
 11
-3.63711941
 21
-1.86493853
 31
0.00000000
  0
LINE
  8
Layer_1
 62
     7
  6
CONTINUOUS
 10
-3.63711941
 20
-1.86493853
 30
0.00000000
 11
-3.61553147
 21
-1.83607012
 31
0.00000000
  0
LINE
  8
Layer_1
 62
     7
  6
CONTINUOUS
 10
-3.61553147
 20
-1.83607012
 30
0.00000000
 11
-3.59674748
 21
-1.80515165
 31
0.00000000
  0
LINE
  8
Layer_1
 62
     7
  6
CONTINUOUS
 10
-3.59674748
 20
-1.80515165
 30
0.00000000
 11
-3.58095595
 21
-1.77237162
 31
0.00000000
  0
LINE
  8
Layer_1
 62
     7
  6
CONTINUOUS
 10
-3.58095595
 20
-1.77237162
 30
0.00000000
 11
-3.56834538
 21
-1.73791850
 31
0.00000000
  0
LINE
  8
Layer_1
 62
     7
  6
CONTINUOUS
 10
-3.56834538
 20
-1.73791850
 30
0.00000000
 11
-3.55910424
 21
-1.70198078
 31
0.00000000
  0
LINE
  8
Layer_1
 62
     7
  6
CONTINUOUS
 10
-3.55910424
 20
-1.70198078
 30
0.00000000
 11
-3.55342103
 21
-1.66474696
 31
0.00000000
  0
LINE
  8
Layer_1
 62
     7
  6
CONTINUOUS
 10
-3.55342103
 20
-1.66474696
 30
0.00000000
 11
-3.55148425
 21
-1.62640551
 31
0.00000000
  0
CIRCLE
  8
0
 62
     7
  6
CONTINUOUS
 10
0.00000000
 20
0.00000000
 30
0.00000000
 40
0.25500000
210
0.00000000
220
0.00000000
230
1.00000000
  0
ARC
  8
0
 62
     7
  6
CONTINUOUS
 10
0.10999803
 20
4.24857480
 30
0.00000000
 40
0.17000000
 50
305.64815686
 51
485.67433301
210
0.00000000
220
0.00000000
230
-1.00000000
  0
LINE
  8
0
 62
     7
  6
CONTINUOUS
 10
-0.01610630
 20
4.37936220
 30
0.00000000
 11
-0.01085788
 21
4.38667343
 31
0.00000000
  0
LINE
  8
0
 62
     7
  6
CONTINUOUS
 10
-0.20461427
 20
4.11832420
 30
0.00000000
 11
-0.20907508
 21
4.11043090
 31
0.00000000
  0
ENDSEC
  0
EOF
