  0
SECTION
  2
HEADER
  9
$ACADVER
  1
AC1027
  9
$ACADMAINTVER
 70
   125
  9
$DWGCODEPAGE
  3
ANSI_1252
  9
$LASTSAVEDBY
  1
Noyan Pajoohesh
  9
$REQUIREDVERSIONS
160
                 0
  9
$INSBASE
 10
0.0
 20
0.0
 30
0.0
  9
$EXTMIN
 10
180.338930728208
 20
-137.791187618882
 30
0.0
  9
$EXTMAX
 10
952.9621114056268
 20
62.83859136757065
 30
0.0
  9
$LIMMIN
 10
0.0
 20
0.0
  9
$LIMMAX
 10
12.0
 20
9.0
  9
$ORTHOMODE
 70
     0
  9
$REGENMODE
 70
     1
  9
$FILLMODE
 70
     1
  9
$QTEXTMODE
 70
     0
  9
$MIRRTEXT
 70
     0
  9
$LTSCALE
 40
1.0
  9
$ATTMODE
 70
     1
  9
$TEXTSIZE
 40
0.2
  9
$TRACEWID
 40
0.05
  9
$TEXTSTYLE
  7
Standard
  9
$CLAYER
  8
0
  9
$CELTYPE
  6
ByLayer
  9
$CECOLOR
 62
   256
  9
$CELTSCALE
 40
1.0
  9
$DISPSILH
 70
     0
  9
$DIMSCALE
 40
1.0
  9
$DIMASZ
 40
0.18
  9
$DIMEXO
 40
0.0625
  9
$DIMDLI
 40
0.38
  9
$DIMRND
 40
0.0
  9
$DIMDLE
 40
0.0
  9
$DIMEXE
 40
0.18
  9
$DIMTP
 40
0.0
  9
$DIMTM
 40
0.0
  9
$DIMTXT
 40
0.18
  9
$DIMCEN
 40
0.09
  9
$DIMTSZ
 40
0.0
  9
$DIMTOL
 70
     0
  9
$DIMLIM
 70
     0
  9
$DIMTIH
 70
     1
  9
$DIMTOH
 70
     1
  9
$DIMSE1
 70
     0
  9
$DIMSE2
 70
     0
  9
$DIMTAD
 70
     0
  9
$DIMZIN
 70
     0
  9
$DIMBLK
  1

  9
$DIMASO
 70
     1
  9
$DIMSHO
 70
     1
  9
$DIMPOST
  1

  9
$DIMAPOST
  1

  9
$DIMALT
 70
     0
  9
$DIMALTD
 70
     2
  9
$DIMALTF
 40
25.4
  9
$DIMLFAC
 40
1.0
  9
$DIMTOFL
 70
     0
  9
$DIMTVP
 40
0.0
  9
$DIMTIX
 70
     0
  9
$DIMSOXD
 70
     0
  9
$DIMSAH
 70
     0
  9
$DIMBLK1
  1

  9
$DIMBLK2
  1

  9
$DIMSTYLE
  2
Standard
  9
$DIMCLRD
 70
     0
  9
$DIMCLRE
 70
     0
  9
$DIMCLRT
 70
     0
  9
$DIMTFAC
 40
1.0
  9
$DIMGAP
 40
0.09
  9
$DIMJUST
 70
     0
  9
$DIMSD1
 70
     0
  9
$DIMSD2
 70
     0
  9
$DIMTOLJ
 70
     1
  9
$DIMTZIN
 70
     0
  9
$DIMALTZ
 70
     0
  9
$DIMALTTZ
 70
     0
  9
$DIMUPT
 70
     0
  9
$DIMDEC
 70
     4
  9
$DIMTDEC
 70
     4
  9
$DIMALTU
 70
     2
  9
$DIMALTTD
 70
     2
  9
$DIMTXSTY
  7
Standard
  9
$DIMAUNIT
 70
     0
  9
$DIMADEC
 70
     0
  9
$DIMALTRND
 40
0.0
  9
$DIMAZIN
 70
     0
  9
$DIMDSEP
 70
    46
  9
$DIMATFIT
 70
     3
  9
$DIMFRAC
 70
     0
  9
$DIMLDRBLK
  1

  9
$DIMLUNIT
 70
     2
  9
$DIMLWD
 70
    -2
  9
$DIMLWE
 70
    -2
  9
$DIMTMOVE
 70
     0
  9
$DIMFXL
 40
1.0
  9
$DIMFXLON
 70
     0
  9
$DIMJOGANG
 40
0.7853981633974483
  9
$DIMTFILL
 70
     0
  9
$DIMTFILLCLR
 70
     0
  9
$DIMARCSYM
 70
     0
  9
$DIMLTYPE
  6

  9
$DIMLTEX1
  6

  9
$DIMLTEX2
  6

  9
$DIMTXTDIRECTION
 70
     0
  9
$LUNITS
 70
     2
  9
$LUPREC
 70
     4
  9
$SKETCHINC
 40
0.1
  9
$FILLETRAD
 40
5.0
  9
$AUNITS
 70
     0
  9
$AUPREC
 70
     0
  9
$MENU
  1
.
  9
$ELEVATION
 40
0.0
  9
$PELEVATION
 40
0.0
  9
$THICKNESS
 40
0.0
  9
$LIMCHECK
 70
     0
  9
$CHAMFERA
 40
0.0
  9
$CHAMFERB
 40
0.0
  9
$CHAMFERC
 40
0.0
  9
$CHAMFERD
 40
0.0
  9
$SKPOLY
 70
     0
  9
$TDCREATE
 40
2457655.987361111
  9
$TDUCREATE
 40
2457655.841532361
  9
$TDUPDATE
 40
2457818.618912037
  9
$TDUUPDATE
 40
2457818.473078703
  9
$TDINDWG
 40
11.1057235880
  9
$TDUSRTIMER
 40
11.1057191667
  9
$USRTIMER
 70
     1
  9
$ANGBASE
 50
0.0
  9
$ANGDIR
 70
     0
  9
$PDMODE
 70
     0
  9
$PDSIZE
 40
0.0
  9
$PLINEWID
 40
0.0
  9
$SPLFRAME
 70
     0
  9
$SPLINETYPE
 70
     6
  9
$SPLINESEGS
 70
     8
  9
$HANDSEED
  5
B8F
  9
$SURFTAB1
 70
     6
  9
$SURFTAB2
 70
     6
  9
$SURFTYPE
 70
     6
  9
$SURFU
 70
     6
  9
$SURFV
 70
     6
  9
$UCSBASE
  2

  9
$UCSNAME
  2

  9
$UCSORG
 10
0.0
 20
0.0
 30
0.0
  9
$UCSXDIR
 10
1.0
 20
0.0
 30
0.0
  9
$UCSYDIR
 10
0.0
 20
1.0
 30
0.0
  9
$UCSORTHOREF
  2

  9
$UCSORTHOVIEW
 70
     0
  9
$UCSORGTOP
 10
0.0
 20
0.0
 30
0.0
  9
$UCSORGBOTTOM
 10
0.0
 20
0.0
 30
0.0
  9
$UCSORGLEFT
 10
0.0
 20
0.0
 30
0.0
  9
$UCSORGRIGHT
 10
0.0
 20
0.0
 30
0.0
  9
$UCSORGFRONT
 10
0.0
 20
0.0
 30
0.0
  9
$UCSORGBACK
 10
0.0
 20
0.0
 30
0.0
  9
$PUCSBASE
  2

  9
$PUCSNAME
  2

  9
$PUCSORG
 10
0.0
 20
0.0
 30
0.0
  9
$PUCSXDIR
 10
1.0
 20
0.0
 30
0.0
  9
$PUCSYDIR
 10
0.0
 20
1.0
 30
0.0
  9
$PUCSORTHOREF
  2

  9
$PUCSORTHOVIEW
 70
     0
  9
$PUCSORGTOP
 10
0.0
 20
0.0
 30
0.0
  9
$PUCSORGBOTTOM
 10
0.0
 20
0.0
 30
0.0
  9
$PUCSORGLEFT
 10
0.0
 20
0.0
 30
0.0
  9
$PUCSORGRIGHT
 10
0.0
 20
0.0
 30
0.0
  9
$PUCSORGFRONT
 10
0.0
 20
0.0
 30
0.0
  9
$PUCSORGBACK
 10
0.0
 20
0.0
 30
0.0
  9
$USERI1
 70
     0
  9
$USERI2
 70
     0
  9
$USERI3
 70
     0
  9
$USERI4
 70
     0
  9
$USERI5
 70
     0
  9
$USERR1
 40
0.0
  9
$USERR2
 40
0.0
  9
$USERR3
 40
0.0
  9
$USERR4
 40
0.0
  9
$USERR5
 40
0.0
  9
$WORLDVIEW
 70
     1
  9
$SHADEDGE
 70
     3
  9
$SHADEDIF
 70
    70
  9
$TILEMODE
 70
     1
  9
$MAXACTVP
 70
    64
  9
$PINSBASE
 10
0.0
 20
0.0
 30
0.0
  9
$PLIMCHECK
 70
     0
  9
$PEXTMIN
 10
0.0
 20
0.0
 30
0.0
  9
$PEXTMAX
 10
0.0
 20
0.0
 30
0.0
  9
$PLIMMIN
 10
0.0
 20
0.0
  9
$PLIMMAX
 10
12.0
 20
9.0
  9
$UNITMODE
 70
     0
  9
$VISRETAIN
 70
     1
  9
$PLINEGEN
 70
     0
  9
$PSLTSCALE
 70
     1
  9
$TREEDEPTH
 70
  3020
  9
$CMLSTYLE
  2
Standard
  9
$CMLJUST
 70
     0
  9
$CMLSCALE
 40
1.0
  9
$PROXYGRAPHICS
 70
     1
  9
$MEASUREMENT
 70
     0
  9
$CELWEIGHT
370
    -1
  9
$ENDCAPS
280
     0
  9
$JOINSTYLE
280
     0
  9
$LWDISPLAY
290
     0
  9
$INSUNITS
 70
     4
  9
$HYPERLINKBASE
  1

  9
$STYLESHEET
  1

  9
$XEDIT
290
     1
  9
$CEPSNTYPE
380
     0
  9
$PSTYLEMODE
290
     1
  9
$FINGERPRINTGUID
  2
{40FC3629-C7BE-4AB9-8C25-1CCAA1F30F34}
  9
$VERSIONGUID
  2
{164AD67B-BD77-F448-8DFD-CA3597143FAB}
  9
$EXTNAMES
290
     1
  9
$PSVPSCALE
 40
0.0
  9
$OLESTARTUP
290
     0
  9
$SORTENTS
280
   127
  9
$INDEXCTL
280
     0
  9
$HIDETEXT
280
     1
  9
$XCLIPFRAME
280
     2
  9
$HALOGAP
280
     0
  9
$OBSCOLOR
 70
   257
  9
$OBSLTYPE
280
     0
  9
$INTERSECTIONDISPLAY
280
     0
  9
$INTERSECTIONCOLOR
 70
   257
  9
$DIMASSOC
280
     2
  9
$PROJECTNAME
  1

  9
$CAMERADISPLAY
290
     0
  9
$LENSLENGTH
 40
50.0
  9
$CAMERAHEIGHT
 40
0.0
  9
$STEPSPERSEC
 40
2.0
  9
$STEPSIZE
 40
6.0
  9
$3DDWFPREC
 40
2.0
  9
$PSOLWIDTH
 40
0.25
  9
$PSOLHEIGHT
 40
4.0
  9
$LOFTANG1
 40
1.570796326794896
  9
$LOFTANG2
 40
1.570796326794896
  9
$LOFTMAG1
 40
0.0
  9
$LOFTMAG2
 40
0.0
  9
$LOFTPARAM
 70
     7
  9
$LOFTNORMALS
280
     1
  9
$LATITUDE
 40
37.795
  9
$LONGITUDE
 40
-122.394
  9
$NORTHDIRECTION
 40
0.0
  9
$TIMEZONE
 70
 -8000
  9
$LIGHTGLYPHDISPLAY
280
     1
  9
$TILEMODELIGHTSYNCH
280
     1
  9
$CMATERIAL
347
96
  9
$SOLIDHIST
280
     0
  9
$SHOWHIST
280
     1
  9
$DWFFRAME
280
     2
  9
$DGNFRAME
280
     0
  9
$REALWORLDSCALE
290
     1
  9
$INTERFERECOLOR
 62
     1
  9
$INTERFEREOBJVS
345
A3
  9
$INTERFEREVPVS
346
A0
  9
$CSHADOW
280
     0
  9
$SHADOWPLANELOCATION
 40
0.0
  0
ENDSEC
  0
SECTION
  2
CLASSES
  0
CLASS
  1
ACDBDICTIONARYWDFLT
  2
AcDbDictionaryWithDefault
  3
ObjectDBX Classes
 90
        0
 91
        1
280
     0
281
     0
  0
CLASS
  1
DICTIONARYVAR
  2
AcDbDictionaryVar
  3
ObjectDBX Classes
 90
        0
 91
        9
280
     0
281
     0
  0
CLASS
  1
TABLESTYLE
  2
AcDbTableStyle
  3
ObjectDBX Classes
 90
     4095
 91
        1
280
     0
281
     0
  0
CLASS
  1
MATERIAL
  2
AcDbMaterial
  3
ObjectDBX Classes
 90
     1153
 91
        3
280
     0
281
     0
  0
CLASS
  1
VISUALSTYLE
  2
AcDbVisualStyle
  3
ObjectDBX Classes
 90
     4095
 91
       24
280
     0
281
     0
  0
CLASS
  1
SCALE
  2
AcDbScale
  3
ObjectDBX Classes
 90
     1153
 91
       33
280
     0
281
     0
  0
CLASS
  1
MLEADERSTYLE
  2
AcDbMLeaderStyle
  3
ACDB_MLEADERSTYLE_CLASS
 90
     4095
 91
        2
280
     0
281
     0
  0
CLASS
  1
CELLSTYLEMAP
  2
AcDbCellStyleMap
  3
ObjectDBX Classes
 90
     1152
 91
        1
280
     0
281
     0
  0
CLASS
  1
EXACXREFPANELOBJECT
  2
ExAcXREFPanelObject
  3
EXAC_ESW
 90
     1025
 91
        1
280
     0
281
     0
  0
CLASS
  1
NPOCOLLECTION
  2
AcDbImpNonPersistentObjectsCollection
  3
ObjectDBX Classes
 90
     1153
 91
        1
280
     0
281
     0
  0
CLASS
  1
LAYER_INDEX
  2
AcDbLayerIndex
  3
ObjectDBX Classes
 90
        0
 91
        0
280
     0
281
     0
  0
CLASS
  1
SPATIAL_INDEX
  2
AcDbSpatialIndex
  3
ObjectDBX Classes
 90
        0
 91
        0
280
     0
281
     0
  0
CLASS
  1
IDBUFFER
  2
AcDbIdBuffer
  3
ObjectDBX Classes
 90
        0
 91
        0
280
     0
281
     0
  0
CLASS
  1
ACDBSECTIONVIEWSTYLE
  2
AcDbSectionViewStyle
  3
ObjectDBX Classes
 90
     1025
 91
        2
280
     0
281
     0
  0
CLASS
  1
ACDBDETAILVIEWSTYLE
  2
AcDbDetailViewStyle
  3
ObjectDBX Classes
 90
     1025
 91
        2
280
     0
281
     0
  0
CLASS
  1
DIMASSOC
  2
AcDbDimAssoc
  3
"AcDbDimAssoc|Product Desc:     AcDim ARX App For Dimension|Company:          Autodesk, Inc.|WEB Address:      www.autodesk.com"
 90
        0
 91
        0
280
     0
281
     0
  0
CLASS
  1
SORTENTSTABLE
  2
AcDbSortentsTable
  3
ObjectDBX Classes
 90
        0
 91
        1
280
     0
281
     0
  0
ENDSEC
  0
SECTION
  2
TABLES
  0
TABLE
  2
VPORT
  5
8
330
0
100
AcDbSymbolTable
 70
     1
1001
ACAD
1000
DbSaveVer
1071
        5
  0
VPORT
  5
94
330
8
100
AcDbSymbolTableRecord
100
AcDbViewportTableRecord
  2
*Active
 70
     0
 10
0.0
 20
0.0
 11
1.0
 21
1.0
 12
435.2333270932641
 22
-60.50886273961885
 13
0.0
 23
0.0
 14
0.5
 24
0.5
 15
0.5
 25
0.5
 16
0.0
 26
0.0
 36
1.0
 17
0.0
 27
0.0
 37
0.0
 40
327.0340138990994
 41
2.445037353255069
 42
50.0
 43
0.0
 44
0.0
 50
0.0
 51
0.0
 71
     0
 72
  1000
 73
     1
 74
     3
 75
     0
 76
     0
 77
     0
 78
     0
281
     0
 65
     1
110
0.0
120
0.0
130
0.0
111
1.0
121
0.0
131
0.0
112
0.0
122
1.0
132
0.0
 79
     0
146
0.0
348
9F
 60
     3
 61
     5
292
     1
282
     1
141
0.0
142
0.0
 63
   250
421
  3355443
1001
ACAD_NAV_VCDISPLAY
1070
     3
  0
ENDTAB
  0
TABLE
  2
LTYPE
  5
5
330
0
100
AcDbSymbolTable
 70
     1
  0
LTYPE
  5
14
330
5
100
AcDbSymbolTableRecord
100
AcDbLinetypeTableRecord
  2
ByBlock
 70
     0
  3

 72
    65
 73
     0
 40
0.0
  0
LTYPE
  5
15
330
5
100
AcDbSymbolTableRecord
100
AcDbLinetypeTableRecord
  2
ByLayer
 70
     0
  3

 72
    65
 73
     0
 40
0.0
  0
LTYPE
  5
16
330
5
100
AcDbSymbolTableRecord
100
AcDbLinetypeTableRecord
  2
Continuous
 70
     0
  3
Solid line
 72
    65
 73
     0
 40
0.0
  0
ENDTAB
  0
TABLE
  2
LAYER
  5
2
102
{ACAD_XDICTIONARY
360
18E
102
}
330
0
100
AcDbSymbolTable
 70
     1
  0
LAYER
  5
10
102
{ACAD_XDICTIONARY
360
E6
102
}
330
2
100
AcDbSymbolTableRecord
100
AcDbLayerTableRecord
  2
0
 70
     0
 62
     7
  6
Continuous
370
    -3
390
F
347
98
348
0
  0
ENDTAB
  0
TABLE
  2
STYLE
  5
3
330
0
100
AcDbSymbolTable
 70
     2
  0
STYLE
  5
11
330
3
100
AcDbSymbolTableRecord
100
AcDbTextStyleTableRecord
  2
Standard
 70
     0
 40
0.0
 41
1.0
 50
0.0
 71
     0
 42
0.2
  3
arial.ttf
  4

1001
ACAD
1000
Arial
1071
       34
  0
STYLE
  5
DC
330
3
100
AcDbSymbolTableRecord
100
AcDbTextStyleTableRecord
  2
Annotative
 70
     0
 40
0.0
 41
1.0
 50
0.0
 71
     0
 42
0.2
  3
arial.ttf
  4

1001
AcadAnnotative
1000
AnnotativeData
1002
{
1070
     1
1070
     1
1002
}
1001
ACAD
1000
Arial
1071
       34
  0
ENDTAB
  0
TABLE
  2
VIEW
  5
6
330
0
100
AcDbSymbolTable
 70
     1
  0
ENDTAB
  0
TABLE
  2
UCS
  5
7
330
0
100
AcDbSymbolTable
 70
     0
  0
ENDTAB
  0
TABLE
  2
APPID
  5
9
330
0
100
AcDbSymbolTable
 70
     9
  0
APPID
  5
12
330
9
100
AcDbSymbolTableRecord
100
AcDbRegAppTableRecord
  2
ACAD
 70
     0
  0
APPID
  5
DD
330
9
100
AcDbSymbolTableRecord
100
AcDbRegAppTableRecord
  2
AcadAnnoPO
 70
     0
  0
APPID
  5
DE
330
9
100
AcDbSymbolTableRecord
100
AcDbRegAppTableRecord
  2
AcadAnnotative
 70
     0
  0
APPID
  5
DF
330
9
100
AcDbSymbolTableRecord
100
AcDbRegAppTableRecord
  2
ACAD_DSTYLE_DIMJAG
 70
     0
  0
APPID
  5
E0
330
9
100
AcDbSymbolTableRecord
100
AcDbRegAppTableRecord
  2
ACAD_DSTYLE_DIMTALN
 70
     0
  0
APPID
  5
107
330
9
100
AcDbSymbolTableRecord
100
AcDbRegAppTableRecord
  2
ACAD_MLEADERVER
 70
     0
  0
APPID
  5
1A6
330
9
100
AcDbSymbolTableRecord
100
AcDbRegAppTableRecord
  2
ACAD_NAV_VCDISPLAY
 70
     0
  0
APPID
  5
1CD
330
9
100
AcDbSymbolTableRecord
100
AcDbRegAppTableRecord
  2
ACAD_EXEMPT_FROM_CAD_STANDARDS
 70
     0
  0
APPID
  5
5D9
330
9
100
AcDbSymbolTableRecord
100
AcDbRegAppTableRecord
  2
ACAD_PSEXT
 70
     0
  0
ENDTAB
  0
TABLE
  2
DIMSTYLE
  5
A
330
0
100
AcDbSymbolTable
 70
     3
100
AcDbDimStyleTable
 71
     2
340
27
340
E1
  0
DIMSTYLE
105
27
330
A
100
AcDbSymbolTableRecord
100
AcDbDimStyleTableRecord
  2
Standard
 70
     0
340
11
  0
DIMSTYLE
105
E1
330
A
100
AcDbSymbolTableRecord
100
AcDbDimStyleTableRecord
  2
Annotative
 70
     0
 40
0.0
340
11
1001
AcadAnnotative
1000
AnnotativeData
1002
{
1070
     1
1070
     1
1002
}
1001
ACAD_DSTYLE_DIMJAG
1070
   388
1040
1.5
1001
ACAD_DSTYLE_DIMTALN
1070
   392
1070
     0
  0
DIMSTYLE
105
313
330
A
100
AcDbSymbolTableRecord
100
AcDbDimStyleTableRecord
  2
ISO-25
 70
     0
 41
2.5
 42
0.625
 43
3.75
 44
1.25
 73
     0
 74
     0
 77
     1
 78
     8
140
2.5
141
2.5
143
0.0393700787
147
0.625
171
     3
172
     1
271
     2
272
     2
274
     3
278
    44
283
     0
284
     8
340
11
  0
ENDTAB
  0
TABLE
  2
BLOCK_RECORD
  5
1
330
0
100
AcDbSymbolTable
 70
     1
  0
BLOCK_RECORD
  5
1F
102
{ACAD_XDICTIONARY
360
15D
102
}
330
1
100
AcDbSymbolTableRecord
100
AcDbBlockTableRecord
  2
*Model_Space
340
22
 70
     0
280
     1
281
     0
  0
BLOCK_RECORD
  5
58
330
1
100
AcDbSymbolTableRecord
100
AcDbBlockTableRecord
  2
*Paper_Space
340
59
 70
     0
280
     1
281
     0
  0
BLOCK_RECORD
  5
5D
330
1
100
AcDbSymbolTableRecord
100
AcDbBlockTableRecord
  2
*Paper_Space0
340
5E
 70
     0
280
     1
281
     0
  0
ENDTAB
  0
ENDSEC
  0
SECTION
  2
BLOCKS
  0
BLOCK
  5
20
330
1F
100
AcDbEntity
  8
0
100
AcDbBlockBegin
  2
*Model_Space
 70
     0
 10
0.0
 20
0.0
 30
0.0
  3
*Model_Space
  1

  0
ENDBLK
  5
21
330
1F
100
AcDbEntity
  8
0
100
AcDbBlockEnd
  0
BLOCK
  5
5A
330
58
100
AcDbEntity
 67
     1
  8
0
100
AcDbBlockBegin
  2
*Paper_Space
 70
     0
 10
0.0
 20
0.0
 30
0.0
  3
*Paper_Space
  1

  0
ENDBLK
  5
5B
330
58
100
AcDbEntity
 67
     1
  8
0
100
AcDbBlockEnd
  0
BLOCK
  5
5F
330
5D
100
AcDbEntity
 67
     1
  8
0
100
AcDbBlockBegin
  2
*Paper_Space0
 70
     0
 10
0.0
 20
0.0
 30
0.0
  3
*Paper_Space0
  1

  0
ENDBLK
  5
60
330
5D
100
AcDbEntity
 67
     1
  8
0
100
AcDbBlockEnd
  0
ENDSEC
  0
SECTION
  2
ENTITIES
  0
CIRCLE
  5
220
330
1F
100
AcDbEntity
  8
0
100
AcDbCircle
 10
343.7018671315485
 20
-100.5315919261768
 30
0.0
 40
1.6
  0
CIRCLE
  5
225
330
1F
100
AcDbEntity
  8
0
100
AcDbCircle
 10
313.7018671315486
 20
-100.5315919261768
 30
0.0
 40
1.6
  0
CIRCLE
  5
22F
330
1F
100
AcDbEntity
  8
0
100
AcDbCircle
 10
328.7018671315486
 20
-86.98159192617683
 30
0.0
 40
1.6
  0
CIRCLE
  5
232
330
1F
100
AcDbEntity
  8
0
100
AcDbCircle
 10
328.7018671315486
 20
-114.0815919261768
 30
0.0
 40
1.6
  0
CIRCLE
  5
235
330
1F
100
AcDbEntity
  8
0
100
AcDbCircle
 10
328.7018671315486
 20
-100.5315919261768
 30
0.0
 40
1.6
  0
LINE
  5
244
330
1F
100
AcDbEntity
  8
0
100
AcDbLine
 10
324.7018671315486
 20
-97.43159192617682
 30
0.0
 11
324.7018671315486
 21
-103.6315919261768
 31
0.0
  0
LINE
  5
26D
102
{ACAD_REACTORS
330
885
102
}
330
1F
100
AcDbEntity
  8
0
100
AcDbLine
 10
403.2468162846091
 20
-25.65270359268561
 30
0.0
 11
405.7468162846091
 21
-25.65270359268561
 31
0.0
  0
LINE
  5
26E
102
{ACAD_REACTORS
330
885
102
}
330
1F
100
AcDbEntity
  8
0
100
AcDbLine
 10
405.7468162846091
 20
-25.65270359268561
 30
0.0
 11
405.7468162846091
 21
-27.05270359268565
 31
0.0
  0
LINE
  5
26F
102
{ACAD_REACTORS
330
885
102
}
330
1F
100
AcDbEntity
  8
0
100
AcDbLine
 10
405.7468162846091
 20
-27.05270359268565
 30
0.0
 11
408.2468162846091
 21
-27.05270359268565
 31
0.0
  0
LINE
  5
272
102
{ACAD_REACTORS
330
885
102
}
330
1F
100
AcDbEntity
  8
0
100
AcDbLine
 10
408.2468162846091
 20
-27.05270359268565
 30
0.0
 11
408.2468162846091
 21
-25.65270359268561
 31
0.0
  0
LINE
  5
273
102
{ACAD_REACTORS
330
885
102
}
330
1F
100
AcDbEntity
  8
0
100
AcDbLine
 10
408.2468162846091
 20
-25.65270359268561
 30
0.0
 11
409.2468162846091
 21
-25.65270359268561
 31
0.0
  0
LINE
  5
275
102
{ACAD_REACTORS
330
885
102
}
330
1F
100
AcDbEntity
  8
0
100
AcDbLine
 10
403.2468162846091
 20
-22.65270359268561
 30
0.0
 11
405.7468162846091
 21
-22.65270359268561
 31
0.0
  0
LINE
  5
276
102
{ACAD_REACTORS
330
885
102
}
330
1F
100
AcDbEntity
  8
0
100
AcDbLine
 10
405.7468162846091
 20
-22.65270359268561
 30
0.0
 11
405.7468162846091
 21
-21.25270359268563
 31
0.0
  0
LINE
  5
277
102
{ACAD_REACTORS
330
885
102
}
330
1F
100
AcDbEntity
  8
0
100
AcDbLine
 10
405.7468162846091
 20
-21.25270359268563
 30
0.0
 11
408.2468162846091
 21
-21.25270359268563
 31
0.0
  0
LINE
  5
278
102
{ACAD_REACTORS
330
885
102
}
330
1F
100
AcDbEntity
  8
0
100
AcDbLine
 10
408.2468162846091
 20
-21.25270359268563
 30
0.0
 11
408.2468162846091
 21
-22.65270359268561
 31
0.0
  0
LINE
  5
279
102
{ACAD_REACTORS
330
885
102
}
330
1F
100
AcDbEntity
  8
0
100
AcDbLine
 10
408.2468162846091
 20
-22.65270359268561
 30
0.0
 11
409.2468162846091
 21
-22.65270359268561
 31
0.0
  0
LINE
  5
27A
102
{ACAD_REACTORS
330
885
102
}
330
1F
100
AcDbEntity
  8
0
100
AcDbLine
 10
409.2468162846091
 20
-22.65270359268561
 30
0.0
 11
409.2468162846091
 21
-25.65270359268561
 31
0.0
  0
ARC
  5
28B
102
{ACAD_REACTORS
330
885
102
}
330
1F
100
AcDbEntity
  8
0
100
AcDbCircle
 10
418.2468162846091
 20
-24.15270359268561
 30
0.0
 40
10.0
100
AcDbArc
 50
270.0
 51
90.0
  0
CIRCLE
  5
28C
102
{ACAD_REACTORS
330
885
102
}
330
1F
100
AcDbEntity
  8
0
100
AcDbCircle
 10
418.2468162846091
 20
-24.15270359268561
 30
0.0
 40
6.0
  0
LINE
  5
28D
102
{ACAD_REACTORS
330
885
102
}
330
1F
100
AcDbEntity
  8
0
100
AcDbLine
 10
396.8968162846092
 20
-34.15270359268561
 30
0.0
 11
418.2468162846091
 21
-34.15270359268561
 31
0.0
  0
LINE
  5
28F
102
{ACAD_REACTORS
330
885
102
}
330
1F
100
AcDbEntity
  8
0
100
AcDbLine
 10
396.8968162846092
 20
-14.15270359268561
 30
0.0
 11
418.2468162846091
 21
-14.15270359268561
 31
0.0
  0
LINE
  5
290
102
{ACAD_REACTORS
330
885
102
}
330
1F
100
AcDbEntity
  8
0
100
AcDbLine
 10
403.2468162846091
 20
-20.05270359268565
 30
0.0
 11
403.2468162846091
 21
-22.65270359268561
 31
0.0
  0
LINE
  5
291
102
{ACAD_REACTORS
330
885
102
}
330
1F
100
AcDbEntity
  8
0
100
AcDbLine
 10
403.2468162846091
 20
-25.65270359268561
 30
0.0
 11
403.2468162846091
 21
-28.25270359268563
 31
0.0
  0
LINE
  5
2B2
102
{ACAD_REACTORS
330
886
102
}
330
1F
100
AcDbEntity
  8
0
100
AcDbLine
 10
403.2000472697801
 20
-46.74089289120888
 30
0.0
 11
405.7000472697801
 21
-46.74089289120888
 31
0.0
  0
LINE
  5
2B3
102
{ACAD_REACTORS
330
886
102
}
330
1F
100
AcDbEntity
  8
0
100
AcDbLine
 10
405.7000472697801
 20
-46.74089289120888
 30
0.0
 11
405.7000472697801
 21
-48.14089289120886
 31
0.0
  0
LINE
  5
2B4
102
{ACAD_REACTORS
330
886
102
}
330
1F
100
AcDbEntity
  8
0
100
AcDbLine
 10
405.7000472697801
 20
-48.14089289120886
 30
0.0
 11
408.2000472697801
 21
-48.14089289120886
 31
0.0
  0
LINE
  5
2B5
102
{ACAD_REACTORS
330
886
102
}
330
1F
100
AcDbEntity
  8
0
100
AcDbLine
 10
408.2000472697801
 20
-48.14089289120886
 30
0.0
 11
408.2000472697801
 21
-46.74089289120888
 31
0.0
  0
LINE
  5
2B6
102
{ACAD_REACTORS
330
886
102
}
330
1F
100
AcDbEntity
  8
0
100
AcDbLine
 10
408.2000472697801
 20
-46.74089289120888
 30
0.0
 11
409.2000472697801
 21
-46.74089289120888
 31
0.0
  0
LINE
  5
2B7
102
{ACAD_REACTORS
330
886
102
}
330
1F
100
AcDbEntity
  8
0
100
AcDbLine
 10
403.2000472697801
 20
-43.74089289120888
 30
0.0
 11
405.7000472697801
 21
-43.74089289120888
 31
0.0
  0
LINE
  5
2B8
102
{ACAD_REACTORS
330
886
102
}
330
1F
100
AcDbEntity
  8
0
100
AcDbLine
 10
405.7000472697801
 20
-43.74089289120888
 30
0.0
 11
405.7000472697801
 21
-42.3408928912088
 31
0.0
  0
LINE
  5
2B9
102
{ACAD_REACTORS
330
886
102
}
330
1F
100
AcDbEntity
  8
0
100
AcDbLine
 10
405.7000472697801
 20
-42.3408928912088
 30
0.0
 11
408.2000472697801
 21
-42.3408928912088
 31
0.0
  0
LINE
  5
2BA
102
{ACAD_REACTORS
330
886
102
}
330
1F
100
AcDbEntity
  8
0
100
AcDbLine
 10
408.2000472697801
 20
-42.3408928912088
 30
0.0
 11
408.2000472697801
 21
-43.74089289120888
 31
0.0
  0
LINE
  5
2BB
102
{ACAD_REACTORS
330
886
102
}
330
1F
100
AcDbEntity
  8
0
100
AcDbLine
 10
408.2000472697801
 20
-43.74089289120888
 30
0.0
 11
409.2000472697801
 21
-43.74089289120888
 31
0.0
  0
LINE
  5
2BC
102
{ACAD_REACTORS
330
886
102
}
330
1F
100
AcDbEntity
  8
0
100
AcDbLine
 10
409.2000472697801
 20
-43.74089289120888
 30
0.0
 11
409.2000472697801
 21
-46.74089289120888
 31
0.0
  0
ARC
  5
2BD
102
{ACAD_REACTORS
330
886
102
}
330
1F
100
AcDbEntity
  8
0
100
AcDbCircle
 10
418.2000472697801
 20
-45.24089289120889
 30
0.0
 40
10.0
100
AcDbArc
 50
270.0
 51
90.0
  0
LINE
  5
2BF
102
{ACAD_REACTORS
330
886
102
}
330
1F
100
AcDbEntity
  8
0
100
AcDbLine
 10
396.8500472697801
 20
-55.24089289120889
 30
0.0
 11
418.2000472697801
 21
-55.24089289120889
 31
0.0
  0
LINE
  5
2C0
102
{ACAD_REACTORS
330
886
102
}
330
1F
100
AcDbEntity
  8
0
100
AcDbLine
 10
396.8500472697801
 20
-35.24089289120883
 30
0.0
 11
418.2000472697801
 21
-35.24089289120883
 31
0.0
  0
LINE
  5
2C1
102
{ACAD_REACTORS
330
886
102
}
330
1F
100
AcDbEntity
  8
0
100
AcDbLine
 10
403.2000472697801
 20
-41.14089289120886
 30
0.0
 11
403.2000472697801
 21
-43.74089289120888
 31
0.0
  0
LINE
  5
2C2
102
{ACAD_REACTORS
330
886
102
}
330
1F
100
AcDbEntity
  8
0
100
AcDbLine
 10
403.2000472697801
 20
-46.74089289120888
 30
0.0
 11
403.2000472697801
 21
-49.3408928912088
 31
0.0
  0
CIRCLE
  5
2C3
102
{ACAD_REACTORS
330
886
102
}
330
1F
100
AcDbEntity
  8
0
100
AcDbCircle
 10
418.2000472697801
 20
-45.24089289120889
 30
0.0
 40
7.5
  0
CIRCLE
  5
31D
102
{ACAD_REACTORS
330
871
102
}
330
1F
100
AcDbEntity
  8
0
  6
Continuous
 62
     7
370
    15
100
AcDbCircle
 10
329.4177076158491
 20
-28.27121458590366
 30
0.0
 40
1.599999999999965
  0
CIRCLE
  5
31E
102
{ACAD_REACTORS
330
871
102
}
330
1F
100
AcDbEntity
  8
0
  6
Continuous
 62
     7
370
    15
100
AcDbCircle
 10
341.4177076158491
 20
-63.27121458590365
 30
0.0
 40
1.600000000000023
  0
CIRCLE
  5
31F
102
{ACAD_REACTORS
330
871
102
}
330
1F
100
AcDbEntity
  8
0
  6
Continuous
 62
     7
370
    15
100
AcDbCircle
 10
317.4177076158491
 20
-63.27121458590365
 30
0.0
 40
1.600000000000023
  0
LINE
  5
35C
102
{ACAD_REACTORS
330
871
102
}
330
1F
100
AcDbEntity
  8
0
100
AcDbLine
 10
314.3177076158492
 20
-78.27121458590365
 30
0.0
 11
344.5177076158491
 21
-78.27121458590365
 31
0.0
  0
LINE
  5
360
102
{ACAD_REACTORS
330
871
102
}
330
1F
100
AcDbEntity
  8
0
100
AcDbLine
 10
314.3177076158492
 20
-13.27121458590365
 30
0.0
 11
344.5177076158491
 21
-13.27121458590365
 31
0.0
  0
CIRCLE
  5
370
102
{ACAD_REACTORS
330
871
102
}
330
1F
100
AcDbEntity
  8
0
100
AcDbCircle
 10
314.4177076158491
 20
-45.77121458590363
 30
0.0
 40
1.6
  0
LINE
  5
3A5
330
1F
100
AcDbEntity
  8
0
100
AcDbLine
 10
324.7018671315486
 20
-97.43159192617682
 30
0.0
 11
318.6018671315486
 21
-97.43159192617682
 31
0.0
  0
LINE
  5
3A6
330
1F
100
AcDbEntity
  8
0
100
AcDbLine
 10
324.7018671315486
 20
-103.6315919261768
 30
0.0
 11
318.6018671315486
 21
-103.6315919261768
 31
0.0
  0
LINE
  5
3A7
330
1F
100
AcDbEntity
  8
0
100
AcDbLine
 10
318.6018671315486
 20
-103.6315919261768
 30
0.0
 11
318.6018671315486
 21
-97.43159192617682
 31
0.0
  0
LINE
  5
3AD
330
1F
100
AcDbEntity
  8
0
100
AcDbLine
 10
332.7018671315486
 20
-97.43159192617682
 30
0.0
 11
332.7018671315486
 21
-103.6315919261768
 31
0.0
  0
LINE
  5
3B2
330
1F
100
AcDbEntity
  8
0
100
AcDbLine
 10
332.7018671315486
 20
-97.43159192617682
 30
0.0
 11
338.8018671315486
 21
-97.43159192617682
 31
0.0
  0
LINE
  5
3B3
330
1F
100
AcDbEntity
  8
0
100
AcDbLine
 10
332.7018671315486
 20
-103.6315919261768
 30
0.0
 11
338.8018671315486
 21
-103.6315919261768
 31
0.0
  0
LINE
  5
3B4
330
1F
100
AcDbEntity
  8
0
100
AcDbLine
 10
338.8018671315486
 20
-103.6315919261768
 30
0.0
 11
338.8018671315486
 21
-97.43159192617682
 31
0.0
  0
LINE
  5
3B8
102
{ACAD_REACTORS
330
885
102
}
330
1F
100
AcDbEntity
  8
0
100
AcDbLine
 10
396.8968162846092
 20
-14.15270359268561
 30
0.0
 11
396.8968162846092
 21
-20.05270359268565
 31
0.0
  0
LINE
  5
3B9
102
{ACAD_REACTORS
330
885
102
}
330
1F
100
AcDbEntity
  8
0
100
AcDbLine
 10
396.8968162846092
 20
-20.05270359268565
 30
0.0
 11
403.2468162846091
 21
-20.05270359268565
 31
0.0
  0
LINE
  5
3BA
102
{ACAD_REACTORS
330
885
102
}
330
1F
100
AcDbEntity
  8
0
100
AcDbLine
 10
396.8968162846092
 20
-34.15270359268561
 30
0.0
 11
396.8968162846092
 21
-28.25270359268563
 31
0.0
  0
LINE
  5
3BB
102
{ACAD_REACTORS
330
885
102
}
330
1F
100
AcDbEntity
  8
0
100
AcDbLine
 10
396.8968162846092
 20
-28.25270359268563
 30
0.0
 11
403.2468162846091
 21
-28.25270359268563
 31
0.0
  0
LINE
  5
3BC
102
{ACAD_REACTORS
330
886
102
}
330
1F
100
AcDbEntity
  8
0
100
AcDbLine
 10
396.8500472697801
 20
-35.24089289120883
 30
0.0
 11
396.8500472697801
 21
-41.14089289120886
 31
0.0
  0
LINE
  5
3BD
102
{ACAD_REACTORS
330
886
102
}
330
1F
100
AcDbEntity
  8
0
100
AcDbLine
 10
396.8500472697801
 20
-41.14089289120886
 30
0.0
 11
403.2000472697801
 21
-41.14089289120886
 31
0.0
  0
LINE
  5
3BE
102
{ACAD_REACTORS
330
886
102
}
330
1F
100
AcDbEntity
  8
0
100
AcDbLine
 10
396.8500472697801
 20
-55.24089289120889
 30
0.0
 11
396.8500472697801
 21
-49.3408928912088
 31
0.0
  0
LINE
  5
3BF
102
{ACAD_REACTORS
330
886
102
}
330
1F
100
AcDbEntity
  8
0
100
AcDbLine
 10
396.8500472697801
 20
-49.3408928912088
 30
0.0
 11
403.2000472697801
 21
-49.3408928912088
 31
0.0
  0
LINE
  5
3CD
102
{ACAD_REACTORS
330
871
102
}
330
1F
100
AcDbEntity
  8
0
100
AcDbLine
 10
311.3177076158491
 20
-49.77121458590364
 30
0.0
 11
317.5177076158491
 21
-49.77121458590364
 31
0.0
  0
LINE
  5
3CE
102
{ACAD_REACTORS
330
871
102
}
330
1F
100
AcDbEntity
  8
0
100
AcDbLine
 10
311.3177076158491
 20
-49.77121458590364
 30
0.0
 11
311.3177076158491
 21
-55.87121458590363
 31
0.0
  0
LINE
  5
3CF
102
{ACAD_REACTORS
330
871
102
}
330
1F
100
AcDbEntity
  8
0
100
AcDbLine
 10
317.5177076158491
 20
-49.77121458590364
 30
0.0
 11
317.5177076158491
 21
-55.87121458590363
 31
0.0
  0
LINE
  5
3D0
102
{ACAD_REACTORS
330
871
102
}
330
1F
100
AcDbEntity
  8
0
100
AcDbLine
 10
317.5177076158491
 20
-55.87121458590363
 30
0.0
 11
311.3177076158491
 21
-55.87121458590363
 31
0.0
  0
LINE
  5
3D1
102
{ACAD_REACTORS
330
871
102
}
330
1F
100
AcDbEntity
  8
0
100
AcDbLine
 10
311.3177076158491
 20
-41.77121458590363
 30
0.0
 11
317.5177076158491
 21
-41.77121458590363
 31
0.0
  0
LINE
  5
3D2
102
{ACAD_REACTORS
330
871
102
}
330
1F
100
AcDbEntity
  8
0
100
AcDbLine
 10
311.3177076158491
 20
-41.77121458590363
 30
0.0
 11
311.3177076158491
 21
-35.67121458590364
 31
0.0
  0
LINE
  5
3D3
102
{ACAD_REACTORS
330
871
102
}
330
1F
100
AcDbEntity
  8
0
100
AcDbLine
 10
317.5177076158491
 20
-41.77121458590363
 30
0.0
 11
317.5177076158491
 21
-35.67121458590364
 31
0.0
  0
LINE
  5
3D4
102
{ACAD_REACTORS
330
871
102
}
330
1F
100
AcDbEntity
  8
0
100
AcDbLine
 10
317.5177076158491
 20
-35.67121458590364
 30
0.0
 11
311.3177076158491
 21
-35.67121458590364
 31
0.0
  0
CIRCLE
  5
3D6
102
{ACAD_REACTORS
330
871
102
}
330
1F
100
AcDbEntity
  8
0
100
AcDbCircle
 10
344.4177076158491
 20
-45.77121458590354
 30
0.0
 40
1.6
  0
LINE
  5
3D7
102
{ACAD_REACTORS
330
871
102
}
330
1F
100
AcDbEntity
  8
0
100
AcDbLine
 10
347.5177076158491
 20
-49.77121458590353
 30
0.0
 11
341.3177076158491
 21
-49.77121458590353
 31
0.0
  0
LINE
  5
3D8
102
{ACAD_REACTORS
330
871
102
}
330
1F
100
AcDbEntity
  8
0
100
AcDbLine
 10
347.5177076158491
 20
-49.77121458590353
 30
0.0
 11
347.5177076158491
 21
-55.87121458590353
 31
0.0
  0
LINE
  5
3D9
102
{ACAD_REACTORS
330
871
102
}
330
1F
100
AcDbEntity
  8
0
100
AcDbLine
 10
341.3177076158491
 20
-49.77121458590353
 30
0.0
 11
341.3177076158491
 21
-55.87121458590353
 31
0.0
  0
LINE
  5
3DA
102
{ACAD_REACTORS
330
871
102
}
330
1F
100
AcDbEntity
  8
0
100
AcDbLine
 10
341.3177076158491
 20
-55.87121458590353
 30
0.0
 11
347.5177076158491
 21
-55.87121458590353
 31
0.0
  0
LINE
  5
3DB
102
{ACAD_REACTORS
330
871
102
}
330
1F
100
AcDbEntity
  8
0
100
AcDbLine
 10
347.5177076158491
 20
-41.77121458590353
 30
0.0
 11
341.3177076158491
 21
-41.77121458590353
 31
0.0
  0
LINE
  5
3DC
102
{ACAD_REACTORS
330
871
102
}
330
1F
100
AcDbEntity
  8
0
100
AcDbLine
 10
347.5177076158491
 20
-41.77121458590353
 30
0.0
 11
347.5177076158491
 21
-35.67121458590354
 31
0.0
  0
LINE
  5
3DD
102
{ACAD_REACTORS
330
871
102
}
330
1F
100
AcDbEntity
  8
0
100
AcDbLine
 10
341.3177076158491
 20
-41.77121458590353
 30
0.0
 11
341.3177076158491
 21
-35.67121458590354
 31
0.0
  0
LINE
  5
3DE
102
{ACAD_REACTORS
330
871
102
}
330
1F
100
AcDbEntity
  8
0
100
AcDbLine
 10
341.3177076158491
 20
-35.67121458590354
 30
0.0
 11
347.5177076158491
 21
-35.67121458590354
 31
0.0
  0
LINE
  5
3E0
102
{ACAD_REACTORS
330
879
102
}
330
1F
100
AcDbEntity
  8
0
100
AcDbLine
 10
429.4060950841088
 20
-55.67121458590362
 30
0.0
 11
429.4060950841088
 21
-49.77121458590362
 31
0.0
  0
LINE
  5
3E1
102
{ACAD_REACTORS
330
879
102
}
330
1F
100
AcDbEntity
  8
0
100
AcDbLine
 10
429.4060950841088
 20
-49.77121458590362
 30
0.0
 11
435.7560950841088
 21
-49.77121458590362
 31
0.0
  0
LINE
  5
3E2
102
{ACAD_REACTORS
330
879
102
}
330
1F
100
AcDbEntity
  8
0
100
AcDbLine
 10
429.4060950841088
 20
-35.67121458590362
 30
0.0
 11
429.4060950841088
 21
-41.57121458590362
 31
0.0
  0
LINE
  5
3E3
102
{ACAD_REACTORS
330
879
102
}
330
1F
100
AcDbEntity
  8
0
100
AcDbLine
 10
429.4060950841088
 20
-41.57121458590362
 30
0.0
 11
435.7560950841088
 21
-41.57121458590362
 31
0.0
  0
LINE
  5
3E5
102
{ACAD_REACTORS
330
879
102
}
330
1F
100
AcDbEntity
  8
0
100
AcDbLine
 10
429.4060950841088
 20
-35.67121458590362
 30
0.0
 11
435.7560950841088
 21
-35.67121458590362
 31
0.0
  0
LINE
  5
3E6
102
{ACAD_REACTORS
330
879
102
}
330
1F
100
AcDbEntity
  8
0
100
AcDbLine
 10
429.4060950841088
 20
-55.67121458590362
 30
0.0
 11
435.7560950841088
 21
-55.67121458590362
 31
0.0
  0
LINE
  5
3E7
102
{ACAD_REACTORS
330
879
102
}
330
1F
100
AcDbEntity
  8
0
100
AcDbLine
 10
435.7560950841088
 20
-47.17121458590361
 30
0.0
 11
438.2560950841089
 21
-47.17121458590361
 31
0.0
  0
LINE
  5
3E8
102
{ACAD_REACTORS
330
879
102
}
330
1F
100
AcDbEntity
  8
0
100
AcDbLine
 10
438.2560950841089
 20
-47.17121458590361
 30
0.0
 11
438.2560950841089
 21
-48.57121458590363
 31
0.0
  0
LINE
  5
3E9
102
{ACAD_REACTORS
330
879
102
}
330
1F
100
AcDbEntity
  8
0
100
AcDbLine
 10
438.2560950841089
 20
-48.57121458590363
 30
0.0
 11
440.7560950841088
 21
-48.57121458590363
 31
0.0
  0
LINE
  5
3EA
102
{ACAD_REACTORS
330
879
102
}
330
1F
100
AcDbEntity
  8
0
100
AcDbLine
 10
440.7560950841088
 20
-48.57121458590363
 30
0.0
 11
440.7560950841088
 21
-47.17121458590361
 31
0.0
  0
LINE
  5
3EB
102
{ACAD_REACTORS
330
879
102
}
330
1F
100
AcDbEntity
  8
0
100
AcDbLine
 10
440.7560950841088
 20
-47.17121458590361
 30
0.0
 11
441.7560950841089
 21
-47.17121458590361
 31
0.0
  0
LINE
  5
3EC
102
{ACAD_REACTORS
330
879
102
}
330
1F
100
AcDbEntity
  8
0
100
AcDbLine
 10
435.7560950841088
 20
-44.17121458590361
 30
0.0
 11
438.2560950841089
 21
-44.17121458590361
 31
0.0
  0
LINE
  5
3ED
102
{ACAD_REACTORS
330
879
102
}
330
1F
100
AcDbEntity
  8
0
100
AcDbLine
 10
438.2560950841089
 20
-44.17121458590361
 30
0.0
 11
438.2560950841089
 21
-42.77121458590361
 31
0.0
  0
LINE
  5
3EE
102
{ACAD_REACTORS
330
879
102
}
330
1F
100
AcDbEntity
  8
0
100
AcDbLine
 10
438.2560950841089
 20
-42.77121458590361
 30
0.0
 11
440.7560950841088
 21
-42.77121458590361
 31
0.0
  0
LINE
  5
3EF
102
{ACAD_REACTORS
330
879
102
}
330
1F
100
AcDbEntity
  8
0
100
AcDbLine
 10
440.7560950841088
 20
-42.77121458590361
 30
0.0
 11
440.7560950841088
 21
-44.17121458590361
 31
0.0
  0
LINE
  5
3F0
102
{ACAD_REACTORS
330
879
102
}
330
1F
100
AcDbEntity
  8
0
100
AcDbLine
 10
440.7560950841088
 20
-44.17121458590361
 30
0.0
 11
441.7560950841089
 21
-44.17121458590361
 31
0.0
  0
LINE
  5
3F1
102
{ACAD_REACTORS
330
879
102
}
330
1F
100
AcDbEntity
  8
0
100
AcDbLine
 10
441.7560950841089
 20
-44.17121458590361
 30
0.0
 11
441.7560950841089
 21
-47.17121458590361
 31
0.0
  0
LINE
  5
3F2
102
{ACAD_REACTORS
330
879
102
}
330
1F
100
AcDbEntity
  8
0
100
AcDbLine
 10
435.7560950841088
 20
-41.57121458590362
 30
0.0
 11
435.7560950841088
 21
-44.17121458590361
 31
0.0
  0
LINE
  5
3F3
102
{ACAD_REACTORS
330
879
102
}
330
1F
100
AcDbEntity
  8
0
100
AcDbLine
 10
435.7560950841088
 20
-49.77121458590362
 30
0.0
 11
435.7560950841088
 21
-47.17121458590361
 31
0.0
  0
LINE
  5
3F4
102
{ACAD_REACTORS
330
879
102
}
330
1F
100
AcDbEntity
  8
0
100
AcDbLine
 10
435.7560950841088
 20
-35.67121458590362
 30
0.0
 11
435.7560950841088
 21
-15.67121458590362
 31
0.0
  0
LINE
  5
3F6
102
{ACAD_REACTORS
330
879
102
}
330
1F
100
AcDbEntity
  8
0
100
AcDbLine
 10
435.7560950841088
 20
-55.67121458590362
 30
0.0
 11
435.7560950841088
 21
-75.67121458590361
 31
0.0
  0
LINE
  5
3F9
102
{ACAD_REACTORS
330
879
102
}
330
1F
100
AcDbEntity
  8
0
100
AcDbLine
 10
467.1060950841089
 20
-55.67121458590362
 30
0.0
 11
467.1060950841089
 21
-49.77121458590362
 31
0.0
  0
LINE
  5
3FA
102
{ACAD_REACTORS
330
879
102
}
330
1F
100
AcDbEntity
  8
0
100
AcDbLine
 10
467.1060950841089
 20
-49.77121458590362
 30
0.0
 11
460.7560950841088
 21
-49.77121458590362
 31
0.0
  0
LINE
  5
3FB
102
{ACAD_REACTORS
330
879
102
}
330
1F
100
AcDbEntity
  8
0
100
AcDbLine
 10
467.1060950841089
 20
-35.67121458590362
 30
0.0
 11
467.1060950841089
 21
-41.57121458590362
 31
0.0
  0
LINE
  5
3FC
102
{ACAD_REACTORS
330
879
102
}
330
1F
100
AcDbEntity
  8
0
100
AcDbLine
 10
467.1060950841089
 20
-41.57121458590362
 30
0.0
 11
460.7560950841088
 21
-41.57121458590362
 31
0.0
  0
LINE
  5
3FD
102
{ACAD_REACTORS
330
879
102
}
330
1F
100
AcDbEntity
  8
0
100
AcDbLine
 10
467.1060950841089
 20
-35.67121458590362
 30
0.0
 11
460.7560950841088
 21
-35.67121458590362
 31
0.0
  0
LINE
  5
3FE
102
{ACAD_REACTORS
330
879
102
}
330
1F
100
AcDbEntity
  8
0
100
AcDbLine
 10
467.1060950841089
 20
-55.67121458590362
 30
0.0
 11
460.7560950841088
 21
-55.67121458590362
 31
0.0
  0
LINE
  5
3FF
102
{ACAD_REACTORS
330
879
102
}
330
1F
100
AcDbEntity
  8
0
100
AcDbLine
 10
460.7560950841088
 20
-47.17121458590361
 30
0.0
 11
458.2560950841089
 21
-47.17121458590361
 31
0.0
  0
LINE
  5
400
102
{ACAD_REACTORS
330
879
102
}
330
1F
100
AcDbEntity
  8
0
100
AcDbLine
 10
458.2560950841089
 20
-47.17121458590361
 30
0.0
 11
458.2560950841089
 21
-48.57121458590363
 31
0.0
  0
LINE
  5
401
102
{ACAD_REACTORS
330
879
102
}
330
1F
100
AcDbEntity
  8
0
100
AcDbLine
 10
458.2560950841089
 20
-48.57121458590363
 30
0.0
 11
455.7560950841089
 21
-48.57121458590363
 31
0.0
  0
LINE
  5
402
102
{ACAD_REACTORS
330
879
102
}
330
1F
100
AcDbEntity
  8
0
100
AcDbLine
 10
455.7560950841089
 20
-48.57121458590363
 30
0.0
 11
455.7560950841089
 21
-47.17121458590361
 31
0.0
  0
LINE
  5
403
102
{ACAD_REACTORS
330
879
102
}
330
1F
100
AcDbEntity
  8
0
100
AcDbLine
 10
455.7560950841089
 20
-47.17121458590361
 30
0.0
 11
454.7560950841089
 21
-47.17121458590361
 31
0.0
  0
LINE
  5
404
102
{ACAD_REACTORS
330
879
102
}
330
1F
100
AcDbEntity
  8
0
100
AcDbLine
 10
460.7560950841088
 20
-44.17121458590361
 30
0.0
 11
458.2560950841089
 21
-44.17121458590361
 31
0.0
  0
LINE
  5
405
102
{ACAD_REACTORS
330
879
102
}
330
1F
100
AcDbEntity
  8
0
100
AcDbLine
 10
458.2560950841089
 20
-44.17121458590361
 30
0.0
 11
458.2560950841089
 21
-42.77121458590361
 31
0.0
  0
LINE
  5
406
102
{ACAD_REACTORS
330
879
102
}
330
1F
100
AcDbEntity
  8
0
100
AcDbLine
 10
458.2560950841089
 20
-42.77121458590361
 30
0.0
 11
455.7560950841089
 21
-42.77121458590361
 31
0.0
  0
LINE
  5
407
102
{ACAD_REACTORS
330
879
102
}
330
1F
100
AcDbEntity
  8
0
100
AcDbLine
 10
455.7560950841089
 20
-42.77121458590361
 30
0.0
 11
455.7560950841089
 21
-44.17121458590361
 31
0.0
  0
LINE
  5
408
102
{ACAD_REACTORS
330
879
102
}
330
1F
100
AcDbEntity
  8
0
100
AcDbLine
 10
455.7560950841089
 20
-44.17121458590361
 30
0.0
 11
454.7560950841089
 21
-44.17121458590361
 31
0.0
  0
LINE
  5
409
102
{ACAD_REACTORS
330
879
102
}
330
1F
100
AcDbEntity
  8
0
100
AcDbLine
 10
454.7560950841089
 20
-44.17121458590361
 30
0.0
 11
454.7560950841089
 21
-47.17121458590361
 31
0.0
  0
LINE
  5
40A
102
{ACAD_REACTORS
330
879
102
}
330
1F
100
AcDbEntity
  8
0
100
AcDbLine
 10
460.7560950841088
 20
-41.57121458590362
 30
0.0
 11
460.7560950841088
 21
-44.17121458590361
 31
0.0
  0
LINE
  5
40B
102
{ACAD_REACTORS
330
879
102
}
330
1F
100
AcDbEntity
  8
0
100
AcDbLine
 10
460.7560950841088
 20
-49.77121458590362
 30
0.0
 11
460.7560950841088
 21
-47.17121458590361
 31
0.0
  0
LINE
  5
40C
102
{ACAD_REACTORS
330
879
102
}
330
1F
100
AcDbEntity
  8
0
100
AcDbLine
 10
460.7560950841088
 20
-35.67121458590362
 30
0.0
 11
460.7560950841088
 21
-15.67121458590362
 31
0.0
  0
LINE
  5
40D
102
{ACAD_REACTORS
330
879
102
}
330
1F
100
AcDbEntity
  8
0
100
AcDbLine
 10
460.7560950841088
 20
-55.67121458590362
 30
0.0
 11
460.7560950841088
 21
-75.67121458590361
 31
0.0
  0
LINE
  5
417
102
{ACAD_REACTORS
330
871
102
}
330
1F
100
AcDbEntity
  8
0
100
AcDbLine
 10
349.5177076158491
 20
-18.27121458590365
 30
0.0
 11
349.5177076158491
 21
-73.27121458590366
 31
0.0
  0
LINE
  5
41B
102
{ACAD_REACTORS
330
871
102
}
330
1F
100
AcDbEntity
  8
0
100
AcDbLine
 10
309.3177076158491
 20
-18.27121458590365
 30
0.0
 11
309.3177076158491
 21
-73.27121458590366
 31
0.0
  0
LINE
  5
465
102
{ACAD_REACTORS
330
887
102
}
330
1F
100
AcDbEntity
  8
0
100
AcDbLine
 10
379.5172843472538
 20
-106.7189000580911
 30
0.0
 11
377.0172843472537
 21
-106.7189000580911
 31
0.0
  0
LINE
  5
466
102
{ACAD_REACTORS
330
887
102
}
330
1F
100
AcDbEntity
  8
0
100
AcDbLine
 10
377.0172843472537
 20
-106.7189000580911
 30
0.0
 11
377.0172843472537
 21
-105.318900058091
 31
0.0
  0
LINE
  5
467
102
{ACAD_REACTORS
330
887
102
}
330
1F
100
AcDbEntity
  8
0
100
AcDbLine
 10
377.0172843472537
 20
-105.318900058091
 30
0.0
 11
374.5172843472537
 21
-105.318900058091
 31
0.0
  0
LINE
  5
468
102
{ACAD_REACTORS
330
887
102
}
330
1F
100
AcDbEntity
  8
0
100
AcDbLine
 10
374.5172843472537
 20
-105.318900058091
 30
0.0
 11
374.5172843472537
 21
-106.7189000580911
 31
0.0
  0
LINE
  5
469
102
{ACAD_REACTORS
330
887
102
}
330
1F
100
AcDbEntity
  8
0
100
AcDbLine
 10
374.5172843472537
 20
-106.7189000580911
 30
0.0
 11
373.5172843472537
 21
-106.7189000580911
 31
0.0
  0
LINE
  5
46A
102
{ACAD_REACTORS
330
887
102
}
330
1F
100
AcDbEntity
  8
0
100
AcDbLine
 10
379.5172843472538
 20
-109.7189000580911
 30
0.0
 11
377.0172843472537
 21
-109.7189000580911
 31
0.0
  0
LINE
  5
46B
102
{ACAD_REACTORS
330
887
102
}
330
1F
100
AcDbEntity
  8
0
100
AcDbLine
 10
377.0172843472537
 20
-109.7189000580911
 30
0.0
 11
377.0172843472537
 21
-111.118900058091
 31
0.0
  0
LINE
  5
46C
102
{ACAD_REACTORS
330
887
102
}
330
1F
100
AcDbEntity
  8
0
100
AcDbLine
 10
377.0172843472537
 20
-111.118900058091
 30
0.0
 11
374.5172843472537
 21
-111.118900058091
 31
0.0
  0
LINE
  5
46D
102
{ACAD_REACTORS
330
887
102
}
330
1F
100
AcDbEntity
  8
0
100
AcDbLine
 10
374.5172843472537
 20
-111.118900058091
 30
0.0
 11
374.5172843472537
 21
-109.7189000580911
 31
0.0
  0
LINE
  5
46E
102
{ACAD_REACTORS
330
887
102
}
330
1F
100
AcDbEntity
  8
0
100
AcDbLine
 10
374.5172843472537
 20
-109.7189000580911
 30
0.0
 11
373.5172843472537
 21
-109.7189000580911
 31
0.0
  0
LINE
  5
46F
102
{ACAD_REACTORS
330
887
102
}
330
1F
100
AcDbEntity
  8
0
100
AcDbLine
 10
373.5172843472537
 20
-109.7189000580911
 30
0.0
 11
373.5172843472537
 21
-106.7189000580911
 31
0.0
  0
ARC
  5
470
102
{ACAD_REACTORS
330
887
102
}
330
1F
100
AcDbEntity
  8
0
100
AcDbCircle
 10
364.5172843472537
 20
-108.2189000580911
 30
0.0
 40
10.0
100
AcDbArc
 50
90.0
 51
270.0
  0
CIRCLE
  5
471
102
{ACAD_REACTORS
330
887
102
}
330
1F
100
AcDbEntity
  8
0
100
AcDbCircle
 10
364.5172843472537
 20
-108.2189000580911
 30
0.0
 40
6.0
  0
LINE
  5
472
102
{ACAD_REACTORS
330
887
102
}
330
1F
100
AcDbEntity
  8
0
100
AcDbLine
 10
385.8672843472538
 20
-98.21890005809109
 30
0.0
 11
364.5172843472537
 21
-98.21890005809109
 31
0.0
  0
LINE
  5
473
102
{ACAD_REACTORS
330
887
102
}
330
1F
100
AcDbEntity
  8
0
100
AcDbLine
 10
385.8672843472538
 20
-118.2189000580911
 30
0.0
 11
364.5172843472537
 21
-118.2189000580911
 31
0.0
  0
LINE
  5
474
102
{ACAD_REACTORS
330
887
102
}
330
1F
100
AcDbEntity
  8
0
100
AcDbLine
 10
379.5172843472538
 20
-112.318900058091
 30
0.0
 11
379.5172843472538
 21
-109.7189000580911
 31
0.0
  0
LINE
  5
475
102
{ACAD_REACTORS
330
887
102
}
330
1F
100
AcDbEntity
  8
0
100
AcDbLine
 10
379.5172843472538
 20
-106.7189000580911
 30
0.0
 11
379.5172843472538
 21
-104.1189000580911
 31
0.0
  0
LINE
  5
487
102
{ACAD_REACTORS
330
887
102
}
330
1F
100
AcDbEntity
  8
0
100
AcDbLine
 10
385.8672843472538
 20
-118.2189000580911
 30
0.0
 11
385.8672843472538
 21
-112.318900058091
 31
0.0
  0
LINE
  5
488
102
{ACAD_REACTORS
330
887
102
}
330
1F
100
AcDbEntity
  8
0
100
AcDbLine
 10
385.8672843472538
 20
-112.318900058091
 30
0.0
 11
379.5172843472538
 21
-112.318900058091
 31
0.0
  0
LINE
  5
489
102
{ACAD_REACTORS
330
887
102
}
330
1F
100
AcDbEntity
  8
0
100
AcDbLine
 10
385.8672843472538
 20
-98.21890005809109
 30
0.0
 11
385.8672843472538
 21
-104.1189000580911
 31
0.0
  0
LINE
  5
48A
102
{ACAD_REACTORS
330
887
102
}
330
1F
100
AcDbEntity
  8
0
100
AcDbLine
 10
385.8672843472538
 20
-104.1189000580911
 30
0.0
 11
379.5172843472538
 21
-104.1189000580911
 31
0.0
  0
CIRCLE
  5
4F0
330
1F
100
AcDbEntity
  8
0
100
AcDbCircle
 10
472.1652588782044
 20
-26.11142393904447
 30
0.0
 40
1.6
  0
ARC
  5
502
102
{ACAD_REACTORS
330
871
102
}
330
1F
100
AcDbEntity
  8
0
100
AcDbCircle
 10
344.5177076158491
 20
-18.27121458590365
 30
0.0
 40
5.0
100
AcDbArc
 50
0.0
 51
90.0
  0
ARC
  5
503
102
{ACAD_REACTORS
330
871
102
}
330
1F
100
AcDbEntity
  8
0
100
AcDbCircle
 10
344.5177076158491
 20
-73.27121458590365
 30
0.0
 40
5.0
100
AcDbArc
 50
270.0
 51
0.0
  0
ARC
  5
504
102
{ACAD_REACTORS
330
871
102
}
330
1F
100
AcDbEntity
  8
0
100
AcDbCircle
 10
314.3177076158492
 20
-18.27121458590365
 30
0.0
 40
5.0
100
AcDbArc
 50
90.0
 51
180.0
  0
ARC
  5
505
102
{ACAD_REACTORS
330
871
102
}
330
1F
100
AcDbEntity
  8
0
100
AcDbCircle
 10
314.3177076158492
 20
-73.27121458590365
 30
0.0
 40
5.0
100
AcDbArc
 50
180.0
 51
270.0
  0
CIRCLE
  5
51C
330
1F
100
AcDbEntity
  8
0
100
AcDbCircle
 10
472.1652588782044
 20
-26.11142393904447
 30
0.0
 40
1.6
  0
LINE
  5
537
102
{ACAD_REACTORS
330
879
102
}
330
1F
100
AcDbEntity
  8
0
100
AcDbLine
 10
435.7560950841088
 20
-15.67121458590362
 30
0.0
 11
460.7560950841088
 21
-15.67121458590362
 31
0.0
  0
LINE
  5
538
102
{ACAD_REACTORS
330
879
102
}
330
1F
100
AcDbEntity
  8
0
100
AcDbLine
 10
435.7560950841088
 20
-75.67121458590361
 30
0.0
 11
460.7560950841088
 21
-75.67121458590361
 31
0.0
  0
LINE
  5
54A
330
1F
100
AcDbEntity
  8
0
100
AcDbLine
 10
475.6652588782044
 20
-21.61142393904447
 30
0.0
 11
471.1652588782044
 21
-21.61142393904447
 31
0.0
  0
LINE
  5
551
330
1F
100
AcDbEntity
  8
0
100
AcDbLine
 10
475.6652588782044
 20
-30.61142393904447
 30
0.0
 11
471.1652588782044
 21
-30.61142393904447
 31
0.0
  0
LINE
  5
564
330
1F
100
AcDbEntity
  8
0
100
AcDbLine
 10
468.6652588782044
 20
-24.11142393904447
 30
0.0
 11
468.6652588782044
 21
-28.11142393904447
 31
0.0
  0
CIRCLE
  5
567
330
1F
100
AcDbEntity
  8
0
100
AcDbCircle
 10
485.1652588782044
 20
-26.11142393904447
 30
0.0
 40
1.6
  0
CIRCLE
  5
568
330
1F
100
AcDbEntity
  8
0
100
AcDbCircle
 10
485.1652588782044
 20
-26.11142393904447
 30
0.0
 40
1.6
  0
LINE
  5
569
330
1F
100
AcDbEntity
  8
0
100
AcDbLine
 10
481.6652588782044
 20
-21.61142393904447
 30
0.0
 11
486.1652588782044
 21
-21.61142393904447
 31
0.0
  0
LINE
  5
56A
330
1F
100
AcDbEntity
  8
0
100
AcDbLine
 10
481.6652588782044
 20
-30.61142393904447
 30
0.0
 11
486.1652588782044
 21
-30.61142393904447
 31
0.0
  0
LINE
  5
56B
330
1F
100
AcDbEntity
  8
0
100
AcDbLine
 10
488.6652588782044
 20
-24.11142393904447
 30
0.0
 11
488.6652588782044
 21
-28.11142393904447
 31
0.0
  0
ARC
  5
56C
330
1F
100
AcDbEntity
  8
0
100
AcDbCircle
 10
471.1652588782044
 20
-24.11142393904447
 30
0.0
 40
2.5
100
AcDbArc
 50
90.0
 51
180.0
  0
ARC
  5
572
330
1F
100
AcDbEntity
  8
0
100
AcDbCircle
 10
471.1652588782044
 20
-28.11142393904447
 30
0.0
 40
2.5
100
AcDbArc
 50
180.0
 51
270.0
  0
ARC
  5
573
330
1F
100
AcDbEntity
  8
0
100
AcDbCircle
 10
486.1652588782044
 20
-24.11142393904447
 30
0.0
 40
2.5
100
AcDbArc
 50
0.0
 51
90.0
  0
ARC
  5
574
330
1F
100
AcDbEntity
  8
0
100
AcDbCircle
 10
486.1652588782044
 20
-28.11142393904447
 30
0.0
 40
2.5
100
AcDbArc
 50
270.0
 51
0.0
  0
LINE
  5
584
330
1F
100
AcDbEntity
  8
0
100
AcDbLine
 10
475.6652588782044
 20
-21.61142393904447
 30
0.0
 11
475.6652588782044
 21
-17.61142393904447
 31
0.0
  0
LINE
  5
585
330
1F
100
AcDbEntity
  8
0
100
AcDbLine
 10
481.6652588782044
 20
-21.61142393904447
 30
0.0
 11
481.6652588782044
 21
-17.61142393904447
 31
0.0
  0
LINE
  5
586
330
1F
100
AcDbEntity
  8
0
100
AcDbLine
 10
481.6652588782044
 20
-17.61142393904447
 30
0.0
 11
475.6652588782044
 21
-17.61142393904447
 31
0.0
  0
LINE
  5
587
330
1F
100
AcDbEntity
  8
0
100
AcDbLine
 10
475.6652588782044
 20
-30.61142393904447
 30
0.0
 11
475.6652588782044
 21
-34.61142393904447
 31
0.0
  0
LINE
  5
588
330
1F
100
AcDbEntity
  8
0
100
AcDbLine
 10
481.6652588782044
 20
-30.61142393904447
 30
0.0
 11
481.6652588782044
 21
-34.61142393904447
 31
0.0
  0
LINE
  5
589
330
1F
100
AcDbEntity
  8
0
100
AcDbLine
 10
481.6652588782044
 20
-34.61142393904447
 30
0.0
 11
475.6652588782044
 21
-34.61142393904447
 31
0.0
  0
CIRCLE
  5
598
330
1F
100
AcDbEntity
  8
0
100
AcDbCircle
 10
472.1652588782044
 20
-44.79447365500194
 30
0.0
 40
1.6
  0
CIRCLE
  5
599
330
1F
100
AcDbEntity
  8
0
100
AcDbCircle
 10
472.1652588782044
 20
-44.79447365500194
 30
0.0
 40
1.6
  0
LINE
  5
59A
330
1F
100
AcDbEntity
  8
0
100
AcDbLine
 10
475.6652588782044
 20
-40.29447365500193
 30
0.0
 11
471.1652588782044
 21
-40.29447365500193
 31
0.0
  0
LINE
  5
59B
330
1F
100
AcDbEntity
  8
0
100
AcDbLine
 10
475.6652588782044
 20
-49.29447365500194
 30
0.0
 11
471.1652588782044
 21
-49.29447365500194
 31
0.0
  0
ARC
  5
59C
330
1F
100
AcDbEntity
  8
0
100
AcDbCircle
 10
471.1652588782044
 20
-46.79447365500194
 30
0.0
 40
2.5
100
AcDbArc
 50
180.0
 51
270.0
  0
LINE
  5
59D
330
1F
100
AcDbEntity
  8
0
100
AcDbLine
 10
468.6652588782044
 20
-42.79447365500193
 30
0.0
 11
468.6652588782044
 21
-46.79447365500194
 31
0.0
  0
ARC
  5
59E
330
1F
100
AcDbEntity
  8
0
100
AcDbCircle
 10
471.1652588782044
 20
-42.79447365500193
 30
0.0
 40
2.5
100
AcDbArc
 50
90.0
 51
180.0
  0
CIRCLE
  5
59F
330
1F
100
AcDbEntity
  8
0
100
AcDbCircle
 10
485.1652588782044
 20
-44.79447365500194
 30
0.0
 40
1.6
  0
CIRCLE
  5
5A0
330
1F
100
AcDbEntity
  8
0
100
AcDbCircle
 10
485.1652588782044
 20
-44.79447365500194
 30
0.0
 40
1.6
  0
LINE
  5
5A1
330
1F
100
AcDbEntity
  8
0
100
AcDbLine
 10
481.6652588782044
 20
-40.29447365500193
 30
0.0
 11
486.1652588782044
 21
-40.29447365500193
 31
0.0
  0
LINE
  5
5A2
330
1F
100
AcDbEntity
  8
0
100
AcDbLine
 10
481.6652588782044
 20
-49.29447365500194
 30
0.0
 11
486.1652588782044
 21
-49.29447365500194
 31
0.0
  0
ARC
  5
5A3
330
1F
100
AcDbEntity
  8
0
100
AcDbCircle
 10
486.1652588782044
 20
-46.79447365500194
 30
0.0
 40
2.5
100
AcDbArc
 50
270.0
 51
0.0
  0
LINE
  5
5A4
330
1F
100
AcDbEntity
  8
0
100
AcDbLine
 10
488.6652588782044
 20
-42.79447365500193
 30
0.0
 11
488.6652588782044
 21
-46.79447365500194
 31
0.0
  0
ARC
  5
5A5
330
1F
100
AcDbEntity
  8
0
100
AcDbCircle
 10
486.1652588782044
 20
-42.79447365500193
 30
0.0
 40
2.5
100
AcDbArc
 50
0.0
 51
90.0
  0
LINE
  5
5A6
330
1F
100
AcDbEntity
  8
0
100
AcDbLine
 10
475.6652588782044
 20
-40.29447365500193
 30
0.0
 11
475.6652588782044
 21
-36.29447365500194
 31
0.0
  0
LINE
  5
5A7
330
1F
100
AcDbEntity
  8
0
100
AcDbLine
 10
481.6652588782044
 20
-40.29447365500193
 30
0.0
 11
481.6652588782044
 21
-36.29447365500194
 31
0.0
  0
LINE
  5
5A8
330
1F
100
AcDbEntity
  8
0
100
AcDbLine
 10
481.6652588782044
 20
-36.29447365500194
 30
0.0
 11
475.6652588782044
 21
-36.29447365500194
 31
0.0
  0
LINE
  5
5A9
330
1F
100
AcDbEntity
  8
0
100
AcDbLine
 10
475.6652588782044
 20
-49.29447365500194
 30
0.0
 11
475.6652588782044
 21
-53.29447365500193
 31
0.0
  0
LINE
  5
5AA
330
1F
100
AcDbEntity
  8
0
100
AcDbLine
 10
481.6652588782044
 20
-49.29447365500194
 30
0.0
 11
481.6652588782044
 21
-53.29447365500193
 31
0.0
  0
LINE
  5
5AB
330
1F
100
AcDbEntity
  8
0
100
AcDbLine
 10
481.6652588782044
 20
-53.29447365500193
 30
0.0
 11
475.6652588782044
 21
-53.29447365500193
 31
0.0
  0
CIRCLE
  5
5C0
330
1F
100
AcDbEntity
  8
0
100
AcDbCircle
 10
494.1637021376982
 20
-44.64744669491756
 30
0.0
 40
1.6
  0
CIRCLE
  5
5C1
330
1F
100
AcDbEntity
  8
0
100
AcDbCircle
 10
494.1637021376982
 20
-44.64744669491756
 30
0.0
 40
1.6
  0
LINE
  5
5C2
330
1F
100
AcDbEntity
  8
0
100
AcDbLine
 10
497.6637021376982
 20
-40.14744669491756
 30
0.0
 11
493.1637021376982
 21
-40.14744669491756
 31
0.0
  0
LINE
  5
5C3
330
1F
100
AcDbEntity
  8
0
100
AcDbLine
 10
497.6637021376982
 20
-49.14744669491756
 30
0.0
 11
493.1637021376982
 21
-49.14744669491756
 31
0.0
  0
ARC
  5
5C4
330
1F
100
AcDbEntity
  8
0
100
AcDbCircle
 10
493.1637021376982
 20
-46.64744669491756
 30
0.0
 40
2.5
100
AcDbArc
 50
180.0
 51
270.0
  0
LINE
  5
5C5
330
1F
100
AcDbEntity
  8
0
100
AcDbLine
 10
490.6637021376982
 20
-42.64744669491756
 30
0.0
 11
490.6637021376982
 21
-46.64744669491756
 31
0.0
  0
ARC
  5
5C6
330
1F
100
AcDbEntity
  8
0
100
AcDbCircle
 10
493.1637021376982
 20
-42.64744669491756
 30
0.0
 40
2.5
100
AcDbArc
 50
90.0
 51
180.0
  0
CIRCLE
  5
5C7
330
1F
100
AcDbEntity
  8
0
100
AcDbCircle
 10
507.1637021376982
 20
-44.64744669491756
 30
0.0
 40
1.6
  0
CIRCLE
  5
5C8
330
1F
100
AcDbEntity
  8
0
100
AcDbCircle
 10
507.1637021376982
 20
-44.64744669491756
 30
0.0
 40
1.6
  0
LINE
  5
5C9
330
1F
100
AcDbEntity
  8
0
100
AcDbLine
 10
503.6637021376982
 20
-40.14744669491756
 30
0.0
 11
508.1637021376982
 21
-40.14744669491756
 31
0.0
  0
LINE
  5
5CA
330
1F
100
AcDbEntity
  8
0
100
AcDbLine
 10
503.6637021376982
 20
-49.14744669491756
 30
0.0
 11
508.1637021376982
 21
-49.14744669491756
 31
0.0
  0
ARC
  5
5CB
330
1F
100
AcDbEntity
  8
0
100
AcDbCircle
 10
508.1637021376982
 20
-46.64744669491756
 30
0.0
 40
2.5
100
AcDbArc
 50
270.0
 51
0.0
  0
LINE
  5
5CC
330
1F
100
AcDbEntity
  8
0
100
AcDbLine
 10
510.6637021376982
 20
-42.64744669491756
 30
0.0
 11
510.6637021376982
 21
-46.64744669491756
 31
0.0
  0
ARC
  5
5CD
330
1F
100
AcDbEntity
  8
0
100
AcDbCircle
 10
508.1637021376982
 20
-42.64744669491756
 30
0.0
 40
2.5
100
AcDbArc
 50
0.0
 51
90.0
  0
LINE
  5
5CE
330
1F
100
AcDbEntity
  8
0
100
AcDbLine
 10
497.6637021376982
 20
-40.14744669491756
 30
0.0
 11
497.6637021376982
 21
-36.14744669491756
 31
0.0
  0
LINE
  5
5CF
330
1F
100
AcDbEntity
  8
0
100
AcDbLine
 10
503.6637021376982
 20
-40.14744669491756
 30
0.0
 11
503.6637021376982
 21
-36.14744669491756
 31
0.0
  0
LINE
  5
5D0
330
1F
100
AcDbEntity
  8
0
100
AcDbLine
 10
503.6637021376982
 20
-36.14744669491756
 30
0.0
 11
497.6637021376982
 21
-36.14744669491756
 31
0.0
  0
LINE
  5
5D1
330
1F
100
AcDbEntity
  8
0
100
AcDbLine
 10
497.6637021376982
 20
-49.14744669491756
 30
0.0
 11
497.6637021376982
 21
-53.14744669491756
 31
0.0
  0
LINE
  5
5D2
330
1F
100
AcDbEntity
  8
0
100
AcDbLine
 10
503.6637021376982
 20
-49.14744669491756
 30
0.0
 11
503.6637021376982
 21
-53.14744669491756
 31
0.0
  0
LINE
  5
5D3
330
1F
100
AcDbEntity
  8
0
100
AcDbLine
 10
503.6637021376982
 20
-53.14744669491756
 30
0.0
 11
497.6637021376982
 21
-53.14744669491756
 31
0.0
  0
LINE
  5
64A
102
{ACAD_REACTORS
330
87F
102
}
330
1F
100
AcDbEntity
  8
0
100
AcDbLine
 10
394.3859350440574
 20
-98.523607904041
 30
0.0
 11
394.3859350440574
 21
-92.623607904041
 31
0.0
  0
LINE
  5
64B
102
{ACAD_REACTORS
330
87F
102
}
330
1F
100
AcDbEntity
  8
0
100
AcDbLine
 10
394.3859350440574
 20
-92.623607904041
 30
0.0
 11
400.7359350440574
 21
-92.623607904041
 31
0.0
  0
LINE
  5
64C
102
{ACAD_REACTORS
330
87F
102
}
330
1F
100
AcDbEntity
  8
0
100
AcDbLine
 10
394.3859350440574
 20
-78.523607904041
 30
0.0
 11
394.3859350440574
 21
-84.423607904041
 31
0.0
  0
LINE
  5
64D
102
{ACAD_REACTORS
330
87F
102
}
330
1F
100
AcDbEntity
  8
0
100
AcDbLine
 10
394.3859350440574
 20
-84.423607904041
 30
0.0
 11
400.7359350440574
 21
-84.423607904041
 31
0.0
  0
LINE
  5
64E
102
{ACAD_REACTORS
330
87F
102
}
330
1F
100
AcDbEntity
  8
0
100
AcDbLine
 10
394.3859350440574
 20
-78.523607904041
 30
0.0
 11
400.7359350440574
 21
-78.523607904041
 31
0.0
  0
LINE
  5
64F
102
{ACAD_REACTORS
330
87F
102
}
330
1F
100
AcDbEntity
  8
0
100
AcDbLine
 10
394.3859350440574
 20
-98.523607904041
 30
0.0
 11
400.7359350440574
 21
-98.523607904041
 31
0.0
  0
LINE
  5
650
102
{ACAD_REACTORS
330
87F
102
}
330
1F
100
AcDbEntity
  8
0
100
AcDbLine
 10
400.7359350440574
 20
-90.023607904041
 30
0.0
 11
403.2359350440574
 21
-90.023607904041
 31
0.0
  0
LINE
  5
651
102
{ACAD_REACTORS
330
87F
102
}
330
1F
100
AcDbEntity
  8
0
100
AcDbLine
 10
403.2359350440574
 20
-90.023607904041
 30
0.0
 11
403.2359350440574
 21
-91.42360790404101
 31
0.0
  0
LINE
  5
652
102
{ACAD_REACTORS
330
87F
102
}
330
1F
100
AcDbEntity
  8
0
100
AcDbLine
 10
403.2359350440574
 20
-91.42360790404101
 30
0.0
 11
405.7359350440574
 21
-91.42360790404101
 31
0.0
  0
LINE
  5
653
102
{ACAD_REACTORS
330
87F
102
}
330
1F
100
AcDbEntity
  8
0
100
AcDbLine
 10
405.7359350440574
 20
-91.42360790404101
 30
0.0
 11
405.7359350440574
 21
-90.023607904041
 31
0.0
  0
LINE
  5
654
102
{ACAD_REACTORS
330
87F
102
}
330
1F
100
AcDbEntity
  8
0
100
AcDbLine
 10
405.7359350440574
 20
-90.023607904041
 30
0.0
 11
406.7359350440574
 21
-90.023607904041
 31
0.0
  0
LINE
  5
655
102
{ACAD_REACTORS
330
87F
102
}
330
1F
100
AcDbEntity
  8
0
100
AcDbLine
 10
400.7359350440574
 20
-87.023607904041
 30
0.0
 11
403.2359350440574
 21
-87.023607904041
 31
0.0
  0
LINE
  5
656
102
{ACAD_REACTORS
330
87F
102
}
330
1F
100
AcDbEntity
  8
0
100
AcDbLine
 10
403.2359350440574
 20
-87.023607904041
 30
0.0
 11
403.2359350440574
 21
-85.62360790404099
 31
0.0
  0
LINE
  5
657
102
{ACAD_REACTORS
330
87F
102
}
330
1F
100
AcDbEntity
  8
0
100
AcDbLine
 10
403.2359350440574
 20
-85.62360790404099
 30
0.0
 11
405.7359350440574
 21
-85.62360790404099
 31
0.0
  0
LINE
  5
658
102
{ACAD_REACTORS
330
87F
102
}
330
1F
100
AcDbEntity
  8
0
100
AcDbLine
 10
405.7359350440574
 20
-85.62360790404099
 30
0.0
 11
405.7359350440574
 21
-87.023607904041
 31
0.0
  0
LINE
  5
659
102
{ACAD_REACTORS
330
87F
102
}
330
1F
100
AcDbEntity
  8
0
100
AcDbLine
 10
405.7359350440574
 20
-87.023607904041
 30
0.0
 11
406.7359350440574
 21
-87.023607904041
 31
0.0
  0
LINE
  5
65A
102
{ACAD_REACTORS
330
87F
102
}
330
1F
100
AcDbEntity
  8
0
100
AcDbLine
 10
406.7359350440574
 20
-87.023607904041
 30
0.0
 11
406.7359350440574
 21
-90.023607904041
 31
0.0
  0
LINE
  5
65B
102
{ACAD_REACTORS
330
87F
102
}
330
1F
100
AcDbEntity
  8
0
100
AcDbLine
 10
400.7359350440574
 20
-84.423607904041
 30
0.0
 11
400.7359350440574
 21
-87.023607904041
 31
0.0
  0
LINE
  5
65C
102
{ACAD_REACTORS
330
87F
102
}
330
1F
100
AcDbEntity
  8
0
100
AcDbLine
 10
400.7359350440574
 20
-92.623607904041
 30
0.0
 11
400.7359350440574
 21
-90.023607904041
 31
0.0
  0
LINE
  5
65D
102
{ACAD_REACTORS
330
87F
102
}
330
1F
100
AcDbEntity
  8
0
100
AcDbLine
 10
400.7359350440574
 20
-78.523607904041
 30
0.0
 11
400.7359350440574
 21
-58.523607904041
 31
0.0
  0
LINE
  5
65E
102
{ACAD_REACTORS
330
87F
102
}
330
1F
100
AcDbEntity
  8
0
100
AcDbLine
 10
400.7359350440574
 20
-98.523607904041
 30
0.0
 11
400.7359350440574
 21
-118.523607904041
 31
0.0
  0
LINE
  5
65F
102
{ACAD_REACTORS
330
87F
102
}
330
1F
100
AcDbEntity
  8
0
100
AcDbLine
 10
432.0859350440574
 20
-98.523607904041
 30
0.0
 11
432.0859350440574
 21
-92.623607904041
 31
0.0
  0
LINE
  5
660
102
{ACAD_REACTORS
330
87F
102
}
330
1F
100
AcDbEntity
  8
0
100
AcDbLine
 10
432.0859350440574
 20
-92.623607904041
 30
0.0
 11
425.7359350440574
 21
-92.623607904041
 31
0.0
  0
LINE
  5
661
102
{ACAD_REACTORS
330
87F
102
}
330
1F
100
AcDbEntity
  8
0
100
AcDbLine
 10
432.0859350440574
 20
-78.523607904041
 30
0.0
 11
432.0859350440574
 21
-84.423607904041
 31
0.0
  0
LINE
  5
662
102
{ACAD_REACTORS
330
87F
102
}
330
1F
100
AcDbEntity
  8
0
100
AcDbLine
 10
432.0859350440574
 20
-84.423607904041
 30
0.0
 11
425.7359350440574
 21
-84.423607904041
 31
0.0
  0
LINE
  5
663
102
{ACAD_REACTORS
330
87F
102
}
330
1F
100
AcDbEntity
  8
0
100
AcDbLine
 10
432.0859350440574
 20
-78.523607904041
 30
0.0
 11
425.7359350440574
 21
-78.523607904041
 31
0.0
  0
LINE
  5
664
102
{ACAD_REACTORS
330
87F
102
}
330
1F
100
AcDbEntity
  8
0
100
AcDbLine
 10
432.0859350440574
 20
-98.523607904041
 30
0.0
 11
425.7359350440574
 21
-98.523607904041
 31
0.0
  0
LINE
  5
665
102
{ACAD_REACTORS
330
87F
102
}
330
1F
100
AcDbEntity
  8
0
100
AcDbLine
 10
425.7359350440574
 20
-90.023607904041
 30
0.0
 11
423.2359350440574
 21
-90.023607904041
 31
0.0
  0
LINE
  5
666
102
{ACAD_REACTORS
330
87F
102
}
330
1F
100
AcDbEntity
  8
0
100
AcDbLine
 10
423.2359350440574
 20
-90.023607904041
 30
0.0
 11
423.2359350440574
 21
-91.42360790404101
 31
0.0
  0
LINE
  5
667
102
{ACAD_REACTORS
330
87F
102
}
330
1F
100
AcDbEntity
  8
0
100
AcDbLine
 10
423.2359350440574
 20
-91.42360790404101
 30
0.0
 11
420.7359350440574
 21
-91.42360790404101
 31
0.0
  0
LINE
  5
668
102
{ACAD_REACTORS
330
87F
102
}
330
1F
100
AcDbEntity
  8
0
100
AcDbLine
 10
420.7359350440574
 20
-91.42360790404101
 30
0.0
 11
420.7359350440574
 21
-90.023607904041
 31
0.0
  0
LINE
  5
669
102
{ACAD_REACTORS
330
87F
102
}
330
1F
100
AcDbEntity
  8
0
100
AcDbLine
 10
420.7359350440574
 20
-90.023607904041
 30
0.0
 11
419.7359350440574
 21
-90.023607904041
 31
0.0
  0
LINE
  5
66A
102
{ACAD_REACTORS
330
87F
102
}
330
1F
100
AcDbEntity
  8
0
100
AcDbLine
 10
425.7359350440574
 20
-87.023607904041
 30
0.0
 11
423.2359350440574
 21
-87.023607904041
 31
0.0
  0
LINE
  5
66B
102
{ACAD_REACTORS
330
87F
102
}
330
1F
100
AcDbEntity
  8
0
100
AcDbLine
 10
423.2359350440574
 20
-87.023607904041
 30
0.0
 11
423.2359350440574
 21
-85.62360790404099
 31
0.0
  0
LINE
  5
66C
102
{ACAD_REACTORS
330
87F
102
}
330
1F
100
AcDbEntity
  8
0
100
AcDbLine
 10
423.2359350440574
 20
-85.62360790404099
 30
0.0
 11
420.7359350440574
 21
-85.62360790404099
 31
0.0
  0
LINE
  5
66D
102
{ACAD_REACTORS
330
87F
102
}
330
1F
100
AcDbEntity
  8
0
100
AcDbLine
 10
420.7359350440574
 20
-85.62360790404099
 30
0.0
 11
420.7359350440574
 21
-87.023607904041
 31
0.0
  0
LINE
  5
66E
102
{ACAD_REACTORS
330
87F
102
}
330
1F
100
AcDbEntity
  8
0
100
AcDbLine
 10
420.7359350440574
 20
-87.023607904041
 30
0.0
 11
419.7359350440574
 21
-87.023607904041
 31
0.0
  0
LINE
  5
66F
102
{ACAD_REACTORS
330
87F
102
}
330
1F
100
AcDbEntity
  8
0
100
AcDbLine
 10
419.7359350440574
 20
-87.023607904041
 30
0.0
 11
419.7359350440574
 21
-90.023607904041
 31
0.0
  0
LINE
  5
670
102
{ACAD_REACTORS
330
87F
102
}
330
1F
100
AcDbEntity
  8
0
100
AcDbLine
 10
425.7359350440574
 20
-84.423607904041
 30
0.0
 11
425.7359350440574
 21
-87.023607904041
 31
0.0
  0
LINE
  5
671
102
{ACAD_REACTORS
330
87F
102
}
330
1F
100
AcDbEntity
  8
0
100
AcDbLine
 10
425.7359350440574
 20
-92.623607904041
 30
0.0
 11
425.7359350440574
 21
-90.023607904041
 31
0.0
  0
LINE
  5
672
102
{ACAD_REACTORS
330
87F
102
}
330
1F
100
AcDbEntity
  8
0
100
AcDbLine
 10
425.7359350440574
 20
-78.523607904041
 30
0.0
 11
425.7359350440574
 21
-58.523607904041
 31
0.0
  0
LINE
  5
673
102
{ACAD_REACTORS
330
87F
102
}
330
1F
100
AcDbEntity
  8
0
100
AcDbLine
 10
425.7359350440574
 20
-98.523607904041
 30
0.0
 11
425.7359350440574
 21
-118.523607904041
 31
0.0
  0
LINE
  5
6A1
102
{ACAD_REACTORS
330
87F
102
}
330
1F
100
AcDbEntity
  8
0
100
AcDbLine
 10
400.7359350440574
 20
-58.523607904041
 30
0.0
 11
425.7359350440574
 21
-58.523607904041
 31
0.0
  0
LINE
  5
6A2
102
{ACAD_REACTORS
330
87F
102
}
330
1F
100
AcDbEntity
  8
0
100
AcDbLine
 10
400.7359350440574
 20
-118.523607904041
 30
0.0
 11
425.7359350440574
 21
-118.523607904041
 31
0.0
  0
LINE
  5
98E
330
1F
100
AcDbEntity
  8
0
100
AcDbLine
 10
324.7018671315486
 20
-110.9815919261768
 30
0.0
 11
324.7018671315486
 21
-117.1815919261768
 31
0.0
  0
LINE
  5
98F
330
1F
100
AcDbEntity
  8
0
100
AcDbLine
 10
324.7018671315486
 20
-110.9815919261768
 30
0.0
 11
318.6018671315486
 21
-110.9815919261768
 31
0.0
  0
LINE
  5
990
330
1F
100
AcDbEntity
  8
0
100
AcDbLine
 10
324.7018671315486
 20
-117.1815919261768
 30
0.0
 11
318.6018671315486
 21
-117.1815919261768
 31
0.0
  0
LINE
  5
991
330
1F
100
AcDbEntity
  8
0
100
AcDbLine
 10
318.6018671315486
 20
-117.1815919261768
 30
0.0
 11
318.6018671315486
 21
-110.9815919261768
 31
0.0
  0
LINE
  5
992
330
1F
100
AcDbEntity
  8
0
100
AcDbLine
 10
332.7018671315486
 20
-110.9815919261768
 30
0.0
 11
332.7018671315486
 21
-117.1815919261768
 31
0.0
  0
LINE
  5
993
330
1F
100
AcDbEntity
  8
0
100
AcDbLine
 10
332.7018671315486
 20
-110.9815919261768
 30
0.0
 11
338.8018671315486
 21
-110.9815919261768
 31
0.0
  0
LINE
  5
994
330
1F
100
AcDbEntity
  8
0
100
AcDbLine
 10
332.7018671315486
 20
-117.1815919261768
 30
0.0
 11
338.8018671315486
 21
-117.1815919261768
 31
0.0
  0
LINE
  5
995
330
1F
100
AcDbEntity
  8
0
100
AcDbLine
 10
338.8018671315486
 20
-117.1815919261768
 30
0.0
 11
338.8018671315486
 21
-110.9815919261768
 31
0.0
  0
LINE
  5
9A6
330
1F
100
AcDbEntity
  8
0
100
AcDbLine
 10
324.7018671315486
 20
-83.88159192617683
 30
0.0
 11
324.7018671315486
 21
-90.08159192617684
 31
0.0
  0
LINE
  5
9A7
330
1F
100
AcDbEntity
  8
0
100
AcDbLine
 10
324.7018671315486
 20
-83.88159192617683
 30
0.0
 11
318.6018671315486
 21
-83.88159192617683
 31
0.0
  0
LINE
  5
9A8
330
1F
100
AcDbEntity
  8
0
100
AcDbLine
 10
324.7018671315486
 20
-90.08159192617684
 30
0.0
 11
318.6018671315486
 21
-90.08159192617684
 31
0.0
  0
LINE
  5
9A9
330
1F
100
AcDbEntity
  8
0
100
AcDbLine
 10
318.6018671315486
 20
-90.08159192617684
 30
0.0
 11
318.6018671315486
 21
-83.88159192617683
 31
0.0
  0
LINE
  5
9AA
330
1F
100
AcDbEntity
  8
0
100
AcDbLine
 10
332.7018671315486
 20
-83.88159192617683
 30
0.0
 11
332.7018671315486
 21
-90.08159192617684
 31
0.0
  0
LINE
  5
9AB
330
1F
100
AcDbEntity
  8
0
100
AcDbLine
 10
332.7018671315486
 20
-83.88159192617683
 30
0.0
 11
338.8018671315486
 21
-83.88159192617683
 31
0.0
  0
LINE
  5
9AC
330
1F
100
AcDbEntity
  8
0
100
AcDbLine
 10
332.7018671315486
 20
-90.08159192617684
 30
0.0
 11
338.8018671315486
 21
-90.08159192617684
 31
0.0
  0
LINE
  5
9AD
330
1F
100
AcDbEntity
  8
0
100
AcDbLine
 10
338.8018671315486
 20
-90.08159192617684
 30
0.0
 11
338.8018671315486
 21
-83.88159192617683
 31
0.0
  0
LINE
  5
9B2
330
1F
100
AcDbEntity
  8
0
100
AcDbLine
 10
348.7018671315485
 20
-85.88159192617684
 30
0.0
 11
348.7018671315484
 21
-115.1815919261768
 31
0.0
  0
LINE
  5
9B3
330
1F
100
AcDbEntity
  8
0
100
AcDbLine
 10
343.7018671315485
 20
-80.88159192617684
 30
0.0
 11
313.7018671315484
 21
-80.88159192617682
 31
0.0
  0
LINE
  5
9B4
330
1F
100
AcDbEntity
  8
0
100
AcDbLine
 10
343.7018671315485
 20
-120.1815919261768
 30
0.0
 11
313.7018671315485
 21
-120.1815919261768
 31
0.0
  0
LINE
  5
9B5
330
1F
100
AcDbEntity
  8
0
100
AcDbLine
 10
308.7018671315485
 20
-85.88159192617684
 30
0.0
 11
308.7018671315485
 21
-115.1815919261768
 31
0.0
  0
ARC
  5
9B7
330
1F
100
AcDbEntity
  8
0
100
AcDbCircle
 10
343.7018671315485
 20
-85.88159192617684
 30
0.0
 40
5.0
100
AcDbArc
 50
0.0
 51
90.0
  0
ARC
  5
9B8
330
1F
100
AcDbEntity
  8
0
100
AcDbCircle
 10
343.7018671315485
 20
-115.1815919261768
 30
0.0
 40
5.0
100
AcDbArc
 50
270.0
 51
0.0
  0
ARC
  5
9B9
330
1F
100
AcDbEntity
  8
0
100
AcDbCircle
 10
313.7018671315485
 20
-115.1815919261768
 30
0.0
 40
5.0
100
AcDbArc
 50
180.0
 51
270.0
  0
ARC
  5
9BA
330
1F
100
AcDbEntity
  8
0
100
AcDbCircle
 10
313.7018671315484
 20
-85.88159192617682
 30
0.0
 40
5.0
100
AcDbArc
 50
90.0
 51
180.0
  0
CIRCLE
  5
A2A
330
1F
100
AcDbEntity
  8
0
100
AcDbCircle
 10
386.9219943924155
 20
-75.45335537759928
 30
0.0
 40
1.6
  0
CIRCLE
  5
A2B
330
1F
100
AcDbEntity
  8
0
100
AcDbCircle
 10
356.9219943924155
 20
-75.45335537759928
 30
0.0
 40
1.6
  0
CIRCLE
  5
A2C
330
1F
100
AcDbEntity
  8
0
100
AcDbCircle
 10
371.9219943924155
 20
-61.90335537759928
 30
0.0
 40
1.6
  0
CIRCLE
  5
A2D
330
1F
100
AcDbEntity
  8
0
100
AcDbCircle
 10
371.9219943924155
 20
-89.00335537759927
 30
0.0
 40
1.6
  0
CIRCLE
  5
A2E
330
1F
100
AcDbEntity
  8
0
100
AcDbCircle
 10
371.9219943924155
 20
-75.45335537759926
 30
0.0
 40
1.6
  0
LINE
  5
A2F
330
1F
100
AcDbEntity
  8
0
100
AcDbLine
 10
367.9219943924155
 20
-72.35335537759927
 30
0.0
 11
367.9219943924155
 21
-78.55335537759927
 31
0.0
  0
LINE
  5
A30
330
1F
100
AcDbEntity
  8
0
100
AcDbLine
 10
501.2825027912431
 20
-113.9825536230435
 30
0.0
 11
501.2825027912431
 21
-111.4825536230435
 31
0.0
  0
LINE
  5
A31
330
1F
100
AcDbEntity
  8
0
100
AcDbLine
 10
501.2825027912431
 20
-111.4825536230435
 30
0.0
 11
502.6825027912432
 21
-111.4825536230435
 31
0.0
  0
LINE
  5
A32
330
1F
100
AcDbEntity
  8
0
100
AcDbLine
 10
502.6825027912432
 20
-111.4825536230435
 30
0.0
 11
502.6825027912432
 21
-108.9825536230435
 31
0.0
  0
LINE
  5
A33
330
1F
100
AcDbEntity
  8
0
100
AcDbLine
 10
502.6825027912432
 20
-108.9825536230435
 30
0.0
 11
501.2825027912431
 21
-108.9825536230435
 31
0.0
  0
LINE
  5
A34
330
1F
100
AcDbEntity
  8
0
100
AcDbLine
 10
501.2825027912431
 20
-108.9825536230435
 30
0.0
 11
501.2825027912431
 21
-107.9825536230435
 31
0.0
  0
LINE
  5
A35
330
1F
100
AcDbEntity
  8
0
100
AcDbLine
 10
498.2825027912431
 20
-113.9825536230435
 30
0.0
 11
498.2825027912431
 21
-111.4825536230435
 31
0.0
  0
LINE
  5
A36
330
1F
100
AcDbEntity
  8
0
100
AcDbLine
 10
498.2825027912431
 20
-111.4825536230435
 30
0.0
 11
496.8825027912431
 21
-111.4825536230435
 31
0.0
  0
LINE
  5
A37
330
1F
100
AcDbEntity
  8
0
100
AcDbLine
 10
496.8825027912431
 20
-111.4825536230435
 30
0.0
 11
496.8825027912431
 21
-108.9825536230435
 31
0.0
  0
LINE
  5
A38
330
1F
100
AcDbEntity
  8
0
100
AcDbLine
 10
496.8825027912431
 20
-108.9825536230435
 30
0.0
 11
498.2825027912431
 21
-108.9825536230435
 31
0.0
  0
LINE
  5
A39
330
1F
100
AcDbEntity
  8
0
100
AcDbLine
 10
498.2825027912431
 20
-108.9825536230435
 30
0.0
 11
498.2825027912431
 21
-107.9825536230435
 31
0.0
  0
LINE
  5
A3A
330
1F
100
AcDbEntity
  8
0
100
AcDbLine
 10
498.2825027912431
 20
-107.9825536230435
 30
0.0
 11
501.2825027912431
 21
-107.9825536230435
 31
0.0
  0
ARC
  5
A3B
330
1F
100
AcDbEntity
  8
0
100
AcDbCircle
 10
499.7825027912431
 20
-98.98255362304348
 30
0.0
 40
10.0
100
AcDbArc
 50
0.0
 51
180.0
  0
CIRCLE
  5
A3C
330
1F
100
AcDbEntity
  8
0
100
AcDbCircle
 10
499.7825027912431
 20
-98.98255362304348
 30
0.0
 40
6.0
  0
LINE
  5
A3D
330
1F
100
AcDbEntity
  8
0
100
AcDbLine
 10
509.7825027912431
 20
-120.3325536230435
 30
0.0
 11
509.7825027912431
 21
-98.98255362304348
 31
0.0
  0
LINE
  5
A3E
330
1F
100
AcDbEntity
  8
0
100
AcDbLine
 10
489.7825027912431
 20
-120.3325536230435
 30
0.0
 11
489.7825027912431
 21
-98.98255362304348
 31
0.0
  0
LINE
  5
A3F
330
1F
100
AcDbEntity
  8
0
100
AcDbLine
 10
495.6825027912432
 20
-113.9825536230435
 30
0.0
 11
498.2825027912431
 21
-113.9825536230435
 31
0.0
  0
LINE
  5
A40
330
1F
100
AcDbEntity
  8
0
100
AcDbLine
 10
501.2825027912431
 20
-113.9825536230435
 30
0.0
 11
503.8825027912431
 21
-113.9825536230435
 31
0.0
  0
LINE
  5
A41
330
1F
100
AcDbEntity
  8
0
100
AcDbLine
 10
501.2784953673544
 20
-81.36380006521495
 30
0.0
 11
501.2784953673544
 21
-78.86380006521495
 31
0.0
  0
LINE
  5
A42
330
1F
100
AcDbEntity
  8
0
100
AcDbLine
 10
501.2784953673544
 20
-78.86380006521495
 30
0.0
 11
502.6784953673544
 21
-78.86380006521495
 31
0.0
  0
LINE
  5
A43
330
1F
100
AcDbEntity
  8
0
100
AcDbLine
 10
502.6784953673544
 20
-78.86380006521495
 30
0.0
 11
502.6784953673544
 21
-76.36380006521495
 31
0.0
  0
LINE
  5
A44
330
1F
100
AcDbEntity
  8
0
100
AcDbLine
 10
502.6784953673544
 20
-76.36380006521495
 30
0.0
 11
501.2784953673544
 21
-76.36380006521495
 31
0.0
  0
LINE
  5
A45
330
1F
100
AcDbEntity
  8
0
100
AcDbLine
 10
501.2784953673544
 20
-76.36380006521495
 30
0.0
 11
501.2784953673544
 21
-75.36380006521494
 31
0.0
  0
LINE
  5
A46
330
1F
100
AcDbEntity
  8
0
100
AcDbLine
 10
498.2784953673545
 20
-81.36380006521495
 30
0.0
 11
498.2784953673545
 21
-78.86380006521495
 31
0.0
  0
LINE
  5
A47
330
1F
100
AcDbEntity
  8
0
100
AcDbLine
 10
498.2784953673545
 20
-78.86380006521495
 30
0.0
 11
496.8784953673544
 21
-78.86380006521495
 31
0.0
  0
LINE
  5
A48
330
1F
100
AcDbEntity
  8
0
100
AcDbLine
 10
496.8784953673544
 20
-78.86380006521495
 30
0.0
 11
496.8784953673544
 21
-76.36380006521495
 31
0.0
  0
LINE
  5
A49
330
1F
100
AcDbEntity
  8
0
100
AcDbLine
 10
496.8784953673544
 20
-76.36380006521495
 30
0.0
 11
498.2784953673545
 21
-76.36380006521495
 31
0.0
  0
LINE
  5
A4A
330
1F
100
AcDbEntity
  8
0
100
AcDbLine
 10
498.2784953673545
 20
-76.36380006521495
 30
0.0
 11
498.2784953673545
 21
-75.36380006521494
 31
0.0
  0
LINE
  5
A4B
330
1F
100
AcDbEntity
  8
0
100
AcDbLine
 10
498.2784953673545
 20
-75.36380006521494
 30
0.0
 11
501.2784953673544
 21
-75.36380006521494
 31
0.0
  0
ARC
  5
A4C
330
1F
100
AcDbEntity
  8
0
100
AcDbCircle
 10
499.7784953673544
 20
-66.36380006521495
 30
0.0
 40
10.0
100
AcDbArc
 50
0.0
 51
180.0
  0
LINE
  5
A4D
330
1F
100
AcDbEntity
  8
0
100
AcDbLine
 10
509.7784953673545
 20
-87.71380006521495
 30
0.0
 11
509.7784953673545
 21
-66.36380006521495
 31
0.0
  0
LINE
  5
A4E
330
1F
100
AcDbEntity
  8
0
100
AcDbLine
 10
489.7784953673545
 20
-87.71380006521495
 30
0.0
 11
489.7784953673545
 21
-66.36380006521495
 31
0.0
  0
LINE
  5
A4F
330
1F
100
AcDbEntity
  8
0
100
AcDbLine
 10
495.6784953673544
 20
-81.36380006521495
 30
0.0
 11
498.2784953673545
 21
-81.36380006521495
 31
0.0
  0
LINE
  5
A50
330
1F
100
AcDbEntity
  8
0
100
AcDbLine
 10
501.2784953673544
 20
-81.36380006521495
 30
0.0
 11
503.8784953673544
 21
-81.36380006521495
 31
0.0
  0
CIRCLE
  5
A51
330
1F
100
AcDbEntity
  8
0
100
AcDbCircle
 10
499.7784953673544
 20
-66.36380006521495
 30
0.0
 40
7.5
  0
LINE
  5
A52
330
1F
100
AcDbEntity
  8
0
100
AcDbLine
 10
367.9219943924155
 20
-72.35335537759927
 30
0.0
 11
361.8219943924155
 21
-72.35335537759927
 31
0.0
  0
LINE
  5
A53
330
1F
100
AcDbEntity
  8
0
100
AcDbLine
 10
367.9219943924155
 20
-78.55335537759927
 30
0.0
 11
361.8219943924155
 21
-78.55335537759927
 31
0.0
  0
LINE
  5
A54
330
1F
100
AcDbEntity
  8
0
100
AcDbLine
 10
361.8219943924155
 20
-78.55335537759927
 30
0.0
 11
361.8219943924155
 21
-72.35335537759927
 31
0.0
  0
LINE
  5
A55
330
1F
100
AcDbEntity
  8
0
100
AcDbLine
 10
375.9219943924155
 20
-72.35335537759927
 30
0.0
 11
375.9219943924155
 21
-78.55335537759927
 31
0.0
  0
LINE
  5
A56
330
1F
100
AcDbEntity
  8
0
100
AcDbLine
 10
375.9219943924155
 20
-72.35335537759927
 30
0.0
 11
382.0219943924156
 21
-72.35335537759927
 31
0.0
  0
LINE
  5
A57
330
1F
100
AcDbEntity
  8
0
100
AcDbLine
 10
375.9219943924155
 20
-78.55335537759927
 30
0.0
 11
382.0219943924156
 21
-78.55335537759927
 31
0.0
  0
LINE
  5
A58
330
1F
100
AcDbEntity
  8
0
100
AcDbLine
 10
382.0219943924156
 20
-78.55335537759927
 30
0.0
 11
382.0219943924156
 21
-72.35335537759927
 31
0.0
  0
LINE
  5
A59
330
1F
100
AcDbEntity
  8
0
100
AcDbLine
 10
489.7825027912431
 20
-120.3325536230435
 30
0.0
 11
495.6825027912432
 21
-120.3325536230435
 31
0.0
  0
LINE
  5
A5A
330
1F
100
AcDbEntity
  8
0
100
AcDbLine
 10
495.6825027912432
 20
-120.3325536230435
 30
0.0
 11
495.6825027912432
 21
-113.9825536230435
 31
0.0
  0
LINE
  5
A5B
330
1F
100
AcDbEntity
  8
0
100
AcDbLine
 10
509.7825027912431
 20
-120.3325536230435
 30
0.0
 11
503.8825027912431
 21
-120.3325536230435
 31
0.0
  0
LINE
  5
A5C
330
1F
100
AcDbEntity
  8
0
100
AcDbLine
 10
503.8825027912431
 20
-120.3325536230435
 30
0.0
 11
503.8825027912431
 21
-113.9825536230435
 31
0.0
  0
LINE
  5
A5D
330
1F
100
AcDbEntity
  8
0
100
AcDbLine
 10
489.7784953673545
 20
-87.71380006521495
 30
0.0
 11
495.6784953673544
 21
-87.71380006521495
 31
0.0
  0
LINE
  5
A5E
330
1F
100
AcDbEntity
  8
0
100
AcDbLine
 10
495.6784953673544
 20
-87.71380006521495
 30
0.0
 11
495.6784953673544
 21
-81.36380006521495
 31
0.0
  0
LINE
  5
A5F
330
1F
100
AcDbEntity
  8
0
100
AcDbLine
 10
509.7784953673545
 20
-87.71380006521495
 30
0.0
 11
503.8784953673544
 21
-87.71380006521495
 31
0.0
  0
LINE
  5
A60
330
1F
100
AcDbEntity
  8
0
100
AcDbLine
 10
503.8784953673544
 20
-87.71380006521495
 30
0.0
 11
503.8784953673544
 21
-81.36380006521495
 31
0.0
  0
LINE
  5
A61
330
1F
100
AcDbEntity
  8
0
100
AcDbLine
 10
478.2340012687691
 20
-80.69791720368812
 30
0.0
 11
478.2340012687691
 21
-78.19791720368812
 31
0.0
  0
LINE
  5
A62
330
1F
100
AcDbEntity
  8
0
100
AcDbLine
 10
478.2340012687691
 20
-78.19791720368812
 30
0.0
 11
479.6340012687692
 21
-78.19791720368812
 31
0.0
  0
LINE
  5
A63
330
1F
100
AcDbEntity
  8
0
100
AcDbLine
 10
479.6340012687692
 20
-78.19791720368812
 30
0.0
 11
479.6340012687692
 21
-75.69791720368812
 31
0.0
  0
LINE
  5
A64
330
1F
100
AcDbEntity
  8
0
100
AcDbLine
 10
479.6340012687692
 20
-75.69791720368812
 30
0.0
 11
478.2340012687691
 21
-75.69791720368812
 31
0.0
  0
LINE
  5
A65
330
1F
100
AcDbEntity
  8
0
100
AcDbLine
 10
478.2340012687691
 20
-75.69791720368812
 30
0.0
 11
478.2340012687691
 21
-74.69791720368812
 31
0.0
  0
LINE
  5
A66
330
1F
100
AcDbEntity
  8
0
100
AcDbLine
 10
475.2340012687691
 20
-80.69791720368812
 30
0.0
 11
475.2340012687691
 21
-78.19791720368812
 31
0.0
  0
LINE
  5
A67
330
1F
100
AcDbEntity
  8
0
100
AcDbLine
 10
475.2340012687691
 20
-78.19791720368812
 30
0.0
 11
473.8340012687691
 21
-78.19791720368812
 31
0.0
  0
LINE
  5
A68
330
1F
100
AcDbEntity
  8
0
100
AcDbLine
 10
473.8340012687691
 20
-78.19791720368812
 30
0.0
 11
473.8340012687691
 21
-75.69791720368812
 31
0.0
  0
LINE
  5
A69
330
1F
100
AcDbEntity
  8
0
100
AcDbLine
 10
473.8340012687691
 20
-75.69791720368812
 30
0.0
 11
475.2340012687691
 21
-75.69791720368812
 31
0.0
  0
LINE
  5
A6A
330
1F
100
AcDbEntity
  8
0
100
AcDbLine
 10
475.2340012687691
 20
-75.69791720368812
 30
0.0
 11
475.2340012687691
 21
-74.69791720368812
 31
0.0
  0
LINE
  5
A6B
330
1F
100
AcDbEntity
  8
0
100
AcDbLine
 10
475.2340012687691
 20
-74.69791720368812
 30
0.0
 11
478.2340012687691
 21
-74.69791720368812
 31
0.0
  0
ARC
  5
A6C
330
1F
100
AcDbEntity
  8
0
100
AcDbCircle
 10
476.7340012687691
 20
-65.69791720368812
 30
0.0
 40
10.0
100
AcDbArc
 50
0.0
 51
180.0
  0
CIRCLE
  5
A6D
330
1F
100
AcDbEntity
  8
0
100
AcDbCircle
 10
476.7340012687691
 20
-65.69791720368812
 30
0.0
 40
6.0
  0
LINE
  5
A6E
330
1F
100
AcDbEntity
  8
0
100
AcDbLine
 10
486.7340012687691
 20
-87.04791720368811
 30
0.0
 11
486.7340012687691
 21
-65.69791720368812
 31
0.0
  0
LINE
  5
A6F
330
1F
100
AcDbEntity
  8
0
100
AcDbLine
 10
466.7340012687691
 20
-87.04791720368811
 30
0.0
 11
466.7340012687691
 21
-65.69791720368812
 31
0.0
  0
LINE
  5
A70
330
1F
100
AcDbEntity
  8
0
100
AcDbLine
 10
472.6340012687692
 20
-80.69791720368812
 30
0.0
 11
475.2340012687691
 21
-80.69791720368812
 31
0.0
  0
LINE
  5
A71
330
1F
100
AcDbEntity
  8
0
100
AcDbLine
 10
478.2340012687691
 20
-80.69791720368812
 30
0.0
 11
480.8340012687692
 21
-80.69791720368812
 31
0.0
  0
LINE
  5
A72
330
1F
100
AcDbEntity
  8
0
100
AcDbLine
 10
466.7340012687691
 20
-87.04791720368811
 30
0.0
 11
472.6340012687692
 21
-87.04791720368811
 31
0.0
  0
LINE
  5
A73
330
1F
100
AcDbEntity
  8
0
100
AcDbLine
 10
472.6340012687692
 20
-87.04791720368811
 30
0.0
 11
472.6340012687692
 21
-80.69791720368812
 31
0.0
  0
LINE
  5
A74
330
1F
100
AcDbEntity
  8
0
100
AcDbLine
 10
486.7340012687691
 20
-87.04791720368811
 30
0.0
 11
480.8340012687692
 21
-87.04791720368811
 31
0.0
  0
LINE
  5
A75
330
1F
100
AcDbEntity
  8
0
100
AcDbLine
 10
480.8340012687692
 20
-87.04791720368811
 30
0.0
 11
480.8340012687692
 21
-80.69791720368812
 31
0.0
  0
LINE
  5
A76
330
1F
100
AcDbEntity
  8
0
100
AcDbLine
 10
367.9219943924155
 20
-85.90335537759928
 30
0.0
 11
367.9219943924155
 21
-92.10335537759929
 31
0.0
  0
LINE
  5
A77
330
1F
100
AcDbEntity
  8
0
100
AcDbLine
 10
367.9219943924155
 20
-85.90335537759928
 30
0.0
 11
361.8219943924155
 21
-85.90335537759928
 31
0.0
  0
LINE
  5
A78
330
1F
100
AcDbEntity
  8
0
100
AcDbLine
 10
367.9219943924155
 20
-92.10335537759929
 30
0.0
 11
361.8219943924155
 21
-92.10335537759929
 31
0.0
  0
LINE
  5
A79
330
1F
100
AcDbEntity
  8
0
100
AcDbLine
 10
361.8219943924155
 20
-92.10335537759929
 30
0.0
 11
361.8219943924155
 21
-85.90335537759928
 31
0.0
  0
LINE
  5
A7A
330
1F
100
AcDbEntity
  8
0
100
AcDbLine
 10
375.9219943924155
 20
-85.90335537759928
 30
0.0
 11
375.9219943924155
 21
-92.10335537759929
 31
0.0
  0
LINE
  5
A7B
330
1F
100
AcDbEntity
  8
0
100
AcDbLine
 10
375.9219943924155
 20
-85.90335537759928
 30
0.0
 11
382.0219943924156
 21
-85.90335537759928
 31
0.0
  0
LINE
  5
A7C
330
1F
100
AcDbEntity
  8
0
100
AcDbLine
 10
375.9219943924155
 20
-92.10335537759929
 30
0.0
 11
382.0219943924156
 21
-92.10335537759929
 31
0.0
  0
LINE
  5
A7D
330
1F
100
AcDbEntity
  8
0
100
AcDbLine
 10
382.0219943924156
 20
-92.10335537759929
 30
0.0
 11
382.0219943924156
 21
-85.90335537759928
 31
0.0
  0
LINE
  5
A7E
330
1F
100
AcDbEntity
  8
0
100
AcDbLine
 10
367.9219943924155
 20
-58.80335537759929
 30
0.0
 11
367.9219943924155
 21
-65.00335537759929
 31
0.0
  0
LINE
  5
A7F
330
1F
100
AcDbEntity
  8
0
100
AcDbLine
 10
367.9219943924155
 20
-58.80335537759929
 30
0.0
 11
361.8219943924155
 21
-58.80335537759929
 31
0.0
  0
LINE
  5
A80
330
1F
100
AcDbEntity
  8
0
100
AcDbLine
 10
367.9219943924155
 20
-65.00335537759929
 30
0.0
 11
361.8219943924155
 21
-65.00335537759929
 31
0.0
  0
LINE
  5
A81
330
1F
100
AcDbEntity
  8
0
100
AcDbLine
 10
361.8219943924155
 20
-65.00335537759929
 30
0.0
 11
361.8219943924155
 21
-58.80335537759929
 31
0.0
  0
LINE
  5
A82
330
1F
100
AcDbEntity
  8
0
100
AcDbLine
 10
375.9219943924155
 20
-58.80335537759929
 30
0.0
 11
375.9219943924155
 21
-65.00335537759929
 31
0.0
  0
LINE
  5
A83
330
1F
100
AcDbEntity
  8
0
100
AcDbLine
 10
375.9219943924155
 20
-58.80335537759929
 30
0.0
 11
382.0219943924156
 21
-58.80335537759929
 31
0.0
  0
LINE
  5
A84
330
1F
100
AcDbEntity
  8
0
100
AcDbLine
 10
375.9219943924155
 20
-65.00335537759929
 30
0.0
 11
382.0219943924156
 21
-65.00335537759929
 31
0.0
  0
LINE
  5
A85
330
1F
100
AcDbEntity
  8
0
100
AcDbLine
 10
382.0219943924156
 20
-65.00335537759929
 30
0.0
 11
382.0219943924156
 21
-58.80335537759929
 31
0.0
  0
LINE
  5
A86
330
1F
100
AcDbEntity
  8
0
100
AcDbLine
 10
391.9219943924154
 20
-60.80335537759928
 30
0.0
 11
391.9219943924154
 21
-90.1033553775993
 31
0.0
  0
ARC
  5
A87
330
1F
100
AcDbEntity
  8
0
100
AcDbCircle
 10
386.9219943924154
 20
-60.80335537759928
 30
0.0
 40
5.0
100
AcDbArc
 50
0.0
 51
90.0
  0
LINE
  5
A88
330
1F
100
AcDbEntity
  8
0
100
AcDbLine
 10
386.9219943924154
 20
-55.80335537759928
 30
0.0
 11
356.9219943924154
 21
-55.80335537759927
 31
0.0
  0
LINE
  5
A89
330
1F
100
AcDbEntity
  8
0
100
AcDbLine
 10
386.9219943924154
 20
-95.10335537759928
 30
0.0
 11
356.9219943924154
 21
-95.10335537759928
 31
0.0
  0
ARC
  5
A8A
330
1F
100
AcDbEntity
  8
0
100
AcDbCircle
 10
356.9219943924154
 20
-90.10335537759928
 30
0.0
 40
5.0
100
AcDbArc
 50
180.0
 51
270.0
  0
ARC
  5
A8B
330
1F
100
AcDbEntity
  8
0
100
AcDbCircle
 10
386.9219943924154
 20
-90.10335537759928
 30
0.0
 40
5.0
100
AcDbArc
 50
270.0
 51
0.0
  0
LINE
  5
A8C
330
1F
100
AcDbEntity
  8
0
100
AcDbLine
 10
351.9219943924154
 20
-60.80335537759928
 30
0.0
 11
351.9219943924154
 21
-90.10335537759928
 31
0.0
  0
ARC
  5
A8D
330
1F
100
AcDbEntity
  8
0
100
AcDbCircle
 10
356.9219943924154
 20
-60.80335537759927
 30
0.0
 40
5.0
100
AcDbArc
 50
90.0
 51
180.0
  0
CIRCLE
  5
AF8
330
1F
100
AcDbEntity
  8
0
100
AcDbCircle
 10
386.9219943924156
 20
-33.33193714115777
 30
0.0
 40
1.6
  0
CIRCLE
  5
AF9
330
1F
100
AcDbEntity
  8
0
100
AcDbCircle
 10
356.9219943924156
 20
-33.33193714115777
 30
0.0
 40
1.6
  0
CIRCLE
  5
AFA
330
1F
100
AcDbEntity
  8
0
100
AcDbCircle
 10
371.9219943924156
 20
-19.78193714115777
 30
0.0
 40
1.6
  0
CIRCLE
  5
AFB
330
1F
100
AcDbEntity
  8
0
100
AcDbCircle
 10
371.9219943924156
 20
-46.88193714115776
 30
0.0
 40
1.6
  0
CIRCLE
  5
AFC
330
1F
100
AcDbEntity
  8
0
100
AcDbCircle
 10
371.9219943924156
 20
-33.33193714115775
 30
0.0
 40
1.6
  0
LINE
  5
AFD
330
1F
100
AcDbEntity
  8
0
100
AcDbLine
 10
367.9219943924156
 20
-30.23193714115776
 30
0.0
 11
367.9219943924156
 21
-36.43193714115776
 31
0.0
  0
LINE
  5
AFE
330
1F
100
AcDbEntity
  8
0
100
AcDbLine
 10
457.9818812107977
 20
-108.1407977898236
 30
0.0
 11
455.4818812107977
 21
-108.1407977898236
 31
0.0
  0
LINE
  5
AFF
330
1F
100
AcDbEntity
  8
0
100
AcDbLine
 10
455.4818812107977
 20
-108.1407977898236
 30
0.0
 11
455.4818812107977
 21
-106.7407977898235
 31
0.0
  0
LINE
  5
B00
330
1F
100
AcDbEntity
  8
0
100
AcDbLine
 10
455.4818812107977
 20
-106.7407977898235
 30
0.0
 11
452.9818812107976
 21
-106.7407977898235
 31
0.0
  0
LINE
  5
B01
330
1F
100
AcDbEntity
  8
0
100
AcDbLine
 10
452.9818812107976
 20
-106.7407977898235
 30
0.0
 11
452.9818812107976
 21
-108.1407977898236
 31
0.0
  0
LINE
  5
B02
330
1F
100
AcDbEntity
  8
0
100
AcDbLine
 10
452.9818812107976
 20
-108.1407977898236
 30
0.0
 11
451.9818812107977
 21
-108.1407977898236
 31
0.0
  0
LINE
  5
B03
330
1F
100
AcDbEntity
  8
0
100
AcDbLine
 10
457.9818812107977
 20
-111.1407977898236
 30
0.0
 11
455.4818812107977
 21
-111.1407977898236
 31
0.0
  0
LINE
  5
B04
330
1F
100
AcDbEntity
  8
0
100
AcDbLine
 10
455.4818812107977
 20
-111.1407977898236
 30
0.0
 11
455.4818812107977
 21
-112.5407977898236
 31
0.0
  0
LINE
  5
B05
330
1F
100
AcDbEntity
  8
0
100
AcDbLine
 10
455.4818812107977
 20
-112.5407977898236
 30
0.0
 11
452.9818812107976
 21
-112.5407977898236
 31
0.0
  0
LINE
  5
B06
330
1F
100
AcDbEntity
  8
0
100
AcDbLine
 10
452.9818812107976
 20
-112.5407977898236
 30
0.0
 11
452.9818812107976
 21
-111.1407977898236
 31
0.0
  0
LINE
  5
B07
330
1F
100
AcDbEntity
  8
0
100
AcDbLine
 10
452.9818812107976
 20
-111.1407977898236
 30
0.0
 11
451.9818812107977
 21
-111.1407977898236
 31
0.0
  0
LINE
  5
B08
330
1F
100
AcDbEntity
  8
0
100
AcDbLine
 10
451.9818812107977
 20
-111.1407977898236
 30
0.0
 11
451.9818812107977
 21
-108.1407977898236
 31
0.0
  0
ARC
  5
B09
330
1F
100
AcDbEntity
  8
0
100
AcDbCircle
 10
442.9818812107977
 20
-109.6407977898236
 30
0.0
 40
10.0
100
AcDbArc
 50
90.0
 51
270.0
  0
CIRCLE
  5
B0A
330
1F
100
AcDbEntity
  8
0
100
AcDbCircle
 10
442.9818812107977
 20
-109.6407977898236
 30
0.0
 40
6.0
  0
LINE
  5
B0B
330
1F
100
AcDbEntity
  8
0
100
AcDbLine
 10
464.3318812107977
 20
-99.64079778982364
 30
0.0
 11
442.9818812107977
 21
-99.64079778982364
 31
0.0
  0
LINE
  5
B0C
330
1F
100
AcDbEntity
  8
0
100
AcDbLine
 10
464.3318812107977
 20
-119.6407977898236
 30
0.0
 11
442.9818812107977
 21
-119.6407977898236
 31
0.0
  0
LINE
  5
B0D
330
1F
100
AcDbEntity
  8
0
100
AcDbLine
 10
457.9818812107977
 20
-113.7407977898235
 30
0.0
 11
457.9818812107977
 21
-111.1407977898236
 31
0.0
  0
LINE
  5
B0E
330
1F
100
AcDbEntity
  8
0
100
AcDbLine
 10
457.9818812107977
 20
-108.1407977898236
 30
0.0
 11
457.9818812107977
 21
-105.5407977898236
 31
0.0
  0
LINE
  5
B0F
330
1F
100
AcDbEntity
  8
0
100
AcDbLine
 10
458.0286502256267
 20
-85.55260849130036
 30
0.0
 11
455.5286502256267
 21
-85.55260849130036
 31
0.0
  0
LINE
  5
B10
330
1F
100
AcDbEntity
  8
0
100
AcDbLine
 10
455.5286502256267
 20
-85.55260849130036
 30
0.0
 11
455.5286502256267
 21
-84.15260849130039
 31
0.0
  0
LINE
  5
B11
330
1F
100
AcDbEntity
  8
0
100
AcDbLine
 10
455.5286502256267
 20
-84.15260849130039
 30
0.0
 11
453.0286502256267
 21
-84.15260849130039
 31
0.0
  0
LINE
  5
B12
330
1F
100
AcDbEntity
  8
0
100
AcDbLine
 10
453.0286502256267
 20
-84.15260849130039
 30
0.0
 11
453.0286502256267
 21
-85.55260849130036
 31
0.0
  0
LINE
  5
B13
330
1F
100
AcDbEntity
  8
0
100
AcDbLine
 10
453.0286502256267
 20
-85.55260849130036
 30
0.0
 11
452.0286502256267
 21
-85.55260849130036
 31
0.0
  0
LINE
  5
B14
330
1F
100
AcDbEntity
  8
0
100
AcDbLine
 10
458.0286502256267
 20
-88.55260849130036
 30
0.0
 11
455.5286502256267
 21
-88.55260849130036
 31
0.0
  0
LINE
  5
B15
330
1F
100
AcDbEntity
  8
0
100
AcDbLine
 10
455.5286502256267
 20
-88.55260849130036
 30
0.0
 11
455.5286502256267
 21
-89.95260849130046
 31
0.0
  0
LINE
  5
B16
330
1F
100
AcDbEntity
  8
0
100
AcDbLine
 10
455.5286502256267
 20
-89.95260849130046
 30
0.0
 11
453.0286502256267
 21
-89.95260849130046
 31
0.0
  0
LINE
  5
B17
330
1F
100
AcDbEntity
  8
0
100
AcDbLine
 10
453.0286502256267
 20
-89.95260849130046
 30
0.0
 11
453.0286502256267
 21
-88.55260849130036
 31
0.0
  0
LINE
  5
B18
330
1F
100
AcDbEntity
  8
0
100
AcDbLine
 10
453.0286502256267
 20
-88.55260849130036
 30
0.0
 11
452.0286502256267
 21
-88.55260849130036
 31
0.0
  0
LINE
  5
B19
330
1F
100
AcDbEntity
  8
0
100
AcDbLine
 10
452.0286502256267
 20
-88.55260849130036
 30
0.0
 11
452.0286502256267
 21
-85.55260849130036
 31
0.0
  0
ARC
  5
B1A
330
1F
100
AcDbEntity
  8
0
100
AcDbCircle
 10
443.0286502256267
 20
-87.05260849130036
 30
0.0
 40
10.0
100
AcDbArc
 50
90.0
 51
270.0
  0
LINE
  5
B1B
330
1F
100
AcDbEntity
  8
0
100
AcDbLine
 10
464.3786502256268
 20
-77.05260849130036
 30
0.0
 11
443.0286502256267
 21
-77.05260849130036
 31
0.0
  0
LINE
  5
B1C
330
1F
100
AcDbEntity
  8
0
100
AcDbLine
 10
464.3786502256268
 20
-97.05260849130036
 30
0.0
 11
443.0286502256267
 21
-97.05260849130036
 31
0.0
  0
LINE
  5
B1D
330
1F
100
AcDbEntity
  8
0
100
AcDbLine
 10
458.0286502256267
 20
-91.15260849130038
 30
0.0
 11
458.0286502256267
 21
-88.55260849130036
 31
0.0
  0
LINE
  5
B1E
330
1F
100
AcDbEntity
  8
0
100
AcDbLine
 10
458.0286502256267
 20
-85.55260849130036
 30
0.0
 11
458.0286502256267
 21
-82.95260849130045
 31
0.0
  0
CIRCLE
  5
B1F
330
1F
100
AcDbEntity
  8
0
100
AcDbCircle
 10
443.0286502256267
 20
-87.05260849130036
 30
0.0
 40
7.5
  0
LINE
  5
B20
330
1F
100
AcDbEntity
  8
0
100
AcDbLine
 10
367.9219943924156
 20
-30.23193714115776
 30
0.0
 11
361.8219943924156
 21
-30.23193714115776
 31
0.0
  0
LINE
  5
B21
330
1F
100
AcDbEntity
  8
0
100
AcDbLine
 10
367.9219943924156
 20
-36.43193714115776
 30
0.0
 11
361.8219943924156
 21
-36.43193714115776
 31
0.0
  0
LINE
  5
B22
330
1F
100
AcDbEntity
  8
0
100
AcDbLine
 10
361.8219943924156
 20
-36.43193714115776
 30
0.0
 11
361.8219943924156
 21
-30.23193714115776
 31
0.0
  0
LINE
  5
B23
330
1F
100
AcDbEntity
  8
0
100
AcDbLine
 10
375.9219943924156
 20
-30.23193714115776
 30
0.0
 11
375.9219943924156
 21
-36.43193714115776
 31
0.0
  0
LINE
  5
B24
330
1F
100
AcDbEntity
  8
0
100
AcDbLine
 10
375.9219943924156
 20
-30.23193714115776
 30
0.0
 11
382.0219943924156
 21
-30.23193714115776
 31
0.0
  0
LINE
  5
B25
330
1F
100
AcDbEntity
  8
0
100
AcDbLine
 10
375.9219943924156
 20
-36.43193714115776
 30
0.0
 11
382.0219943924156
 21
-36.43193714115776
 31
0.0
  0
LINE
  5
B26
330
1F
100
AcDbEntity
  8
0
100
AcDbLine
 10
382.0219943924156
 20
-36.43193714115776
 30
0.0
 11
382.0219943924156
 21
-30.23193714115776
 31
0.0
  0
LINE
  5
B27
330
1F
100
AcDbEntity
  8
0
100
AcDbLine
 10
464.3318812107977
 20
-119.6407977898236
 30
0.0
 11
464.3318812107977
 21
-113.7407977898235
 31
0.0
  0
LINE
  5
B28
330
1F
100
AcDbEntity
  8
0
100
AcDbLine
 10
464.3318812107977
 20
-113.7407977898235
 30
0.0
 11
457.9818812107977
 21
-113.7407977898235
 31
0.0
  0
LINE
  5
B29
330
1F
100
AcDbEntity
  8
0
100
AcDbLine
 10
464.3318812107977
 20
-99.64079778982364
 30
0.0
 11
464.3318812107977
 21
-105.5407977898236
 31
0.0
  0
LINE
  5
B2A
330
1F
100
AcDbEntity
  8
0
100
AcDbLine
 10
464.3318812107977
 20
-105.5407977898236
 30
0.0
 11
457.9818812107977
 21
-105.5407977898236
 31
0.0
  0
LINE
  5
B2B
330
1F
100
AcDbEntity
  8
0
100
AcDbLine
 10
464.3786502256268
 20
-97.05260849130036
 30
0.0
 11
464.3786502256268
 21
-91.15260849130038
 31
0.0
  0
LINE
  5
B2C
330
1F
100
AcDbEntity
  8
0
100
AcDbLine
 10
464.3786502256268
 20
-91.15260849130038
 30
0.0
 11
458.0286502256267
 21
-91.15260849130038
 31
0.0
  0
LINE
  5
B2D
330
1F
100
AcDbEntity
  8
0
100
AcDbLine
 10
464.3786502256268
 20
-77.05260849130036
 30
0.0
 11
464.3786502256268
 21
-82.95260849130045
 31
0.0
  0
LINE
  5
B2E
330
1F
100
AcDbEntity
  8
0
100
AcDbLine
 10
464.3786502256268
 20
-82.95260849130045
 30
0.0
 11
458.0286502256267
 21
-82.95260849130045
 31
0.0
  0
LINE
  5
B2F
330
1F
100
AcDbEntity
  8
0
100
AcDbLine
 10
478.2299123379535
 20
-113.3503386366208
 30
0.0
 11
478.2299123379535
 21
-110.8503386366208
 31
0.0
  0
LINE
  5
B30
330
1F
100
AcDbEntity
  8
0
100
AcDbLine
 10
478.2299123379535
 20
-110.8503386366208
 30
0.0
 11
479.6299123379535
 21
-110.8503386366208
 31
0.0
  0
LINE
  5
B31
330
1F
100
AcDbEntity
  8
0
100
AcDbLine
 10
479.6299123379535
 20
-110.8503386366208
 30
0.0
 11
479.6299123379535
 21
-108.3503386366208
 31
0.0
  0
LINE
  5
B32
330
1F
100
AcDbEntity
  8
0
100
AcDbLine
 10
479.6299123379535
 20
-108.3503386366208
 30
0.0
 11
478.2299123379535
 21
-108.3503386366208
 31
0.0
  0
LINE
  5
B33
330
1F
100
AcDbEntity
  8
0
100
AcDbLine
 10
478.2299123379535
 20
-108.3503386366208
 30
0.0
 11
478.2299123379535
 21
-107.3503386366208
 31
0.0
  0
LINE
  5
B34
330
1F
100
AcDbEntity
  8
0
100
AcDbLine
 10
475.2299123379534
 20
-113.3503386366208
 30
0.0
 11
475.2299123379534
 21
-110.8503386366208
 31
0.0
  0
LINE
  5
B35
330
1F
100
AcDbEntity
  8
0
100
AcDbLine
 10
475.2299123379534
 20
-110.8503386366208
 30
0.0
 11
473.8299123379534
 21
-110.8503386366208
 31
0.0
  0
LINE
  5
B36
330
1F
100
AcDbEntity
  8
0
100
AcDbLine
 10
473.8299123379534
 20
-110.8503386366208
 30
0.0
 11
473.8299123379534
 21
-108.3503386366208
 31
0.0
  0
LINE
  5
B37
330
1F
100
AcDbEntity
  8
0
100
AcDbLine
 10
473.8299123379534
 20
-108.3503386366208
 30
0.0
 11
475.2299123379534
 21
-108.3503386366208
 31
0.0
  0
LINE
  5
B38
330
1F
100
AcDbEntity
  8
0
100
AcDbLine
 10
475.2299123379534
 20
-108.3503386366208
 30
0.0
 11
475.2299123379534
 21
-107.3503386366208
 31
0.0
  0
LINE
  5
B39
330
1F
100
AcDbEntity
  8
0
100
AcDbLine
 10
475.2299123379534
 20
-107.3503386366208
 30
0.0
 11
478.2299123379535
 21
-107.3503386366208
 31
0.0
  0
ARC
  5
B3A
330
1F
100
AcDbEntity
  8
0
100
AcDbCircle
 10
476.7299123379534
 20
-98.35033863662079
 30
0.0
 40
10.0
100
AcDbArc
 50
0.0
 51
180.0
  0
CIRCLE
  5
B3B
330
1F
100
AcDbEntity
  8
0
100
AcDbCircle
 10
476.7299123379534
 20
-98.35033863662079
 30
0.0
 40
6.0
  0
LINE
  5
B3C
330
1F
100
AcDbEntity
  8
0
100
AcDbLine
 10
486.7299123379535
 20
-119.7003386366208
 30
0.0
 11
486.7299123379535
 21
-98.35033863662079
 31
0.0
  0
LINE
  5
B3D
330
1F
100
AcDbEntity
  8
0
100
AcDbLine
 10
466.7299123379534
 20
-119.7003386366208
 30
0.0
 11
466.7299123379534
 21
-98.35033863662079
 31
0.0
  0
LINE
  5
B3E
330
1F
100
AcDbEntity
  8
0
100
AcDbLine
 10
472.6299123379535
 20
-113.3503386366208
 30
0.0
 11
475.2299123379534
 21
-113.3503386366208
 31
0.0
  0
LINE
  5
B3F
330
1F
100
AcDbEntity
  8
0
100
AcDbLine
 10
478.2299123379535
 20
-113.3503386366208
 30
0.0
 11
480.8299123379534
 21
-113.3503386366208
 31
0.0
  0
LINE
  5
B40
330
1F
100
AcDbEntity
  8
0
100
AcDbLine
 10
466.7299123379534
 20
-119.7003386366208
 30
0.0
 11
472.6299123379535
 21
-119.7003386366208
 31
0.0
  0
LINE
  5
B41
330
1F
100
AcDbEntity
  8
0
100
AcDbLine
 10
472.6299123379535
 20
-119.7003386366208
 30
0.0
 11
472.6299123379535
 21
-113.3503386366208
 31
0.0
  0
LINE
  5
B42
330
1F
100
AcDbEntity
  8
0
100
AcDbLine
 10
486.7299123379535
 20
-119.7003386366208
 30
0.0
 11
480.8299123379534
 21
-119.7003386366208
 31
0.0
  0
LINE
  5
B43
330
1F
100
AcDbEntity
  8
0
100
AcDbLine
 10
480.8299123379534
 20
-119.7003386366208
 30
0.0
 11
480.8299123379534
 21
-113.3503386366208
 31
0.0
  0
LINE
  5
B44
330
1F
100
AcDbEntity
  8
0
100
AcDbLine
 10
367.9219943924156
 20
-43.78193714115776
 30
0.0
 11
367.9219943924156
 21
-49.98193714115777
 31
0.0
  0
LINE
  5
B45
330
1F
100
AcDbEntity
  8
0
100
AcDbLine
 10
367.9219943924156
 20
-43.78193714115776
 30
0.0
 11
361.8219943924156
 21
-43.78193714115776
 31
0.0
  0
LINE
  5
B46
330
1F
100
AcDbEntity
  8
0
100
AcDbLine
 10
367.9219943924156
 20
-49.98193714115777
 30
0.0
 11
361.8219943924156
 21
-49.98193714115777
 31
0.0
  0
LINE
  5
B47
330
1F
100
AcDbEntity
  8
0
100
AcDbLine
 10
361.8219943924156
 20
-49.98193714115777
 30
0.0
 11
361.8219943924156
 21
-43.78193714115776
 31
0.0
  0
LINE
  5
B48
330
1F
100
AcDbEntity
  8
0
100
AcDbLine
 10
375.9219943924156
 20
-43.78193714115776
 30
0.0
 11
375.9219943924156
 21
-49.98193714115777
 31
0.0
  0
LINE
  5
B49
330
1F
100
AcDbEntity
  8
0
100
AcDbLine
 10
375.9219943924156
 20
-43.78193714115776
 30
0.0
 11
382.0219943924156
 21
-43.78193714115776
 31
0.0
  0
LINE
  5
B4A
330
1F
100
AcDbEntity
  8
0
100
AcDbLine
 10
375.9219943924156
 20
-49.98193714115777
 30
0.0
 11
382.0219943924156
 21
-49.98193714115777
 31
0.0
  0
LINE
  5
B4B
330
1F
100
AcDbEntity
  8
0
100
AcDbLine
 10
382.0219943924156
 20
-49.98193714115777
 30
0.0
 11
382.0219943924156
 21
-43.78193714115776
 31
0.0
  0
LINE
  5
B4C
330
1F
100
AcDbEntity
  8
0
100
AcDbLine
 10
367.9219943924156
 20
-16.68193714115777
 30
0.0
 11
367.9219943924156
 21
-22.88193714115778
 31
0.0
  0
LINE
  5
B4D
330
1F
100
AcDbEntity
  8
0
100
AcDbLine
 10
367.9219943924156
 20
-16.68193714115777
 30
0.0
 11
361.8219943924156
 21
-16.68193714115777
 31
0.0
  0
LINE
  5
B4E
330
1F
100
AcDbEntity
  8
0
100
AcDbLine
 10
367.9219943924156
 20
-22.88193714115778
 30
0.0
 11
361.8219943924156
 21
-22.88193714115778
 31
0.0
  0
LINE
  5
B4F
330
1F
100
AcDbEntity
  8
0
100
AcDbLine
 10
361.8219943924156
 20
-22.88193714115778
 30
0.0
 11
361.8219943924156
 21
-16.68193714115777
 31
0.0
  0
LINE
  5
B50
330
1F
100
AcDbEntity
  8
0
100
AcDbLine
 10
375.9219943924156
 20
-16.68193714115777
 30
0.0
 11
375.9219943924156
 21
-22.88193714115778
 31
0.0
  0
LINE
  5
B51
330
1F
100
AcDbEntity
  8
0
100
AcDbLine
 10
375.9219943924156
 20
-16.68193714115777
 30
0.0
 11
382.0219943924156
 21
-16.68193714115777
 31
0.0
  0
LINE
  5
B52
330
1F
100
AcDbEntity
  8
0
100
AcDbLine
 10
375.9219943924156
 20
-22.88193714115778
 30
0.0
 11
382.0219943924156
 21
-22.88193714115778
 31
0.0
  0
LINE
  5
B53
330
1F
100
AcDbEntity
  8
0
100
AcDbLine
 10
382.0219943924156
 20
-22.88193714115778
 30
0.0
 11
382.0219943924156
 21
-16.68193714115777
 31
0.0
  0
LINE
  5
B54
330
1F
100
AcDbEntity
  8
0
100
AcDbLine
 10
391.9219943924155
 20
-18.68193714115777
 30
0.0
 11
391.9219943924155
 21
-47.98193714115778
 31
0.0
  0
ARC
  5
B55
330
1F
100
AcDbEntity
  8
0
100
AcDbCircle
 10
386.9219943924156
 20
-18.68193714115777
 30
0.0
 40
5.0
100
AcDbArc
 50
0.0
 51
90.0
  0
LINE
  5
B56
330
1F
100
AcDbEntity
  8
0
100
AcDbLine
 10
386.9219943924156
 20
-13.68193714115777
 30
0.0
 11
356.9219943924155
 21
-13.68193714115776
 31
0.0
  0
LINE
  5
B57
330
1F
100
AcDbEntity
  8
0
100
AcDbLine
 10
386.9219943924155
 20
-52.98193714115777
 30
0.0
 11
356.9219943924156
 21
-52.98193714115777
 31
0.0
  0
ARC
  5
B58
330
1F
100
AcDbEntity
  8
0
100
AcDbCircle
 10
356.9219943924156
 20
-47.98193714115777
 30
0.0
 40
5.0
100
AcDbArc
 50
180.0
 51
270.0
  0
ARC
  5
B59
330
1F
100
AcDbEntity
  8
0
100
AcDbCircle
 10
386.9219943924155
 20
-47.98193714115777
 30
0.0
 40
5.0
100
AcDbArc
 50
270.0
 51
0.0
  0
LINE
  5
B5A
330
1F
100
AcDbEntity
  8
0
100
AcDbLine
 10
351.9219943924155
 20
-18.68193714115777
 30
0.0
 11
351.9219943924156
 21
-47.98193714115778
 31
0.0
  0
ARC
  5
B5B
330
1F
100
AcDbEntity
  8
0
100
AcDbCircle
 10
356.9219943924155
 20
-18.68193714115776
 30
0.0
 40
5.0
100
AcDbArc
 50
90.0
 51
180.0
  0
ENDSEC
  0
SECTION
  2
OBJECTS
  0
DICTIONARY
  5
C
330
0
100
AcDbDictionary
281
     1
  3
ACAD_CIP_PREVIOUS_PRODUCT_INFO
350
1A5
  3
ACAD_COLOR
350
73
  3
ACAD_DETAILVIEWSTYLE
350
1AB
  3
ACAD_GROUP
350
D
  3
ACAD_LAYOUT
350
1A
  3
ACAD_MATERIAL
350
72
  3
ACAD_MLEADERSTYLE
350
D7
  3
ACAD_MLINESTYLE
350
17
  3
ACAD_PLOTSETTINGS
350
19
  3
ACAD_PLOTSTYLENAME
350
E
  3
ACAD_SCALELIST
350
B6
  3
ACAD_SECTIONVIEWSTYLE
350
1A8
  3
ACAD_TABLESTYLE
350
86
  3
ACAD_VISUALSTYLE
350
99
  3
ACDB_RECOMPOSE_DATA
350
B8E
  3
AcDbVariableDictionary
350
66
  0
DICTIONARY
  5
18E
330
2
100
AcDbDictionary
280
     1
281
     1
  3
ACAD_LAYERSTATES
360
18F
  0
DICTIONARY
  5
E6
330
10
100
AcDbDictionary
280
     1
281
     1
  0
DICTIONARY
  5
15D
330
1F
100
AcDbDictionary
280
     1
281
     1
  3
ACAD_SORTENTS
360
399
  0
XRECORD
  5
1A5
102
{ACAD_REACTORS
330
C
102
}
330
C
100
AcDbXrecord
280
     1
300
ACD
300
2017
300
ACD_F_S
  0
DICTIONARY
  5
73
102
{ACAD_REACTORS
330
C
102
}
330
C
100
AcDbDictionary
281
     1
  0
DICTIONARY
  5
1AB
102
{ACAD_REACTORS
330
C
102
}
330
C
100
AcDbDictionary
281
     1
  3
Imperial24
350
1AC
  3
Metric50
350
315
  0
DICTIONARY
  5
D
102
{ACAD_REACTORS
330
C
102
}
330
C
100
AcDbDictionary
281
     1
  3
*A1
350
871
  3
*A10
350
87F
  3
*A14
350
885
  3
*A15
350
886
  3
*A16
350
887
  3
*A6
350
879
  3
*A7
350
87C
  0
DICTIONARY
  5
1A
102
{ACAD_REACTORS
330
C
102
}
330
C
100
AcDbDictionary
281
     1
  3
Layout1
350
59
  3
Layout2
350
5E
  3
Model
350
22
  0
DICTIONARY
  5
72
102
{ACAD_REACTORS
330
C
102
}
330
C
100
AcDbDictionary
281
     1
  3
ByBlock
350
97
  3
ByLayer
350
96
  3
Global
350
98
  0
DICTIONARY
  5
D7
102
{ACAD_REACTORS
330
C
102
}
330
C
100
AcDbDictionary
281
     1
  3
Annotative
350
E5
  3
Standard
350
D8
  0
DICTIONARY
  5
17
102
{ACAD_REACTORS
330
C
102
}
330
C
100
AcDbDictionary
281
     1
  3
Standard
350
18
  0
DICTIONARY
  5
19
102
{ACAD_REACTORS
330
C
102
}
330
C
100
AcDbDictionary
281
     1
  0
ACDBDICTIONARYWDFLT
  5
E
102
{ACAD_REACTORS
330
C
102
}
330
C
100
AcDbDictionary
281
     1
  3
Normal
350
F
100
AcDbDictionaryWithDefault
340
F
  0
DICTIONARY
  5
B6
102
{ACAD_REACTORS
330
C
102
}
330
C
100
AcDbDictionary
281
     1
  3
A0
350
B7
  3
A1
350
124
  3
A2
350
125
  3
A3
350
126
  3
A4
350
127
  3
A5
350
128
  3
A6
350
129
  3
A7
350
12A
  3
A8
350
12B
  3
A9
350
12C
  3
B0
350
12D
  3
B1
350
12E
  3
B2
350
12F
  3
B3
350
130
  3
B4
350
131
  3
B5
350
132
  3
B6
350
133
  3
B7
350
134
  3
B8
350
135
  3
B9
350
136
  3
C0
350
137
  3
C1
350
138
  3
C2
350
139
  3
C3
350
13A
  3
C4
350
13B
  3
C5
350
13C
  3
C6
350
13D
  3
C7
350
13E
  3
C8
350
13F
  3
C9
350
140
  3
D0
350
141
  3
D1
350
142
  3
D2
350
143
  0
DICTIONARY
  5
1A8
102
{ACAD_REACTORS
330
C
102
}
330
C
100
AcDbDictionary
281
     1
  3
Imperial24
350
1AA
  3
Metric50
350
314
  0
DICTIONARY
  5
86
102
{ACAD_REACTORS
330
C
102
}
330
C
100
AcDbDictionary
281
     1
  3
Standard
350
87
  0
DICTIONARY
  5
99
102
{ACAD_REACTORS
330
C
102
}
330
C
100
AcDbDictionary
281
     1
  3
2dWireframe
350
9F
  3
Basic
350
9E
  3
Brighten
350
A5
  3
ColorChange
350
A9
  3
Conceptual
350
A2
  3
Dim
350
A4
  3
EdgeColorOff
350
175
  3
Facepattern
350
A8
  3
Flat
350
9A
  3
FlatWithEdges
350
9B
  3
Gouraud
350
9C
  3
GouraudWithEdges
350
9D
  3
Hidden
350
A1
  3
JitterOff
350
173
  3
Linepattern
350
A7
  3
OverhangOff
350
174
  3
Realistic
350
A3
  3
Shaded
350
182
  3
Shaded with edges
350
181
  3
Shades of Gray
350
17E
  3
Sketchy
350
17F
  3
Thicken
350
A6
  3
Wireframe
350
A0
  3
X-Ray
350
180
  0
XRECORD
  5
B8E
102
{ACAD_REACTORS
330
C
102
}
330
C
100
AcDbXrecord
280
     1
 90
        1
330
87
330
1AA
330
1AC
330
314
330
315
  0
DICTIONARY
  5
66
102
{ACAD_REACTORS
330
C
102
}
330
C
100
AcDbDictionary
281
     1
  3
CANNOSCALE
350
F0
  3
CMLEADERSTYLE
350
EF
  3
CTABLESTYLE
350
89
  3
CVIEWDETAILSTYLE
350
1B7
  3
CVIEWSECTIONSTYLE
350
1B8
  3
DIMASSOC
350
67
  3
HIDETEXT
350
6B
  3
LAYEREVAL
350
14D
  3
LAYERNOTIFY
350
14E
  0
DICTIONARY
  5
18F
102
{ACAD_REACTORS
330
18E
102
}
330
18E
100
AcDbDictionary
281
     1
  0
SORTENTSTABLE
  5
399
102
{ACAD_REACTORS
330
15D
102
}
330
15D
100
AcDbSortentsTable
330
1F
331
408
  5
40A
331
589
  5
589
331
3CD
  5
3CF
331
40C
  5
40E
331
3B9
  5
3BB
331
400
  5
402
331
3BD
  5
3BF
331
9A9
  5
9A9
331
404
  5
406
331
5D0
  5
5D0
331
585
  5
585
331
9AD
  5
9AD
331
659
  5
659
331
65D
  5
65D
331
651
  5
651
331
46A
  5
472
331
655
  5
655
331
46E
  5
476
331
235
  5
23D
331
466
  5
46E
331
2B2
  5
2B6
331
2B6
  5
2BA
331
3D9
  5
3DB
331
3DD
  5
3E0
331
5A1
  5
5A1
331
3D1
  5
3D3
331
5A5
  5
5A5
331
599
  5
599
331
9B9
  5
9B7
331
59D
  5
59D
331
669
  5
669
331
66D
  5
66D
331
9B5
  5
9B9
331
661
  5
661
331
665
  5
665
331
472
  5
47A
331
2C2
  5
31F
331
2BA
  5
2BF
331
3E8
  5
3EA
331
3EC
  5
3EE
331
3A5
  5
3A7
331
3E0
  5
3E2
331
551
  5
553
331
5A8
  5
5A8
331
670
  5
670
331
272
  5
277
331
489
  5
491
331
276
  5
27A
331
31D
  5
35D
331
26E
  5
275
331
3FC
  5
3FE
331
5C8
  5
5C8
331
3F0
  5
3F2
331
5CC
  5
5CC
331
5C0
  5
5C0
331
569
  5
56B
331
3F4
  5
3F7
331
991
  5
991
331
3AD
  5
3AF
331
5C4
  5
5C4
331
995
  5
995
331
64D
  5
64D
331
225
  5
239
331
505
  5
372
331
27A
  5
28F
331
3CE
  5
3D0
331
409
  5
40B
331
3BA
  5
3BC
331
40D
  5
40F
331
3BE
  5
3CD
331
9AA
  5
9AA
331
401
  5
403
331
586
  5
586
331
405
  5
407
331
5D1
  5
5D1
331
65A
  5
65A
331
65E
  5
65E
331
9A6
  5
9A6
331
652
  5
652
331
656
  5
656
331
232
  5
23B
331
46B
  5
473
331
46F
  5
477
331
467
  5
46F
331
2B3
  5
2B7
331
2B7
  5
2BB
331
3DA
  5
3DC
331
3DE
  5
3E1
331
5A2
  5
5A2
331
3D2
  5
3D4
331
5A6
  5
5A6
331
3D6
  5
3D8
331
59A
  5
59A
331
9BA
  5
9BA
331
59E
  5
59E
331
66A
  5
66A
331
9B2
  5
9B2
331
66E
  5
66E
331
662
  5
662
331
666
  5
666
331
487
  5
48F
331
54A
  5
551
331
473
  5
47B
331
2C3
  5
35C
331
2BB
  5
2C0
331
2BF
  5
2C3
331
3E9
  5
3EB
331
3A6
  5
3A8
331
3ED
  5
3EF
331
3E1
  5
3E3
331
3E5
  5
3E7
331
5A9
  5
5A9
331
6A1
  5
6A1
331
671
  5
671
331
41B
  5
421
331
48A
  5
492
331
273
  5
278
331
277
  5
28B
331
31E
  5
35F
331
26F
  5
276
331
3B2
  5
3B4
331
572
  5
557
331
3F9
  5
3FB
331
3FD
  5
3FF
331
5C9
  5
5C9
331
992
  5
992
331
56A
  5
56C
331
3F1
  5
3F3
331
5CD
  5
5CD
331
5C1
  5
5C1
331
64A
  5
64A
331
5C5
  5
5C5
331
64E
  5
64E
331
98E
  5
98E
331
502
  5
420
331
28B
  5
290
331
28F
  5
2AE
331
40A
  5
40C
331
3CF
  5
3D1
331
402
  5
404
331
3BB
  5
3BD
331
406
  5
408
331
5D2
  5
5D2
331
9AB
  5
9AB
331
3BF
  5
3CE
331
587
  5
587
331
65B
  5
65B
331
9A7
  5
9A7
331
65F
  5
65F
331
653
  5
653
331
657
  5
657
331
468
  5
470
331
46C
  5
474
331
22F
  5
23A
331
537
  5
537
331
2B4
  5
2B8
331
290
  5
2AF
331
3DB
  5
3DD
331
5A3
  5
5A3
331
5A7
  5
5A7
331
3D3
  5
3D6
331
59B
  5
59B
331
3D7
  5
3D9
331
59F
  5
59F
331
9B3
  5
9B4
331
66B
  5
66B
331
9B7
  5
9B3
331
66F
  5
66F
331
663
  5
663
331
667
  5
667
331
470
  5
478
331
474
  5
47C
331
2C0
  5
31D
331
2B8
  5
2BC
331
2BC
  5
2C1
331
3EA
  5
3EC
331
3A7
  5
3A9
331
3EE
  5
3F0
331
3E2
  5
3E5
331
567
  5
569
331
3E6
  5
3E8
331
5AA
  5
5AA
331
6A2
  5
6A2
331
672
  5
672
331
31F
  5
360
331
3B3
  5
3B5
331
3FA
  5
3FC
331
573
  5
574
331
3FE
  5
400
331
5CA
  5
5CA
331
3F2
  5
3F4
331
5CE
  5
5CE
331
56B
  5
573
331
3F6
  5
3F9
331
5C2
  5
5C2
331
993
  5
993
331
5C6
  5
5C6
331
64B
  5
64B
331
64F
  5
64F
331
98F
  5
98F
331
503
  5
374
331
28C
  5
291
331
278
  5
28C
331
40B
  5
40D
331
588
  5
588
331
403
  5
405
331
3B8
  5
3BA
331
5D3
  5
5D3
331
9A8
  5
9A8
331
407
  5
409
331
3BC
  5
3BE
331
9AC
  5
9AC
331
584
  5
584
331
658
  5
658
331
65C
  5
65C
331
650
  5
650
331
654
  5
654
331
469
  5
471
331
538
  5
538
331
46D
  5
475
331
465
  5
46D
331
360
  5
3A2
331
2B5
  5
2B9
331
291
  5
2B0
331
35C
  5
36F
331
3D8
  5
3DA
331
3DC
  5
3DE
331
5A0
  5
5A0
331
3D0
  5
3D2
331
5A4
  5
5A4
331
598
  5
598
331
9B8
  5
9B8
331
417
  5
41F
331
3D4
  5
3D7
331
59C
  5
59C
331
668
  5
668
331
9B4
  5
9B5
331
66C
  5
66C
331
660
  5
660
331
664
  5
664
331
471
  5
479
331
244
  5
248
331
475
  5
47D
331
2C1
  5
31E
331
2B9
  5
2BD
331
370
  5
3A3
331
2BD
  5
2C2
331
3EB
  5
3ED
331
3EF
  5
3F1
331
3E3
  5
3E6
331
564
  5
565
331
3E7
  5
3E9
331
5AB
  5
5AB
331
673
  5
673
331
4F0
  5
503
331
488
  5
490
331
275
  5
279
331
26D
  5
273
331
3FB
  5
3FD
331
5CB
  5
5CB
331
3FF
  5
401
331
3B4
  5
3B6
331
5CF
  5
5CF
331
574
  5
572
331
3F3
  5
3F6
331
5C3
  5
5C3
331
990
  5
990
331
568
  5
56A
331
5C7
  5
5C7
331
994
  5
994
331
56C
  5
567
331
64C
  5
64C
331
220
  5
232
331
51C
  5
51C
331
504
  5
422
331
28D
  5
2AD
331
279
  5
28D
  0
ACDBDETAILVIEWSTYLE
  5
1AC
102
{ACAD_XDICTIONARY
360
1C6
102
}
102
{ACAD_REACTORS
330
1AB
102
}
330
1AB
100
AcDbModelDocViewStyle
 70
     0
  3
Imperial24
290
     0
100
AcDbDetailViewStyle
 70
     0
 71
     0
 90
        3
 71
     1
340
11
 62
   256
 40
0.24
340
0
 62
   256
 40
0.24
300

 40
0.36
280
     3
 71
     2
340
16
 90
       25
 62
   256
 71
     3
340
11
 62
   256
 40
0.24
 90
        1
 40
0.75
 90
        1
300
%<\AcVar ViewType \f "%tc1">% %<\AcVar ViewDetailId>%\PSCALE %<\AcVar ViewScale \f "%sn">%
 71
     4
340
16
 90
       25
 62
   256
340
16
 90
       25
 62
   256
280
     0
  0
ACDBDETAILVIEWSTYLE
  5
315
102
{ACAD_XDICTIONARY
360
348
102
}
102
{ACAD_REACTORS
330
1AB
102
}
330
1AB
100
AcDbModelDocViewStyle
 70
     0
  3
Metric50
290
     0
100
AcDbDetailViewStyle
 70
     0
 71
     0
 90
        3
 71
     1
340
11
 62
   256
 40
5.0
340
0
 62
   256
 40
5.0
300

 40
0.0
280
     1
 71
     2
340
16
 90
       25
 62
   256
 71
     3
340
11
 62
   256
 40
5.0
 90
        0
 40
15.0
 90
        1
300
%<\AcVar ViewDetailId>% (%<\AcVar ViewScale \f "%sn">%)
 71
     4
340
16
 90
       25
 62
   256
340
16
 90
       25
 62
   256
280
     0
  0
GROUP
  5
871
102
{ACAD_REACTORS
330
D
102
}
330
D
100
AcDbGroup
300

 70
     1
 71
     1
340
504
340
41B
340
502
340
417
340
3DE
340
3DD
340
3DC
340
3DB
340
3DA
340
3D9
340
3D8
340
3D7
340
3D6
340
3D4
340
3D3
340
3D2
340
3D1
340
3D0
340
3CF
340
3CE
340
3CD
340
370
340
360
340
503
340
505
340
35C
340
31F
340
31E
340
31D
  0
GROUP
  5
87F
102
{ACAD_REACTORS
330
D
102
}
330
D
100
AcDbGroup
300

 70
     1
 71
     1
340
6A2
340
6A1
340
673
340
672
340
671
340
670
340
66F
340
66E
340
66D
340
66C
340
66B
340
66A
340
669
340
668
340
667
340
666
340
665
340
664
340
663
340
662
340
661
340
660
340
65F
340
65E
340
65D
340
65C
340
65B
340
65A
340
659
340
658
340
657
340
656
340
655
340
654
340
653
340
652
340
651
340
650
340
64F
340
64E
340
64D
340
64C
340
64B
340
64A
  0
GROUP
  5
885
102
{ACAD_REACTORS
330
D
102
}
330
D
100
AcDbGroup
300

 70
     1
 71
     1
340
3BB
340
3BA
340
3B9
340
3B8
340
291
340
290
340
28F
340
28D
340
28C
340
28B
340
27A
340
279
340
278
340
277
340
276
340
275
340
273
340
272
340
26F
340
26E
340
26D
  0
GROUP
  5
886
102
{ACAD_REACTORS
330
D
102
}
330
D
100
AcDbGroup
300

 70
     1
 71
     1
340
3BF
340
3BE
340
3BD
340
3BC
340
2C3
340
2C2
340
2C1
340
2C0
340
2BF
340
2BD
340
2BC
340
2BB
340
2BA
340
2B9
340
2B8
340
2B7
340
2B6
340
2B5
340
2B4
340
2B3
340
2B2
  0
GROUP
  5
887
102
{ACAD_REACTORS
330
D
102
}
330
D
100
AcDbGroup
300

 70
     1
 71
     1
340
48A
340
489
340
488
340
487
340
475
340
474
340
473
340
472
340
471
340
470
340
46F
340
46E
340
46D
340
46C
340
46B
340
46A
340
469
340
468
340
467
340
466
340
465
  0
GROUP
  5
879
102
{ACAD_REACTORS
330
D
102
}
330
D
100
AcDbGroup
300

 70
     1
 71
     1
340
538
340
537
340
40D
340
40C
340
40B
340
40A
340
409
340
408
340
407
340
406
340
405
340
404
340
403
340
402
340
401
340
400
340
3FF
340
3FE
340
3FD
340
3FC
340
3FB
340
3FA
340
3F9
340
3F6
340
3F4
340
3F3
340
3F2
340
3F1
340
3F0
340
3EF
340
3EE
340
3ED
340
3EC
340
3EB
340
3EA
340
3E9
340
3E8
340
3E7
340
3E6
340
3E5
340
3E3
340
3E2
340
3E1
340
3E0
  0
GROUP
  5
87C
102
{ACAD_REACTORS
330
D
102
}
330
D
100
AcDbGroup
300

 70
     1
 71
     1
  0
LAYOUT
  5
59
102
{ACAD_REACTORS
330
1A
102
}
330
1A
100
AcDbPlotSettings
  1

  2
None
  4

  6

 40
0.0
 41
0.0
 42
0.0
 43
0.0
 44
0.0
 45
0.0
 46
0.0
 47
0.0
 48
0.0
 49
0.0
140
0.0
141
0.0
142
1.0
143
1.0
 70
   688
 72
     0
 73
     0
 74
     5
  7

 75
    16
147
1.0
 76
     0
 77
     2
 78
   300
148
0.0
149
0.0
100
AcDbLayout
  1
Layout1
 70
     1
 71
     1
 10
0.0
 20
0.0
 11
12.0
 21
9.0
 12
0.0
 22
0.0
 32
0.0
 14
0.0
 24
0.0
 34
0.0
 15
0.0
 25
0.0
 35
0.0
146
0.0
 13
0.0
 23
0.0
 33
0.0
 16
1.0
 26
0.0
 36
0.0
 17
0.0
 27
1.0
 37
0.0
 76
     0
330
58
  0
LAYOUT
  5
5E
102
{ACAD_REACTORS
330
1A
102
}
330
1A
100
AcDbPlotSettings
  1

  2
None
  4

  6

 40
0.0
 41
0.0
 42
0.0
 43
0.0
 44
0.0
 45
0.0
 46
0.0
 47
0.0
 48
0.0
 49
0.0
140
0.0
141
0.0
142
1.0
143
1.0
 70
   688
 72
     0
 73
     0
 74
     5
  7

 75
    16
147
1.0
 76
     0
 77
     2
 78
   300
148
0.0
149
0.0
100
AcDbLayout
  1
Layout2
 70
     1
 71
     2
 10
0.0
 20
0.0
 11
12.0
 21
9.0
 12
0.0
 22
0.0
 32
0.0
 14
0.0
 24
0.0
 34
0.0
 15
0.0
 25
0.0
 35
0.0
146
0.0
 13
0.0
 23
0.0
 33
0.0
 16
1.0
 26
0.0
 36
0.0
 17
0.0
 27
1.0
 37
0.0
 76
     0
330
5D
  0
LAYOUT
  5
22
102
{ACAD_XDICTIONARY
360
194
102
}
102
{ACAD_REACTORS
330
1A
102
}
330
1A
100
AcDbPlotSettings
  1

  2
none_device
  4
ANSI_A_(8.50_x_11.00_Inches)
  6

 40
6.349999904632568
 41
19.04999923706055
 42
6.350006103515625
 43
19.04998779296875
 44
215.8999938964844
 45
279.3999938964844
 46
0.0
 47
0.0
 48
0.0
 49
0.0
140
0.0
141
0.0
142
1.0
143
2.584895464708373
 70
 11952
 72
     0
 73
     1
 74
     0
  7

 75
     0
147
0.3868628397755418
 76
     0
 77
     2
 78
   300
148
0.0
149
0.0
100
AcDbLayout
  1
Model
 70
     1
 71
     0
 10
0.0
 20
0.0
 11
12.0
 21
9.0
 12
0.0
 22
0.0
 32
0.0
 14
0.0
 24
0.0
 34
0.0
 15
0.0
 25
0.0
 35
0.0
146
0.0
 13
0.0
 23
0.0
 33
0.0
 16
1.0
 26
0.0
 36
0.0
 17
0.0
 27
1.0
 37
0.0
 76
     0
330
1F
331
94
  0
MATERIAL
  5
97
102
{ACAD_XDICTIONARY
360
188
102
}
102
{ACAD_REACTORS
330
72
102
}
330
72
100
AcDbMaterial
  1
ByBlock
 94
       63
  0
MATERIAL
  5
96
102
{ACAD_XDICTIONARY
360
186
102
}
102
{ACAD_REACTORS
330
72
102
}
330
72
100
AcDbMaterial
  1
ByLayer
 94
       63
  0
MATERIAL
  5
98
102
{ACAD_XDICTIONARY
360
110
102
}
102
{ACAD_REACTORS
330
72
102
}
330
72
100
AcDbMaterial
  1
Global
 43
0.0208000000566244
 43
0.0
 43
0.0
 43
0.0
 43
0.0
 43
0.0208000000566244
 43
0.0
 43
0.0
 43
0.0
 43
0.0
 43
1.0
 43
0.0
 43
0.0
 43
0.0
 43
0.0
 43
1.0
 49
0.0208000000566244
 49
0.0
 49
0.0
 49
0.0
 49
0.0
 49
0.0208000000566244
 49
0.0
 49
0.0
 49
0.0
 49
0.0
 49
1.0
 49
0.0
 49
0.0
 49
0.0
 49
0.0
 49
1.0
142
0.0208000000566244
142
0.0
142
0.0
142
0.0
142
0.0
142
0.0208000000566244
142
0.0
142
0.0
142
0.0
142
0.0
142
1.0
142
0.0
142
0.0
142
0.0
142
0.0
142
1.0
144
0.0208000000566244
144
0.0
144
0.0
144
0.0
144
0.0
144
0.0208000000566244
144
0.0
144
0.0
144
0.0
144
0.0
144
1.0
144
0.0
144
0.0
144
0.0
144
0.0
144
1.0
 94
       63
1001
ACAD
1070
    -1
1070
     3
1070
     0
1000

1071
        0
1070
     0
  0
MLEADERSTYLE
  5
E5
102
{ACAD_REACTORS
330
D7
102
}
330
D7
100
AcDbMLeaderStyle
179
     2
170
     2
171
     1
172
     0
 90
        2
 40
0.0
 41
0.0
173
     1
 91
-1056964608
340
14
 92
       -2
290
     1
 42
0.09
291
     1
 43
0.36
  3
Standard
 44
0.18
300

342
11
174
     1
178
     1
175
     1
176
     0
 93
-1056964608
 45
0.18
292
     0
297
     0
 46
0.18
 94
-1056964608
 47
1.0
 49
1.0
140
1.0
293
     1
141
0.0
294
     1
177
     0
142
1.0
295
     0
296
     1
143
0.125
271
     0
272
     9
273
     9
298
     0
  0
MLEADERSTYLE
  5
D8
102
{ACAD_REACTORS
330
D7
102
}
330
D7
100
AcDbMLeaderStyle
179
     2
170
     2
171
     1
172
     0
 90
        2
 40
0.0
 41
0.0
173
     1
 91
-1056964608
340
14
 92
       -2
290
     1
 42
0.09
291
     1
 43
0.36
  3
Standard
 44
0.18
300

342
11
174
     1
178
     1
175
     1
176
     0
 93
-1056964608
 45
0.18
292
     0
297
     0
 46
0.18
 94
-1056964608
 47
1.0
 49
1.0
140
1.0
293
     1
141
0.0
294
     1
177
     0
142
1.0
295
     0
296
     0
143
0.125
271
     0
272
     9
273
     9
298
     0
  0
MLINESTYLE
  5
18
102
{ACAD_REACTORS
330
17
102
}
330
17
100
AcDbMlineStyle
  2
STANDARD
 70
     0
  3

 62
   256
 51
90.0
 52
90.0
 71
     2
 49
0.5
 62
   256
  6
BYLAYER
 49
-0.5
 62
   256
  6
BYLAYER
  0
ACDBPLACEHOLDER
  5
F
102
{ACAD_REACTORS
330
E
102
}
330
E
  0
SCALE
  5
B7
102
{ACAD_REACTORS
330
B6
102
}
330
B6
100
AcDbScale
 70
     0
300
1:1
140
1.0
141
1.0
290
     1
  0
SCALE
  5
124
102
{ACAD_REACTORS
330
B6
102
}
330
B6
100
AcDbScale
 70
     0
300
1:2
140
1.0
141
2.0
290
     0
  0
SCALE
  5
125
102
{ACAD_REACTORS
330
B6
102
}
330
B6
100
AcDbScale
 70
     0
300
1:4
140
1.0
141
4.0
290
     0
  0
SCALE
  5
126
102
{ACAD_REACTORS
330
B6
102
}
330
B6
100
AcDbScale
 70
     0
300
1:5
140
1.0
141
5.0
290
     0
  0
SCALE
  5
127
102
{ACAD_REACTORS
330
B6
102
}
330
B6
100
AcDbScale
 70
     0
300
1:8
140
1.0
141
8.0
290
     0
  0
SCALE
  5
128
102
{ACAD_REACTORS
330
B6
102
}
330
B6
100
AcDbScale
 70
     0
300
1:10
140
1.0
141
10.0
290
     0
  0
SCALE
  5
129
102
{ACAD_REACTORS
330
B6
102
}
330
B6
100
AcDbScale
 70
     0
300
1:16
140
1.0
141
16.0
290
     0
  0
SCALE
  5
12A
102
{ACAD_REACTORS
330
B6
102
}
330
B6
100
AcDbScale
 70
     0
300
1:20
140
1.0
141
20.0
290
     0
  0
SCALE
  5
12B
102
{ACAD_REACTORS
330
B6
102
}
330
B6
100
AcDbScale
 70
     0
300
1:30
140
1.0
141
30.0
290
     0
  0
SCALE
  5
12C
102
{ACAD_REACTORS
330
B6
102
}
330
B6
100
AcDbScale
 70
     0
300
1:40
140
1.0
141
40.0
290
     0
  0
SCALE
  5
12D
102
{ACAD_REACTORS
330
B6
102
}
330
B6
100
AcDbScale
 70
     0
300
1:50
140
1.0
141
50.0
290
     0
  0
SCALE
  5
12E
102
{ACAD_REACTORS
330
B6
102
}
330
B6
100
AcDbScale
 70
     0
300
1:100
140
1.0
141
100.0
290
     0
  0
SCALE
  5
12F
102
{ACAD_REACTORS
330
B6
102
}
330
B6
100
AcDbScale
 70
     0
300
2:1
140
2.0
141
1.0
290
     0
  0
SCALE
  5
130
102
{ACAD_REACTORS
330
B6
102
}
330
B6
100
AcDbScale
 70
     0
300
4:1
140
4.0
141
1.0
290
     0
  0
SCALE
  5
131
102
{ACAD_REACTORS
330
B6
102
}
330
B6
100
AcDbScale
 70
     0
300
8:1
140
8.0
141
1.0
290
     0
  0
SCALE
  5
132
102
{ACAD_REACTORS
330
B6
102
}
330
B6
100
AcDbScale
 70
     0
300
10:1
140
10.0
141
1.0
290
     0
  0
SCALE
  5
133
102
{ACAD_REACTORS
330
B6
102
}
330
B6
100
AcDbScale
 70
     0
300
100:1
140
100.0
141
1.0
290
     0
  0
SCALE
  5
134
102
{ACAD_REACTORS
330
B6
102
}
330
B6
100
AcDbScale
 70
     0
300
1/128" = 1'-0"
140
0.0078125
141
12.0
290
     0
  0
SCALE
  5
135
102
{ACAD_REACTORS
330
B6
102
}
330
B6
100
AcDbScale
 70
     0
300
1/64" = 1'-0"
140
0.015625
141
12.0
290
     0
  0
SCALE
  5
136
102
{ACAD_REACTORS
330
B6
102
}
330
B6
100
AcDbScale
 70
     0
300
1/32" = 1'-0"
140
0.03125
141
12.0
290
     0
  0
SCALE
  5
137
102
{ACAD_REACTORS
330
B6
102
}
330
B6
100
AcDbScale
 70
     0
300
1/16" = 1'-0"
140
0.0625
141
12.0
290
     0
  0
SCALE
  5
138
102
{ACAD_REACTORS
330
B6
102
}
330
B6
100
AcDbScale
 70
     0
300
3/32" = 1'-0"
140
0.09375
141
12.0
290
     0
  0
SCALE
  5
139
102
{ACAD_REACTORS
330
B6
102
}
330
B6
100
AcDbScale
 70
     0
300
1/8" = 1'-0"
140
0.125
141
12.0
290
     0
  0
SCALE
  5
13A
102
{ACAD_REACTORS
330
B6
102
}
330
B6
100
AcDbScale
 70
     0
300
3/16" = 1'-0"
140
0.1875
141
12.0
290
     0
  0
SCALE
  5
13B
102
{ACAD_REACTORS
330
B6
102
}
330
B6
100
AcDbScale
 70
     0
300
1/4" = 1'-0"
140
0.25
141
12.0
290
     0
  0
SCALE
  5
13C
102
{ACAD_REACTORS
330
B6
102
}
330
B6
100
AcDbScale
 70
     0
300
3/8" = 1'-0"
140
0.375
141
12.0
290
     0
  0
SCALE
  5
13D
102
{ACAD_REACTORS
330
B6
102
}
330
B6
100
AcDbScale
 70
     0
300
1/2" = 1'-0"
140
0.5
141
12.0
290
     0
  0
SCALE
  5
13E
102
{ACAD_REACTORS
330
B6
102
}
330
B6
100
AcDbScale
 70
     0
300
3/4" = 1'-0"
140
0.75
141
12.0
290
     0
  0
SCALE
  5
13F
102
{ACAD_REACTORS
330
B6
102
}
330
B6
100
AcDbScale
 70
     0
300
1" = 1'-0"
140
1.0
141
12.0
290
     0
  0
SCALE
  5
140
102
{ACAD_REACTORS
330
B6
102
}
330
B6
100
AcDbScale
 70
     0
300
1-1/2" = 1'-0"
140
1.5
141
12.0
290
     0
  0
SCALE
  5
141
102
{ACAD_REACTORS
330
B6
102
}
330
B6
100
AcDbScale
 70
     0
300
3" = 1'-0"
140
3.0
141
12.0
290
     0
  0
SCALE
  5
142
102
{ACAD_REACTORS
330
B6
102
}
330
B6
100
AcDbScale
 70
     0
300
6" = 1'-0"
140
6.0
141
12.0
290
     0
  0
SCALE
  5
143
102
{ACAD_REACTORS
330
B6
102
}
330
B6
100
AcDbScale
 70
     0
300
1'-0" = 1'-0"
140
12.0
141
12.0
290
     0
  0
ACDBSECTIONVIEWSTYLE
  5
1AA
102
{ACAD_XDICTIONARY
360
1C4
102
}
102
{ACAD_REACTORS
330
1A8
102
}
330
1A8
100
AcDbModelDocViewStyle
 70
     0
  3
Imperial24
290
     0
100
AcDbSectionViewStyle
 70
     0
 71
     0
 90
       78
 71
     1
340
11
 62
   256
 40
0.24
340
0
340
0
 62
   256
 40
0.24
300
I, O, Q, S, X, Z
 40
0.48
 90
        3
 40
0.18
 90
        1
 71
     2
340
16
 90
       25
 62
   256
340
16
 90
       50
 62
   256
 40
0.24
 40
0.0
 40
0.24
 71
     3
340
11
 62
   256
 40
0.24
 90
        1
 40
0.75
 90
        1
300
%<\AcVar ViewType \f "%tc1">% %<\AcVar ViewSectionStartId>%-%<\AcVar ViewSectionEndId>%\PSCALE %<\AcVar ViewScale \f "%sn">%
 71
     4
 62
   256
 62
   257
300
ANSI31
 40
1.0
 90
        0
290
     0
290
     0
 90
        6
 40
0.0
 40
1.570796326794896
 40
0.2617993877991494
 40
1.308996938995747
 40
-0.2617993877991494
 40
1.832595714594046
  0
ACDBSECTIONVIEWSTYLE
  5
314
102
{ACAD_XDICTIONARY
360
346
102
}
102
{ACAD_REACTORS
330
1A8
102
}
330
1A8
100
AcDbModelDocViewStyle
 70
     0
  3
Metric50
290
     0
100
AcDbSectionViewStyle
 70
     0
 71
     0
 90
      102
 71
     1
340
11
 62
   256
 40
5.0
340
0
340
0
 62
   256
 40
5.0
300
I, O, Q, S, X, Z
 40
10.0
 90
        0
 40
2.5
 90
        0
 71
     2
340
16
 90
       25
 62
   256
340
16
 90
       50
 62
   256
 40
5.0
 40
2.5
 40
5.0
 71
     3
340
11
 62
   256
 40
5.0
 90
        0
 40
15.0
 90
        1
300
%<\AcVar ViewSectionStartId>%-%<\AcVar ViewSectionEndId>% (%<\AcVar ViewScale \f "%sn">%)
 71
     4
 62
   256
 62
   257
300
ANSI31
 40
1.0
 90
        0
290
     0
290
     0
 90
        6
 40
0.0
 40
1.570796326794896
 40
0.2617993877991494
 40
1.308996938995747
 40
-0.2617993877991494
 40
1.832595714594046
  0
TABLESTYLE
  5
87
102
{ACAD_XDICTIONARY
360
104
102
}
102
{ACAD_REACTORS
330
86
102
}
330
86
100
AcDbTableStyle
280
     0
  3
Standard
 70
     0
 71
     0
 40
0.06
 41
0.06
280
     0
281
     0
  7
Standard
140
0.18
170
     2
 62
     0
 63
     7
283
     0
 90
      512
 91
        0
  1

274
    -2
284
     1
 64
     0
275
    -2
285
     1
 65
     0
276
    -2
286
     1
 66
     0
277
    -2
287
     1
 67
     0
278
    -2
288
     1
 68
     0
279
    -2
289
     1
 69
     0
  7
Standard
140
0.25
170
     5
 62
     0
 63
     7
283
     0
 90
      512
 91
        0
  1

274
    -2
284
     1
 64
     0
275
    -2
285
     1
 65
     0
276
    -2
286
     1
 66
     0
277
    -2
287
     1
 67
     0
278
    -2
288
     1
 68
     0
279
    -2
289
     1
 69
     0
  7
Standard
140
0.18
170
     5
 62
     0
 63
     7
283
     0
 90
      512
 91
        0
  1

274
    -2
284
     1
 64
     0
275
    -2
285
     1
 65
     0
276
    -2
286
     1
 66
     0
277
    -2
287
     1
 67
     0
278
    -2
288
     1
 68
     0
279
    -2
289
     1
 69
     0
  0
VISUALSTYLE
  5
9F
102
{ACAD_REACTORS
330
99
102
}
330
99
100
AcDbVisualStyle
  2
2dWireframe
 70
     4
177
     3
291
     0
 70
    58
 90
        0
176
     1
 90
        2
176
     1
 90
        1
176
     1
 90
        0
176
     1
 40
0.6
176
     1
 40
30.0
176
     1
 62
     7
420
 16777215
176
     1
 90
        1
176
     1
 90
        4
176
     1
 62
     7
176
     1
 62
   257
176
     1
 90
        1
176
     1
 90
        1
176
     1
 40
1.0
176
     1
 90
        0
176
     1
 62
   257
176
     1
 40
1.0
176
     1
 90
        1
176
     1
 90
        6
176
     1
 90
        2
176
     1
 62
     7
176
     1
 90
        5
176
     1
 90
        0
176
     1
 90
        0
176
     1
290
     0
176
     1
 90
        1
176
     1
 40
0.0
176
     1
 90
        0
176
     1
290
     1
176
     1
290
     1
176
     1
290
     0
176
     1
290
     0
176
     1
290
     0
176
     1
290
     0
176
     1
290
     0
176
     1
290
     0
176
     1
290
     0
176
     1
 90
       50
176
     1
 40
0.0
176
     1
 40
1.0
176
     1
 90
        0
176
     1
 62
    18
420
        0
176
     1
 90
       50
176
     1
 90
        3
176
     1
 62
     5
420
      255
176
     1
290
     0
176
     1
 90
       50
176
     1
 90
       50
176
     1
 90
       50
176
     1
290
     0
176
     1
 90
       50
176
     1
 62
   256
176
     0
 40
1.0
176
     0
 90
        2
176
     1
  1
strokes_ogs.tif
176
     1
290
     0
176
     1
 40
1.0
176
     1
 40
1.0
176
     1
  0
VISUALSTYLE
  5
9E
102
{ACAD_REACTORS
330
99
102
}
330
99
100
AcDbVisualStyle
  2
Basic
 70
     7
177
     3
291
     1
 70
    58
 90
        1
176
     1
 90
        0
176
     1
 90
        1
176
     1
 90
        0
176
     1
 40
0.6
176
     1
 40
30.0
176
     1
 62
     7
420
 16777215
176
     1
 90
        0
176
     1
 90
        4
176
     1
 62
     7
176
     1
 62
   257
176
     1
 90
        1
176
     1
 90
        1
176
     1
 40
1.0
176
     1
 90
        8
176
     1
 62
     7
176
     1
 40
1.0
176
     1
 90
        1
176
     1
 90
        6
176
     1
 90
        2
176
     1
 62
     7
176
     1
 90
        5
176
     1
 90
        0
176
     1
 90
        0
176
     1
290
     0
176
     1
 90
        1
176
     1
 40
0.0
176
     1
 90
        0
176
     1
290
     0
176
     1
290
     1
176
     1
290
     1
176
     1
290
     0
176
     1
290
     0
176
     1
290
     0
176
     1
290
     0
176
     1
290
     0
176
     1
290
     0
176
     1
 90
       50
176
     1
 40
0.0
176
     1
 40
1.0
176
     1
 90
        0
176
     1
 62
    18
420
        0
176
     1
 90
       50
176
     1
 90
        3
176
     1
 62
     5
420
      255
176
     1
290
     0
176
     1
 90
       50
176
     1
 90
       50
176
     1
 90
       50
176
     1
290
     0
176
     1
 90
       50
176
     1
 62
   256
176
     0
 40
1.0
176
     0
 90
        2
176
     1
  1
strokes_ogs.tif
176
     1
290
     0
176
     1
 40
1.0
176
     1
 40
1.0
176
     1
  0
VISUALSTYLE
  5
A5
102
{ACAD_REACTORS
330
99
102
}
330
99
100
AcDbVisualStyle
  2
Brighten
 70
    12
177
     3
291
     1
 70
    58
 90
        2
176
     1
 90
        2
176
     1
 90
        1
176
     1
 90
        0
176
     1
 40
0.6
176
     1
 40
30.0
176
     1
 62
     7
420
 16777215
176
     1
 90
        1
176
     1
 90
        4
176
     1
 62
     7
176
     1
 62
   257
176
     1
 90
        1
176
     1
 90
        1
176
     1
 40
1.0
176
     1
 90
        8
176
     1
 62
     7
176
     1
 40
1.0
176
     1
 90
        1
176
     1
 90
        6
176
     1
 90
        2
176
     1
 62
     7
176
     1
 90
        5
176
     1
 90
        0
176
     1
 90
        0
176
     1
290
     0
176
     1
 90
        1
176
     1
 40
50.0
176
     1
 90
        0
176
     1
290
     0
176
     1
290
     1
176
     1
290
     1
176
     1
290
     0
176
     1
290
     0
176
     1
290
     0
176
     1
290
     0
176
     1
290
     0
176
     1
290
     0
176
     1
 90
       50
176
     1
 40
0.0
176
     1
 40
1.0
176
     1
 90
        0
176
     1
 62
    18
420
        0
176
     1
 90
       50
176
     1
 90
        3
176
     1
 62
     5
420
      255
176
     1
290
     0
176
     1
 90
       50
176
     1
 90
       50
176
     1
 90
       50
176
     1
290
     0
176
     1
 90
       50
176
     1
 62
   256
176
     0
 40
1.0
176
     0
 90
        2
176
     1
  1
strokes_ogs.tif
176
     1
290
     0
176
     1
 40
1.0
176
     1
 40
1.0
176
     1
  0
VISUALSTYLE
  5
A9
102
{ACAD_REACTORS
330
99
102
}
330
99
100
AcDbVisualStyle
  2
ColorChange
 70
    16
177
     3
291
     1
 70
    58
 90
        2
176
     1
 90
        2
176
     1
 90
        3
176
     1
 90
        0
176
     1
 40
0.6
176
     1
 40
30.0
176
     1
 62
     8
420
  8421504
176
     1
 90
        1
176
     1
 90
        4
176
     1
 62
     7
176
     1
 62
   257
176
     1
 90
        1
176
     1
 90
        1
176
     1
 40
1.0
176
     1
 90
        8
176
     1
 62
     8
420
  8421504
176
     1
 40
1.0
176
     1
 90
        1
176
     1
 90
        6
176
     1
 90
        2
176
     1
 62
     7
176
     1
 90
        5
176
     1
 90
        0
176
     1
 90
        0
176
     1
290
     0
176
     1
 90
        1
176
     1
 40
0.0
176
     1
 90
        0
176
     1
290
     0
176
     1
290
     1
176
     1
290
     1
176
     1
290
     0
176
     1
290
     0
176
     1
290
     0
176
     1
290
     0
176
     1
290
     0
176
     1
290
     0
176
     1
 90
       50
176
     1
 40
0.0
176
     1
 40
1.0
176
     1
 90
        0
176
     1
 62
    18
420
        0
176
     1
 90
       50
176
     1
 90
        3
176
     1
 62
     5
420
      255
176
     1
290
     0
176
     1
 90
       50
176
     1
 90
       50
176
     1
 90
       50
176
     1
290
     0
176
     1
 90
       50
176
     1
 62
   256
176
     0
 40
1.0
176
     0
 90
        2
176
     1
  1
strokes_ogs.tif
176
     1
290
     0
176
     1
 40
1.0
176
     1
 40
1.0
176
     1
  0
VISUALSTYLE
  5
A2
102
{ACAD_REACTORS
330
99
102
}
330
99
100
AcDbVisualStyle
  2
Conceptual
 70
     9
177
     3
291
     0
 70
    58
 90
        3
176
     1
 90
        2
176
     1
 90
        1
176
     1
 90
        0
176
     1
 40
0.6
176
     1
 40
30.0
176
     1
 62
     7
420
 16777215
176
     1
 90
        2
176
     1
 90
        2
176
     1
 62
     7
176
     1
 62
   257
176
     1
 90
        1
176
     1
 90
        1
176
     1
 40
40.0
176
     1
 90
        8
176
     1
 62
     7
176
     1
 40
1.0
176
     1
 90
        1
176
     1
 90
        6
176
     1
 90
        2
176
     1
 62
     7
176
     1
 90
        3
176
     1
 90
        0
176
     1
 90
        0
176
     1
290
     0
176
     1
 90
        1
176
     1
 40
0.0
176
     1
 90
        0
176
     1
290
     0
176
     1
290
     1
176
     1
290
     1
176
     1
290
     0
176
     1
290
     0
176
     1
290
     0
176
     1
290
     0
176
     1
290
     0
176
     1
290
     0
176
     1
 90
       50
176
     1
 40
0.0
176
     1
 40
1.0
176
     1
 90
        0
176
     1
 62
    18
420
        0
176
     1
 90
       50
176
     1
 90
        3
176
     1
 62
     5
420
      255
176
     1
290
     0
176
     1
 90
       50
176
     1
 90
       50
176
     1
 90
       50
176
     1
290
     0
176
     1
 90
       50
176
     1
 62
   256
176
     0
 40
1.0
176
     0
 90
        2
176
     1
  1
strokes_ogs.tif
176
     1
290
     0
176
     1
 40
1.0
176
     1
 40
1.0
176
     1
  0
VISUALSTYLE
  5
A4
102
{ACAD_REACTORS
330
99
102
}
330
99
100
AcDbVisualStyle
  2
Dim
 70
    11
177
     3
291
     1
 70
    58
 90
        2
176
     1
 90
        2
176
     1
 90
        1
176
     1
 90
        0
176
     1
 40
0.6
176
     1
 40
30.0
176
     1
 62
     7
420
 16777215
176
     1
 90
        1
176
     1
 90
        4
176
     1
 62
     7
176
     1
 62
   257
176
     1
 90
        1
176
     1
 90
        1
176
     1
 40
1.0
176
     1
 90
        8
176
     1
 62
     7
176
     1
 40
1.0
176
     1
 90
        1
176
     1
 90
        6
176
     1
 90
        2
176
     1
 62
     7
176
     1
 90
        5
176
     1
 90
        0
176
     1
 90
        0
176
     1
290
     0
176
     1
 90
        1
176
     1
 40
-50.0
176
     1
 90
        0
176
     1
290
     0
176
     1
290
     1
176
     1
290
     1
176
     1
290
     0
176
     1
290
     0
176
     1
290
     0
176
     1
290
     0
176
     1
290
     0
176
     1
290
     0
176
     1
 90
       50
176
     1
 40
0.0
176
     1
 40
1.0
176
     1
 90
        0
176
     1
 62
    18
420
        0
176
     1
 90
       50
176
     1
 90
        3
176
     1
 62
     5
420
      255
176
     1
290
     0
176
     1
 90
       50
176
     1
 90
       50
176
     1
 90
       50
176
     1
290
     0
176
     1
 90
       50
176
     1
 62
   256
176
     0
 40
1.0
176
     0
 90
        2
176
     1
  1
strokes_ogs.tif
176
     1
290
     0
176
     1
 40
1.0
176
     1
 40
1.0
176
     1
  0
VISUALSTYLE
  5
175
102
{ACAD_REACTORS
330
99
102
}
330
99
100
AcDbVisualStyle
  2
EdgeColorOff
 70
    22
177
     3
291
     1
 70
    58
 90
        2
176
     0
 90
        2
176
     0
 90
        0
176
     0
 90
        0
176
     0
 40
0.6
176
     0
 40
30.0
176
     0
 62
     7
420
 16777215
176
     0
 90
        1
176
     0
 90
        4
176
     0
 62
     7
176
     0
 62
   257
176
     0
 90
        1
176
     0
 90
        1
176
     0
 40
1.0
176
     0
 90
        8
176
     2
 62
     7
176
     0
 40
1.0
176
     0
 90
        1
176
     0
 90
        6
176
     0
 90
        2
176
     0
 62
     7
176
     0
 90
        5
176
     0
 90
        0
176
     0
 90
        0
176
     0
290
     0
176
     0
 90
        1
176
     0
 40
0.0
176
     0
 90
        0
176
     0
290
     0
176
     1
290
     1
176
     1
290
     1
176
     1
290
     0
176
     1
290
     0
176
     1
290
     0
176
     1
290
     0
176
     1
290
     0
176
     1
290
     0
176
     1
 90
       50
176
     1
 40
0.0
176
     1
 40
1.0
176
     1
 90
        0
176
     1
 62
    18
420
        0
176
     1
 90
       50
176
     1
 90
        3
176
     1
 62
     5
420
      255
176
     1
290
     0
176
     1
 90
       50
176
     1
 90
       50
176
     1
 90
       50
176
     1
290
     0
176
     1
 90
       50
176
     1
 62
   256
176
     0
 40
1.0
176
     0
 90
        2
176
     1
  1
strokes_ogs.tif
176
     1
290
     0
176
     1
 40
1.0
176
     1
 40
1.0
176
     1
  0
VISUALSTYLE
  5
A8
102
{ACAD_REACTORS
330
99
102
}
330
99
100
AcDbVisualStyle
  2
Facepattern
 70
    15
177
     3
291
     1
 70
    58
 90
        2
176
     1
 90
        2
176
     1
 90
        1
176
     1
 90
        0
176
     1
 40
0.6
176
     1
 40
30.0
176
     1
 62
     7
420
 16777215
176
     1
 90
        1
176
     1
 90
        4
176
     1
 62
     7
176
     1
 62
   257
176
     1
 90
        1
176
     1
 90
        1
176
     1
 40
1.0
176
     1
 90
        8
176
     1
 62
     7
176
     1
 40
1.0
176
     1
 90
        1
176
     1
 90
        6
176
     1
 90
        2
176
     1
 62
     7
176
     1
 90
        5
176
     1
 90
        0
176
     1
 90
        0
176
     1
290
     0
176
     1
 90
        1
176
     1
 40
0.0
176
     1
 90
        0
176
     1
290
     0
176
     1
290
     1
176
     1
290
     1
176
     1
290
     0
176
     1
290
     0
176
     1
290
     0
176
     1
290
     0
176
     1
290
     0
176
     1
290
     0
176
     1
 90
       50
176
     1
 40
0.0
176
     1
 40
1.0
176
     1
 90
        0
176
     1
 62
    18
420
        0
176
     1
 90
       50
176
     1
 90
        3
176
     1
 62
     5
420
      255
176
     1
290
     0
176
     1
 90
       50
176
     1
 90
       50
176
     1
 90
       50
176
     1
290
     0
176
     1
 90
       50
176
     1
 62
   256
176
     0
 40
1.0
176
     0
 90
        2
176
     1
  1
strokes_ogs.tif
176
     1
290
     0
176
     1
 40
1.0
176
     1
 40
1.0
176
     1
  0
VISUALSTYLE
  5
9A
102
{ACAD_REACTORS
330
99
102
}
330
99
100
AcDbVisualStyle
  2
Flat
 70
     0
177
     3
291
     1
 70
    58
 90
        2
176
     1
 90
        1
176
     1
 90
        1
176
     1
 90
        2
176
     1
 40
0.6
176
     1
 40
30.0
176
     1
 62
     7
420
 16777215
176
     1
 90
        0
176
     1
 90
        0
176
     1
 62
     7
176
     1
 62
   257
176
     1
 90
        1
176
     1
 90
        1
176
     1
 40
1.0
176
     1
 90
        8
176
     1
 62
     7
176
     1
 40
1.0
176
     1
 90
        1
176
     1
 90
        6
176
     1
 90
        2
176
     1
 62
     7
176
     1
 90
        5
176
     1
 90
        0
176
     1
 90
        0
176
     1
290
     0
176
     1
 90
       13
176
     1
 40
0.0
176
     1
 90
        0
176
     1
290
     0
176
     1
290
     1
176
     1
290
     1
176
     1
290
     0
176
     1
290
     0
176
     1
290
     0
176
     1
290
     0
176
     1
290
     0
176
     1
290
     0
176
     1
 90
       50
176
     1
 40
0.0
176
     1
 40
1.0
176
     1
 90
        0
176
     1
 62
    18
420
        0
176
     1
 90
       50
176
     1
 90
        3
176
     1
 62
     5
420
      255
176
     1
290
     0
176
     1
 90
       50
176
     1
 90
       50
176
     1
 90
       50
176
     1
290
     0
176
     1
 90
       50
176
     1
 62
   256
176
     0
 40
1.0
176
     0
 90
        2
176
     1
  1
strokes_ogs.tif
176
     1
290
     0
176
     1
 40
1.0
176
     1
 40
1.0
176
     1
  0
VISUALSTYLE
  5
9B
102
{ACAD_REACTORS
330
99
102
}
330
99
100
AcDbVisualStyle
  2
FlatWithEdges
 70
     1
177
     3
291
     1
 70
    58
 90
        2
176
     1
 90
        1
176
     1
 90
        1
176
     1
 90
        2
176
     1
 40
0.6
176
     1
 40
30.0
176
     1
 62
     7
420
 16777215
176
     1
 90
        1
176
     1
 90
        0
176
     1
 62
     7
176
     1
 62
   257
176
     1
 90
        1
176
     1
 90
        1
176
     1
 40
1.0
176
     1
 90
        0
176
     1
 62
   257
176
     1
 40
1.0
176
     1
 90
        1
176
     1
 90
        6
176
     1
 90
        2
176
     1
 62
     7
176
     1
 90
        5
176
     1
 90
        0
176
     1
 90
        0
176
     1
290
     0
176
     1
 90
       13
176
     1
 40
0.0
176
     1
 90
        0
176
     1
290
     0
176
     1
290
     1
176
     1
290
     1
176
     1
290
     0
176
     1
290
     0
176
     1
290
     0
176
     1
290
     0
176
     1
290
     0
176
     1
290
     0
176
     1
 90
       50
176
     1
 40
0.0
176
     1
 40
1.0
176
     1
 90
        0
176
     1
 62
    18
420
        0
176
     1
 90
       50
176
     1
 90
        3
176
     1
 62
     5
420
      255
176
     1
290
     0
176
     1
 90
       50
176
     1
 90
       50
176
     1
 90
       50
176
     1
290
     0
176
     1
 90
       50
176
     1
 62
   256
176
     0
 40
1.0
176
     0
 90
        2
176
     1
  1
strokes_ogs.tif
176
     1
290
     0
176
     1
 40
1.0
176
     1
 40
1.0
176
     1
  0
VISUALSTYLE
  5
9C
102
{ACAD_REACTORS
330
99
102
}
330
99
100
AcDbVisualStyle
  2
Gouraud
 70
     2
177
     3
291
     1
 70
    58
 90
        2
176
     1
 90
        2
176
     1
 90
        1
176
     1
 90
        2
176
     1
 40
0.6
176
     1
 40
30.0
176
     1
 62
     7
420
 16777215
176
     1
 90
        0
176
     1
 90
        0
176
     1
 62
     7
176
     1
 62
   257
176
     1
 90
        1
176
     1
 90
        1
176
     1
 40
1.0
176
     1
 90
        0
176
     1
 62
     7
176
     1
 40
1.0
176
     1
 90
        1
176
     1
 90
        6
176
     1
 90
        2
176
     1
 62
     7
176
     1
 90
        5
176
     1
 90
        0
176
     1
 90
        0
176
     1
290
     0
176
     1
 90
       13
176
     1
 40
0.0
176
     1
 90
        0
176
     1
290
     0
176
     1
290
     1
176
     1
290
     1
176
     1
290
     0
176
     1
290
     0
176
     1
290
     0
176
     1
290
     0
176
     1
290
     0
176
     1
290
     0
176
     1
 90
       50
176
     1
 40
0.0
176
     1
 40
1.0
176
     1
 90
        0
176
     1
 62
    18
420
        0
176
     1
 90
       50
176
     1
 90
        3
176
     1
 62
     5
420
      255
176
     1
290
     0
176
     1
 90
       50
176
     1
 90
       50
176
     1
 90
       50
176
     1
290
     0
176
     1
 90
       50
176
     1
 62
   256
176
     0
 40
1.0
176
     0
 90
        2
176
     1
  1
strokes_ogs.tif
176
     1
290
     0
176
     1
 40
1.0
176
     1
 40
1.0
176
     1
  0
VISUALSTYLE
  5
9D
102
{ACAD_REACTORS
330
99
102
}
330
99
100
AcDbVisualStyle
  2
GouraudWithEdges
 70
     3
177
     3
291
     1
 70
    58
 90
        2
176
     1
 90
        2
176
     1
 90
        1
176
     1
 90
        2
176
     1
 40
0.6
176
     1
 40
30.0
176
     1
 62
     7
420
 16777215
176
     1
 90
        1
176
     1
 90
        0
176
     1
 62
     7
176
     1
 62
   257
176
     1
 90
        1
176
     1
 90
        1
176
     1
 40
1.0
176
     1
 90
        0
176
     1
 62
   257
176
     1
 40
1.0
176
     1
 90
        1
176
     1
 90
        6
176
     1
 90
        2
176
     1
 62
     7
176
     1
 90
        5
176
     1
 90
        0
176
     1
 90
        0
176
     1
290
     0
176
     1
 90
       13
176
     1
 40
0.0
176
     1
 90
        0
176
     1
290
     0
176
     1
290
     1
176
     1
290
     1
176
     1
290
     0
176
     1
290
     0
176
     1
290
     0
176
     1
290
     0
176
     1
290
     0
176
     1
290
     0
176
     1
 90
       50
176
     1
 40
0.0
176
     1
 40
1.0
176
     1
 90
        0
176
     1
 62
    18
420
        0
176
     1
 90
       50
176
     1
 90
        3
176
     1
 62
     5
420
      255
176
     1
290
     0
176
     1
 90
       50
176
     1
 90
       50
176
     1
 90
       50
176
     1
290
     0
176
     1
 90
       50
176
     1
 62
   256
176
     0
 40
1.0
176
     0
 90
        2
176
     1
  1
strokes_ogs.tif
176
     1
290
     0
176
     1
 40
1.0
176
     1
 40
1.0
176
     1
  0
VISUALSTYLE
  5
A1
102
{ACAD_REACTORS
330
99
102
}
330
99
100
AcDbVisualStyle
  2
Hidden
 70
     6
177
     3
291
     0
 70
    58
 90
        1
176
     1
 90
        2
176
     1
 90
        2
176
     1
 90
        0
176
     1
 40
0.6
176
     1
 40
30.0
176
     1
 62
     7
420
 16777215
176
     1
 90
        2
176
     1
 90
        2
176
     1
 62
     7
176
     1
 62
   257
176
     1
 90
        2
176
     1
 90
        1
176
     1
 40
40.0
176
     1
 90
        0
176
     1
 62
   257
176
     1
 40
1.0
176
     1
 90
        1
176
     1
 90
        6
176
     1
 90
        2
176
     1
 62
     7
176
     1
 90
        3
176
     1
 90
        0
176
     1
 90
        0
176
     1
290
     0
176
     1
 90
        1
176
     1
 40
0.0
176
     1
 90
        0
176
     1
290
     0
176
     1
290
     1
176
     1
290
     1
176
     1
290
     0
176
     1
290
     0
176
     1
290
     0
176
     1
290
     0
176
     1
290
     0
176
     1
290
     0
176
     1
 90
       50
176
     1
 40
0.0
176
     1
 40
1.0
176
     1
 90
        0
176
     1
 62
    18
420
        0
176
     1
 90
       50
176
     1
 90
        3
176
     1
 62
     5
420
      255
176
     1
290
     0
176
     1
 90
       50
176
     1
 90
       50
176
     1
 90
       50
176
     1
290
     0
176
     1
 90
       50
176
     1
 62
   256
176
     0
 40
1.0
176
     0
 90
        2
176
     1
  1
strokes_ogs.tif
176
     1
290
     0
176
     1
 40
1.0
176
     1
 40
1.0
176
     1
  0
VISUALSTYLE
  5
173
102
{ACAD_REACTORS
330
99
102
}
330
99
100
AcDbVisualStyle
  2
JitterOff
 70
    20
177
     3
291
     1
 70
    58
 90
        2
176
     0
 90
        2
176
     0
 90
        0
176
     0
 90
        0
176
     0
 40
0.6
176
     0
 40
30.0
176
     0
 62
     7
420
 16777215
176
     0
 90
        1
176
     0
 90
        4
176
     0
 62
     7
176
     0
 62
   257
176
     0
 90
        1
176
     0
 90
        1
176
     0
 40
1.0
176
     0
 90
       10
176
     2
 62
     7
176
     0
 40
1.0
176
     0
 90
        1
176
     0
 90
        6
176
     0
 90
        2
176
     0
 62
     7
176
     0
 90
        5
176
     0
 90
        0
176
     0
 90
        0
176
     0
290
     0
176
     0
 90
        1
176
     0
 40
0.0
176
     0
 90
        0
176
     0
290
     0
176
     1
290
     1
176
     1
290
     1
176
     1
290
     0
176
     1
290
     0
176
     1
290
     0
176
     1
290
     0
176
     1
290
     0
176
     1
290
     0
176
     1
 90
       50
176
     1
 40
0.0
176
     1
 40
1.0
176
     1
 90
        0
176
     1
 62
    18
420
        0
176
     1
 90
       50
176
     1
 90
        3
176
     1
 62
     5
420
      255
176
     1
290
     0
176
     1
 90
       50
176
     1
 90
       50
176
     1
 90
       50
176
     1
290
     0
176
     1
 90
       50
176
     1
 62
   256
176
     0
 40
1.0
176
     0
 90
        2
176
     1
  1
strokes_ogs.tif
176
     1
290
     0
176
     1
 40
1.0
176
     1
 40
1.0
176
     1
  0
VISUALSTYLE
  5
A7
102
{ACAD_REACTORS
330
99
102
}
330
99
100
AcDbVisualStyle
  2
Linepattern
 70
    14
177
     3
291
     1
 70
    58
 90
        2
176
     1
 90
        2
176
     1
 90
        1
176
     1
 90
        0
176
     1
 40
0.6
176
     1
 40
30.0
176
     1
 62
     7
420
 16777215
176
     1
 90
        1
176
     1
 90
        4
176
     1
 62
     7
176
     1
 62
   257
176
     1
 90
        7
176
     1
 90
        7
176
     1
 40
1.0
176
     1
 90
        8
176
     1
 62
     7
176
     1
 40
1.0
176
     1
 90
        1
176
     1
 90
        6
176
     1
 90
        2
176
     1
 62
     7
176
     1
 90
        5
176
     1
 90
        0
176
     1
 90
        0
176
     1
290
     0
176
     1
 90
        1
176
     1
 40
0.0
176
     1
 90
        0
176
     1
290
     0
176
     1
290
     1
176
     1
290
     1
176
     1
290
     0
176
     1
290
     0
176
     1
290
     0
176
     1
290
     0
176
     1
290
     0
176
     1
290
     0
176
     1
 90
       50
176
     1
 40
0.0
176
     1
 40
1.0
176
     1
 90
        0
176
     1
 62
    18
420
        0
176
     1
 90
       50
176
     1
 90
        3
176
     1
 62
     5
420
      255
176
     1
290
     0
176
     1
 90
       50
176
     1
 90
       50
176
     1
 90
       50
176
     1
290
     0
176
     1
 90
       50
176
     1
 62
   256
176
     0
 40
1.0
176
     0
 90
        2
176
     1
  1
strokes_ogs.tif
176
     1
290
     0
176
     1
 40
1.0
176
     1
 40
1.0
176
     1
  0
VISUALSTYLE
  5
174
102
{ACAD_REACTORS
330
99
102
}
330
99
100
AcDbVisualStyle
  2
OverhangOff
 70
    21
177
     3
291
     1
 70
    58
 90
        2
176
     0
 90
        2
176
     0
 90
        0
176
     0
 90
        0
176
     0
 40
0.6
176
     0
 40
30.0
176
     0
 62
     7
420
 16777215
176
     0
 90
        1
176
     0
 90
        4
176
     0
 62
     7
176
     0
 62
   257
176
     0
 90
        1
176
     0
 90
        1
176
     0
 40
1.0
176
     0
 90
        9
176
     2
 62
     7
176
     0
 40
1.0
176
     0
 90
        1
176
     0
 90
        6
176
     0
 90
        2
176
     0
 62
     7
176
     0
 90
        5
176
     0
 90
        0
176
     0
 90
        0
176
     0
290
     0
176
     0
 90
        1
176
     0
 40
0.0
176
     0
 90
        0
176
     0
290
     0
176
     1
290
     1
176
     1
290
     1
176
     1
290
     0
176
     1
290
     0
176
     1
290
     0
176
     1
290
     0
176
     1
290
     0
176
     1
290
     0
176
     1
 90
       50
176
     1
 40
0.0
176
     1
 40
1.0
176
     1
 90
        0
176
     1
 62
    18
420
        0
176
     1
 90
       50
176
     1
 90
        3
176
     1
 62
     5
420
      255
176
     1
290
     0
176
     1
 90
       50
176
     1
 90
       50
176
     1
 90
       50
176
     1
290
     0
176
     1
 90
       50
176
     1
 62
   256
176
     0
 40
1.0
176
     0
 90
        2
176
     1
  1
strokes_ogs.tif
176
     1
290
     0
176
     1
 40
1.0
176
     1
 40
1.0
176
     1
  0
VISUALSTYLE
  5
A3
102
{ACAD_REACTORS
330
99
102
}
330
99
100
AcDbVisualStyle
  2
Realistic
 70
     8
177
     3
291
     0
 70
    58
 90
        2
176
     1
 90
        3
176
     1
 90
        0
176
     1
 90
        2
176
     1
 40
0.6
176
     1
 40
30.0
176
     1
 62
     7
420
 16777215
176
     1
 90
        0
176
     1
 90
        0
176
     1
 62
     7
176
     1
 62
   257
176
     1
 90
        1
176
     1
 90
        1
176
     1
 40
1.0
176
     1
 90
        8
176
     1
 62
   257
176
     1
 40
1.0
176
     1
 90
        1
176
     1
 90
        6
176
     1
 90
        2
176
     1
 62
     7
176
     1
 90
        3
176
     1
 90
        0
176
     1
 90
        0
176
     1
290
     0
176
     1
 90
       13
176
     1
 40
0.0
176
     1
 90
        0
176
     1
290
     0
176
     1
290
     1
176
     1
290
     1
176
     1
290
     0
176
     1
290
     0
176
     1
290
     0
176
     1
290
     0
176
     1
290
     0
176
     1
290
     0
176
     1
 90
       50
176
     1
 40
0.0
176
     1
 40
1.0
176
     1
 90
        0
176
     1
 62
    18
420
        0
176
     1
 90
       50
176
     1
 90
        3
176
     1
 62
     5
420
      255
176
     1
290
     0
176
     1
 90
       50
176
     1
 90
       50
176
     1
 90
       50
176
     1
290
     0
176
     1
 90
       50
176
     1
 62
   256
176
     0
 40
1.0
176
     0
 90
        2
176
     1
  1
strokes_ogs.tif
176
     1
290
     0
176
     1
 40
1.0
176
     1
 40
1.0
176
     1
  0
VISUALSTYLE
  5
182
102
{ACAD_REACTORS
330
99
102
}
330
99
100
AcDbVisualStyle
  2
Shaded
 70
    27
177
     3
291
     0
 70
    58
 90
        2
176
     1
 90
        2
176
     1
 90
        1
176
     1
 90
        2
176
     1
 40
0.6
176
     1
 40
30.0
176
     1
 62
     7
420
 16777215
176
     1
 90
        0
176
     1
 90
        4
176
     1
 62
     7
176
     1
 62
   257
176
     1
 90
        1
176
     1
 90
        1
176
     1
 40
1.0
176
     1
 90
        8
176
     1
 62
   257
176
     1
 40
1.0
176
     1
 90
        1
176
     1
 90
        6
176
     1
 90
        2
176
     1
 62
     8
420
  7895160
176
     1
 90
        3
176
     1
 90
        0
176
     1
 90
        0
176
     1
290
     0
176
     1
 90
        5
176
     1
 40
0.0
176
     1
 90
        0
176
     1
290
     0
176
     1
290
     1
176
     1
290
     1
176
     1
290
     0
176
     1
290
     0
176
     1
290
     0
176
     1
290
     0
176
     1
290
     0
176
     1
290
     0
176
     1
 90
       50
176
     1
 40
0.0
176
     1
 40
1.0
176
     1
 90
        0
176
     1
 62
    18
420
        0
176
     1
 90
       50
176
     1
 90
        3
176
     1
 62
     5
420
      255
176
     1
290
     0
176
     1
 90
       50
176
     1
 90
       50
176
     1
 90
       50
176
     1
290
     0
176
     1
 90
       50
176
     1
 62
   256
176
     0
 40
1.0
176
     0
 90
        2
176
     1
  1
strokes_ogs.tif
176
     1
290
     0
176
     1
 40
1.0
176
     1
 40
1.0
176
     1
  0
VISUALSTYLE
  5
181
102
{ACAD_REACTORS
330
99
102
}
330
99
100
AcDbVisualStyle
  2
Shaded with edges
 70
    26
177
     3
291
     0
 70
    58
 90
        2
176
     1
 90
        2
176
     1
 90
        1
176
     1
 90
        2
176
     1
 40
0.6
176
     1
 40
30.0
176
     1
 62
     7
420
 16777215
176
     1
 90
        1
176
     1
 90
        2
176
     1
 62
     7
176
     1
 62
   257
176
     1
 90
        2
176
     1
 90
        1
176
     1
 40
1.0
176
     1
 90
        8
176
     1
 62
   257
176
     1
 40
1.0
176
     1
 90
        1
176
     1
 90
        6
176
     1
 90
        2
176
     1
 62
     7
176
     1
 90
        3
176
     1
 90
        0
176
     1
 90
        0
176
     1
290
     0
176
     1
 90
        5
176
     1
 40
0.0
176
     1
 90
        0
176
     1
290
     0
176
     1
290
     1
176
     1
290
     1
176
     1
290
     0
176
     1
290
     0
176
     1
290
     0
176
     1
290
     0
176
     1
290
     0
176
     1
290
     0
176
     1
 90
       50
176
     1
 40
0.0
176
     1
 40
1.0
176
     1
 90
        0
176
     1
 62
    18
420
        0
176
     1
 90
       50
176
     1
 90
        3
176
     1
 62
     5
420
      255
176
     1
290
     0
176
     1
 90
       50
176
     1
 90
       50
176
     1
 90
       50
176
     1
290
     0
176
     1
 90
       50
176
     1
 62
   256
176
     0
 40
1.0
176
     0
 90
        2
176
     1
  1
strokes_ogs.tif
176
     1
290
     0
176
     1
 40
1.0
176
     1
 40
1.0
176
     1
  0
VISUALSTYLE
  5
17E
102
{ACAD_REACTORS
330
99
102
}
330
99
100
AcDbVisualStyle
  2
Shades of Gray
 70
    23
177
     3
291
     0
 70
    58
 90
        2
176
     1
 90
        2
176
     1
 90
        3
176
     1
 90
        0
176
     1
 40
0.6
176
     1
 40
30.0
176
     1
 62
     7
420
 16777215
176
     1
 90
        2
176
     1
 90
        2
176
     1
 62
     7
176
     1
 62
     7
176
     1
 90
        1
176
     1
 90
        1
176
     1
 40
40.0
176
     1
 90
        8
176
     1
 62
     7
176
     1
 40
1.0
176
     1
 90
        1
176
     1
 90
        6
176
     1
 90
        2
176
     1
 62
     7
176
     1
 90
        3
176
     1
 90
        0
176
     1
 90
        0
176
     1
290
     0
176
     1
 90
        1
176
     1
 40
0.0
176
     1
 90
        0
176
     1
290
     0
176
     1
290
     1
176
     1
290
     1
176
     1
290
     0
176
     1
290
     0
176
     1
290
     0
176
     1
290
     0
176
     1
290
     0
176
     1
290
     0
176
     1
 90
       50
176
     1
 40
0.0
176
     1
 40
1.0
176
     1
 90
        0
176
     1
 62
    18
420
        0
176
     1
 90
       50
176
     1
 90
        3
176
     1
 62
     5
420
      255
176
     1
290
     0
176
     1
 90
       50
176
     1
 90
       50
176
     1
 90
       50
176
     1
290
     0
176
     1
 90
       50
176
     1
 62
   256
176
     0
 40
1.0
176
     0
 90
        2
176
     1
  1
strokes_ogs.tif
176
     1
290
     0
176
     1
 40
1.0
176
     1
 40
1.0
176
     1
  0
VISUALSTYLE
  5
17F
102
{ACAD_REACTORS
330
99
102
}
330
99
100
AcDbVisualStyle
  2
Sketchy
 70
    24
177
     3
291
     0
 70
    58
 90
        1
176
     1
 90
        2
176
     1
 90
        2
176
     1
 90
        0
176
     1
 40
0.6
176
     1
 40
30.0
176
     1
 62
     7
420
 16777215
176
     1
 90
        2
176
     1
 90
        2
176
     1
 62
     7
176
     1
 62
     7
176
     1
 90
        1
176
     1
 90
        1
176
     1
 40
40.0
176
     1
 90
       11
176
     1
 62
     7
176
     1
 40
1.0
176
     1
 90
        1
176
     1
 90
        6
176
     1
 90
        2
176
     1
 62
     7
176
     1
 90
        6
176
     1
 90
        0
176
     1
 90
        0
176
     1
290
     0
176
     1
 90
        1
176
     1
 40
0.0
176
     1
 90
        0
176
     1
290
     0
176
     1
290
     1
176
     1
290
     1
176
     1
290
     0
176
     1
290
     0
176
     1
290
     0
176
     1
290
     0
176
     1
290
     0
176
     1
290
     0
176
     1
 90
       50
176
     1
 40
0.0
176
     1
 40
1.0
176
     1
 90
        0
176
     1
 62
    18
420
        0
176
     1
 90
       50
176
     1
 90
        3
176
     1
 62
     5
420
      255
176
     1
290
     0
176
     1
 90
       50
176
     1
 90
       50
176
     1
 90
       50
176
     1
290
     0
176
     1
 90
       50
176
     1
 62
   256
176
     0
 40
1.0
176
     0
 90
        2
176
     1
  1
strokes_ogs.tif
176
     1
290
     0
176
     1
 40
1.0
176
     1
 40
1.0
176
     1
  0
VISUALSTYLE
  5
A6
102
{ACAD_REACTORS
330
99
102
}
330
99
100
AcDbVisualStyle
  2
Thicken
 70
    13
177
     3
291
     1
 70
    58
 90
        2
176
     1
 90
        2
176
     1
 90
        1
176
     1
 90
        0
176
     1
 40
0.6
176
     1
 40
30.0
176
     1
 62
     7
420
 16777215
176
     1
 90
        1
176
     1
 90
        4
176
     1
 62
     7
176
     1
 62
   257
176
     1
 90
        1
176
     1
 90
        1
176
     1
 40
1.0
176
     1
 90
       12
176
     1
 62
     7
176
     1
 40
1.0
176
     1
 90
        1
176
     1
 90
        6
176
     1
 90
        2
176
     1
 62
     7
176
     1
 90
        5
176
     1
 90
        0
176
     1
 90
        0
176
     1
290
     0
176
     1
 90
        1
176
     1
 40
0.0
176
     1
 90
        0
176
     1
290
     0
176
     1
290
     1
176
     1
290
     1
176
     1
290
     0
176
     1
290
     0
176
     1
290
     0
176
     1
290
     0
176
     1
290
     0
176
     1
290
     0
176
     1
 90
       50
176
     1
 40
0.0
176
     1
 40
1.0
176
     1
 90
        0
176
     1
 62
    18
420
        0
176
     1
 90
       50
176
     1
 90
        3
176
     1
 62
     5
420
      255
176
     1
290
     0
176
     1
 90
       50
176
     1
 90
       50
176
     1
 90
       50
176
     1
290
     0
176
     1
 90
       50
176
     1
 62
   256
176
     0
 40
1.0
176
     0
 90
        2
176
     1
  1
strokes_ogs.tif
176
     1
290
     0
176
     1
 40
1.0
176
     1
 40
1.0
176
     1
  0
VISUALSTYLE
  5
A0
102
{ACAD_REACTORS
330
99
102
}
330
99
100
AcDbVisualStyle
  2
Wireframe
 70
     5
177
     3
291
     0
 70
    58
 90
        0
176
     1
 90
        2
176
     1
 90
        0
176
     1
 90
        0
176
     1
 40
0.6
176
     1
 40
30.0
176
     1
 62
     7
420
 16777215
176
     1
 90
        1
176
     1
 90
        4
176
     1
 62
     7
176
     1
 62
   257
176
     1
 90
        1
176
     1
 90
        1
176
     1
 40
1.0
176
     1
 90
        0
176
     1
 62
   257
176
     1
 40
1.0
176
     1
 90
        1
176
     1
 90
        6
176
     1
 90
        2
176
     1
 62
     7
176
     1
 90
        3
176
     1
 90
        0
176
     1
 90
        0
176
     1
290
     0
176
     1
 90
        1
176
     1
 40
0.0
176
     1
 90
        0
176
     1
290
     0
176
     1
290
     1
176
     1
290
     1
176
     1
290
     0
176
     1
290
     0
176
     1
290
     0
176
     1
290
     0
176
     1
290
     0
176
     1
290
     0
176
     1
 90
       50
176
     1
 40
0.0
176
     1
 40
1.0
176
     1
 90
        0
176
     1
 62
    18
420
        0
176
     1
 90
       50
176
     1
 90
        3
176
     1
 62
     5
420
      255
176
     1
290
     0
176
     1
 90
       50
176
     1
 90
       50
176
     1
 90
       50
176
     1
290
     0
176
     1
 90
       50
176
     1
 62
   256
176
     0
 40
1.0
176
     0
 90
        2
176
     1
  1
strokes_ogs.tif
176
     1
290
     0
176
     1
 40
1.0
176
     1
 40
1.0
176
     1
  0
VISUALSTYLE
  5
180
102
{ACAD_REACTORS
330
99
102
}
330
99
100
AcDbVisualStyle
  2
X-Ray
 70
    25
177
     3
291
     0
 70
    58
 90
        2
176
     1
 90
        2
176
     1
 90
        1
176
     1
 90
        1
176
     1
 40
0.5
176
     1
 40
30.0
176
     1
 62
     7
420
 16777215
176
     1
 90
        1
176
     1
 90
        0
176
     1
 62
     7
176
     1
 62
   257
176
     1
 90
        1
176
     1
 90
        1
176
     1
 40
1.0
176
     1
 90
        8
176
     1
 62
     7
176
     1
 40
1.0
176
     1
 90
        1
176
     1
 90
        6
176
     1
 90
        2
176
     1
 62
     7
176
     1
 90
        3
176
     1
 90
        0
176
     1
 90
        0
176
     1
290
     0
176
     1
 90
       13
176
     1
 40
0.0
176
     1
 90
        0
176
     1
290
     0
176
     1
290
     1
176
     1
290
     1
176
     1
290
     0
176
     1
290
     0
176
     1
290
     0
176
     1
290
     0
176
     1
290
     0
176
     1
290
     0
176
     1
 90
       50
176
     1
 40
0.0
176
     1
 40
1.0
176
     1
 90
        0
176
     1
 62
    18
420
        0
176
     1
 90
       50
176
     1
 90
        3
176
     1
 62
     5
420
      255
176
     1
290
     0
176
     1
 90
       50
176
     1
 90
       50
176
     1
 90
       50
176
     1
290
     0
176
     1
 90
       50
176
     1
 62
   256
176
     0
 40
1.0
176
     0
 90
        2
176
     1
  1
strokes_ogs.tif
176
     1
290
     0
176
     1
 40
1.0
176
     1
 40
1.0
176
     1
  0
DICTIONARYVAR
  5
F0
102
{ACAD_REACTORS
330
66
102
}
330
66
100
DictionaryVariables
280
     0
  1
1:1
  0
DICTIONARYVAR
  5
EF
102
{ACAD_REACTORS
330
66
102
}
330
66
100
DictionaryVariables
280
     0
  1
STANDARD
  0
DICTIONARYVAR
  5
89
102
{ACAD_REACTORS
330
66
102
}
330
66
100
DictionaryVariables
280
     0
  1
STANDARD
  0
DICTIONARYVAR
  5
1B7
102
{ACAD_REACTORS
330
66
102
}
330
66
100
DictionaryVariables
280
     0
  1
Imperial24
  0
DICTIONARYVAR
  5
1B8
102
{ACAD_REACTORS
330
66
102
}
330
66
100
DictionaryVariables
280
     0
  1
Imperial24
  0
DICTIONARYVAR
  5
67
102
{ACAD_REACTORS
330
66
102
}
330
66
100
DictionaryVariables
280
     0
  1
2
  0
DICTIONARYVAR
  5
6B
102
{ACAD_REACTORS
330
66
102
}
330
66
100
DictionaryVariables
280
     0
  1
1
  0
DICTIONARYVAR
  5
14D
102
{ACAD_REACTORS
330
66
102
}
330
66
100
DictionaryVariables
280
     0
  1
0
  0
DICTIONARYVAR
  5
14E
102
{ACAD_REACTORS
330
66
102
}
330
66
100
DictionaryVariables
280
     0
  1
0
  0
DICTIONARY
  5
1C6
330
1AC
100
AcDbDictionary
280
     1
281
     1
  3
ACAD_XREC_ROUNDTRIP
360
B8B
  0
DICTIONARY
  5
348
330
315
100
AcDbDictionary
280
     1
281
     1
  3
ACAD_XREC_ROUNDTRIP
360
B8D
  0
DICTIONARY
  5
194
330
22
100
AcDbDictionary
280
     1
281
     1
  0
DICTIONARY
  5
188
330
97
100
AcDbDictionary
280
     1
281
     1
  3
FBXASSET
360
189
  0
DICTIONARY
  5
186
330
96
100
AcDbDictionary
280
     1
281
     1
  3
FBXASSET
360
187
  0
DICTIONARY
  5
110
330
98
100
AcDbDictionary
280
     1
281
     1
  3
BUMPTILE
360
112
  3
DIFFUSETILE
360
111
  3
FBXASSET
360
18A
  3
OPACITYTILE
360
113
  3
REFLECTIONTILE
360
114
  0
DICTIONARY
  5
1C4
330
1AA
100
AcDbDictionary
280
     1
281
     1
  3
ACAD_XREC_ROUNDTRIP
360
B8A
  0
DICTIONARY
  5
346
330
314
100
AcDbDictionary
280
     1
281
     1
  3
ACAD_XREC_ROUNDTRIP
360
B8C
  0
DICTIONARY
  5
104
330
87
100
AcDbDictionary
280
     1
281
     1
  3
ACAD_ROUNDTRIP_2008_TABLESTYLE_CELLSTYLEMAP
360
B89
  0
XRECORD
  5
B8B
102
{ACAD_REACTORS
330
1C6
102
}
330
1C6
100
AcDbXrecord
280
     1
102
DISPLAYNAME
  1
Imperial24
102
FLAGS
 90
        0
  0
XRECORD
  5
B8D
102
{ACAD_REACTORS
330
348
102
}
330
348
100
AcDbXrecord
280
     1
102
DISPLAYNAME
  1
Metric50
102
FLAGS
 90
        0
  0
XRECORD
  5
189
102
{ACAD_REACTORS
330
188
102
}
330
188
100
AcDbXrecord
280
     1
 70
     1
 90
429727718
  1
508B35C9-AEE7-456F-BE74-D52651303AC6
310
504B03040A0000080000B670623B3DEE336E79000000790000001B0000006175746F6465736B2D64657369676E2D7061636B6167652E786D6C3C3F786D6C2076657273696F6E3D22312E302220656E636F64696E673D227574662D3822203F3E3C666F726D6174733E3C666F726D61743E687474703A2F2F736368656D612E
310
6175746F6465736B2E636F6D2F64657369676E2D7061636B6167652F323030393C2F666F726D61743E3C2F666F726D6174733E504B0304140006080800B670623BD486FD9CA0000000F4000000130000005B436F6E74656E745F54797065735D2E786D6C7D8EC10E82300C865F65E91D8A1E8C310C0EEA1BF002731658846E
310
D98AC1B77784ABF1D8FE5FBFBF75BBCE937A534CCEB38643598122B6FEE978D0B0485F9C41B54DDD7D022595594E1A469170414C76A4D9A4D207E29CF43ECE46F218070CC6BECC4078ACAA135ACF422C856C0E68EA1BF5669944DDD7BCDE7B1F8E415D77AECB980613C2E4AC91FC167A2B244592486606FC29C8FD7F045B9A
310
EF7053A7E60B504B0304140006080800B670623B28ED286BEB0000007C01000008000000636F72652E786D6C8D90416EC3201045AF82665B6183218D6D61A254764FD00B204C5C94182C03558F5F9C3852BBEB6A467FFE9B197D71FA9E6FE8CBACC17AD7012D0820E3B41FAD9B3A48F1826B40272956EFE32F1B20A766D3C1
310
268314D3EAD3B24BDABB685CCCAAF3A3D94515828980F42D371D04FD696655A814B3235C8B45E9AB9A4C419F5D8653B2237A1CB163DE672FD6AC209BF3C08E0D1B30EB19C3FC9D72FCC6EB231EFA33EDE96BDD341517E5064B11EDFCBCAF57A3A2194156843498524CAA0FCA5B7268F9E185D42D21A2DCEC7FA0B48CFF8492
310
759155FBBB0F2C80A4F991FB408A72CB22977B50B96EB9C91F504B0304140006080800B670623B55019EA25F0000007C00000007000000636E782E786D6C4DCB3B0E80201045D1AD90E915ED2CF8AC45050C11660C8261F98AB1B07AC9C97D42D718D865D3E909258CFD00CCE24AC6E326A164D74DC0B4128928FF32603847
310
2BA13128B1252AC747C6BAB984FC68F0B87FE8960A5C09FE86CFB69FBA01504B0304140006080800B670623B7BC41AC871010000D40300000C0000006662782F636F72652E786D6CC553ED6E8320147D15C2DF4501B56B6D90A64BBB27D80B50A5CE54C120983EFEAE1F4DD7A56BBA5FF3879273EEE59E7310BE393735EA95
310
ED2AA333CC428A91D2B9292A5D66D8BB63B0C26823B835C67D2BC348CB46657880B1E0A535BE9DA1DC68A7B403549B42CDA0EC3AE530CA6B5864B8CB3F552343E91D5474A7B095F949962A6421D0502778E72C0840D390E18DC5F170E664C205F7BE2A66B62A605A75AC94C522DDEEE3651AEF837817C741F2CE92E02D592D
310
83FD6ECB76EC7595A651C2C9D02CB8AB9A8BBADC2AE954814544691A3016D0E883256BBA58278B17BA5A53CAC9507ED3E4DBE2C9265F691747B3DCA9ADC382819091F8E1162272A8933DE82182932144F88C09DF060D8140C84E1EEA8B8F1340BDCA9DB1093085F157AA97B557309586747CD0EF0B4EA64E983A6E0EAEEFCE
310
889E9EF17847386AA94B30211D2C0FDE0D3AF9A4610EAD5536E8DD1969631B593F67E381C33F5157F17725E5A636F6BF1491F980C8FC7B90E13E8A2F504B0304140006080800B670623B70102A487D0000009D0000000B0000006662782F636E782E786D6C4DCCD10A83201886E15B91FFDC95A5C30335ACCDFB886521330D
310
A76397BF1A1DECE883878F57749FD5A3B74D2F17830472A901D9F088930B8B849267CC01754AA418F3DF0D5018572BE160506249B16C274D761E8BCFBB7A179E27F65CB39A0F14D396184C9921B81F34C3ACA1B4B99ABB6E6F062A25AA5F69DF23ACBE504B0304140006080800B670623B3610CA3329010000120200003100
310
00006662782F42384135303843342D343331462D343546312D424341352D3532343432364645413344462F636F72652E786D6C8D515B6EC32010BC0AE22B55850D0E446E848992B43E412FE000495162B07854397EA176A4F62F3F2C9A9D991D58BEBB8F37F0AD7D30CE76905418026DA553C65E3A98E219B510EC04F7CEC5
310
3F3408EC30EA0E16180A7EF12E4D0B249D8DDAC68C5AA7F4020E21E80881BCE54B0783FCD2E3500D296646B856D320AFC34557A4CAEDCC133C449F0380794839A138B47B86DB2345744D7A44594FD0E1B867883594369BFE63BF7EEF793D0B054FC9A8456E548E63CE46FB674D8A58F068C6477CE9F510B582A2C1F80D1182
310
70F349E816B32D65AFB8DD62CCEB42FF274A937A52948C8DEB66893BCB021484D7734370E5D2E9F608A3EF93F3119479ABA0E50B14B8C298119A43CCC4FCFCECB8A18B6388CEE7EF5D5D4F994BD86CBBA182D76543B9FCAE2FD7B24DF103504B0304140006080800B670623B1B8617914E0100003303000030000000666278
310
2F42384135303843342D343331462D343546312D424341352D3532343432364645413344462F636E782E786D6CD593C16EC32010447F0571AD6CE3D489D20813A9877E410FBD62D82434182CC055F3F75D1292E692438FBD206B7698593D61BEFD1E2DF982108D773D6D6B460938E5B571FB9ECE6957AD29D90A1EBC4F7736
310
4A9C1CA1A759A682EF839FA72269D8C9D92654AD71C72206887E0E0A22CAF926B15E498B01E0AA19451807D01A34B919F16B070157417138917400F2F6FA41FCF0092A45DEE414C19BDC21783E4BD39D891265658C3D8DEA00A3ACE59CBC8678ACB54CB26EEB6BD7839D7E9348BE70AD9C8321B9BCA7F9A4A26C542347DEE0
310
50F09802D22BA6749A800A394DD62899107273365E3C82CFC6A55557BC06C10774B7ABE7AEC3B0F34CF06446280E154026D0542C187BA9DAB6628BF7B6DBB0E5A65B3EB1F58631DE64BBE083F7B65CC218087E22CABB042E51D1F2268F1FE12B3EA24D40D63E9CFE00120194D60B9D5BC67FE6D39CDF37E20AF817881F504B
310
0304140006080800B670623BBFEF2E3B690500003C100000340000006662782F42384135303843342D343331462D343546312D424341352D3532343432364645413344462F6F626A656374732E786D6CAD575D739B3814FD2B0CFB0C98D84E931D4227B6938EA793B6534F3BFB90198F0099B001899144EAECAFDF231018B0
310
D37A3FFC609090EEE7B94757C1FB7D915B2F54C88CB31BDB7727B64559CC938CA53776A576CE956DBD0F03C1B9EA2DB32D460A7A63EB693B0C52C1ABD24C257447AA5C8D66EF177F5832A68CDA569C13296F6C193FD182B8A4523CA1F2D94D88226EBADBBBBEDB2C1C8A4D05299F46424B222853B014F30C52ACC6287F389C
310
D85E1878FA7B18E87FB36AFAF62AAFF667A83F635211161F291B8999FAB3D5DDC5FCDA99CF6653677679E13B8BFBC5CAF1DF4D27CBCBE5F2FAF6EE1A8AA51290642C117467871F101B91C581D77CEA2C36869F3229E68CD1B8F61F1ED6361B89092D294B90C78C4A68EB793D190E7D1D9BDEE7A91E1B95FDE9F3BCEAEFE809
310
6A6D6F9F7D4B79F4275C90E7A04248AA51D5C4C738DAE06F72885AC4796EBE65D22A88A22223B995679120E2D50EB1542F098381188D4EA111AE3DB043FF20AF6F2B4AE3D7D83D65E5AECA730D4D3BAC91BD05FEA992B565D95F549CD6069B90AB2A63EACA38A45E4B6A87D781574F86817E4C2FCCC72690D62E2729520E37
310
9BAF234797BAF6D62B3BFC781FED37BA1E4F2B2F052FA9501A3E80569BB8F6A9A364D4FA67654E6F803383981F82F21591FF84F23D9882BC896C3FDBCF8C162508933B2E0AE4C69DD43F6BD2BE38DDDBF10BF86CB4FA784D37F3AF16075E67EC9030DECA1FC0A55373F5DFF3378C591FA9BDF485C10B0A8C8BA909E5262639
310
A8E72163488806A595734C81CB77D1DE0ED7604A303B76913CEC0272F412782FF88EFF4636D8AA56DF7B322474C4B767303F625997056C7B032C473C592B36CEBD15F3F9FF5233B7ABCDC74D257624A60F8658567497B14CE1EC3C80B76FD02011038F9EE9EB0F2E12387A9C844D3F09855125116D1D731DF8B43D2CF4E0A0
310
79A020C6BE946BCE0B7EA1E1219331CD73C228AF5A2DDD31A4B1DA918CE91350854D40A71723140BFA92E94E62B0626016CEFA5864A50E5977E8753CEDBEE1CBB7F52780D20E17AF0BA0F5F9B02A3AD07DCC732EB6D1EBB661421BE0C39E21BABF0FE16D22EA6929407C8DE596724C88B749B6DB5512BC7B228ADFD7CB7EA6
310
3A22397E690BA8D5D8D4E40CEC8CDA23C2C0B7D5898640101CEC9C6D331CE328CB93CAFBBAC70A642DF70DF95155945B52F08AA973C23469FD69ADEF84F7BB18F983A8F8C90E37F5D35980B2139A1C523540813E824EF83448CF7C72B598CE97D7CEEDDDDD3B6736BFBC771677EF66CE6A7E7139F7A793E9EDF2B2B3A8B624
310
0CDA13AA5F8388264EC4A0129909F3B7F5A16CEDF08128E97D680ACA4B9BE7B7B58BB638F0B00700EF36AE8B32A705658A68F83EE897FC2B41573190D1CCAF0B92D233A47CFEB019D9809933F67DD1A5467F8CF69AD9A5AE859342D45355448C64F968A371DC2D596ADC6E43D93D1B466F877A64E2893E54F23C4B40388995
310
525E5005DA3983ED45412510D3EFCA13737B3863F74BD30F2A12E5B4B5E489A025CE25500DB855B11ACE5BBFA185D35DD48D8DC3CE7DC69F2944DB42AA6F6CF09BCA622ADD08C7A36E7C6AE18000BAB08E040135C2D21C9D75B3A91B77BB746C403F38018DFE6EC939DD92F16B40BC05294B9CDA035AAD6D330AE27FE4786B
310
8E45145EA34A75BE1C263A676A35A8ACC6297337400BF16C54EF515F3F77CB77EB3583889C754FFA29081AA98E2222ADEF05DA3E63D2EDEA8B8756C05A7FB6CABC4A91CBF325398202CC952E70A008A830324BA200D5E5EF8F5F04C75DB4B0EE3340E071C98B823333B83577596BF3849B69F2085AA0FAFA212F26BEFF5877
310
FDE622B28D88A42E49E43326DA82D31E8CB006401E1DA726059ECEC168F97A6599036306A135688F9AD2E61A6EA178F4CD51974A9F2CCB9F36FE5EBD14601068D9C3BF01504B0304140006080000B670623B000000000000000000000000350000006662782F42384135303843342D343331462D343546312D424341352D35
310
32343432364645413344462F76657274696365732E62696E504B0304140006080800B670623BF270F1330600000004000000360000006662782F42384135303843342D343331462D343546312D424341352D3532343432364645413344462F747269616E676C65732E62696E636660600000504B0304140006080000B67062
310
3B000000000000000000000000370000006662782F42384135303843342D343331462D343546312D424341352D3532343432364645413344462F617474726962757465732E62696E504B0304140006080800B670623B08DA0BD19000000041010000360000006662782F42384135303843342D343331462D343546312D4243
310
41352D3532343432364645413344462F6469726563746F72792E786D6C858F410AC3201045AF22B36F53E9A60B35CBEEBAE80D244E44489C6234F4F835464A48035D0DF398FF9F8AF63D0E6CC63039F212F8F9020C7D47C6792B21C5FE7403D62A1188E2E60C98D7234A5830286103A55745067B9D86B8A3CF9C7F90C11DE6
310
07FB144396D7B6A82D282E9A152AD114D5EF2CB866EEE831B8EEA07A7BB5A8D7D61A2BAAEB7FD5F70921FF497D00504B0304140006080800B670623B3B4606F3FE000000A00100003B0000006662782F42384135303843342D343331462D343546312D424341352D3532343432364645413344462F7265736F75726365732F
310
636F72652E786D6C8D504B6E833010BD0A9A6D65B08134808CA354A427E8052C332156828DFCA97AFC9A40A576D7CDCCE87D344F8F9FBEE647F689CE6B6B7A6039850C8DB2A336530F315C4903D94970676DF82583CCC8197B5861107C72362E3BA4AC096842428D1D7107A5F71820538F74F4E0D50D6799CB1892C2DFF345
310
AABB9C306779A2934E701F5C0A906D4FD609C2A1B7D129F4BCD858C163D4E3AED163FAA9AF1A1D88F67CA98E6D35906AA82A52BFB39ABCD5CD915C86331BD86BD3B665CD8BD52C78D0F34F46E550061C419494B6843142CB0F5677F4D0D58717DA7494F26295FF31C565FCA7296A13AA728FBBD93C0896823C09C18BB5AFB4
310
9E65A6BD762BBE01504B010214000A0000080000B670623B3DEE336E79000000790000001B00000000000000000000000000000000006175746F6465736B2D64657369676E2D7061636B6167652E786D6C504B01021400140006080800B670623BD486FD9CA0000000F40000001300000000000000000000000000B2000000
310
5B436F6E74656E745F54797065735D2E786D6C504B01021400140006080800B670623B28ED286BEB0000007C010000080000000000000000000000000083010000636F72652E786D6C504B01021400140006080800B670623B55019EA25F0000007C000000070000000000000000000000000094020000636E782E786D6C50
310
4B01021400140006080800B670623B7BC41AC871010000D40300000C00000000000000000000000000180300006662782F636F72652E786D6C504B01021400140006080800B670623B70102A487D0000009D0000000B00000000000000000000000000B30400006662782F636E782E786D6C504B01021400140006080800B6
310
70623B3610CA3329010000120200003100000000000000000000000000590500006662782F42384135303843342D343331462D343546312D424341352D3532343432364645413344462F636F72652E786D6C504B01021400140006080800B670623B1B8617914E010000330300003000000000000000000000000000D10600
310
006662782F42384135303843342D343331462D343546312D424341352D3532343432364645413344462F636E782E786D6C504B01021400140006080800B670623BBFEF2E3B690500003C10000034000000000000000000000000006D0800006662782F42384135303843342D343331462D343546312D424341352D35323434
310
32364645413344462F6F626A656374732E786D6C504B01021400140006080000B670623B0000000000000000000000003500000000000000000000000000280E00006662782F42384135303843342D343331462D343546312D424341352D3532343432364645413344462F76657274696365732E62696E504B010214001400
310
06080800B670623BF270F133060000000400000036000000000000000000000000007B0E00006662782F42384135303843342D343331462D343546312D424341352D3532343432364645413344462F747269616E676C65732E62696E504B01021400140006080000B670623B00000000000000000000000037000000000000
310
00000000000000D50E00006662782F42384135303843342D343331462D343546312D424341352D3532343432364645413344462F617474726962757465732E62696E504B01021400140006080800B670623B08DA0BD1900000004101000036000000000000000000000000002A0F00006662782F42384135303843342D3433
310
31462D343546312D424341352D3532343432364645413344462F6469726563746F72792E786D6C504B01021400140006080800B670623B3B4606F3FE000000A00100003B000000000000000000000000000E1000006662782F42384135303843342D343331462D343546312D424341352D3532343432364645413344462F72
310
65736F75726365732F636F72652E786D6C504B0506000000000E000E0080040000651100000000
  0
XRECORD
  5
187
102
{ACAD_REACTORS
330
186
102
}
330
186
100
AcDbXrecord
280
     1
 70
     1
 90
429727718
  1
887D55A9-D0DD-414E-B741-A7DCD4DA2B4C
310
504B03040A0000080000B670623B3DEE336E79000000790000001B0000006175746F6465736B2D64657369676E2D7061636B6167652E786D6C3C3F786D6C2076657273696F6E3D22312E302220656E636F64696E673D227574662D3822203F3E3C666F726D6174733E3C666F726D61743E687474703A2F2F736368656D612E
310
6175746F6465736B2E636F6D2F64657369676E2D7061636B6167652F323030393C2F666F726D61743E3C2F666F726D6174733E504B0304140006080800B670623BD486FD9CA0000000F4000000130000005B436F6E74656E745F54797065735D2E786D6C7D8EC10E82300C865F65E91D8A1E8C310C0EEA1BF002731658846E
310
D98AC1B77784ABF1D8FE5FBFBF75BBCE937A534CCEB38643598122B6FEE978D0B0485F9C41B54DDD7D022595594E1A469170414C76A4D9A4D207E29CF43ECE46F218070CC6BECC4078ACAA135ACF422C856C0E68EA1BF5669944DDD7BCDE7B1F8E415D77AECB980613C2E4AC91FC167A2B244592486606FC29C8FD7F045B9A
310
EF7053A7E60B504B0304140006080800B670623BBC1638F5EC0000007C01000008000000636F72652E786D6C8D90416EC3201045AF82665B61836BE2D8C24471DB9CA01740401C94182C03558F5F9C3852BBEB6A467FFE9B197D7EF89E6EE8CB2CC17AD7032D0820E394D7D68D3DA478C67B4007C117EFE32F1B202727D3C3
310
2A83E0E3E2D3BC49CABB685CCCAAF3DA6CA20CC14440EA969B1E82BA98491632C5EC08D76296EA2A4753D06797E194AC468F2356E77DF66CCD02825543D50CACC62D39ED70FDC68EB8FD68F6F8787A6784342D1DDA1D2F5758F068A7E77DB518198D065111D2624A31A93E69DD11D6D5EC85EC3B4278B9DAFF4069D6FF8492
310
75F1B5DADE7D600104CD8FDC0782976B16B9DC83CA75CD4DFC00504B0304140006080800B670623B55019EA25F0000007C00000007000000636E782E786D6C4DCB3B0E80201045D1AD90E915ED2CF8AC45050C11660C8261F98AB1B07AC9C97D42D718D865D3E909258CFD00CCE24AC6E326A164D74DC0B4128928FF326038
310
472BA13128B1252AC747C6BAB984FC68F0B87FE8960A5C09FE86CFB69FBA01504B0304140006080800B670623B3586FFB671010000D40300000C0000006662782F636F72652E786D6CC553ED6E8320147D15C2DF4541A76D6D90A6DDD627D80B50A4CE54C120983EFEAE1F4DD7A55BBA5FF3879273EEE59E7310B6393735EA
310
95ED2AA3731C851423A5A5292A5DE6D8BB63B0C268C39935C67D29C3488B46E578803167A535BE9D2169B453DA01AA4DA16650749D7218C91A1639EEE4876A4428BC838AEE14B6429E44A9C228041AEA38EB9C0501681A32BC313F1ECE8C4C3867DE57C5CC56054CAB8E95B298A7F12E5EEED224C8E87E11242FE936C8DE96
310
AB60BB7F4D295D66D12E5B30323473E6AAE6A24E5A259C2A308F29CD82280A68FC1E256B9AAE93F489AED694323294DF34F9B678B0C957DA3DC7B3DCA9ADC33C022123F1CD2D44E450277AD04338234388F01913BE0D1A0281909D38D4171F27807A259DB1093085F157AA17B557309586747CD0CF0B46A64E983A6E0EAEEF
310
CE881F9EF1FB8E70D44297604238581EBC1B74B249C31C5AAB6CD0BB33D2C636A27ECCC62F0EFF445DC5DF95244D6DEC7F2922F30191F9F720C37DE49F504B0304140006080800B670623B4220A0FF7D0000009D0000000B0000006662782F636E782E786D6C4DCCD10A83201886E15B91FFDCE542CB0335D0EC3E6259C84A
310
C3E9D8E5AF46073BFAE0E1E315DD675BD1DBA5978F41C2FD4600B9F088930F8B849267CC01754AA418F3DF0D50183727E164506249B1EC174D6E1ECB9A0F5D7D785E68DB8151CD286E5A5363CA6B8A39E90D36D40E96B086F55A43A544F52B1D7B86D517504B0304140006080800B670623B2FA3FEDE290100001202000031
310
0000006662782F45374635344235342D363743322D343832342D383044432D4334454645303536354442422F636F72652E786D6C8D515B6EC32010BC0AE22B55850D2E386E848994D7097A0117488A1283C5A3CAF10BB523B57FF961D1ECCCECC0F2ED7DBC816FED8371B687A4C210682B9D32F6D2C314CFA883602BB8772E
310
FEA141608751F7B0C050F08B77695A20E96CD43666D43AA5177008414708E42D5F7A18E4971E876A483133C2B59A06791D2EBA22556E679EE021FA1C00CC43CA09C5717D6274C7286AD7FB06D1AEA1A8C3873DDAD3E3E98859CB0EBB1DAF67A1E02919B5C88DCA71CCD968FFAC49110B1ECDF8882FBD1EA256503418BF2342
310
106E3E08DD60B6A1EC15771B8C795DE8FF4469524F8A92B1F1AD59E2CEB20005E1F5DC105CB9F4797B84D1F7C9F908CABC55D0F2050A5C61CC1AD2F27A26E6E767C7962E8E213A9FBF7775FDCC5CC266DB960A5E970DE5F2BBBE5CCB36C50F504B0304140006080800B670623B1B8617914E01000033030000300000006662
310
782F45374635344235342D363743322D343832342D383044432D4334454645303536354442422F636E782E786D6CD593C16EC32010447F0571AD6CE3D489D20813A9877E410FBD62D82434182CC055F3F75D1292E692438FBD206B7698593D61BEFD1E2DF982108D773D6D6B460938E5B571FB9ECE6957AD29D90A1EBC4F77
310
364A9C1CA1A759A682EF839FA72269D8C9D92654AD71C72206887E0E0A22CAF926B15E498B01E0AA19451807D01A34B919F16B070157417138917400F2F6FA41FCF0092A45DEE414C19BDC21783E4BD39D891265658C3D8DEA00A3ACE59CBC8678ACB54CB26EEB6BD7839D7E9348BE70AD9C8321B9BCA7F9A4A26C542347DE
310
E050F09802D22BA6749A800A394DD62899107273365E3C82CFC6A55557BC06C10774B7ABE7AEC3B0F34CF06446280E154026D0542C187BA9DAB6628BF7B6DBB0E5A65B3EB1F58631DE64BBE083F7B65CC218087E22CABB042E51D1F2268F1FE12B3EA24D40D63E9CFE00120194D60B9D5BC67FE6D39CDF37E20AF817881F50
310
4B0304140006080800B670623B29652116630500003C100000340000006662782F45374635344235342D363743322D343832342D383044432D4334454645303536354442422F6F626A656374732E786D6CAD575D739B3814FD2B0CFB0C989834C90EA1639B24E3E9A6EDD4D3CE3E64C623834CD8006224913AFDF57B040203
310
B65BEF871F0C12D2FD3CF7E8CA7FBFCB33E3957291B2E2D674ED8969D02262715A24B76625B7D6B569BC0F7CCE98EC2D338D82E4F4D654D366E0279C55A59E8AE99654991CCDDECFFF3444440B6A1A514684B83545F44C7362934AB2988A173B2692D8C97667BB76B3702836E1A47C1E092D09A78584A5982F20C5688C7287
310
C389E904BEA3BE07BEFAD7ABA6A75739B53F43FD69212429A20365233153D70BEF2E2E6FAC4BCF9B5ADEBB0BD79ADFCF43CBBD9A4E16EF168B9BD9DD0D140BC921495BC2E9D60C1E101B9E46BED37CEA2CD6861F3329624541A3DA7F7858DBAC25C6B4A4458C3CA654405BCFEBC970E8AAD8F43E4FD558ABEC4F9FE7557F47
310
4F506B7BFBEC5BCA367FC105710E2AB8A00A554D7CB4A30DFE26FBA86D18CBF4B75418399194A72433B274C3097F33032C554B027F2046A1932B842B0FCCC0DDCBEBDB8AD2F835768F59B9ADB24C41D30C6A64AF817F2A456D59FA83F2E3DA60137255A585BCD60EC9B7929AC18DEFD49381AF1ED30BFDB109A4B1CD488294
310
C3CDE6EBC8D185AABD6568061FEE37BB95AAC7E3CA4BCE4ACAA5820FA0D526AE7DAA2869B5EE5999531BE0CC20E6FBA07C41E43FA27CF7A6206F3CDD793B4F6B919C1462CB788EDCD893FA674CDA17AB7B3B7C019F8D561FAEE966FED562DFE98C1D12C6A9FC015C2A35D7FF3D7FC398F591DA4B5FE0BFA2C0189FEA50AE22
310
92817A1ED3020951A03432862970F976B33383259812CC8E5D240BBA801CBCF8CE2BBEE3BF910DB6AAD5F79E05123AE2DB33981FB1ACCB02B69D00CB014FD68AB573A7627EF9BFD4CC2C5C7D58557C4B22FAA88925A4DBB44825CECE3D78FB060D1231F0E885BE7D673C86A3874958F593906B5502D1563157814FDAC3420D
310
F69A070A22EC4B98E23CFF171A1E5311D12C23056555ABA53B8614563B92D17D02AAB009E8F46284624E5F53D5490C560CCCC2591FF1B45421EB0EBD8EA7ED13BE7C5D7E0428CD60FEF60779EB13E6664FF711CB185F6FDED60D139A001FF60CD1FD6D086F1D51474901E26B2CB794A343BC8ED3EDB612E0DD2351FCB65CF4
310
33D511C9E14B5B40ADC6A6263DB0336A8F700DDF56271A024E70B0B3629DE21847591E55DED73D56206AB927E46FAABC5C939C55853C274C93D69FD6FA4E78BF8B11DF898C9ECD60553FAD39283BA6F18984AA23E8884F83F45C5F5F859797B31B2B9C84A1E5B9DE9D35BFF25C6B76152E422F9C5DCC3D847F5801ED09D5AF
310
41441327A25FF15487F9EB725FB666F048A4701E9A827292E6F97569A32DF61DEC01C0BB8DCBBCCC684E0B49147C1FD54BF685A0AB18C868E6973949E819523E3DAC463660E68C7D9F55A9D1EFA3BD7A76A16AE1A810F95CE59B82A4D968A376DC2E8B44BBDD86B27B368CDE0ED548C7137DA860591A83706223A12CA712B4
310
7306DBF39C0A20A6DF95C7FAF670C6EED7A61F946493D1D6926782963813403548A78AE470DEF80D2D9CEAA26E4D1C76F60BFE74219A06527D6B82DF641A51616F703CAAC6A7160E08A00BEB4810A0274592A1B36E3675E36E978A0DE80727A0D6DF2D39A75BD27E0D8837276589537B40ABB56D5A41F48F1C6FCD3188C4EB
310
A6929D2FFB89CE995A4D00AE813BDD032DC48B56BD437DFDDC2DD7AED70C2272D63DE9A72068A45A92F0A4BE17A8A06B9366E16707AD80B1FC649459952097E74BB23805982B55E0401150A165964402AA8BDF9F3E7386BB686EDCA780C0D382E5392BF460A6EFB2C6EA1937D3F809B440D5F5435C4C5CF7A9EEFAF54564BD
310
2182DA24162F98680B4E7930C21A0079709CEAEB99A372305ABE0C0D7D6078105A83F6A0296DAEE1068A47DD1C55A9F4C9B2FC69E3EFD44B81028E963DF81B504B0304140006080000B670623B000000000000000000000000350000006662782F45374635344235342D363743322D343832342D383044432D433445464530
310
3536354442422F76657274696365732E62696E504B0304140006080800B670623BF270F1330600000004000000360000006662782F45374635344235342D363743322D343832342D383044432D4334454645303536354442422F747269616E676C65732E62696E636660600000504B0304140006080000B670623B00000000
310
0000000000000000370000006662782F45374635344235342D363743322D343832342D383044432D4334454645303536354442422F617474726962757465732E62696E504B0304140006080800B670623B08DA0BD19000000041010000360000006662782F45374635344235342D363743322D343832342D383044432D4334
310
454645303536354442422F6469726563746F72792E786D6C858F410AC3201045AF22B36F53E9A60B35CBEEBAE80D244E44489C6234F4F835464A48035D0DF398FF9F8AF63D0E6CC63039F212F8F9020C7D47C6792B21C5FE7403D62A1188E2E60C98D7234A5830286103A55745067B9D86B8A3CF9C7F90C11DE607FB144396
310
D7B6A82D282E9A152AD114D5EF2CB866EEE831B8EEA07A7BB5A8D7D61A2BAAEB7FD5F70921FF497D00504B0304140006080800B670623B6378F24DFF000000A00100003B0000006662782F45374635344235342D363743322D343832342D383044432D4334454645303536354442422F7265736F75726365732F636F72652E
310
786D6C8D504B6E833010BD0A9A6D65B0094E42641C85B639412F6099496225D8C89FAAC7AF09546A77DDCC8CDE47F3F4C4F16B7C149FE88371B603565228D06A37187BED20C50BD9437194C23B177FC9A0B06AC40E6618A4B87A97A615D2CE46B431A3D60DB8822A048C50E8473E3A08FA86A32A558A5911EEE5A4F45D5DB1
310
6465A6B34E8A107D0E502C4FE609D26370C96B0CA25A58295232C3AA3143FE692E063D485EF7F5AEE71BD2D2F39634AFFC44DAF7DD9E9CCE6F9CD25DCBFA762BAAD92C4534E34F46ED51451C40D694B6843142EB0FD61C283F34FC85EE0F948A6A96FF31A569F8A729191B37F51A77B105902C0779125254735F793DCBCC7B
310
EE567E03504B010214000A0000080000B670623B3DEE336E79000000790000001B00000000000000000000000000000000006175746F6465736B2D64657369676E2D7061636B6167652E786D6C504B01021400140006080800B670623BD486FD9CA0000000F40000001300000000000000000000000000B20000005B436F6E
310
74656E745F54797065735D2E786D6C504B01021400140006080800B670623BBC1638F5EC0000007C010000080000000000000000000000000083010000636F72652E786D6C504B01021400140006080800B670623B55019EA25F0000007C000000070000000000000000000000000095020000636E782E786D6C504B010214
310
00140006080800B670623B3586FFB671010000D40300000C00000000000000000000000000190300006662782F636F72652E786D6C504B01021400140006080800B670623B4220A0FF7D0000009D0000000B00000000000000000000000000B40400006662782F636E782E786D6C504B01021400140006080800B670623B2F
310
A3FEDE290100001202000031000000000000000000000000005A0500006662782F45374635344235342D363743322D343832342D383044432D4334454645303536354442422F636F72652E786D6C504B01021400140006080800B670623B1B8617914E010000330300003000000000000000000000000000D2060000666278
310
2F45374635344235342D363743322D343832342D383044432D4334454645303536354442422F636E782E786D6C504B01021400140006080800B670623B29652116630500003C10000034000000000000000000000000006E0800006662782F45374635344235342D363743322D343832342D383044432D4334454645303536
310
354442422F6F626A656374732E786D6C504B01021400140006080000B670623B0000000000000000000000003500000000000000000000000000230E00006662782F45374635344235342D363743322D343832342D383044432D4334454645303536354442422F76657274696365732E62696E504B01021400140006080800
310
B670623BF270F13306000000040000003600000000000000000000000000760E00006662782F45374635344235342D363743322D343832342D383044432D4334454645303536354442422F747269616E676C65732E62696E504B01021400140006080000B670623B0000000000000000000000003700000000000000000000
310
000000D00E00006662782F45374635344235342D363743322D343832342D383044432D4334454645303536354442422F617474726962757465732E62696E504B01021400140006080800B670623B08DA0BD190000000410100003600000000000000000000000000250F00006662782F45374635344235342D363743322D34
310
3832342D383044432D4334454645303536354442422F6469726563746F72792E786D6C504B01021400140006080800B670623B6378F24DFF000000A00100003B00000000000000000000000000091000006662782F45374635344235342D363743322D343832342D383044432D4334454645303536354442422F7265736F75
310
726365732F636F72652E786D6C504B0506000000000E000E0080040000611100000000
  0
XRECORD
  5
112
102
{ACAD_REACTORS
330
110
102
}
330
110
100
AcDbXrecord
280
     1
270
     1
271
     1
  0
XRECORD
  5
111
102
{ACAD_REACTORS
330
110
102
}
330
110
100
AcDbXrecord
280
     1
270
     1
271
     1
  0
XRECORD
  5
18A
102
{ACAD_REACTORS
330
110
102
}
330
110
100
AcDbXrecord
280
     1
 70
     0
 90
1778669749
  1
9BF507EE-FAF7-4A99-A33D-4EE51894BC40
310
504B03040A0000080000B670623B3DEE336E79000000790000001B0000006175746F6465736B2D64657369676E2D7061636B6167652E786D6C3C3F786D6C2076657273696F6E3D22312E302220656E636F64696E673D227574662D3822203F3E3C666F726D6174733E3C666F726D61743E687474703A2F2F736368656D612E
310
6175746F6465736B2E636F6D2F64657369676E2D7061636B6167652F323030393C2F666F726D61743E3C2F666F726D6174733E504B0304140006080800B670623BD486FD9CA0000000F4000000130000005B436F6E74656E745F54797065735D2E786D6C7D8EC10E82300C865F65E91D8A1E8C310C0EEA1BF002731658846E
310
D98AC1B77784ABF1D8FE5FBFBF75BBCE937A534CCEB38643598122B6FEE978D0B0485F9C41B54DDD7D022595594E1A469170414C76A4D9A4D207E29CF43ECE46F218070CC6BECC4078ACAA135ACF422C856C0E68EA1BF5669944DDD7BCDE7B1F8E415D77AECB980613C2E4AC91FC167A2B244592486606FC29C8FD7F045B9A
310
EF7053A7E60B504B0304140006080800B670623BCA089DFFEC0000007C01000008000000636F72652E786D6C8D90416E83301045AF62CDB632D8402020E32882F604BD80653BC44AB011B6AB1EBF262152BBEB6A467FFE9B197D76FA9EEFE84BAFDE38DB03CD08206DA553C64E3DC470C1474027CE56E7C22F1B202B66DDC3
310
260367D3EAE2B24BD2D9A06D48AA754AEFA2F05E0740F29E9A1EBCBCEA59642286E4F0B76C11F226269DD15797E0188D42CF2346A57DE662F40ABCAEC77628C6120F654571D50C04B7F5B9C1E3997CD4F550BE3745C3F20DE62C98F9755FAE5A04AD801784B498524C8A4F5A75E4D055873772EC0861F966FF03C545FD138A
310
C686B2D8DF7D621E384D8F3C069CE55B16A93C824A75CB8DFF00504B0304140006080800B670623B55019EA25F0000007C00000007000000636E782E786D6C4DCB3B0E80201045D1AD90E915ED2CF8AC45050C11660C8261F98AB1B07AC9C97D42D718D865D3E909258CFD00CCE24AC6E326A164D74DC0B4128928FF326038
310
472BA13128B1252AC747C6BAB984FC68F0B87FE8960A5C09FE86CFB69FBA01504B0304140006080800B670623B68FC0B7272010000D40300000C0000006662782F636F72652E786D6CC5535B6E833010BC8AE5DF0A6C1E8124328E22D29EA01770C0A128602363A31CBFCB234A53A555FA553EC09AD9F5CE8C31DB5DDA060D
310
D2F4B556190E7C8A9154852E6B5565D8D993B7C668C799D1DA7E29C3488956667884316795D1AE5BA0422B2B950554E9522EA0E87B69312A1A5864B82F3E642B7CE12C54F467BF13C55954D20F7CA0A18EB3DE1A1080E621E31BF3D3F1C2C88C73E65C5D2E6C5DC2B4FA544B8379921C36797888BC3C8A032F4E73EA6D927D
310
EA1DF6F42D49F2E8350D5346C666CE6CDD5ED515460A2B4BCC434A375E1078347C0FE22D5D6DE3D50B5D6F2965642CBF6B725DF96493AB958DC245EEDCD6631E809089F8E61622B2A81703E8219C913144F84C09DF070D8140C8561C9BAB8F3340832CAC363130A576376A108D933095FA747AD0CF0B46E64E983A6D0EAE1F
310
CE089F9EF1FB8E70D44255604258581E9D1D75B259C3125A278D37D80B52DAB4A279CEC62F0EFF44DDC43F9454E8469BFF5244960322CBEF41C6FBC83F01504B0304140006080800B670623B0F71DDB67E0000009D0000000B0000006662782F636E782E786D6C4DCCD10A83201886E15B91FFDCA54DB73F502386BB8F5816
310
32D3703976F9ABD1C18E3E78F87855FB990379BBFCF2296AE02706C4C5471A7C9C349475A408A4352AA7B4FEDD80C47E761A7606A3A69CCA72D0E0C6BE8475D3E0E3F3409428EA6B27A84079A782899AA2EC1A7AE3ECCC2FD858CB2D544655BFD2B67BD87C01504B0304140006080800B670623BE134B4FB28010000120200
310
00310000006662782F38353834323741342D343835462D343034322D383541392D4331303331363839454531452F636F72652E786D6C8D515B6EC32010BC0AE22B55850D0EA424C24451959EA0172086A42831583CAA1CBF503B52FB971F16CDCECC0EACD8DFC71BF836215AEF7A481A0C817183D7D65D7A98D3197108F652
310
04EFD31F1A044E8DA6871586525C82CFD3020DDE25E352419DD76601558C264130DCCAA58771F832A36A544E8511AFCDA486ABBA988634A55D7852C4144A00300FA927949C71DABD1D28A29C7D208A6987383B6CD13BC16BB2E1DBE3911C453B0BA5C8D9EA456E758963CFD684674DAA588A64C747FC2118958C86B2C3788B
310
0841B8FB247487D98EB257CC77188BB6D2FF89F2A49F1465EBD2BA5BE2CEB2082511EDDC9042FB7CBA3DC298FBE4430275DE2A9AE1054ADC60CC08E3A29D89E5F9C5714317C7987C28DFBBBA9E0A97B0D97643A568EB864AF95D5FA9759BF207504B0304140006080800B670623B1B8617914E010000330300003000000066
310
62782F38353834323741342D343835462D343034322D383541392D4331303331363839454531452F636E782E786D6CD593C16EC32010447F0571AD6CE3D489D20813A9877E410FBD62D82434182CC055F3F75D1292E692438FBD206B7698593D61BEFD1E2DF982108D773D6D6B460938E5B571FB9ECE6957AD29D90A1EBC4F
310
77364A9C1CA1A759A682EF839FA72269D8C9D92654AD71C72206887E0E0A22CAF926B15E498B01E0AA19451807D01A34B919F16B070157417138917400F2F6FA41FCF0092A45DEE414C19BDC21783E4BD39D891265658C3D8DEA00A3ACE59CBC8678ACB54CB26EEB6BD7839D7E9348BE70AD9C8321B9BCA7F9A4A26C542347
310
DEE050F09802D22BA6749A800A394DD62899107273365E3C82CFC6A55557BC06C10774B7ABE7AEC3B0F34CF06446280E154026D0542C187BA9DAB6628BF7B6DBB0E5A65B3EB1F58631DE64BBE083F7B65CC218087E22CABB042E51D1F2268F1FE12B3EA24D40D63E9CFE00120194D60B9D5BC67FE6D39CDF37E20AF817881F
310
504B0304140006080800B670623B5933D422630500003B100000340000006662782F38353834323741342D343835462D343034322D383541392D4331303331363839454531452F6F626A656374732E786D6CAD575B6FA33814FE2B887D0642934E9B156594264D158D3A534DD4D13E548A0C38942D60649B4EBABF7E3F8321
310
40924EF6928780CDF1B97EE762EFF32E4B8D37CA45C2F21BD3B547A641F39045491EDF98A5DC5AD7A6F1D9F73863B243661A39C9E88DA9B64DDF8B392B0BBD15D12D295339D85DDEFE618890E6D434C2940871638AF08566C426A5641115AF764424B1E3EDCE76ED9AB0CF36E6A47819302D08A7B984A6D8CFC1C5A89572FB
310
CB91E9F89EA3BEFB9EFAD754E3D3544E654F5F7E920B49F2F040D880CDD89D2CEE2E2EA7D6E56432B6269F2E5CEB7679BBB0DCABF168FE693E9FCEEEA6102C240727AD09A75BD3BF876F78127A4EFDA9D5582B7E4CA590E5390D2BFB6161A5B3E618D182E611E2985001691DAB47FDA5AB7CD3F93C566B2DB2BB7D9E55DD13
310
1D468DEECDB3AB290BFE8409E21C54704115AA6AFF68436BFC8DF65E0B184BF5B74418199194272435D224E084BF9B3E481589EFF5D828747285706581E9BB7B7E5D5D911ABFC6EE312DB7659A2A689A7E85EC0DF04FA5A8344BFEA2FCB834E8845895492EAFB541F2BDA0A63FF59C6AD3F7D4637CA13FD68E34B629891172
310
98597F1D183A57B9B75A98FE9765B05BAB7C3C2EBCE0ACA05C2AF8005A4DE09AA7F29216EB9E15397500C6F47CBE77CA7778FE2BD277AF0AE2C693DD6437D1522427B9D8329E2136F6A8FA19A3E6C56ADF0E5F50CF06D48734EDCEBF22F69C56D97EC138153F804B85E6FABFC7AFEFB32E523BE1F3BD372418E363EDCA7548
310
52949E8724474014288D94610BB57C1BEC4C7F854A89CA8E5324F55B871CBC78CE1BBEE3BFE68D6A5589EF3C730474506FCFA8FCF0659516D0ED04580EEA6425581B77CAE797FF4BCECC16EB2FEB926F49481F746159D06D922712BD730FDEAE42BD40F42C7AA5EF3F198F60E86110D6DD20645A9480B795CF95E3E3A659A8
310
C55E724F408873315335CFFB8584874484344D494E59D94869DB90C26A5B64F49C802CAC1D3ABE18A098D3B7444D123D8A9E5AE8F5214F0AE5B2B6E9B575DA3E61CBD3EA2B4009FA940524DD1305FB6A1FB294F14DF0BEA90BA109ECE1481FDC3FFAE8D60E75141700BE82725371B4873751B2DD960265F788137FACE6DD40
310
B575E4F0A5C99F46629D92131467A41EE11ABD8D4CCC039CA0AFB37C93A08B232B8F0AEFCA1E0A1015DF13FC83322B362463652ECF71D3A8B1A7D1BE65DE1D62C44F22C317D35F574FEB16153BA2D13E543D10A80E74C4A65E78A6B7CBCBD1D5DD9DB59C2DAFACC96C3AB566E3F1C29ADCDD5DBAD7D3C9ED7C822ED74F80A6
310
41755310DE4443F44A9E68373FADF6596BFA0F440AE7BECE2727AE9F4F2B1B53B1E7E00CF0DD1E5C65454A339A4BA2D0FBA05ED2EF0443458F47BDBFCA484CCFE0F2ED7E3DD0013B679C7B5499467F0ECEEADDB9CA85A34CE44B99053949D2C1416DB85DE4B136BB7165FBAC0B7AB3542BED4F8CA182A549847A1319316519
310
95A83A67147B9E5101C47487F2485F1ECE38FD568F839204296D3479219888530154036E6528FBFBC66F98E0D4107563A2D7D9AFF8D389681A08F58D89F22693900A3B407754734FC51C10C010D6D640809EE4718AC1BA3ED4AEDB53CA37283F68805A7E4B72CEB0A4EDEAD5DD8C14059A76AFAA56BA6901E13F32BC51C720
310
12AF41295B5BF61BAD3195181FB506E6B40F4C10AF5AF40EF9F5B159AE5DD1F43C72D635E94310D45C2D49785C5D0B94D3B54AB3C5A38349C0587D338AB48C11CBF339599C02CCA54A70A008A8D03C0B2201D5F9EFCF8F9CE12A9A19CB0410789EB32C63B95ECCF455D658BFE0621A3DA32C5075FB101723D77DAE867E7D0F
310
D90444509B44E2151B4DC2290B065803200FBAA9BE9D392A0603F2D5C2D00D6302A615680F66D2FA166E2079D4C551A54AB758161FCEFD4E450A14704CECFEDF504B0304140006080000B670623B000000000000000000000000350000006662782F38353834323741342D343835462D343034322D383541392D4331303331
310
363839454531452F76657274696365732E62696E504B0304140006080800B670623BF270F1330600000004000000360000006662782F38353834323741342D343835462D343034322D383541392D4331303331363839454531452F747269616E676C65732E62696E636660600000504B0304140006080000B670623B000000
310
000000000000000000370000006662782F38353834323741342D343835462D343034322D383541392D4331303331363839454531452F617474726962757465732E62696E504B0304140006080800B670623B08DA0BD19000000041010000360000006662782F38353834323741342D343835462D343034322D383541392D43
310
31303331363839454531452F6469726563746F72792E786D6C858F410AC3201045AF22B36F53E9A60B35CBEEBAE80D244E44489C6234F4F835464A48035D0DF398FF9F8AF63D0E6CC63039F212F8F9020C7D47C6792B21C5FE7403D62A1188E2E60C98D7234A5830286103A55745067B9D86B8A3CF9C7F90C11DE607FB1443
310
96D7B6A82D282E9A152AD114D5EF2CB866EEE831B8EEA07A7BB5A8D7D61A2BAAEB7FD5F70921FF497D00504B0304140006080800B670623BD9A3B367FE000000A00100003B0000006662782F38353834323741342D343835462D343034322D383541392D4331303331363839454531452F7265736F75726365732F636F7265
310
2E786D6C8D504B6E833010BD0A9A6D65B01D0201194711694FD00B586642AD043BF2A7EAF16B122AB5BB6E6646EFA3797AE2F8B5DC8A4FF4C1383B002B291468B59B8C9D0748F1420E501CA5F0CEC55F3228AC5A708015062966EFD27D83B4B3116DCCA875136EA00A012314FA968F0182FEC045952AC5AC08D7F2AEF455CD
310
58B232D3592745883E07289E4FD609D26370C96B0CA27AB252A464A64D63A6FCD35C0C7A904D73EE467EE664DCD58CD4ED4849D79C5A723ED1B7A61977AF2D6F45B59AA58866F9C9A83DAA8813484E6947182394BFB3BAA7FBBEDEBFD0434FA9A856F91F53BA4FFF342563E38E6F719FB60092E5200F428A6AED2BAF479979
310
AFDDCA6F504B010214000A0000080000B670623B3DEE336E79000000790000001B00000000000000000000000000000000006175746F6465736B2D64657369676E2D7061636B6167652E786D6C504B01021400140006080800B670623BD486FD9CA0000000F40000001300000000000000000000000000B20000005B436F6E
310
74656E745F54797065735D2E786D6C504B01021400140006080800B670623BCA089DFFEC0000007C010000080000000000000000000000000083010000636F72652E786D6C504B01021400140006080800B670623B55019EA25F0000007C000000070000000000000000000000000095020000636E782E786D6C504B010214
310
00140006080800B670623B68FC0B7272010000D40300000C00000000000000000000000000190300006662782F636F72652E786D6C504B01021400140006080800B670623B0F71DDB67E0000009D0000000B00000000000000000000000000B50400006662782F636E782E786D6C504B01021400140006080800B670623BE1
310
34B4FB280100001202000031000000000000000000000000005C0500006662782F38353834323741342D343835462D343034322D383541392D4331303331363839454531452F636F72652E786D6C504B01021400140006080800B670623B1B8617914E010000330300003000000000000000000000000000D3060000666278
310
2F38353834323741342D343835462D343034322D383541392D4331303331363839454531452F636E782E786D6C504B01021400140006080800B670623B5933D422630500003B10000034000000000000000000000000006F0800006662782F38353834323741342D343835462D343034322D383541392D4331303331363839
310
454531452F6F626A656374732E786D6C504B01021400140006080000B670623B0000000000000000000000003500000000000000000000000000240E00006662782F38353834323741342D343835462D343034322D383541392D4331303331363839454531452F76657274696365732E62696E504B01021400140006080800
310
B670623BF270F13306000000040000003600000000000000000000000000770E00006662782F38353834323741342D343835462D343034322D383541392D4331303331363839454531452F747269616E676C65732E62696E504B01021400140006080000B670623B0000000000000000000000003700000000000000000000
310
000000D10E00006662782F38353834323741342D343835462D343034322D383541392D4331303331363839454531452F617474726962757465732E62696E504B01021400140006080800B670623B08DA0BD190000000410100003600000000000000000000000000260F00006662782F38353834323741342D343835462D34
310
3034322D383541392D4331303331363839454531452F6469726563746F72792E786D6C504B01021400140006080800B670623BD9A3B367FE000000A00100003B000000000000000000000000000A1000006662782F38353834323741342D343835462D343034322D383541392D4331303331363839454531452F7265736F75
310
726365732F636F72652E786D6C504B0506000000000E000E0080040000611100000000
  0
XRECORD
  5
113
102
{ACAD_REACTORS
330
110
102
}
330
110
100
AcDbXrecord
280
     1
270
     1
271
     1
  0
XRECORD
  5
114
102
{ACAD_REACTORS
330
110
102
}
330
110
100
AcDbXrecord
280
     1
270
     1
271
     1
  0
XRECORD
  5
B8A
102
{ACAD_REACTORS
330
1C4
102
}
330
1C4
100
AcDbXrecord
280
     1
102
DISPLAYNAME
  1
Imperial24
102
FLAGS
 90
        0
  0
XRECORD
  5
B8C
102
{ACAD_REACTORS
330
346
102
}
330
346
100
AcDbXrecord
280
     1
102
DISPLAYNAME
  1
Metric50
102
FLAGS
 90
        0
  0
CELLSTYLEMAP
  5
B89
102
{ACAD_REACTORS
330
104
102
}
330
104
100
AcDbCellStyleMap
 90
        3
300
CELLSTYLE
  1
TABLEFORMAT_BEGIN
 90
        5
170
     1
 91
        0
 92
    32768
 62
   257
 93
        1
300
CONTENTFORMAT
  1
CONTENTFORMAT_BEGIN
 90
        0
 91
        0
 92
      512
 93
        0
300

 40
0.0
140
1.0
 94
        5
 62
     0
340
11
144
0.25
309
CONTENTFORMAT_END
171
     1
301
MARGIN
  1
CELLMARGIN_BEGIN
 40
0.06
 40
0.06
 40
0.06
 40
0.06
 40
0.18
 40
0.18
309
CELLMARGIN_END
 94
        6
 95
        1
302
GRIDFORMAT
  1
GRIDFORMAT_BEGIN
 90
        0
 91
        1
 62
     0
 92
       -2
340
0
 93
        0
 40
0.045
309
GRIDFORMAT_END
 95
        2
302
GRIDFORMAT
  1
GRIDFORMAT_BEGIN
 90
        0
 91
        1
 62
     0
 92
       -2
340
0
 93
        0
 40
0.045
309
GRIDFORMAT_END
 95
        4
302
GRIDFORMAT
  1
GRIDFORMAT_BEGIN
 90
        0
 91
        1
 62
     0
 92
       -2
340
0
 93
        0
 40
0.045
309
GRIDFORMAT_END
 95
        8
302
GRIDFORMAT
  1
GRIDFORMAT_BEGIN
 90
        0
 91
        1
 62
     0
 92
       -2
340
0
 93
        0
 40
0.045
309
GRIDFORMAT_END
 95
       16
302
GRIDFORMAT
  1
GRIDFORMAT_BEGIN
 90
        0
 91
        1
 62
     0
 92
       -2
340
0
 93
        0
 40
0.045
309
GRIDFORMAT_END
 95
       32
302
GRIDFORMAT
  1
GRIDFORMAT_BEGIN
 90
        0
 91
        1
 62
     0
 92
       -2
340
0
 93
        0
 40
0.045
309
GRIDFORMAT_END
309
TABLEFORMAT_END
  1
CELLSTYLE_BEGIN
 90
        1
 91
        1
300
_TITLE
309
CELLSTYLE_END
300
CELLSTYLE
  1
TABLEFORMAT_BEGIN
 90
        5
170
     1
 91
        0
 92
        0
 62
   257
 93
        1
300
CONTENTFORMAT
  1
CONTENTFORMAT_BEGIN
 90
        0
 91
        0
 92
      512
 93
        0
300

 40
0.0
140
1.0
 94
        5
 62
     0
340
11
144
0.18
309
CONTENTFORMAT_END
171
     1
301
MARGIN
  1
CELLMARGIN_BEGIN
 40
0.06
 40
0.06
 40
0.06
 40
0.06
 40
0.18
 40
0.18
309
CELLMARGIN_END
 94
        6
 95
        1
302
GRIDFORMAT
  1
GRIDFORMAT_BEGIN
 90
        0
 91
        1
 62
     0
 92
       -2
340
0
 93
        0
 40
0.045
309
GRIDFORMAT_END
 95
        2
302
GRIDFORMAT
  1
GRIDFORMAT_BEGIN
 90
        0
 91
        1
 62
     0
 92
       -2
340
0
 93
        0
 40
0.045
309
GRIDFORMAT_END
 95
        4
302
GRIDFORMAT
  1
GRIDFORMAT_BEGIN
 90
        0
 91
        1
 62
     0
 92
       -2
340
0
 93
        0
 40
0.045
309
GRIDFORMAT_END
 95
        8
302
GRIDFORMAT
  1
GRIDFORMAT_BEGIN
 90
        0
 91
        1
 62
     0
 92
       -2
340
0
 93
        0
 40
0.045
309
GRIDFORMAT_END
 95
       16
302
GRIDFORMAT
  1
GRIDFORMAT_BEGIN
 90
        0
 91
        1
 62
     0
 92
       -2
340
0
 93
        0
 40
0.045
309
GRIDFORMAT_END
 95
       32
302
GRIDFORMAT
  1
GRIDFORMAT_BEGIN
 90
        0
 91
        1
 62
     0
 92
       -2
340
0
 93
        0
 40
0.045
309
GRIDFORMAT_END
309
TABLEFORMAT_END
  1
CELLSTYLE_BEGIN
 90
        2
 91
        1
300
_HEADER
309
CELLSTYLE_END
300
CELLSTYLE
  1
TABLEFORMAT_BEGIN
 90
        5
170
     1
 91
        0
 92
        0
 62
   257
 93
        1
300
CONTENTFORMAT
  1
CONTENTFORMAT_BEGIN
 90
        0
 91
        0
 92
      512
 93
        0
300

 40
0.0
140
1.0
 94
        2
 62
     0
340
11
144
0.18
309
CONTENTFORMAT_END
171
     1
301
MARGIN
  1
CELLMARGIN_BEGIN
 40
0.06
 40
0.06
 40
0.06
 40
0.06
 40
0.18
 40
0.18
309
CELLMARGIN_END
 94
        6
 95
        1
302
GRIDFORMAT
  1
GRIDFORMAT_BEGIN
 90
        0
 91
        1
 62
     0
 92
       -2
340
0
 93
        0
 40
0.045
309
GRIDFORMAT_END
 95
        2
302
GRIDFORMAT
  1
GRIDFORMAT_BEGIN
 90
        0
 91
        1
 62
     0
 92
       -2
340
0
 93
        0
 40
0.045
309
GRIDFORMAT_END
 95
        4
302
GRIDFORMAT
  1
GRIDFORMAT_BEGIN
 90
        0
 91
        1
 62
     0
 92
       -2
340
0
 93
        0
 40
0.045
309
GRIDFORMAT_END
 95
        8
302
GRIDFORMAT
  1
GRIDFORMAT_BEGIN
 90
        0
 91
        1
 62
     0
 92
       -2
340
0
 93
        0
 40
0.045
309
GRIDFORMAT_END
 95
       16
302
GRIDFORMAT
  1
GRIDFORMAT_BEGIN
 90
        0
 91
        1
 62
     0
 92
       -2
340
0
 93
        0
 40
0.045
309
GRIDFORMAT_END
 95
       32
302
GRIDFORMAT
  1
GRIDFORMAT_BEGIN
 90
        0
 91
        1
 62
     0
 92
       -2
340
0
 93
        0
 40
0.045
309
GRIDFORMAT_END
309
TABLEFORMAT_END
  1
CELLSTYLE_BEGIN
 90
        3
 91
        2
300
_DATA
309
CELLSTYLE_END
  0
ENDSEC
  0
SECTION
  2
ACDSDATA
 70
     2
 71
     8
  0
ACDSSCHEMA
 90
        0
  1
AcDb_Thumbnail_Schema
  2
AcDbDs::ID
280
    10
 91
        8
  2
Thumbnail_Data
280
    15
 91
        0
101
ACDSRECORD
 95
        0
 90
        1
  2
AcDbDs::TreatedAsObjectData
280
     1
291
     1
101
ACDSRECORD
 95
        0
 90
        2
  2
AcDbDs::Legacy
280
     1
291
     1
101
ACDSRECORD
  1
AcDbDs::ID
 90
        3
  2
AcDs:Indexable
280
     1
291
     1
101
ACDSRECORD
  1
AcDbDs::ID
 90
        4
  2
AcDbDs::HandleAttribute
280
     7
282
     1
  0
ACDSSCHEMA
 90
        1
  1
AcDbDs::TreatedAsObjectDataSchema
  2
AcDbDs::TreatedAsObjectData
280
     1
 91
        0
  0
ACDSSCHEMA
 90
        2
  1
AcDbDs::LegacySchema
  2
AcDbDs::Legacy
280
     1
 91
        0
  0
ACDSSCHEMA
 90
        3
  1
AcDbDs::IndexedPropertySchema
  2
AcDs:Indexable
280
     1
 91
        0
  0
ACDSSCHEMA
 90
        4
  1
AcDbDs::HandleAttributeSchema
  2
AcDbDs::HandleAttribute
280
     7
 91
        1
284
     1
  0
ACDSRECORD
 90
        0
  2
AcDbDs::ID
280
    10
320
22
  2
Thumbnail_Data
280
    15
 94
     1846
310
89504E470D0A1A0A0000000D4948445200000100000000680803000000297CDED700000300504C5445212830000000C8C8C80000000000000000000000000000000000000000000000000000330000660000990000CC0000FF0033000033330033660033990033CC0033FF0066000066330066660066990066CC0066FF0099
310
000099330099660099990099CC0099FF00CC0000CC3300CC6600CC9900CCCC00CCFF00FF0000FF3300FF6600FF9900FFCC00FFFF3300003300333300663300993300CC3300FF3333003333333333663333993333CC3333FF3366003366333366663366993366CC3366FF3399003399333399663399993399CC3399FF33CC00
310
33CC3333CC6633CC9933CCCC33CCFF33FF0033FF3333FF6633FF9933FFCC33FFFF6600006600336600666600996600CC6600FF6633006633336633666633996633CC6633FF6666006666336666666666996666CC6666FF6699006699336699666699996699CC6699FF66CC0066CC3366CC6666CC9966CCCC66CCFF66FF0066
310
FF3366FF6666FF9966FFCC66FFFF9900009900339900669900999900CC9900FF9933009933339933669933999933CC9933FF9966009966339966669966999966CC9966FF9999009999339999669999999999CC9999FF99CC0099CC3399CC6699CC9999CCCC99CCFF99FF0099FF3399FF6699FF9999FFCC99FFFFCC0000CC00
310
33CC0066CC0099CC00CCCC00FFCC3300CC3333CC3366CC3399CC33CCCC33FFCC6600CC6633CC6666CC6699CC66CCCC66FFCC9900CC9933CC9966CC9999CC99CCCC99FFCCCC00CCCC33CCCC66CCCC99CCCCCCCCCCFFCCFF00CCFF33CCFF66CCFF99CCFFCCCCFFFFFF0000FF0033FF0066FF0099FF00CCFF00FFFF3300FF3333
310
FF3366FF3399FF33CCFF33FFFF6600FF6633FF6666FF6699FF66CCFF66FFFF9900FF9933FF9966FF9999FF99CCFF99FFFFCC00FFCC33FFCC66FFCC99FFCCCCFFCCFFFFFF00FFFF33FFFF66FFFF99FFFFCCFFFFFF0000000D0D0D1A1A1A2828283535354343435050505D5D5D6B6B6B787878868686939393A1A1A1AEAEAEBB
310
BBBBC9C9C9D6D6D6E4E4E4F1F1F1FFFFFF000000000000000000000000000000000000000000000000000000000000B21171F6000002554944415478DAED9AC16E04310843F9FFFFF5BDDA761230C9F658758D5FB5D54ED54B180236498431C618638C31C618638C31C67C1648E8694E00E81BCE3F0F58FFEB75FF7C907198
310
9203AFA53E3F6BEDCF13E665C0CF9AD177C39412F0EB8303A0DC05B91FE6C3940C407EC37EC29C2E7064C0D6436332E07BD5CFAFC06A837332607F4AFF47D91A2E822E82CE000BA1510118E805C80C0D74834B02D80D52E11B33149B3E12F350F46FC289F210FC5DBBA22C9F55BD05AAFAECA5474D5500BBA962771A0AC063
310
41A5020092182B03321ADD7F08E500AABFC265EE706400528508660022672DB9E8A23245B74029764FD6E379D7ABF0EB164132D7B70CE02D5F2B80441C78771F35A04F1D62CD61A1B2135A069C5D808F61CB3456A4165E1B5C8E5A81B804604FE11502F0B606EC748F53102B6D01AE01EC05768870CE23648A60CB808B19EA
310
FFB5E7AF12DE88553E6F8138B221F21C26DBC4A767C01683885E04DBAA4B98026530A99401DC06AF01580791BB4188D9612A76F700C41A1BA805A04BE1B70158AF1E0A07B220ED4B66A859C07D1B01E5F54B68E1BAB620B1DB7A5F11C0AA01E00DD18C72B1CCD42D3F7D0714E1435DA0E9DF7A2527F7884400F6D9621B8A92
310
032ADE90B4A25606A0E98066018B461492C2B76034B35F6722AC1335A4705A5C96FFC71CACD680103992CF6B767CD3EE9884369F5C02A19401E0B1EF6D5C88AA042532808D11AACB3D0D00B2508A0821EA02D4FDE26A01434D0A83EF180171DF02A510082BC1B2E85E044B47D05282ED8244F079D8F5218F05C2F7528C31C6
310
18638C31C618638C31C618638CF9AF7C0152CDC0A032677DDB0000000049454E44AE426082F4EF0B9C6284DEE425DB3B43A739C13769804D15632CFE614BE0F37601CC240000000000000000000000000000000000000000000000C05FF005D0FABA78DC39E2390000000049454E44AE4260829800701221763F0025E40A3C
310
A0208ACE00C00C01C50310899A9910681245574A82F91CA0D034B449620311C824419507A8BB001F2CCB039A34C12900184C30C703C2FADF2D8A4EDB059C7A4090E35C00802E390C3E51740A136CA9053C00386F89D15000BACE06EBAA418F2A4C8B0360EB01E4D003ACC223278A2E1602B622848744D1D50018AE09AE9D04
310
EB01289C0E2F04404EEECC02903918418328FA3811F217F0FDD7B5167CEFEE83AF026E7BA1CD1344A6C69B7D4BECAB10C4B719D80B70BC18FA3800F9DBE2A3CBE1F1002CA6076C00A68440F2DA9CCC0104FA2A00962012A548FA7300CC1344D608818982C82249709E20B2DC2E305A0F98448468194164092A3C531059A218
310
DAB66DDBB66DDBB66DDBF6A4FD037D21D51C5350A9760000000049454E44AE426082ABED3DF2CB19679C71C61993C71FE4FBD7FB76EDC4120000000049454E44AE426082
  0
ENDSEC
  0
EOF
