  0
SECTION
  2
HEADER
  9
$ACADVER
  1
AC1018
  9
$ACADMAINTVER
 70
     0
  9
$DWGCODEPAGE
  3
ASCII
  9
$INSBASE
 10
0.0
 20
0.0
 30
0.0
  9
$EXTMIN
 10
1.000000000000000E+20
 20
1.000000000000000E+20
 30
1.000000000000000E+20
  9
$EXTMAX
 10
-1.000000000000000E+20
 20
-1.000000000000000E+20
 30
-1.000000000000000E+20
  9
$LIMMIN
 10
0.0
 20
0.0
  9
$LIMMAX
 10
12.0
 20
9.0
  9
$ORTHOMODE
 70
     0
  9
$REGENMODE
 70
     1
  9
$FILLMODE
 70
     1
  9
$QTEXTMODE
 70
     0
  9
$MIRRTEXT
 70
     1
  9
$LTSCALE
 40
1.0
  9
$ATTMODE
 70
     1
  9
$TEXTSIZE
 40
0.2
  9
$TRACEWID
 40
0.05
  9
$TEXTSTYLE
  7
Standard
  9
$CLAYER
  8
0
  9
$CELTYPE
  6
ByLayer
  9
$CECOLOR
 62
   256
  9
$CELTSCALE
 40
1.0
  9
$DISPSILH
 70
     0
  9
$DIMSCALE
 40
1.0
  9
$DIMASZ
 40
0.18
  9
$DIMEXO
 40
0.0625
  9
$DIMDLI
 40
0.38
  9
$DIMRND
 40
0.0
  9
$DIMDLE
 40
0.0
  9
$DIMEXE
 40
0.18
  9
$DIMTP
 40
0.0
  9
$DIMTM
 40
0.0
  9
$DIMTXT
 40
0.18
  9
$DIMCEN
 40
0.09
  9
$DIMTSZ
 40
0.0
  9
$DIMTOL
 70
     0
  9
$DIMLIM
 70
     0
  9
$DIMTIH
 70
     1
  9
$DIMTOH
 70
     1
  9
$DIMSE1
 70
     0
  9
$DIMSE2
 70
     0
  9
$DIMTAD
 70
     0
  9
$DIMZIN
 70
     0
  9
$DIMBLK
  1

  9
$DIMASO
 70
     1
  9
$DIMSHO
 70
     1
  9
$DIMPOST
  1

  9
$DIMAPOST
  1

  9
$DIMALT
 70
     0
  9
$DIMALTD
 70
     2
  9
$DIMALTF
 40
25.4
  9
$DIMLFAC
 40
1.0
  9
$DIMTOFL
 70
     0
  9
$DIMTVP
 40
0.0
  9
$DIMTIX
 70
     0
  9
$DIMSOXD
 70
     0
  9
$DIMSAH
 70
     0
  9
$DIMBLK1
  1

  9
$DIMBLK2
  1

  9
$DIMSTYLE
  2
Standard
  9
$DIMCLRD
 70
     0
  9
$DIMCLRE
 70
     0
  9
$DIMCLRT
 70
     0
  9
$DIMTFAC
 40
1.0
  9
$DIMGAP
 40
0.09
  9
$DIMJUST
 70
     0
  9
$DIMSD1
 70
     0
  9
$DIMSD2
 70
     0
  9
$DIMTOLJ
 70
     1
  9
$DIMTZIN
 70
     0
  9
$DIMALTZ
 70
     0
  9
$DIMALTTZ
 70
     0
  9
$DIMUPT
 70
     0
  9
$DIMDEC
 70
     4
  9
$DIMTDEC
 70
     4
  9
$DIMALTU
 70
     2
  9
$DIMALTTD
 70
     2
  9
$DIMTXSTY
  7
Standard
  9
$DIMAUNIT
 70
     0
  9
$DIMADEC
 70
     0
  9
$DIMALTRND
 40
0.0
  9
$DIMAZIN
 70
     0
  9
$DIMDSEP
 70
    46
  9
$DIMATFIT
 70
     3
  9
$DIMFRAC
 70
     0
  9
$DIMLDRBLK
  1

  9
$DIMLUNIT
 70
     2
  9
$DIMLWD
 70
    -2
  9
$DIMLWE
 70
    -2
  9
$DIMTMOVE
 70
     0
  9
$LUNITS
 70
     2
  9
$LUPREC
 70
     4
  9
$SKETCHINC
 40
0.1
  9
$FILLETRAD
 40
0.5
  9
$AUNITS
 70
     0
  9
$AUPREC
 70
     0
  9
$MENU
  1
.
  9
$ELEVATION
 40
0.0
  9
$PELEVATION
 40
0.0
  9
$THICKNESS
 40
0.0
  9
$LIMCHECK
 70
     0
  9
$CHAMFERA
 40
0.5
  9
$CHAMFERB
 40
0.5
  9
$CHAMFERC
 40
1.0
  9
$CHAMFERD
 40
0.0
  9
$SKPOLY
 70
     0
  9
$TDCREATE
 40
2457853.536967593
  9
$TDUCREATE
 40
2457853.786967593
  9
$TDUPDATE
 40
2457853.536967604
  9
$TDUUPDATE
 40
2457853.786967604
  9
$TDINDWG
 40
0.0000000116
  9
$TDUSRTIMER
 40
0.0000000116
  9
$USRTIMER
 70
     1
  9
$ANGBASE
 50
0.0
  9
$ANGDIR
 70
     0
  9
$PDMODE
 70
     0
  9
$PDSIZE
 40
0.0
  9
$PLINEWID
 40
0.0
  9
$SPLFRAME
 70
     0
  9
$SPLINETYPE
 70
     6
  9
$SPLINESEGS
 70
     8
  9
$HANDSEED
  5
84
  9
$SURFTAB1
 70
     6
  9
$SURFTAB2
 70
     6
  9
$SURFTYPE
 70
     6
  9
$SURFU
 70
     6
  9
$SURFV
 70
     6
  9
$UCSBASE
  2

  9
$UCSNAME
  2

  9
$UCSORG
 10
0.0
 20
0.0
 30
0.0
  9
$UCSXDIR
 10
1.0
 20
0.0
 30
0.0
  9
$UCSYDIR
 10
0.0
 20
1.0
 30
0.0
  9
$UCSORTHOREF
  2

  9
$UCSORTHOVIEW
 70
     0
  9
$UCSORGTOP
 10
0.0
 20
0.0
 30
0.0
  9
$UCSORGBOTTOM
 10
0.0
 20
0.0
 30
0.0
  9
$UCSORGLEFT
 10
0.0
 20
0.0
 30
0.0
  9
$UCSORGRIGHT
 10
0.0
 20
0.0
 30
0.0
  9
$UCSORGFRONT
 10
0.0
 20
0.0
 30
0.0
  9
$UCSORGBACK
 10
0.0
 20
0.0
 30
0.0
  9
$PUCSBASE
  2

  9
$PUCSNAME
  2

  9
$PUCSORG
 10
0.0
 20
0.0
 30
0.0
  9
$PUCSXDIR
 10
1.0
 20
0.0
 30
0.0
  9
$PUCSYDIR
 10
0.0
 20
1.0
 30
0.0
  9
$PUCSORTHOREF
  2

  9
$PUCSORTHOVIEW
 70
     0
  9
$PUCSORGTOP
 10
0.0
 20
0.0
 30
0.0
  9
$PUCSORGBOTTOM
 10
0.0
 20
0.0
 30
0.0
  9
$PUCSORGLEFT
 10
0.0
 20
0.0
 30
0.0
  9
$PUCSORGRIGHT
 10
0.0
 20
0.0
 30
0.0
  9
$PUCSORGFRONT
 10
0.0
 20
0.0
 30
0.0
  9
$PUCSORGBACK
 10
0.0
 20
0.0
 30
0.0
  9
$USERI1
 70
     0
  9
$USERI2
 70
     0
  9
$USERI3
 70
     0
  9
$USERI4
 70
     0
  9
$USERI5
 70
     0
  9
$USERR1
 40
0.0
  9
$USERR2
 40
0.0
  9
$USERR3
 40
0.0
  9
$USERR4
 40
0.0
  9
$USERR5
 40
0.0
  9
$WORLDVIEW
 70
     1
  9
$SHADEDGE
 70
     3
  9
$SHADEDIF
 70
    70
  9
$TILEMODE
 70
     1
  9
$MAXACTVP
 70
    64
  9
$PINSBASE
 10
0.0
 20
0.0
 30
0.0
  9
$PLIMCHECK
 70
     0
  9
$PEXTMIN
 10
1.000000000000000E+20
 20
1.000000000000000E+20
 30
1.000000000000000E+20
  9
$PEXTMAX
 10
-1.000000000000000E+20
 20
-1.000000000000000E+20
 30
-1.000000000000000E+20
  9
$PLIMMIN
 10
0.0
 20
0.0
  9
$PLIMMAX
 10
12.0
 20
9.0
  9
$UNITMODE
 70
     0
  9
$VISRETAIN
 70
     1
  9
$PLINEGEN
 70
     0
  9
$PSLTSCALE
 70
     1
  9
$TREEDEPTH
 70
  3020
  9
$CMLSTYLE
  2
Standard
  9
$CMLJUST
 70
     0
  9
$CMLSCALE
 40
1.0
  9
$PROXYGRAPHICS
 70
     1
  9
$MEASUREMENT
 70
     0
  9
$CELWEIGHT
370
    -1
  9
$ENDCAPS
280
     0
  9
$JOINSTYLE
280
     0
  9
$LWDISPLAY
290
     1
  9
$INSUNITS
 70
     1
  9
$HYPERLINKBASE
  1

  9
$STYLESHEET
  1

  9
$XEDIT
290
     1
  9
$CEPSNTYPE
380
     0
  9
$PSTYLEMODE
290
     1
  9
$FINGERPRINTGUID
  2
{C84413E3-CC2D-F7A9-6FC0-7C72FCF55A3F}
  9
$VERSIONGUID
  2
{FAEB1C32-E019-11D5-929B-00C0DF256EC4}
  9
$EXTNAMES
290
     1
  9
$PSVPSCALE
 40
0.0
  9
$OLESTARTUP
290
     0
  9
$SORTENTS
280
   127
  9
$INDEXCTL
280
     0
  9
$HIDETEXT
280
     1
  9
$XCLIPFRAME
290
     0
  9
$HALOGAP
280
     0
  9
$OBSCOLOR
 70
   257
  9
$OBSLTYPE
280
     0
  9
$INTERSECTIONDISPLAY
280
     0
  9
$INTERSECTIONCOLOR
 70
   257
  9
$DIMASSOC
280
     2
  9
$PROJECTNAME
  1

  0
ENDSEC
  0
SECTION
  2
CLASSES
  0
CLASS
  1
ACDBDICTIONARYWDFLT
  2
AcDbDictionaryWithDefault
  3
ObjectDBX Classes
 90
        0
 91
        3
280
     0
281
     0
  0
CLASS
  1
VISUALSTYLE
  2
AcDbVisualStyle
  3
ObjectDBX Classes
 90
     4095
 91
        3
280
     0
281
     0
  0
ENDSEC
  0
SECTION
  2
TABLES
  0
TABLE
  2
VPORT
  5
8
330
0
100
AcDbSymbolTable
 70
     1
  0
VPORT
  5
29
330
8
100
AcDbSymbolTableRecord
100
AcDbViewportTableRecord
  2
*Active
 70
     0
 10
0.0
 20
0.0
 11
1.0
 21
1.0
 12
0.0
 22
0.0
 13
0.0
 23
0.0
 14
0.5
 24
0.5
 15
0.5
 25
0.5
 16
0.0
 26
0.0
 36
1.0
 17
3.965219357463404
 27
9.11642379063787
 37
0.0
 40
15.56470142616526
 41
0.7328093577855255
 42
50.0
 43
0.0
 44
0.0
 50
0.0
 51
0.0
 71
     0
 72
   100
 73
     1
 74
     3
 75
     0
 76
     0
 77
     0
 78
     0
281
     0
 65
     1
110
0.0
120
0.0
130
0.0
111
1.0
121
0.0
131
0.0
112
0.0
122
1.0
132
0.0
 79
     0
146
0.0
  0
ENDTAB
  0
TABLE
  2
LTYPE
  5
5
330
0
100
AcDbSymbolTable
 70
     1
  0
LTYPE
  5
14
330
5
100
AcDbSymbolTableRecord
100
AcDbLinetypeTableRecord
  2
ByBlock
 70
     0
  3

 72
    65
 73
     0
 40
0.0
  0
LTYPE
  5
15
330
5
100
AcDbSymbolTableRecord
100
AcDbLinetypeTableRecord
  2
ByLayer
 70
     0
  3

 72
    65
 73
     0
 40
0.0
  0
LTYPE
  5
16
330
5
100
AcDbSymbolTableRecord
100
AcDbLinetypeTableRecord
  2
Continuous
 70
     0
  3
Solid line
 72
    65
 73
     0
 40
0.0
  0
ENDTAB
  0
TABLE
  2
LAYER
  5
2
330
0
100
AcDbSymbolTable
 70
     2
  0
LAYER
  5
10
330
2
100
AcDbSymbolTableRecord
100
AcDbLayerTableRecord
  2
0
 70
     0
 62
     7
  6
Continuous
370
    -3
390
F
  0
LAYER
  5
3B
330
2
100
AcDbSymbolTableRecord
100
AcDbLayerTableRecord
  2
Layer 1
 70
     0
 62
     7
  6
Continuous
370
    -3
390
F
  0
ENDTAB
  0
TABLE
  2
STYLE
  5
3
330
0
100
AcDbSymbolTable
 70
     1
  0
STYLE
  5
11
330
3
100
AcDbSymbolTableRecord
100
AcDbTextStyleTableRecord
  2
Standard
 70
     0
 40
0.0
 41
1.0
 50
0.0
 71
     0
 42
0.2
  3
txt
  4

  0
ENDTAB
  0
TABLE
  2
VIEW
  5
6
330
0
100
AcDbSymbolTable
 70
     0
  0
ENDTAB
  0
TABLE
  2
UCS
  5
7
330
0
100
AcDbSymbolTable
 70
     0
  0
ENDTAB
  0
TABLE
  2
APPID
  5
9
330
0
100
AcDbSymbolTable
 70
     1
  0
APPID
  5
12
330
9
100
AcDbSymbolTableRecord
100
AcDbRegAppTableRecord
  2
ACAD
 70
     0
  0
ENDTAB
  0
TABLE
  2
DIMSTYLE
  5
A
330
0
100
AcDbSymbolTable
 70
     1
100
AcDbDimStyleTable
  0
DIMSTYLE
105
27
330
A
100
AcDbSymbolTableRecord
100
AcDbDimStyleTableRecord
  2
Standard
 70
     0
340
11
  0
ENDTAB
  0
TABLE
  2
BLOCK_RECORD
  5
1
330
0
100
AcDbSymbolTable
 70
     2
  0
BLOCK_RECORD
  5
1F
330
1
100
AcDbSymbolTableRecord
100
AcDbBlockTableRecord
  2
*Model_Space
340
22
  0
BLOCK_RECORD
  5
1B
330
1
100
AcDbSymbolTableRecord
100
AcDbBlockTableRecord
  2
*Paper_Space
340
1E
  0
BLOCK_RECORD
  5
23
330
1
100
AcDbSymbolTableRecord
100
AcDbBlockTableRecord
  2
*Paper_Space0
340
26
  0
BLOCK_RECORD
  5
3C
330
1
100
AcDbSymbolTableRecord
100
AcDbBlockTableRecord
  2
block 2
340
0
102
{BLKREFS
331
3D
102
}
  0
ENDTAB
  0
ENDSEC
  0
SECTION
  2
BLOCKS
  0
BLOCK
  5
20
330
1F
100
AcDbEntity
  8
0
100
AcDbBlockBegin
  2
*Model_Space
 70
     0
 71
     0
 10
0.0
 20
0.0
 30
0.0
  3
*Model_Space
  1

  0
ENDBLK
  5
21
330
1F
100
AcDbEntity
  8
0
100
AcDbBlockEnd
  0
BLOCK
  5
1C
330
1B
100
AcDbEntity
 67
     1
  8
0
100
AcDbBlockBegin
  2
*Paper_Space
 70
     0
 71
     0
 10
0.0
 20
0.0
 30
0.0
  3
*Paper_Space
  1

  0
ENDBLK
  5
1D
330
1B
100
AcDbEntity
 67
     1
  8
0
100
AcDbBlockEnd
  0
BLOCK
  5
24
330
23
100
AcDbEntity
  8
0
100
AcDbBlockBegin
  2
*Paper_Space0
 70
     0
 71
     0
 10
0.0
 20
0.0
 30
0.0
  3
*Paper_Space0
  1

  0
ENDBLK
  5
25
330
23
100
AcDbEntity
  8
0
100
AcDbBlockEnd
  0
BLOCK
  5
3E
330
3C
100
AcDbEntity
  8
0
100
AcDbBlockBegin
  2
block 2
 70
     0
 71
     0
 10
0.0
 20
0.0
 30
0.0
  3
block 2
  1

  0
SPLINE
  5
40
330
3C
100
AcDbEntity
  8
Layer 1
 62
     5
420
      255
370
    35
100
AcDbSpline
210
0.0
220
0.0
230
1.0
 70
    11
 71
     3
 72
    26
 73
    22
 74
     0
 42
0.0000000001
 43
0.0000000001
 40
0.0
 40
0.0
 40
0.0
 40
0.0
 40
1.0
 40
1.0
 40
1.0
 40
2.0
 40
2.0
 40
2.0
 40
3.0
 40
3.0
 40
3.0
 40
4.0
 40
4.0
 40
4.0
 40
5.0
 40
5.0
 40
5.0
 40
6.0
 40
6.0
 40
6.0
 40
7.0
 40
7.0
 40
7.0
 40
7.0
 10
9.548576717762813
 20
12.42327343768435
 30
0.0
 10
8.71535134190808
 20
9.269001609353424
 30
0.0
 10
6.730568132012152
 20
1.917603803615675
 30
0.0
 10
6.611346048183478
 20
1.496379567508359
 30
0.0
 10
4.832061563212265
 20
1.492649638833401
 30
0.0
 10
3.098485658730543
 20
1.4927310190954
 30
0.0
 10
1.31914692025133
 20
1.496379567508359
 30
0.0
 10
1.211026460497033
 20
1.956313681573245
 30
0.0
 10
-1.618097312705006
 20
12.41472172848594
 30
0.0
 10
-1.618097312705006
 20
12.41472172848594
 30
0.0
 10
-1.618097312705006
 20
12.41472172848594
 30
0.0
 10
3.374371528595975
 20
16.73923494267535
 30
0.0
 10
3.374371528595975
 20
16.73923494267535
 30
0.0
 10
3.374371528595975
 20
16.73923494267535
 30
0.0
 10
4.547556167263428
 20
16.73923494267535
 30
0.0
 10
4.547556167263428
 20
16.73923494267535
 30
0.0
 10
4.547556167263428
 20
16.73923494267535
 30
0.0
 10
6.337623536949522
 20
15.20866888343887
 30
0.0
 10
7.056645278465526
 20
14.58981946275525
 30
0.0
 10
7.917282239236955
 20
13.84906919128549
 30
0.0
 10
8.742654419808776
 20
13.15320691599673
 30
0.0
 10
9.548576717762813
 20
12.42327343768435
 30
0.0
  0
POLYLINE
  5
41
330
3C
100
AcDbEntity
  8
Layer 1
 62
     5
420
      255
370
    35
100
AcDb2dPolyline
 66
     1
 10
0.0
 20
0.0
 30
0.0
  0
VERTEX
  5
42
330
41
100
AcDbEntity
  8
Layer 1
 62
     5
420
      255
370
    35
100
AcDbVertex
100
AcDb2dVertex
 10
4.470475495773286
 20
15.91715188102599
 30
0.0
  0
VERTEX
  5
43
330
41
100
AcDbEntity
  8
Layer 1
 62
     5
420
      255
370
    35
100
AcDbVertex
100
AcDb2dVertex
 10
3.973804975104309
 20
15.64311063043254
 30
0.0
  0
VERTEX
  5
44
330
41
100
AcDbEntity
  8
Layer 1
 62
     5
420
      255
370
    35
100
AcDbVertex
100
AcDb2dVertex
 10
3.459997127596023
 20
15.90857982676209
 30
0.0
  0
VERTEX
  5
45
330
41
100
AcDbEntity
  8
Layer 1
 62
     5
420
      255
370
    35
100
AcDbVertex
100
AcDb2dVertex
 10
3.956674429953499
 20
16.34532056615723
 30
0.0
  0
VERTEX
  5
46
330
41
100
AcDbEntity
  8
Layer 1
 62
     5
420
      255
370
    35
100
AcDbVertex
100
AcDb2dVertex
 10
4.470475495773286
 20
15.91715188102599
 30
0.0
  0
SEQEND
  5
47
330
41
100
AcDbEntity
  8
Layer 1
370
    35
  0
SPLINE
  5
48
330
3C
100
AcDbEntity
  8
Layer 1
 62
     5
420
      255
370
    35
100
AcDbSpline
210
0.0
220
0.0
230
1.0
 70
    11
 71
     3
 72
    59
 73
    55
 74
     0
 42
0.0000000001
 43
0.0000000001
 40
0.0
 40
0.0
 40
0.0
 40
0.0
 40
1.0
 40
1.0
 40
1.0
 40
2.0
 40
2.0
 40
2.0
 40
3.0
 40
3.0
 40
3.0
 40
4.0
 40
4.0
 40
4.0
 40
5.0
 40
5.0
 40
5.0
 40
6.0
 40
6.0
 40
6.0
 40
7.0
 40
7.0
 40
7.0
 40
8.0
 40
8.0
 40
8.0
 40
9.0
 40
9.0
 40
9.0
 40
10.0
 40
10.0
 40
10.0
 40
11.0
 40
11.0
 40
11.0
 40
12.0
 40
12.0
 40
12.0
 40
13.0
 40
13.0
 40
13.0
 40
14.0
 40
14.0
 40
14.0
 40
15.0
 40
15.0
 40
15.0
 40
16.0
 40
16.0
 40
16.0
 40
17.0
 40
17.0
 40
17.0
 40
18.0
 40
18.0
 40
18.0
 40
18.0
 10
8.546677185537956
 20
12.80863610500406
 30
0.0
 10
8.546677185537956
 20
12.80863610500406
 30
0.0
 10
7.964360720803431
 20
12.81720137757947
 30
0.0
 10
7.964360720803431
 20
12.81720137757947
 30
0.0
 10
7.964360720803431
 20
12.81720137757947
 30
0.0
 10
6.842696569669905
 20
13.82519764776575
 30
0.0
 10
6.405793069750763
 20
14.23015939485025
 30
0.0
 10
6.205055090152996
 20
14.26483416815037
 30
0.0
 10
5.600833771563716
 20
14.39287244702894
 30
0.0
 10
5.600833771563716
 20
14.39287244702894
 30
0.0
 10
5.600833771563716
 20
14.39287244702894
 30
0.0
 10
5.215511794375001
 20
14.07602517862397
 30
0.0
 10
5.215511794375001
 20
14.07602517862397
 30
0.0
 10
5.215511794375001
 20
14.07602517862397
 30
0.0
 10
4.965687953414778
 20
14.3970906572759
 30
0.0
 10
4.838707617942191
 20
14.55556515414213
 30
0.0
 10
4.537546395037539
 20
14.67116581631185
 30
0.0
 10
4.259022448345637
 20
14.80938340962881
 30
0.0
 10
3.965239702528904
 20
14.93236254888644
 30
0.0
 10
3.675648040205125
 20
14.80806098037132
 30
0.0
 10
3.100337059691022
 20
14.55556515414213
 30
0.0
 10
3.100337059691022
 20
14.55556515414213
 30
0.0
 10
3.100337059691022
 20
14.55556515414213
 30
0.0
 10
2.723553228323712
 20
14.07602517862397
 30
0.0
 10
2.723553228323712
 20
14.07602517862397
 30
0.0
 10
2.723553228323712
 20
14.07602517862397
 30
0.0
 10
2.338190561003998
 20
14.39287244702894
 30
0.0
 10
2.338190561003998
 20
14.39287244702894
 30
0.0
 10
2.338190561003998
 20
14.39287244702894
 30
0.0
 10
1.53323126281695
 20
14.23015939485025
 30
0.0
 10
1.53323126281695
 20
14.23015939485025
 30
0.0
 10
1.53323126281695
 20
14.23015939485025
 30
0.0
 10
-0.0252956981047187
 20
12.81720137757947
 30
0.0
 10
-0.0252956981047187
 20
12.81720137757947
 30
0.0
 10
-0.0252956981047187
 20
12.81720137757947
 30
0.0
 10
-0.607612162839243
 20
12.80863610500406
 30
0.0
 10
-0.607612162839243
 20
12.80863610500406
 30
0.0
 10
-0.607612162839243
 20
12.80863610500406
 30
0.0
 10
1.112244385807131
 20
14.27366392657727
 30
0.0
 10
1.927152421023569
 20
14.96660329412256
 30
0.0
 10
2.217069604395345
 20
15.21314479784882
 30
0.0
 10
2.535700456875801
 20
15.4757317765659
 30
0.0
 10
2.80917882732376
 20
15.69449548419647
 30
0.0
 10
3.197728888238439
 20
15.58065806103673
 30
0.0
 10
3.579103922720198
 20
15.45965239313258
 30
0.0
 10
3.956674429953499
 20
15.33483541629147
 30
0.0
 10
4.344607357214685
 20
15.45214506396316
 30
0.0
 10
4.724083518916466
 20
15.57791825888276
 30
0.0
 10
5.112742086847144
 20
15.69449548419647
 30
0.0
 10
5.410715916156829
 20
15.47698638893839
 30
0.0
 10
5.68762582098575
 20
15.22541965403368
 30
0.0
 10
5.977651511373525
 20
14.98373383927337
 30
0.0
 10
6.832646107313017
 20
14.2712089553403
 30
0.0
 10
8.546677185537956
 20
12.80863610500406
 30
0.0
 10
8.546677185537956
 20
12.80863610500406
 30
0.0
  0
SPLINE
  5
49
330
3C
100
AcDbEntity
  8
Layer 1
 62
     5
420
      255
370
    35
100
AcDbSpline
210
0.0
220
0.0
230
1.0
 70
    11
 71
     3
 72
    17
 73
    13
 74
     0
 42
0.0000000001
 43
0.0000000001
 40
0.0
 40
0.0
 40
0.0
 40
0.0
 40
1.0
 40
1.0
 40
1.0
 40
2.0
 40
2.0
 40
2.0
 40
3.0
 40
3.0
 40
3.0
 40
4.0
 40
4.0
 40
4.0
 40
4.0
 10
4.650298748037286
 20
14.33291553900111
 30
0.0
 10
4.438425235922642
 20
14.2079697100785
 30
0.0
 10
4.19128694360839
 20
14.11826831629
 30
0.0
 10
3.973804975104309
 20
13.99893772544532
 30
0.0
 10
3.737673363225435
 20
14.10248732715067
 30
0.0
 10
3.511198875770453
 20
14.21570083496841
 30
0.0
 10
3.280167093643523
 20
14.3243638298027
 30
0.0
 10
3.499954836237579
 20
14.44423695572737
 30
0.0
 10
3.732132723720996
 20
14.55176740858218
 30
0.0
 10
3.956674429953499
 20
14.6668933525569
 30
0.0
 10
4.200252335805291
 20
14.567934953966
 30
0.0
 10
4.411488369200941
 20
14.43664146460746
 30
0.0
 10
4.650298748037286
 20
14.33291553900111
 30
0.0
  0
SPLINE
  5
4A
330
3C
100
AcDbEntity
  8
Layer 1
 62
     5
420
      255
370
    35
100
AcDbSpline
210
0.0
220
0.0
230
1.0
 70
    11
 71
     3
 72
    17
 73
    13
 74
     0
 42
0.0000000001
 43
0.0000000001
 40
0.0
 40
0.0
 40
0.0
 40
0.0
 40
1.0
 40
1.0
 40
1.0
 40
2.0
 40
2.0
 40
2.0
 40
3.0
 40
3.0
 40
3.0
 40
4.0
 40
4.0
 40
4.0
 40
4.0
 10
0.5741377484036152
 20
13.01415517499428
 30
0.0
 10
0.5741377484036152
 20
13.01415517499428
 30
0.0
 10
1.300856706367034
 20
13.69731534772268
 30
0.0
 10
1.627428916080902
 20
13.99893772544532
 30
0.0
 10
1.768691487534331
 20
14.02610516957602
 30
0.0
 10
2.055597601212141
 20
14.09314216039778
 30
0.0
 10
2.064162873787545
 20
14.09314216039778
 30
0.0
 10
1.711793121019964
 20
13.73189517738379
 30
0.0
 10
1.34431376627455
 20
13.38576457803614
 30
0.0
 10
0.9851758883840442
 20
13.03128572014508
 30
0.0
 10
0.8439200986191151
 20
13.0298073120521
 30
0.0
 10
0.5741377484036152
 20
13.01415517499428
 30
0.0
 10
0.5741377484036152
 20
13.01415517499428
 30
0.0
  0
POLYLINE
  5
4B
330
3C
100
AcDbEntity
  8
Layer 1
 62
     5
420
      255
370
    35
100
AcDb2dPolyline
 66
     1
 10
0.0
 20
0.0
 30
0.0
  0
VERTEX
  5
4C
330
4B
100
AcDbEntity
  8
Layer 1
 62
     5
420
      255
370
    35
100
AcDbVertex
100
AcDb2dVertex
 10
5.866309749581763
 20
14.08457688782237
 30
0.0
  0
VERTEX
  5
4D
330
4B
100
AcDbEntity
  8
Layer 1
 62
     5
420
      255
370
    35
100
AcDbVertex
100
AcDb2dVertex
 10
6.294491998090002
 20
13.99893772544532
 30
0.0
  0
VERTEX
  5
4E
330
4B
100
AcDbEntity
  8
Layer 1
 62
     5
420
      255
370
    35
100
AcDbVertex
100
AcDb2dVertex
 10
7.364913710918098
 20
13.01415517499428
 30
0.0
  0
VERTEX
  5
4F
330
4B
100
AcDbEntity
  8
Layer 1
 62
     5
420
      255
370
    35
100
AcDbVertex
100
AcDb2dVertex
 10
6.953875570937669
 20
13.03128572014508
 30
0.0
  0
VERTEX
  5
50
330
4B
100
AcDbEntity
  8
Layer 1
 62
     5
420
      255
370
    35
100
AcDbVertex
100
AcDb2dVertex
 10
5.866309749581763
 20
14.08457688782237
 30
0.0
  0
SEQEND
  5
51
330
4B
100
AcDbEntity
  8
Layer 1
370
    35
  0
POLYLINE
  5
52
330
3C
100
AcDbEntity
  8
Layer 1
 62
     5
420
      255
370
    35
100
AcDb2dPolyline
 66
     1
 10
0.0
 20
0.0
 30
0.0
  0
VERTEX
  5
53
330
52
100
AcDbEntity
  8
Layer 1
 62
     5
420
      255
370
    35
100
AcDbVertex
100
AcDb2dVertex
 10
2.843433135936879
 20
13.69922778387966
 30
0.0
  0
VERTEX
  5
54
330
52
100
AcDbEntity
  8
Layer 1
 62
     5
420
      255
370
    35
100
AcDbVertex
100
AcDb2dVertex
 10
2.680733647135189
 20
12.85145568619259
 30
0.0
  0
VERTEX
  5
55
330
52
100
AcDbEntity
  8
Layer 1
 62
     5
420
      255
370
    35
100
AcDbVertex
100
AcDb2dVertex
 10
1.815824222608807
 20
12.83432514104178
 30
0.0
  0
VERTEX
  5
56
330
52
100
AcDbEntity
  8
Layer 1
 62
     5
420
      255
370
    35
100
AcDbVertex
100
AcDb2dVertex
 10
2.61222502990895
 20
13.89619514467147
 30
0.0
  0
VERTEX
  5
57
330
52
100
AcDbEntity
  8
Layer 1
 62
     5
420
      255
370
    35
100
AcDbVertex
100
AcDb2dVertex
 10
2.843433135936879
 20
13.69922778387966
 30
0.0
  0
SEQEND
  5
58
330
52
100
AcDbEntity
  8
Layer 1
370
    35
  0
SPLINE
  5
59
330
3C
100
AcDbEntity
  8
Layer 1
 62
     5
420
      255
370
    35
100
AcDbSpline
210
0.0
220
0.0
230
1.0
 70
    11
 71
     3
 72
    23
 73
    19
 74
     0
 42
0.0000000001
 43
0.0000000001
 40
0.0
 40
0.0
 40
0.0
 40
0.0
 40
1.0
 40
1.0
 40
1.0
 40
2.0
 40
2.0
 40
2.0
 40
3.0
 40
3.0
 40
3.0
 40
4.0
 40
4.0
 40
4.0
 40
5.0
 40
5.0
 40
5.0
 40
6.0
 40
6.0
 40
6.0
 40
6.0
 10
3.442880145822213
 20
13.89619514467147
 30
0.0
 10
3.611167745947842
 20
13.81044069358992
 30
0.0
 10
3.791601350176835
 20
13.73681190154624
 30
0.0
 10
3.956674429953499
 20
13.64785649349273
 30
0.0
 10
4.134008802538028
 20
13.72742604466234
 30
0.0
 10
4.312150196054047
 20
13.80617501152347
 30
0.0
 10
4.47904755003719
 20
13.89619514467147
 30
0.0
 10
4.561309431541275
 20
13.73582177502525
 30
0.0
 10
4.599748041958848
 20
13.53163869766952
 30
0.0
 10
4.676014910829
 20
13.36524997032387
 30
0.0
 10
4.450008359880513
 20
13.26015414364054
 30
0.0
 10
4.197715984306319
 20
13.18130345145192
 30
0.0
 10
3.956674429953499
 20
13.09122906479592
 30
0.0
 10
3.728504520373537
 20
13.18562338702637
 30
0.0
 10
3.485733635453236
 20
13.26538960716248
 30
0.0
 10
3.254478057605808
 20
13.35669826112547
 30
0.0
 10
3.321399759723064
 20
13.53239824678151
 30
0.0
 10
3.376907880094947
 20
13.71951181418293
 30
0.0
 10
3.442880145822213
 20
13.89619514467147
 30
0.0
  0
POLYLINE
  5
5A
330
3C
100
AcDbEntity
  8
Layer 1
 62
     5
420
      255
370
    35
100
AcDb2dPolyline
 66
     1
 10
0.0
 20
0.0
 30
0.0
  0
VERTEX
  5
5B
330
5A
100
AcDbEntity
  8
Layer 1
 62
     5
420
      255
370
    35
100
AcDbVertex
100
AcDb2dVertex
 10
6.123213673335906
 20
12.83432514104178
 30
0.0
  0
VERTEX
  5
5C
330
5A
100
AcDbEntity
  8
Layer 1
 62
     5
420
      255
370
    35
100
AcDbVertex
100
AcDb2dVertex
 10
5.24974575792262
 20
12.85145568619259
 30
0.0
  0
VERTEX
  5
5D
330
5A
100
AcDbEntity
  8
Layer 1
 62
     5
420
      255
370
    35
100
AcDbVertex
100
AcDb2dVertex
 10
5.087053050809429
 20
13.69066251130425
 30
0.0
  0
VERTEX
  5
5E
330
5A
100
AcDbEntity
  8
Layer 1
 62
     5
420
      255
370
    35
100
AcDbVertex
100
AcDb2dVertex
 10
5.309695884261953
 20
13.89619514467147
 30
0.0
  0
VERTEX
  5
5F
330
5A
100
AcDbEntity
  8
Layer 1
 62
     5
420
      255
370
    35
100
AcDbVertex
100
AcDb2dVertex
 10
6.123213673335906
 20
12.83432514104178
 30
0.0
  0
SEQEND
  5
60
330
5A
100
AcDbEntity
  8
Layer 1
370
    35
  0
SPLINE
  5
61
330
3C
100
AcDbEntity
  8
Layer 1
 62
     5
420
      255
370
    35
100
AcDbSpline
210
0.0
220
0.0
230
1.0
 70
    11
 71
     3
 72
    17
 73
    13
 74
     0
 42
0.0000000001
 43
0.0000000001
 40
0.0
 40
0.0
 40
0.0
 40
0.0
 40
1.0
 40
1.0
 40
1.0
 40
2.0
 40
2.0
 40
2.0
 40
3.0
 40
3.0
 40
3.0
 40
4.0
 40
4.0
 40
4.0
 40
4.0
 10
3.00613940642707
 20
13.0655400287582
 30
0.0
 10
3.196915085618449
 20
12.98228802073313
 30
0.0
 10
3.56276005343538
 20
12.80007083242866
 30
0.0
 10
3.56276005343538
 20
12.80007083242866
 30
0.0
 10
3.56276005343538
 20
12.80007083242866
 30
0.0
 10
3.263891041243704
 20
12.51389714110884
 30
0.0
 10
3.263891041243704
 20
12.51389714110884
 30
0.0
 10
3.263891041243704
 20
12.51389714110884
 30
0.0
 10
2.949078279388705
 20
12.6250083254916
 30
0.0
 10
2.949078279388705
 20
12.6250083254916
 30
0.0
 10
2.949078279388705
 20
12.6250083254916
 30
0.0
 10
2.978680349690875
 20
12.86750116118341
 30
0.0
 10
3.00613940642707
 20
13.0655400287582
 30
0.0
  0
POLYLINE
  5
62
330
3C
100
AcDbEntity
  8
Layer 1
 62
     5
420
      255
370
    35
100
AcDb2dPolyline
 66
     1
 10
0.0
 20
0.0
 30
0.0
  0
VERTEX
  5
63
330
62
100
AcDbEntity
  8
Layer 1
 62
     5
420
      255
370
    35
100
AcDbVertex
100
AcDb2dVertex
 10
4.982357343747593
 20
12.634265330294
 30
0.0
  0
VERTEX
  5
64
330
62
100
AcDbEntity
  8
Layer 1
 62
     5
420
      255
370
    35
100
AcDbVertex
100
AcDb2dVertex
 10
4.658314703844197
 20
12.51389714110884
 30
0.0
  0
VERTEX
  5
65
330
62
100
AcDbEntity
  8
Layer 1
 62
     5
420
      255
370
    35
100
AcDbVertex
100
AcDb2dVertex
 10
4.367719351622428
 20
12.80007083242866
 30
0.0
  0
VERTEX
  5
66
330
62
100
AcDbEntity
  8
Layer 1
 62
     5
420
      255
370
    35
100
AcDbVertex
100
AcDb2dVertex
 10
4.907216235168429
 20
13.0655400287582
 30
0.0
  0
VERTEX
  5
67
330
62
100
AcDbEntity
  8
Layer 1
 62
     5
420
      255
370
    35
100
AcDbVertex
100
AcDb2dVertex
 10
4.982357343747593
 20
12.634265330294
 30
0.0
  0
SEQEND
  5
68
330
62
100
AcDbEntity
  8
Layer 1
370
    35
  0
SPLINE
  5
69
330
3C
100
AcDbEntity
  8
Layer 1
 62
     5
420
      255
370
    35
100
AcDbSpline
210
0.0
220
0.0
230
1.0
 70
    11
 71
     3
 72
    17
 73
    13
 74
     0
 42
0.0000000001
 43
0.0000000001
 40
0.0
 40
0.0
 40
0.0
 40
0.0
 40
1.0
 40
1.0
 40
1.0
 40
2.0
 40
2.0
 40
2.0
 40
3.0
 40
3.0
 40
3.0
 40
4.0
 40
4.0
 40
4.0
 40
4.0
 10
4.804473654394571
 20
12.02080057027932
 30
0.0
 10
4.593875099717914
 20
11.95398737517806
 30
0.0
 10
3.965239702528904
 20
11.72964911960056
 30
0.0
 10
3.965239702528904
 20
11.72964911960056
 30
0.0
 10
3.965239702528904
 20
11.72964911960056
 30
0.0
 10
3.134584586615642
 20
12.02080057027932
 30
0.0
 10
3.134584586615642
 20
12.02080057027932
 30
0.0
 10
3.134584586615642
 20
12.02080057027932
 30
0.0
 10
3.965239702528904
 20
12.86000739539099
 30
0.0
 10
3.965239702528904
 20
12.86000739539099
 30
0.0
 10
3.965239702528904
 20
12.86000739539099
 30
0.0
 10
4.700618876706726
 20
12.15256199614436
 30
0.0
 10
4.804473654394571
 20
12.02080057027932
 30
0.0
  0
POLYLINE
  5
6A
330
3C
100
AcDbEntity
  8
Layer 1
 62
     5
420
      255
370
    35
100
AcDb2dPolyline
 66
     1
 10
0.0
 20
0.0
 30
0.0
  0
VERTEX
  5
6B
330
6A
100
AcDbEntity
  8
Layer 1
 62
     5
420
      255
370
    35
100
AcDbVertex
100
AcDb2dVertex
 10
1.464729427279211
 20
12.81720137757947
 30
0.0
  0
VERTEX
  5
6C
330
6A
100
AcDbEntity
  8
Layer 1
 62
     5
420
      255
370
    35
100
AcDbVertex
100
AcDb2dVertex
 10
1.139750914362825
 20
12.37500816063038
 30
0.0
  0
VERTEX
  5
6D
330
6A
100
AcDbEntity
  8
Layer 1
 62
     5
420
      255
370
    35
100
AcDbVertex
100
AcDb2dVertex
 10
1.353401228864449
 20
11.60975564861039
 30
0.0
  0
VERTEX
  5
6E
330
6A
100
AcDbEntity
  8
Layer 1
 62
     5
420
      255
370
    35
100
AcDbVertex
100
AcDb2dVertex
 10
0.2230361713855197
 20
11.96086400731699
 30
0.0
  0
VERTEX
  5
6F
330
6A
100
AcDbEntity
  8
Layer 1
 62
     5
420
      255
370
    35
100
AcDbVertex
100
AcDb2dVertex
 10
0.0378960753375786
 20
12.37500816063038
 30
0.0
  0
VERTEX
  5
70
330
6A
100
AcDbEntity
  8
Layer 1
 62
     5
420
      255
370
    35
100
AcDbVertex
100
AcDb2dVertex
 10
0.3429160789986866
 20
12.75725125124013
 30
0.0
  0
VERTEX
  5
71
330
6A
100
AcDbEntity
  8
Layer 1
 62
     5
420
      255
370
    35
100
AcDbVertex
100
AcDb2dVertex
 10
1.464729427279211
 20
12.81720137757947
 30
0.0
  0
SEQEND
  5
72
330
6A
100
AcDbEntity
  8
Layer 1
370
    35
  0
SPLINE
  5
73
330
3C
100
AcDbEntity
  8
Layer 1
 62
     5
420
      255
370
    35
100
AcDbSpline
210
0.0
220
0.0
230
1.0
 70
    11
 71
     3
 72
    23
 73
    19
 74
     0
 42
0.0000000001
 43
0.0000000001
 40
0.0
 40
0.0
 40
0.0
 40
0.0
 40
1.0
 40
1.0
 40
1.0
 40
2.0
 40
2.0
 40
2.0
 40
3.0
 40
3.0
 40
3.0
 40
4.0
 40
4.0
 40
4.0
 40
5.0
 40
5.0
 40
5.0
 40
6.0
 40
6.0
 40
6.0
 40
6.0
 10
6.465756759467097
 20
12.80863610500406
 30
0.0
 10
6.635122648064214
 20
12.81588573001048
 30
0.0
 10
7.578984490106717
 20
12.75725125124013
 30
0.0
 10
7.578984490106717
 20
12.75725125124013
 30
0.0
 10
7.578984490106717
 20
12.75725125124013
 30
0.0
 10
7.926830856644849
 20
12.37500816063038
 30
0.0
 10
7.926830856644849
 20
12.37500816063038
 30
0.0
 10
7.926830856644849
 20
12.37500816063038
 30
0.0
 10
7.707443233672288
 20
11.96086400731699
 30
0.0
 10
7.707443233672288
 20
11.96086400731699
 30
0.0
 10
7.707443233672288
 20
11.96086400731699
 30
0.0
 10
6.577071394504859
 20
11.60975564861039
 30
0.0
 10
6.577071394504859
 20
11.60975564861039
 30
0.0
 10
6.577071394504859
 20
11.60975564861039
 30
0.0
 10
6.787900526590515
 20
12.37500816063038
 30
0.0
 10
6.787900526590515
 20
12.37500816063038
 30
0.0
 10
6.787900526590515
 20
12.37500816063038
 30
0.0
 10
6.551694316138141
 20
12.70047495511876
 30
0.0
 10
6.465756759467097
 20
12.80863610500406
 30
0.0
  0
SPLINE
  5
74
330
3C
100
AcDbEntity
  8
Layer 1
 62
     5
420
      255
370
    35
100
AcDbSpline
210
0.0
220
0.0
230
1.0
 70
    11
 71
     3
 72
    20
 73
    16
 74
     0
 42
0.0000000001
 43
0.0000000001
 40
0.0
 40
0.0
 40
0.0
 40
0.0
 40
1.0
 40
1.0
 40
1.0
 40
2.0
 40
2.0
 40
2.0
 40
3.0
 40
3.0
 40
3.0
 40
4.0
 40
4.0
 40
4.0
 40
5.0
 40
5.0
 40
5.0
 40
5.0
 10
2.526585867531903
 20
12.09787446008096
 30
0.0
 10
2.709033633245374
 20
9.93559411707651
 30
0.0
 10
2.824898781266585
 20
7.597478154646011
 30
0.0
 10
2.997574133851665
 20
5.367041842217315
 30
0.0
 10
3.003487766223599
 20
5.290659684642665
 30
0.0
 10
3.014704679002475
 20
5.152971063028696
 30
0.0
 10
3.014704679002475
 20
5.152971063028696
 30
0.0
 10
3.014704679002475
 20
5.152971063028696
 30
0.0
 10
2.774924518710641
 20
4.921742611935267
 30
0.0
 10
2.774924518710641
 20
4.921742611935267
 30
0.0
 10
2.774924518710641
 20
4.921742611935267
 30
0.0
 10
2.070103632913479
 20
9.697509378909658
 30
0.0
 10
1.71306807845795
 20
12.08074391493015
 30
0.0
 10
1.986553230594408
 20
12.08414154086862
 30
0.0
 10
2.262968072162834
 20
12.08460947737511
 30
0.0
 10
2.526585867531903
 20
12.09787446008096
 30
0.0
  0
SPLINE
  5
75
330
3C
100
AcDbEntity
  8
Layer 1
 62
     5
420
      255
370
    35
100
AcDbSpline
210
0.0
220
0.0
230
1.0
 70
    11
 71
     3
 72
    20
 73
    16
 74
     0
 42
0.0000000001
 43
0.0000000001
 40
0.0
 40
0.0
 40
0.0
 40
0.0
 40
1.0
 40
1.0
 40
1.0
 40
2.0
 40
2.0
 40
2.0
 40
3.0
 40
3.0
 40
3.0
 40
4.0
 40
4.0
 40
4.0
 40
5.0
 40
5.0
 40
5.0
 40
5.0
 10
5.395335046639
 20
12.09787446008096
 30
0.0
 10
5.661841841309037
 20
12.08464338581761
 30
0.0
 10
5.941681435569925
 20
12.08474511114511
 30
0.0
 10
6.217411326599859
 20
12.08074391493015
 30
0.0
 10
5.860151976423832
 20
9.700689990816123
 30
0.0
 10
5.155561668035667
 20
4.930314666199172
 30
0.0
 10
5.155561668035667
 20
4.930314666199172
 30
0.0
 10
5.155561668035667
 20
4.930314666199172
 30
0.0
 10
4.915774726055334
 20
5.144392227076291
 30
0.0
 10
4.915774726055334
 20
5.144392227076291
 30
0.0
 10
4.915774726055334
 20
5.144392227076291
 30
0.0
 10
5.249271039727625
 20
9.95166671882133
 30
0.0
 10
5.386762992375096
 20
12.07217864235475
 30
0.0
 10
5.386030570017105
 20
12.08433142814662
 30
0.0
 10
5.385338837790112
 20
12.09643674211898
 30
0.0
 10
5.395335046639
 20
12.09787446008096
 30
0.0
  0
SPLINE
  5
76
330
3C
100
AcDbEntity
  8
Layer 1
 62
     5
420
      255
370
    35
100
AcDbSpline
210
0.0
220
0.0
230
1.0
 70
    11
 71
     3
 72
    65
 73
    61
 74
     0
 42
0.0000000001
 43
0.0000000001
 40
0.0
 40
0.0
 40
0.0
 40
0.0
 40
1.0
 40
1.0
 40
1.0
 40
2.0
 40
2.0
 40
2.0
 40
3.0
 40
3.0
 40
3.0
 40
4.0
 40
4.0
 40
4.0
 40
5.0
 40
5.0
 40
5.0
 40
6.0
 40
6.0
 40
6.0
 40
7.0
 40
7.0
 40
7.0
 40
8.0
 40
8.0
 40
8.0
 40
9.0
 40
9.0
 40
9.0
 40
10.0
 40
10.0
 40
10.0
 40
11.0
 40
11.0
 40
11.0
 40
12.0
 40
12.0
 40
12.0
 40
13.0
 40
13.0
 40
13.0
 40
14.0
 40
14.0
 40
14.0
 40
15.0
 40
15.0
 40
15.0
 40
16.0
 40
16.0
 40
16.0
 40
17.0
 40
17.0
 40
17.0
 40
18.0
 40
18.0
 40
18.0
 40
19.0
 40
19.0
 40
19.0
 40
20.0
 40
20.0
 40
20.0
 40
20.0
 10
-0.1794434777080045
 20
12.04648960631704
 30
0.0
 10
0.4067114227174771
 20
9.595512783870792
 30
0.0
 10
0.9927985062579595
 20
7.14437320090055
 30
0.0
 10
1.576050844005473
 20
4.690541287595838
 30
0.0
 10
1.863119718207281
 20
4.586537312760995
 30
0.0
 10
2.44951197773026
 20
4.390817782653172
 30
0.0
 10
2.44951197773026
 20
4.390817782653172
 30
0.0
 10
2.44951197773026
 20
4.390817782653172
 30
0.0
 10
2.783489791286046
 20
4.656293760671219
 30
0.0
 10
2.783489791286046
 20
4.656293760671219
 30
0.0
 10
2.783489791286046
 20
4.656293760671219
 30
0.0
 10
2.893543032262822
 20
3.943497609198146
 30
0.0
 10
2.946189280087737
 20
3.585858484466123
 30
0.0
 10
2.962234755078558
 20
3.476958130534334
 30
0.0
 10
2.997574133851665
 20
3.226198416561123
 30
0.0
 10
2.997574133851665
 20
3.226198416561123
 30
0.0
 10
2.997574133851665
 20
3.226198416561123
 30
0.0
 10
3.722902845672599
 20
2.765504753384246
 30
0.0
 10
3.965239702528904
 20
2.618192915788884
 30
0.0
 10
4.28118500636339
 20
2.82176564117962
 30
0.0
 10
4.613881080792691
 20
3.008546905844543
 30
0.0
 10
4.924319653565239
 20
3.217639925674218
 30
0.0
 10
5.015574054020224
 20
3.680151081369075
 30
0.0
 10
5.146976050394763
 20
4.656293760671219
 30
0.0
 10
5.146976050394763
 20
4.656293760671219
 30
0.0
 10
5.146976050394763
 20
4.656293760671219
 30
0.0
 10
5.396243792897991
 20
4.450550894960507
 30
0.0
 10
5.472402154752143
 20
4.382245728389266
 30
0.0
 10
5.768056646594856
 20
4.480512394753174
 30
0.0
 10
6.053294464901684
 20
4.589209298029965
 30
0.0
 10
6.354428561052335
 20
4.681955669954934
 30
0.0
 10
6.934384998188886
 20
7.141999609925577
 30
0.0
 10
7.524459714567324
 20
9.591952397408331
 30
0.0
 10
8.109922882765813
 20
12.04648960631704
 30
0.0
 10
8.3989313198786
 20
12.03862284765712
 30
0.0
 10
8.692334291139336
 20
12.03518453158766
 30
0.0
 10
8.9833907981791
 20
12.02937262454323
 30
0.0
 10
8.223421221500551
 20
9.161288050909121
 30
0.0
 10
7.44021758002126
 20
6.316471450518257
 30
0.0
 10
6.679827538655716
 20
3.448841250013647
 30
0.0
 10
6.334666720763555
 20
3.351578273547728
 30
0.0
 10
6.015276319171107
 20
3.228544880782096
 30
0.0
 10
5.669369515543953
 20
3.13200076329717
 30
0.0
 10
5.46109029833427
 20
2.75793638901833
 30
0.0
 10
5.290910607117162
 20
2.345813178877913
 30
0.0
 10
5.087053050809429
 20
1.967367833828122
 30
0.0
 10
4.342016752207714
 20
1.967367833828122
 30
0.0
 10
3.597021143736999
 20
1.967367833828122
 30
0.0
 10
2.851998408512284
 20
1.967367833828122
 30
0.0
 10
2.638537981288658
 20
2.33621030796202
 30
0.0
 10
2.46834472669455
 20
2.748319954725437
 30
0.0
 10
2.26968194377776
 20
3.13200076329717
 30
0.0
 10
1.920323260704145
 20
3.225045529516136
 30
0.0
 10
1.600892168980697
 20
3.348092485658767
 30
0.0
 10
1.259210357288997
 20
3.448841250013647
 30
0.0
 10
0.4824561015731348
 20
6.303091179107906
 30
0.0
 10
-0.2879030218872983
 20
9.163329339147598
 30
0.0
 10
-1.052918174809791
 20
12.02937262454323
 30
0.0
 10
-0.7625601816855199
 20
12.03586948212615
 30
0.0
 10
-0.4680721402647948
 20
12.03824985478963
 30
0.0
 10
-0.1794434777080045
 20
12.04648960631704
 30
0.0
  0
SPLINE
  5
77
330
3C
100
AcDbEntity
  8
Layer 1
 62
     5
420
      255
370
    35
100
AcDbSpline
210
0.0
220
0.0
230
1.0
 70
    11
 71
     3
 72
    17
 73
    13
 74
     0
 42
0.0000000001
 43
0.0000000001
 40
0.0
 40
0.0
 40
0.0
 40
0.0
 40
1.0
 40
1.0
 40
1.0
 40
2.0
 40
2.0
 40
2.0
 40
3.0
 40
3.0
 40
3.0
 40
4.0
 40
4.0
 40
4.0
 40
4.0
 10
0.2401599348478293
 20
11.63545146633661
 30
0.0
 10
0.4753692370907136
 20
11.53382108247674
 30
0.0
 10
0.7256677962459301
 20
11.4473070822832
 30
0.0
 10
0.9594868523463299
 20
11.34429323396934
 30
0.0
 10
1.364970789445321
 20
9.177862497602936
 30
0.0
 10
1.794929840340539
 20
7.036049290491255
 30
0.0
 10
2.201173326551522
 20
4.870364539859839
 30
0.0
 10
2.033340099555388
 20
4.925160582939229
 30
0.0
 10
1.859844162661817
 20
4.974341387940682
 30
0.0
 10
1.69593075161864
 20
5.03306402866153
 30
0.0
 10
1.215590536857482
 20
7.238740396377001
 30
0.0
 10
0.7255185990989318
 20
9.43481389317658
 30
0.0
 10
0.2401599348478293
 20
11.63545146633661
 30
0.0
  0
SPLINE
  5
78
330
3C
100
AcDbEntity
  8
Layer 1
 62
     5
420
      255
370
    35
100
AcDbSpline
210
0.0
220
0.0
230
1.0
 70
    11
 71
     3
 72
    17
 73
    13
 74
     0
 42
0.0000000001
 43
0.0000000001
 40
0.0
 40
0.0
 40
0.0
 40
0.0
 40
1.0
 40
1.0
 40
1.0
 40
2.0
 40
2.0
 40
2.0
 40
3.0
 40
3.0
 40
3.0
 40
4.0
 40
4.0
 40
4.0
 40
4.0
 10
7.681754197634574
 20
11.63545146633661
 30
0.0
 10
7.219473619348715
 20
9.448858770059923
 30
0.0
 10
6.708731095042395
 20
7.236237953320528
 30
0.0
 10
6.234541871750668
 20
5.03306402866153
 30
0.0
 10
6.070642024084491
 20
4.974341387940682
 30
0.0
 10
5.89713930550242
 20
4.925160582939229
 30
0.0
 10
5.729292515129287
 20
4.870364539859839
 30
0.0
 10
6.135719106929767
 20
7.035872966590257
 30
0.0
 10
6.565393326907989
 20
9.177950659553435
 30
0.0
 10
6.971006116088478
 20
11.34429323396934
 30
0.0
 10
7.201108806890919
 20
11.44814122996869
 30
0.0
 10
7.454323492101103
 20
11.52891792169129
 30
0.0
 10
7.681754197634574
 20
11.63545146633661
 30
0.0
  0
SPLINE
  5
79
330
3C
100
AcDbEntity
  8
Layer 1
 62
     5
420
      255
370
    35
100
AcDbSpline
210
0.0
220
0.0
230
1.0
 70
    11
 71
     3
 72
    23
 73
    19
 74
     0
 42
0.0000000001
 43
0.0000000001
 40
0.0
 40
0.0
 40
0.0
 40
0.0
 40
1.0
 40
1.0
 40
1.0
 40
2.0
 40
2.0
 40
2.0
 40
3.0
 40
3.0
 40
3.0
 40
4.0
 40
4.0
 40
4.0
 40
5.0
 40
5.0
 40
5.0
 40
6.0
 40
6.0
 40
6.0
 40
6.0
 10
4.890085690017619
 20
11.6268861937612
 30
0.0
 10
4.783830194600801
 20
9.11553199860013
 30
0.0
 10
4.564659585660238
 20
4.099639205220409
 30
0.0
 10
4.564659585660238
 20
4.099639205220409
 30
0.0
 10
4.564659585660238
 20
4.099639205220409
 30
0.0
 10
3.973804975104309
 20
4.502118854313934
 30
0.0
 10
3.973804975104309
 20
4.502118854313934
 30
0.0
 10
3.973804975104309
 20
4.502118854313934
 30
0.0
 10
3.556629407031448
 20
4.20569124998223
 30
0.0
 10
3.36580625602057
 20
4.091094277710504
 30
0.0
 10
3.261680210792728
 20
6.598874523032117
 30
0.0
 10
3.038983123832204
 20
11.62544847579922
 30
0.0
 10
3.048958987615594
 20
11.6268861937612
 30
0.0
 10
3.254776451899805
 20
11.56999460893534
 30
0.0
 10
3.956674429953499
 20
11.34429323396934
 30
0.0
 10
3.956674429953499
 20
11.34429323396934
 30
0.0
 10
3.956674429953499
 20
11.34429323396934
 30
0.0
 10
4.653282690977253
 20
11.56524742698539
 30
0.0
 10
4.890085690017619
 20
11.6268861937612
 30
0.0
  0
POLYLINE
  5
7A
330
3C
100
AcDbEntity
  8
Layer 1
 62
     5
420
      255
370
    35
100
AcDb2dPolyline
 66
     1
 10
0.0
 20
0.0
 30
0.0
  0
VERTEX
  5
7B
330
7A
100
AcDbEntity
  8
Layer 1
 62
     5
420
      255
370
    35
100
AcDbVertex
100
AcDb2dVertex
 10
4.496178095188
 20
3.585858484466123
 30
0.0
  0
VERTEX
  5
7C
330
7A
100
AcDbEntity
  8
Layer 1
 62
     5
420
      255
370
    35
100
AcDbVertex
100
AcDb2dVertex
 10
3.973804975104309
 20
3.209067871410313
 30
0.0
  0
VERTEX
  5
7D
330
7A
100
AcDbEntity
  8
Layer 1
 62
     5
420
      255
370
    35
100
AcDbVertex
100
AcDb2dVertex
 10
3.434308091558309
 20
3.585858484466123
 30
0.0
  0
VERTEX
  5
7E
330
7A
100
AcDbEntity
  8
Layer 1
 62
     5
420
      255
370
    35
100
AcDbVertex
100
AcDb2dVertex
 10
3.956674429953499
 20
3.911257462069504
 30
0.0
  0
VERTEX
  5
7F
330
7A
100
AcDbEntity
  8
Layer 1
 62
     5
420
      255
370
    35
100
AcDbVertex
100
AcDb2dVertex
 10
4.496178095188
 20
3.585858484466123
 30
0.0
  0
SEQEND
  5
80
330
7A
100
AcDbEntity
  8
Layer 1
370
    35
  0
SPLINE
  5
81
330
3C
100
AcDbEntity
  8
Layer 1
 62
     5
420
      255
370
    35
100
AcDbSpline
210
0.0
220
0.0
230
1.0
 70
    11
 71
     3
 72
    17
 73
    13
 74
     0
 42
0.0000000001
 43
0.0000000001
 40
0.0
 40
0.0
 40
0.0
 40
0.0
 40
1.0
 40
1.0
 40
1.0
 40
2.0
 40
2.0
 40
2.0
 40
3.0
 40
3.0
 40
3.0
 40
4.0
 40
4.0
 40
4.0
 40
4.0
 10
1.576050844005473
 20
3.089181182108646
 30
0.0
 10
1.733935333972218
 20
3.055815274689018
 30
0.0
 10
1.873889039545161
 20
3.004491456121588
 30
0.0
 10
2.029908565174426
 20
2.96928092942998
 30
0.0
 10
2.164382666439431
 20
2.732667817667611
 30
0.0
 10
2.290128734605033
 20
2.487360581248339
 30
0.0
 10
2.415257669117141
 20
2.241402302733074
 30
0.0
 10
2.213346457408886
 20
2.242148288468066
 30
0.0
 10
2.02417125670349
 20
2.255657411959916
 30
0.0
 10
1.815824222608807
 20
2.249947230242979
 30
0.0
 10
1.743416134495112
 20
2.537233118476784
 30
0.0
 10
1.655016824898595
 20
2.808459968342768
 30
0.0
 10
1.576050844005473
 20
3.089181182108646
 30
0.0
  0
SPLINE
  5
82
330
3C
100
AcDbEntity
  8
Layer 1
 62
     5
420
      255
370
    35
100
AcDbSpline
210
0.0
220
0.0
230
1.0
 70
    11
 71
     3
 72
    20
 73
    16
 74
     0
 42
0.0000000001
 43
0.0000000001
 40
0.0
 40
0.0
 40
0.0
 40
0.0
 40
1.0
 40
1.0
 40
1.0
 40
2.0
 40
2.0
 40
2.0
 40
3.0
 40
3.0
 40
3.0
 40
4.0
 40
4.0
 40
4.0
 40
5.0
 40
5.0
 40
5.0
 40
5.0
 10
6.337311579278525
 20
3.089181182108646
 30
0.0
 10
6.343021760995462
 20
3.089181182108646
 30
0.0
 10
6.348718379335399
 20
3.089181182108646
 30
0.0
 10
6.354428561052335
 20
3.089181182108646
 30
0.0
 10
6.275462580159213
 20
2.808459968342768
 30
0.0
 10
6.187042925497196
 20
2.537233118476784
 30
0.0
 10
6.114668745826001
 20
2.249947230242979
 30
0.0
 10
5.906321711731318
 20
2.255657411959916
 30
0.0
 10
5.717139729337422
 20
2.242148288468066
 30
0.0
 10
5.515221735940668
 20
2.241402302733074
 30
0.0
 10
5.640357452141276
 20
2.487360581248339
 30
0.0
 10
5.766103520306878
 20
2.732667817667611
 30
0.0
 10
5.900570839883382
 20
2.96928092942998
 30
0.0
 10
6.049659479865724
 20
3.005725723428574
 30
0.0
 10
6.192522529805135
 20
3.0484096708471
 30
0.0
 10
6.337311579278525
 20
3.089181182108646
 30
0.0
  0
ENDBLK
  5
3F
330
3C
100
AcDbEntity
  8
0
100
AcDbBlockEnd
  0
ENDSEC
  0
SECTION
  2
ENTITIES
  0
INSERT
  5
3D
330
1F
100
AcDbEntity
  8
Layer 1
100
AcDbBlockReference
  2
block 2
 10
0.0
 20
0.0
 30
0.0
  0
ENDSEC
  0
SECTION
  2
OBJECTS
  0
DICTIONARY
  5
C
330
0
100
AcDbDictionary
281
     1
  3
ACAD_GROUP
350
D
  3
ACAD_LAYOUT
350
1A
  3
ACAD_MLINESTYLE
350
17
  3
ACAD_PLOTSETTINGS
350
19
  3
ACAD_PLOTSTYLENAME
350
E
  3
ACAD_TABLESTYLE
350
83
  3
ACAD_VISUALSTYLE
350
2A
  0
DICTIONARY
  5
D
102
{ACAD_REACTORS
330
C
102
}
330
C
100
AcDbDictionary
281
     1
  0
DICTIONARY
  5
1A
102
{ACAD_REACTORS
330
C
102
}
330
C
100
AcDbDictionary
281
     1
  3
Layout1
350
1E
  3
Layout2
350
26
  3
Model
350
22
  0
DICTIONARY
  5
17
102
{ACAD_REACTORS
330
C
102
}
330
C
100
AcDbDictionary
281
     1
  3
Standard
350
18
  0
DICTIONARY
  5
19
102
{ACAD_REACTORS
330
C
102
}
330
C
100
AcDbDictionary
281
     1
  0
ACDBDICTIONARYWDFLT
  5
E
102
{ACAD_REACTORS
330
C
102
}
330
C
100
AcDbDictionary
281
     1
  3
Normal
350
F
100
AcDbDictionaryWithDefault
340
F
  0
DICTIONARY
  5
83
102
{ACAD_REACTORS
330
C
102
}
330
C
100
AcDbDictionary
281
     1
  0
DICTIONARY
  5
2A
102
{ACAD_REACTORS
330
C
102
}
330
C
100
AcDbDictionary
281
     1
  3
2dWireframe
350
2F
  3
3D Hidden
350
31
  3
3dWireframe
350
30
  3
Basic
350
32
  3
Brighten
350
36
  3
ColorChange
350
3A
  3
Conceptual
350
34
  3
Dim
350
35
  3
Facepattern
350
39
  3
Flat
350
2B
  3
FlatWithEdges
350
2C
  3
Gouraud
350
2D
  3
GouraudWithEdges
350
2E
  3
Linepattern
350
38
  3
Realistic
350
33
  3
Thicken
350
37
  0
LAYOUT
  5
1E
102
{ACAD_REACTORS
330
1A
102
}
330
1A
100
AcDbPlotSettings
  1

  2
none_device
  4

  6

 40
0.0
 41
0.0
 42
0.0
 43
0.0
 44
0.0
 45
0.0
 46
0.0
 47
0.0
 48
0.0
 49
0.0
140
0.0
141
0.0
142
1.0
143
1.0
 70
   688
 72
     0
 73
     0
 74
     5
  7

 75
    16
 76
     0
 77
     2
 78
   300
147
1.0
148
0.0
149
0.0
100
AcDbLayout
  1
Layout1
 70
     1
 71
     1
 10
0.0
 20
0.0
 11
12.0
 21
9.0
 12
0.0
 22
0.0
 32
0.0
 14
1.000000000000000E+20
 24
1.000000000000000E+20
 34
1.000000000000000E+20
 15
-1.000000000000000E+20
 25
-1.000000000000000E+20
 35
-1.000000000000000E+20
146
0.0
 13
0.0
 23
0.0
 33
0.0
 16
1.0
 26
0.0
 36
0.0
 17
0.0
 27
1.0
 37
0.0
 76
     0
330
1B
  0
LAYOUT
  5
26
102
{ACAD_REACTORS
330
1A
102
}
330
1A
100
AcDbPlotSettings
  1

  2
none_device
  4

  6

 40
0.0
 41
0.0
 42
0.0
 43
0.0
 44
0.0
 45
0.0
 46
0.0
 47
0.0
 48
0.0
 49
0.0
140
0.0
141
0.0
142
1.0
143
1.0
 70
   688
 72
     0
 73
     0
 74
     5
  7

 75
    16
 76
     0
 77
     2
 78
   300
147
1.0
148
0.0
149
0.0
100
AcDbLayout
  1
Layout2
 70
     1
 71
     2
 10
0.0
 20
0.0
 11
0.0
 21
0.0
 12
0.0
 22
0.0
 32
0.0
 14
0.0
 24
0.0
 34
0.0
 15
0.0
 25
0.0
 35
0.0
146
0.0
 13
0.0
 23
0.0
 33
0.0
 16
1.0
 26
0.0
 36
0.0
 17
0.0
 27
1.0
 37
0.0
 76
     0
330
23
  0
LAYOUT
  5
22
102
{ACAD_REACTORS
330
1A
102
}
330
1A
100
AcDbPlotSettings
  1

  2
none_device
  4

  6

 40
0.0
 41
0.0
 42
0.0
 43
0.0
 44
0.0
 45
0.0
 46
0.0
 47
0.0
 48
0.0
 49
0.0
140
0.0
141
0.0
142
1.0
143
1.0
 70
  1712
 72
     0
 73
     0
 74
     0
  7

 75
     0
 76
     0
 77
     2
 78
   300
147
1.0
148
0.0
149
0.0
100
AcDbLayout
  1
Model
 70
     1
 71
     0
 10
0.0
 20
0.0
 11
12.0
 21
9.0
 12
0.0
 22
0.0
 32
0.0
 14
1.000000000000000E+20
 24
1.000000000000000E+20
 34
1.000000000000000E+20
 15
-1.000000000000000E+20
 25
-1.000000000000000E+20
 35
-1.000000000000000E+20
146
0.0
 13
0.0
 23
0.0
 33
0.0
 16
1.0
 26
0.0
 36
0.0
 17
0.0
 27
1.0
 37
0.0
 76
     0
330
1F
331
29
  0
MLINESTYLE
  5
18
102
{ACAD_REACTORS
330
17
102
}
330
17
100
AcDbMlineStyle
  2
Standard
 70
     0
  3

 62
   256
 51
90.0
 52
90.0
 71
     2
 49
0.5
 62
   256
  6
BYLAYER
 49
-0.5
 62
   256
  6
BYLAYER
  0
ACDBPLACEHOLDER
  5
F
102
{ACAD_REACTORS
330
E
102
}
330
E
  0
VISUALSTYLE
  5
2F
102
{ACAD_REACTORS
330
2A
102
}
330
2A
100
AcDbVisualStyle
  2
2dWireframe
 70
     4
 71
     0
 72
     2
 73
     0
 90
        0
 40
-0.6
 41
-30.0
 62
     5
 63
     7
421
 16777215
 74
     1
 91
        4
 64
     7
 65
   257
 75
     1
175
     1
 42
1.0
 92
        0
 66
   257
 43
1.0
 76
     1
 77
     6
 78
     2
 67
     7
 79
     5
170
     0
171
     0
290
     0
174
     0
 93
        1
 44
0.0
173
     0
291
     0
 45
0.0
1001
ACAD
1000
AcDbSavedByObjectVersion
1070
     0
  0
VISUALSTYLE
  5
31
102
{ACAD_REACTORS
330
2A
102
}
330
2A
100
AcDbVisualStyle
  2
3D Hidden
 70
     6
 71
     1
 72
     2
 73
     2
 90
        0
 40
-0.6
 41
-30.0
 62
     5
 63
     7
421
 16777215
 74
     2
 91
        2
 64
     7
 65
   257
 75
     2
175
     1
 42
40.0
 92
        0
 66
   257
 43
1.0
 76
     1
 77
     6
 78
     2
 67
     7
 79
     3
170
     0
171
     0
290
     0
174
     0
 93
        1
 44
0.0
173
     0
291
     0
 45
0.0
1001
ACAD
1000
AcDbSavedByObjectVersion
1070
     0
  0
VISUALSTYLE
  5
30
102
{ACAD_REACTORS
330
2A
102
}
330
2A
100
AcDbVisualStyle
  2
3dWireframe
 70
     5
 71
     0
 72
     2
 73
     0
 90
        0
 40
-0.6
 41
-30.0
 62
     5
 63
     7
421
 16777215
 74
     1
 91
        4
 64
     7
 65
   257
 75
     1
175
     1
 42
1.0
 92
        0
 66
   257
 43
1.0
 76
     1
 77
     6
 78
     2
 67
     7
 79
     5
170
     0
171
     0
290
     0
174
     0
 93
        1
 44
0.0
173
     0
291
     0
 45
0.0
1001
ACAD
1000
AcDbSavedByObjectVersion
1070
     0
  0
VISUALSTYLE
  5
32
102
{ACAD_REACTORS
330
2A
102
}
330
2A
100
AcDbVisualStyle
  2
Basic
 70
     7
 71
     1
 72
     0
 73
     1
 90
        0
 40
-0.6
 41
-30.0
 62
     5
 63
     7
421
 16777215
 74
     0
 91
        4
 64
     7
 65
   257
 75
     1
175
     1
 42
1.0
 92
        8
 66
     7
 43
1.0
 76
     1
 77
     6
 78
     2
 67
     7
 79
     5
170
     0
171
     0
290
     0
174
     0
 93
        1
 44
0.0
173
     0
291
     1
 45
0.0
1001
ACAD
1000
AcDbSavedByObjectVersion
1070
     0
  0
VISUALSTYLE
  5
36
102
{ACAD_REACTORS
330
2A
102
}
330
2A
100
AcDbVisualStyle
  2
Brighten
 70
    12
 71
     2
 72
     2
 73
     0
 90
        0
 40
-0.6
 41
-30.0
 62
     5
 63
     7
421
 16777215
 74
     1
 91
        4
 64
     7
 65
   257
 75
     1
175
     1
 42
1.0
 92
        8
 66
     7
 43
1.0
 76
     1
 77
     6
 78
     2
 67
     7
 79
     5
170
     0
171
     0
290
     0
174
     0
 93
        1
 44
50.0
173
     0
291
     1
 45
0.0
1001
ACAD
1000
AcDbSavedByObjectVersion
1070
     0
  0
VISUALSTYLE
  5
3A
102
{ACAD_REACTORS
330
2A
102
}
330
2A
100
AcDbVisualStyle
  2
ColorChange
 70
    16
 71
     2
 72
     2
 73
     3
 90
        0
 40
-0.6
 41
-30.0
 62
     5
 63
     8
421
  8421504
 74
     1
 91
        4
 64
     7
 65
   257
 75
     1
175
     1
 42
1.0
 92
        8
 66
     8
424
  8421504
 43
1.0
 76
     1
 77
     6
 78
     2
 67
     7
 79
     5
170
     0
171
     0
290
     0
174
     0
 93
        1
 44
0.0
173
     0
291
     1
 45
0.0
1001
ACAD
1000
AcDbSavedByObjectVersion
1070
     0
  0
VISUALSTYLE
  5
34
102
{ACAD_REACTORS
330
2A
102
}
330
2A
100
AcDbVisualStyle
  2
Conceptual
 70
     9
 71
     3
 72
     2
 73
     0
 90
        0
 40
-0.6
 41
-30.0
 62
     5
 63
     7
421
 16777215
 74
     2
 91
        2
 64
     7
 65
   257
 75
     1
175
     1
 42
40.0
 92
        8
 66
     7
 43
1.0
 76
     1
 77
     6
 78
     2
 67
     7
 79
     3
170
     0
171
     0
290
     0
174
     0
 93
        1
 44
0.0
173
     0
291
     0
 45
0.0
1001
ACAD
1000
AcDbSavedByObjectVersion
1070
     0
  0
VISUALSTYLE
  5
35
102
{ACAD_REACTORS
330
2A
102
}
330
2A
100
AcDbVisualStyle
  2
Dim
 70
    11
 71
     2
 72
     2
 73
     0
 90
        0
 40
-0.6
 41
-30.0
 62
     5
 63
     7
421
 16777215
 74
     1
 91
        4
 64
     7
 65
   257
 75
     1
175
     1
 42
1.0
 92
        8
 66
     7
 43
1.0
 76
     1
 77
     6
 78
     2
 67
     7
 79
     5
170
     0
171
     0
290
     0
174
     0
 93
        1
 44
-50.0
173
     0
291
     1
 45
0.0
1001
ACAD
1000
AcDbSavedByObjectVersion
1070
     0
  0
VISUALSTYLE
  5
39
102
{ACAD_REACTORS
330
2A
102
}
330
2A
100
AcDbVisualStyle
  2
Facepattern
 70
    15
 71
     2
 72
     2
 73
     0
 90
        0
 40
-0.6
 41
-30.0
 62
     5
 63
     7
421
 16777215
 74
     1
 91
        4
 64
     7
 65
   257
 75
     1
175
     1
 42
1.0
 92
        8
 66
     7
 43
1.0
 76
     1
 77
     6
 78
     2
 67
     7
 79
     5
170
     0
171
     0
290
     0
174
     0
 93
        1
 44
0.0
173
     0
291
     1
 45
0.0
1001
ACAD
1000
AcDbSavedByObjectVersion
1070
     0
  0
VISUALSTYLE
  5
2B
102
{ACAD_REACTORS
330
2A
102
}
330
2A
100
AcDbVisualStyle
  2
Flat
 70
     0
 71
     2
 72
     1
 73
     1
 90
        2
 40
-0.6
 41
30.0
 62
     5
 63
     7
421
 16777215
 74
     0
 91
        4
 64
     7
 65
   257
 75
     1
175
     1
 42
1.0
 92
        8
 66
     7
 43
1.0
 76
     1
 77
     6
 78
     2
 67
     7
 79
     5
170
     0
171
     0
290
     0
174
     0
 93
       13
 44
0.0
173
     0
291
     1
 45
0.0
1001
ACAD
1000
AcDbSavedByObjectVersion
1070
     0
  0
VISUALSTYLE
  5
2C
102
{ACAD_REACTORS
330
2A
102
}
330
2A
100
AcDbVisualStyle
  2
FlatWithEdges
 70
     1
 71
     2
 72
     1
 73
     1
 90
        2
 40
-0.6
 41
30.0
 62
     5
 63
     7
421
 16777215
 74
     1
 91
        4
 64
     7
 65
   257
 75
     1
175
     1
 42
1.0
 92
        0
 66
   257
 43
1.0
 76
     1
 77
     6
 78
     2
 67
     7
 79
     5
170
     0
171
     0
290
     0
174
     0
 93
       13
 44
0.0
173
     0
291
     1
 45
0.0
1001
ACAD
1000
AcDbSavedByObjectVersion
1070
     0
  0
VISUALSTYLE
  5
2D
102
{ACAD_REACTORS
330
2A
102
}
330
2A
100
AcDbVisualStyle
  2
Gouraud
 70
     2
 71
     2
 72
     2
 73
     1
 90
        2
 40
-0.6
 41
30.0
 62
     5
 63
     7
421
 16777215
 74
     0
 91
        4
 64
     7
 65
   257
 75
     1
175
     1
 42
1.0
 92
        0
 66
     7
 43
1.0
 76
     1
 77
     6
 78
     2
 67
     7
 79
     5
170
     0
171
     0
290
     0
174
     0
 93
       13
 44
0.0
173
     0
291
     1
 45
0.0
1001
ACAD
1000
AcDbSavedByObjectVersion
1070
     0
  0
VISUALSTYLE
  5
2E
102
{ACAD_REACTORS
330
2A
102
}
330
2A
100
AcDbVisualStyle
  2
GouraudWithEdges
 70
     3
 71
     2
 72
     2
 73
     1
 90
        2
 40
-0.6
 41
30.0
 62
     5
 63
     7
421
 16777215
 74
     1
 91
        4
 64
     7
 65
   257
 75
     1
175
     1
 42
1.0
 92
        0
 66
   257
 43
1.0
 76
     1
 77
     6
 78
     2
 67
     7
 79
     5
170
     0
171
     0
290
     0
174
     0
 93
       13
 44
0.0
173
     0
291
     1
 45
0.0
1001
ACAD
1000
AcDbSavedByObjectVersion
1070
     0
  0
VISUALSTYLE
  5
38
102
{ACAD_REACTORS
330
2A
102
}
330
2A
100
AcDbVisualStyle
  2
Linepattern
 70
    14
 71
     2
 72
     2
 73
     0
 90
        0
 40
-0.6
 41
-30.0
 62
     5
 63
     7
421
 16777215
 74
     1
 91
        4
 64
     7
 65
   257
 75
     7
175
     7
 42
1.0
 92
        8
 66
     7
 43
1.0
 76
     1
 77
     6
 78
     2
 67
     7
 79
     5
170
     0
171
     0
290
     0
174
     0
 93
        1
 44
0.0
173
     0
291
     1
 45
0.0
1001
ACAD
1000
AcDbSavedByObjectVersion
1070
     0
  0
VISUALSTYLE
  5
33
102
{ACAD_REACTORS
330
2A
102
}
330
2A
100
AcDbVisualStyle
  2
Realistic
 70
     8
 71
     2
 72
     2
 73
     0
 90
        0
 40
-0.6
 41
-30.0
 62
     5
 63
     7
421
 16777215
 74
     1
 91
        0
 64
     7
 65
   257
 75
     1
175
     1
 42
1.0
 92
        8
 66
     8
424
  7895160
 43
1.0
 76
     1
 77
     6
 78
     2
 67
     7
 79
     5
170
     0
171
     0
290
     0
174
     0
 93
       13
 44
0.0
173
     0
291
     0
 45
0.0
1001
ACAD
1000
AcDbSavedByObjectVersion
1070
     0
  0
VISUALSTYLE
  5
37
102
{ACAD_REACTORS
330
2A
102
}
330
2A
100
AcDbVisualStyle
  2
Thicken
 70
    13
 71
     2
 72
     2
 73
     0
 90
        0
 40
-0.6
 41
-30.0
 62
     5
 63
     7
421
 16777215
 74
     1
 91
        4
 64
     7
 65
   257
 75
     1
175
     1
 42
1.0
 92
       12
 66
     7
 43
1.0
 76
     1
 77
     6
 78
     2
 67
     7
 79
     5
170
     0
171
     0
290
     0
174
     0
 93
        1
 44
0.0
173
     0
291
     1
 45
0.0
1001
ACAD
1000
AcDbSavedByObjectVersion
1070
     0
  0
ENDSEC
  0
EOF
