  0
SECTION
  2
HEADER
  9
$ACADVER
  1
AC1009
  0
ENDSEC
  0
SECTION
  2
BLOCKS
  0
ENDSEC
  0
SECTION
  2
ENTITIES
  0
LINE
  8
CutLine
  6
CONTINUOUS
 62
8
 10
102.437181
 20
544.660768
 11
97.313845
 21
546.608499
  0
LINE
  8
CutLine
  6
CONTINUOUS
 62
8
 10
97.313845
 20
546.608499
 11
99.261576
 21
541.485163
  0
LINE
  8
CutLine
  6
CONTINUOUS
 62
8
 10
99.261576
 20
541.485163
 11
99.261576
 21
541.485163
  0
LINE
  8
CutLine
  6
CONTINUOUS
 62
8
 10
172.300479
 20
544.660768
 11
172.300479
 21
544.660768
  0
LINE
  8
CutLine
  6
CONTINUOUS
 62
8
 10
172.300479
 20
544.660768
 11
177.300479
 21
549.660768
  0
LINE
  8
CutLine
  6
CONTINUOUS
 62
8
 10
177.300479
 20
549.660768
 11
177.300479
 21
552.363186
  0
LINE
  8
CutLine
  6
CONTINUOUS
 62
8
 10
177.300479
 20
552.363186
 11
172.300479
 21
557.363186
  0
LINE
  8
CutLine
  6
CONTINUOUS
 62
8
 10
172.300479
 20
557.363186
 11
172.300479
 21
557.363186
  0
LINE
  8
CutLine
  6
CONTINUOUS
 62
8
 10
172.300479
 20
557.363186
 11
172.300479
 21
557.363186
  0
LINE
  8
CutLine
  6
CONTINUOUS
 62
8
 10
92.910367
 20
531.958350
 11
92.910367
 21
531.958350
  0
LINE
  8
CutLine
  6
CONTINUOUS
 62
8
 10
92.910367
 20
531.958350
 11
92.910367
 21
531.958350
  0
LINE
  8
CutLine
  6
CONTINUOUS
 62
8
 10
92.910367
 20
531.958350
 11
85.974162
 21
530.583922
  0
LINE
  8
CutLine
  6
CONTINUOUS
 62
8
 10
85.974162
 20
530.583922
 11
80.000000
 21
521.657087
  0
LINE
  8
CutLine
  6
CONTINUOUS
 62
8
 10
80.000000
 20
521.657087
 11
81.374428
 21
514.720881
  0
LINE
  8
CutLine
  6
CONTINUOUS
 62
8
 10
99.261576
 20
538.309559
 11
92.550438
 21
538.669488
  0
LINE
  8
CutLine
  6
CONTINUOUS
 62
8
 10
92.550438
 20
538.669488
 11
92.910367
 21
531.958350
  0
LINE
  8
CutLine
  6
CONTINUOUS
 62
8
 10
92.910367
 20
531.958350
 11
92.910367
 21
531.958350
  0
LINE
  8
CutLine
  6
CONTINUOUS
 62
8
 10
92.910367
 20
531.958350
 11
92.910367
 21
531.958350
  0
LINE
  8
CutLine
  6
CONTINUOUS
 62
8
 10
172.300479
 20
557.363186
 11
172.300479
 21
557.363186
  0
LINE
  8
CutLine
  6
CONTINUOUS
 62
8
 10
172.300479
 20
557.363186
 11
172.300479
 21
557.363186
  0
LINE
  8
CutLine
  6
CONTINUOUS
 62
8
 10
172.300479
 20
557.363186
 11
167.300479
 21
562.363186
  0
LINE
  8
CutLine
  6
CONTINUOUS
 62
8
 10
167.300479
 20
562.363186
 11
107.437181
 21
562.363186
  0
LINE
  8
CutLine
  6
CONTINUOUS
 62
8
 10
107.437181
 20
562.363186
 11
102.437181
 21
557.363186
  0
LINE
  8
CutLine
  6
CONTINUOUS
 62
8
 10
102.437181
 20
557.363186
 11
102.437181
 21
557.363186
  0
LINE
  8
CutLine
  6
CONTINUOUS
 62
8
 10
102.437181
 20
557.363186
 11
102.437181
 21
557.363186
  0
LINE
  8
CutLine
  6
CONTINUOUS
 62
8
 10
102.437181
 20
557.363186
 11
102.437181
 21
557.363186
  0
LINE
  8
CutLine
  6
CONTINUOUS
 62
8
 10
102.437181
 20
557.363186
 11
97.437181
 21
552.363186
  0
LINE
  8
CutLine
  6
CONTINUOUS
 62
8
 10
97.437181
 20
552.363186
 11
97.437181
 21
549.660768
  0
LINE
  8
CutLine
  6
CONTINUOUS
 62
8
 10
97.437181
 20
549.660768
 11
102.437181
 21
544.660768
  0
LINE
  8
CutLine
  6
CONTINUOUS
 62
8
 10
81.374428
 20
508.458877
 11
81.374428
 21
508.458877
  0
LINE
  8
CutLine
  6
CONTINUOUS
 62
8
 10
81.374428
 20
508.458877
 11
81.374428
 21
508.458877
  0
LINE
  8
CutLine
  6
CONTINUOUS
 62
8
 10
81.374428
 20
508.458877
 11
87.023120
 21
503.458877
  0
LINE
  8
CutLine
  6
CONTINUOUS
 62
8
 10
87.023120
 20
503.458877
 11
176.827292
 21
503.458877
  0
LINE
  8
CutLine
  6
CONTINUOUS
 62
8
 10
176.827292
 20
503.458877
 11
181.827292
 21
508.458877
  0
LINE
  8
CutLine
  6
CONTINUOUS
 62
8
 10
181.827292
 20
508.458877
 11
181.827292
 21
508.458877
  0
LINE
  8
CutLine
  6
CONTINUOUS
 62
8
 10
181.827292
 20
508.458877
 11
181.827292
 21
508.458877
  0
LINE
  8
CutLine
  6
CONTINUOUS
 62
8
 10
14.986197
 20
800.890572
 11
14.986197
 21
800.890572
  0
LINE
  8
CutLine
  6
CONTINUOUS
 62
8
 10
14.986197
 20
800.890572
 11
14.986197
 21
800.890572
  0
LINE
  8
CutLine
  6
CONTINUOUS
 62
8
 10
14.986197
 20
800.890572
 11
10.000000
 21
797.737634
  0
LINE
  8
CutLine
  6
CONTINUOUS
 62
8
 10
10.000000
 20
797.737634
 11
15.013707
 21
794.628628
  0
LINE
  8
CutLine
  6
CONTINUOUS
 62
8
 10
15.013707
 20
794.628628
 11
15.013707
 21
794.628628
  0
LINE
  8
CutLine
  6
CONTINUOUS
 62
8
 10
15.013707
 20
794.628628
 11
15.013707
 21
794.628628
  0
LINE
  8
CutLine
  6
CONTINUOUS
 62
8
 10
15.013707
 20
794.628628
 11
15.013707
 21
794.628628
  0
LINE
  8
CutLine
  6
CONTINUOUS
 62
8
 10
15.013707
 20
794.628628
 11
20.035625
 21
789.650642
  0
LINE
  8
CutLine
  6
CONTINUOUS
 62
8
 10
20.035625
 20
789.650642
 11
98.951781
 21
789.997339
  0
LINE
  8
CutLine
  6
CONTINUOUS
 62
8
 10
98.951781
 20
789.997339
 11
103.929767
 21
795.019257
  0
LINE
  8
CutLine
  6
CONTINUOUS
 62
8
 10
103.929767
 20
795.019257
 11
103.929767
 21
795.019257
  0
LINE
  8
CutLine
  6
CONTINUOUS
 62
8
 10
103.929767
 20
795.019257
 11
103.929767
 21
795.019257
  0
LINE
  8
CutLine
  6
CONTINUOUS
 62
8
 10
103.929767
 20
795.019257
 11
103.929767
 21
795.019257
  0
LINE
  8
CutLine
  6
CONTINUOUS
 62
8
 10
103.929767
 20
795.019257
 11
103.929767
 21
795.019257
  0
LINE
  8
CutLine
  6
CONTINUOUS
 62
8
 10
103.929767
 20
795.019257
 11
108.915964
 21
798.172195
  0
LINE
  8
CutLine
  6
CONTINUOUS
 62
8
 10
108.915964
 20
798.172195
 11
103.902257
 21
801.281201
  0
LINE
  8
CutLine
  6
CONTINUOUS
 62
8
 10
103.902257
 20
801.281201
 11
103.902257
 21
801.281201
  0
LINE
  8
CutLine
  6
CONTINUOUS
 62
8
 10
21.218321
 20
828.010883
 11
21.218321
 21
828.010883
  0
LINE
  8
CutLine
  6
CONTINUOUS
 62
8
 10
21.218321
 20
828.010883
 11
21.218321
 21
828.010883
  0
LINE
  8
CutLine
  6
CONTINUOUS
 62
8
 10
21.218321
 20
828.010883
 11
14.505666
 21
828.341326
  0
LINE
  8
CutLine
  6
CONTINUOUS
 62
8
 10
14.505666
 20
828.341326
 11
14.895075
 21
821.631833
  0
LINE
  8
CutLine
  6
CONTINUOUS
 62
8
 10
14.895075
 20
821.631833
 11
14.895075
 21
821.631833
  0
LINE
  8
CutLine
  6
CONTINUOUS
 62
8
 10
14.895075
 20
821.631833
 11
14.895075
 21
821.631833
  0
LINE
  8
CutLine
  6
CONTINUOUS
 62
8
 10
24.365987
 20
834.375982
 11
19.234143
 21
836.301183
  0
LINE
  8
CutLine
  6
CONTINUOUS
 62
8
 10
19.234143
 20
836.301183
 11
21.204370
 21
831.186457
  0
LINE
  8
CutLine
  6
CONTINUOUS
 62
8
 10
21.204370
 20
831.186457
 11
21.204370
 21
831.186457
  0
LINE
  8
CutLine
  6
CONTINUOUS
 62
8
 10
97.432086
 20
828.345708
 11
97.432086
 21
828.345708
  0
LINE
  8
CutLine
  6
CONTINUOUS
 62
8
 10
97.432086
 20
828.345708
 11
102.425062
 21
829.955461
  0
LINE
  8
CutLine
  6
CONTINUOUS
 62
8
 10
102.425062
 20
829.955461
 11
97.418135
 21
831.521282
  0
LINE
  8
CutLine
  6
CONTINUOUS
 62
8
 10
21.204370
 20
831.186457
 11
21.204370
 21
831.186457
  0
LINE
  8
CutLine
  6
CONTINUOUS
 62
8
 10
21.204370
 20
831.186457
 11
21.204370
 21
831.186457
  0
LINE
  8
CutLine
  6
CONTINUOUS
 62
8
 10
21.204370
 20
831.186457
 11
16.211394
 21
829.576704
  0
LINE
  8
CutLine
  6
CONTINUOUS
 62
8
 10
16.211394
 20
829.576704
 11
21.218321
 21
828.010883
  0
LINE
  8
CutLine
  6
CONTINUOUS
 62
8
 10
21.218321
 20
828.010883
 11
21.218321
 21
828.010883
  0
LINE
  8
CutLine
  6
CONTINUOUS
 62
8
 10
21.218321
 20
828.010883
 11
21.218321
 21
828.010883
  0
LINE
  8
CutLine
  6
CONTINUOUS
 62
8
 10
94.172806
 20
847.385200
 11
94.172806
 21
847.385200
  0
LINE
  8
CutLine
  6
CONTINUOUS
 62
8
 10
94.172806
 20
847.385200
 11
89.150888
 21
852.363186
  0
LINE
  8
CutLine
  6
CONTINUOUS
 62
8
 10
89.150888
 20
852.363186
 11
29.288168
 21
852.100195
  0
LINE
  8
CutLine
  6
CONTINUOUS
 62
8
 10
29.288168
 20
852.100195
 11
24.310182
 21
847.078277
  0
LINE
  8
CutLine
  6
CONTINUOUS
 62
8
 10
24.310182
 20
847.078277
 11
24.310182
 21
847.078277
  0
LINE
  8
CutLine
  6
CONTINUOUS
 62
8
 10
85.000000
 20
704.336905
 11
85.000000
 21
704.336905
  0
LINE
  8
CutLine
  6
CONTINUOUS
 62
8
 10
85.000000
 20
704.336905
 11
85.000000
 21
704.336905
  0
LINE
  8
CutLine
  6
CONTINUOUS
 62
8
 10
85.000000
 20
704.336905
 11
80.000000
 21
699.336905
  0
LINE
  8
CutLine
  6
CONTINUOUS
 62
8
 10
80.000000
 20
699.336905
 11
80.000000
 21
639.473607
  0
LINE
  8
CutLine
  6
CONTINUOUS
 62
8
 10
80.000000
 20
639.473607
 11
85.000000
 21
634.473607
  0
LINE
  8
CutLine
  6
CONTINUOUS
 62
8
 10
85.000000
 20
634.473607
 11
85.000000
 21
634.473607
  0
LINE
  8
CutLine
  6
CONTINUOUS
 62
8
 10
104.053627
 20
707.512503
 11
102.465824
 21
712.512503
  0
LINE
  8
CutLine
  6
CONTINUOUS
 62
8
 10
102.465824
 20
712.512503
 11
100.878022
 21
707.512503
  0
LINE
  8
CutLine
  6
CONTINUOUS
 62
8
 10
100.878022
 20
707.512503
 11
100.878022
 21
707.512503
  0
LINE
  8
CutLine
  6
CONTINUOUS
 62
8
 10
100.878022
 20
707.512503
 11
100.878022
 21
707.512503
  0
LINE
  8
CutLine
  6
CONTINUOUS
 62
8
 10
100.878022
 20
631.298003
 11
102.465824
 21
626.298003
  0
LINE
  8
CutLine
  6
CONTINUOUS
 62
8
 10
102.465824
 20
626.298003
 11
104.053627
 21
631.298003
  0
LINE
  8
CutLine
  6
CONTINUOUS
 62
8
 10
97.702418
 20
634.473607
 11
97.702418
 21
634.473607
  0
LINE
  8
CutLine
  6
CONTINUOUS
 62
8
 10
97.702418
 20
634.473607
 11
95.754686
 21
629.350271
  0
LINE
  8
CutLine
  6
CONTINUOUS
 62
8
 10
95.754686
 20
629.350271
 11
100.878022
 21
631.298003
  0
LINE
  8
CutLine
  6
CONTINUOUS
 62
8
 10
97.702418
 20
704.336905
 11
97.702418
 21
704.336905
  0
LINE
  8
CutLine
  6
CONTINUOUS
 62
8
 10
97.702418
 20
704.336905
 11
92.702418
 21
709.336905
  0
LINE
  8
CutLine
  6
CONTINUOUS
 62
8
 10
92.702418
 20
709.336905
 11
90.000000
 21
709.336905
  0
LINE
  8
CutLine
  6
CONTINUOUS
 62
8
 10
90.000000
 20
709.336905
 11
85.000000
 21
704.336905
  0
LINE
  8
CutLine
  6
CONTINUOUS
 62
8
 10
85.000000
 20
704.336905
 11
85.000000
 21
704.336905
  0
LINE
  8
CutLine
  6
CONTINUOUS
 62
8
 10
85.000000
 20
704.336905
 11
85.000000
 21
704.336905
  0
LINE
  8
CutLine
  6
CONTINUOUS
 62
8
 10
143.431127
 20
731.101181
 11
143.431127
 21
731.101181
  0
LINE
  8
CutLine
  6
CONTINUOUS
 62
8
 10
143.431127
 20
731.101181
 11
143.431127
 21
731.101181
  0
LINE
  8
CutLine
  6
CONTINUOUS
 62
8
 10
143.431127
 20
731.101181
 11
148.431127
 21
734.232183
  0
LINE
  8
CutLine
  6
CONTINUOUS
 62
8
 10
148.431127
 20
734.232183
 11
143.431127
 21
737.363186
  0
LINE
  8
CutLine
  6
CONTINUOUS
 62
8
 10
143.431127
 20
737.363186
 11
143.431127
 21
737.363186
  0
LINE
  8
CutLine
  6
CONTINUOUS
 62
8
 10
143.431127
 20
737.363186
 11
143.431127
 21
737.363186
  0
LINE
  8
CutLine
  6
CONTINUOUS
 62
8
 10
143.431127
 20
737.363186
 11
143.431127
 21
737.363186
  0
LINE
  8
CutLine
  6
CONTINUOUS
 62
8
 10
143.431127
 20
737.363186
 11
138.431127
 21
742.363186
  0
LINE
  8
CutLine
  6
CONTINUOUS
 62
8
 10
138.431127
 20
742.363186
 11
115.404836
 21
742.363186
  0
LINE
  8
CutLine
  6
CONTINUOUS
 62
8
 10
115.404836
 20
742.363186
 11
110.404836
 21
737.363186
  0
LINE
  8
CutLine
  6
CONTINUOUS
 62
8
 10
110.404836
 20
737.363186
 11
110.404836
 21
737.363186
  0
LINE
  8
CutLine
  6
CONTINUOUS
 62
8
 10
110.404836
 20
737.363186
 11
110.404836
 21
737.363186
  0
LINE
  8
CutLine
  6
CONTINUOUS
 62
8
 10
143.431127
 20
713.863712
 11
148.431127
 21
718.863712
  0
LINE
  8
CutLine
  6
CONTINUOUS
 62
8
 10
148.431127
 20
718.863712
 11
148.431127
 21
726.101181
  0
LINE
  8
CutLine
  6
CONTINUOUS
 62
8
 10
148.431127
 20
726.101181
 11
143.431127
 21
731.101181
  0
LINE
  8
CutLine
  6
CONTINUOUS
 62
8
 10
143.431127
 20
731.101181
 11
143.431127
 21
731.101181
  0
LINE
  8
CutLine
  6
CONTINUOUS
 62
8
 10
143.431127
 20
731.101181
 11
143.431127
 21
731.101181
  0
LINE
  8
CutLine
  6
CONTINUOUS
 62
8
 10
110.404836
 20
601.447321
 11
110.404836
 21
601.447321
  0
LINE
  8
CutLine
  6
CONTINUOUS
 62
8
 10
110.404836
 20
601.447321
 11
110.404836
 21
601.447321
  0
LINE
  8
CutLine
  6
CONTINUOUS
 62
8
 10
110.404836
 20
601.447321
 11
115.404836
 21
596.447321
  0
LINE
  8
CutLine
  6
CONTINUOUS
 62
8
 10
115.404836
 20
596.447321
 11
138.431127
 21
596.447321
  0
LINE
  8
CutLine
  6
CONTINUOUS
 62
8
 10
138.431127
 20
596.447321
 11
143.431127
 21
601.447321
  0
LINE
  8
CutLine
  6
CONTINUOUS
 62
8
 10
143.431127
 20
601.447321
 11
148.431127
 21
604.578323
  0
LINE
  8
CutLine
  6
CONTINUOUS
 62
8
 10
148.431127
 20
604.578323
 11
143.431127
 21
607.709325
  0
LINE
  8
CutLine
  6
CONTINUOUS
 62
8
 10
110.404836
 20
624.946794
 11
105.404836
 21
619.946794
  0
LINE
  8
CutLine
  6
CONTINUOUS
 62
8
 10
105.404836
 20
619.946794
 11
105.404836
 21
612.709325
  0
LINE
  8
CutLine
  6
CONTINUOUS
 62
8
 10
105.404836
 20
612.709325
 11
110.404836
 21
607.709325
  0
LINE
  8
CutLine
  6
CONTINUOUS
 62
8
 10
143.431127
 20
607.709325
 11
148.431127
 21
612.709325
  0
LINE
  8
CutLine
  6
CONTINUOUS
 62
8
 10
148.431127
 20
612.709325
 11
148.431127
 21
619.946794
  0
LINE
  8
CutLine
  6
CONTINUOUS
 62
8
 10
148.431127
 20
619.946794
 11
143.431127
 21
624.946794
  0
LINE
  8
CutLine
  6
CONTINUOUS
 62
8
 10
110.404836
 20
607.709325
 11
105.404836
 21
604.578323
  0
LINE
  8
CutLine
  6
CONTINUOUS
 62
8
 10
105.404836
 20
604.578323
 11
110.404836
 21
601.447321
  0
LINE
  8
CutLine
  6
CONTINUOUS
 62
8
 10
110.404836
 20
601.447321
 11
110.404836
 21
601.447321
  0
LINE
  8
CutLine
  6
CONTINUOUS
 62
8
 10
110.404836
 20
601.447321
 11
110.404836
 21
601.447321
  0
LINE
  8
CutLine
  6
CONTINUOUS
 62
8
 10
110.404836
 20
601.447321
 11
110.404836
 21
601.447321
  0
LINE
  8
CutLine
  6
CONTINUOUS
 62
8
 10
104.053627
 20
631.298003
 11
103.693697
 21
624.586865
  0
LINE
  8
CutLine
  6
CONTINUOUS
 62
8
 10
103.693697
 20
624.586865
 11
110.404836
 21
624.946794
  0
LINE
  8
CutLine
  6
CONTINUOUS
 62
8
 10
110.404836
 20
624.946794
 11
110.404836
 21
624.946794
  0
LINE
  8
CutLine
  6
CONTINUOUS
 62
8
 10
166.930600
 20
624.946794
 11
166.930600
 21
624.946794
  0
LINE
  8
CutLine
  6
CONTINUOUS
 62
8
 10
166.930600
 20
624.946794
 11
166.930600
 21
624.946794
  0
LINE
  8
CutLine
  6
CONTINUOUS
 62
8
 10
166.930600
 20
624.946794
 11
171.930600
 21
629.946794
  0
LINE
  8
CutLine
  6
CONTINUOUS
 62
8
 10
171.930600
 20
629.946794
 11
171.930600
 21
700.402177
  0
LINE
  8
CutLine
  6
CONTINUOUS
 62
8
 10
171.930600
 20
700.402177
 11
166.930600
 21
713.863712
  0
LINE
  8
CutLine
  6
CONTINUOUS
 62
8
 10
166.930600
 20
713.863712
 11
166.930600
 21
713.863712
  0
LINE
  8
CutLine
  6
CONTINUOUS
 62
8
 10
166.930600
 20
713.863712
 11
166.930600
 21
713.863712
  0
LINE
  8
CutLine
  6
CONTINUOUS
 62
8
 10
110.404836
 20
731.101181
 11
110.404836
 21
731.101181
  0
LINE
  8
CutLine
  6
CONTINUOUS
 62
8
 10
110.404836
 20
731.101181
 11
105.404836
 21
726.101181
  0
LINE
  8
CutLine
  6
CONTINUOUS
 62
8
 10
105.404836
 20
726.101181
 11
105.404836
 21
718.863712
  0
LINE
  8
CutLine
  6
CONTINUOUS
 62
8
 10
105.404836
 20
718.863712
 11
110.404836
 21
713.863712
  0
LINE
  8
CutLine
  6
CONTINUOUS
 62
8
 10
110.404836
 20
713.863712
 11
110.404836
 21
713.863712
  0
LINE
  8
CutLine
  6
CONTINUOUS
 62
8
 10
110.404836
 20
737.363186
 11
110.404836
 21
737.363186
  0
LINE
  8
CutLine
  6
CONTINUOUS
 62
8
 10
110.404836
 20
737.363186
 11
110.404836
 21
737.363186
  0
LINE
  8
CutLine
  6
CONTINUOUS
 62
8
 10
110.404836
 20
737.363186
 11
110.404836
 21
737.363186
  0
LINE
  8
CutLine
  6
CONTINUOUS
 62
8
 10
110.404836
 20
737.363186
 11
105.404836
 21
734.232183
  0
LINE
  8
CutLine
  6
CONTINUOUS
 62
8
 10
105.404836
 20
734.232183
 11
110.404836
 21
731.101181
  0
LINE
  8
CutLine
  6
CONTINUOUS
 62
8
 10
110.404836
 20
731.101181
 11
110.404836
 21
731.101181
  0
LINE
  8
CutLine
  6
CONTINUOUS
 62
8
 10
87.544936
 20
574.047905
 11
92.046773
 21
577.174514
  0
LINE
  8
CutLine
  6
CONTINUOUS
 62
8
 10
92.046773
 20
577.174514
 11
86.719127
 21
578.462305
  0
LINE
  8
CutLine
  6
CONTINUOUS
 62
8
 10
86.719127
 20
578.462305
 11
86.719127
 21
578.462305
  0
LINE
  8
CutLine
  6
CONTINUOUS
 62
8
 10
11.466865
 20
515.943944
 11
11.466865
 21
515.943944
  0
LINE
  8
CutLine
  6
CONTINUOUS
 62
8
 10
11.466865
 20
515.943944
 11
16.413163
 21
510.890813
  0
LINE
  8
CutLine
  6
CONTINUOUS
 62
8
 10
16.413163
 20
510.890813
 11
27.154012
 21
510.776058
  0
LINE
  8
CutLine
  6
CONTINUOUS
 62
8
 10
27.154012
 20
510.776058
 11
32.207143
 21
515.722356
  0
LINE
  8
CutLine
  6
CONTINUOUS
 62
8
 10
32.207143
 20
515.722356
 11
32.207143
 21
515.722356
  0
LINE
  8
CutLine
  6
CONTINUOUS
 62
8
 10
63.058582
 20
602.363186
 11
55.741562
 21
600.527719
  0
LINE
  8
CutLine
  6
CONTINUOUS
 62
8
 10
55.741562
 20
600.527719
 11
5.000000
 21
526.432624
  0
LINE
  8
CutLine
  6
CONTINUOUS
 62
8
 10
5.000000
 20
526.432624
 11
6.300248
 21
519.482130
  0
LINE
  8
CutLine
  6
CONTINUOUS
 62
8
 10
6.300248
 20
519.482130
 11
6.300248
 21
519.482130
  0
LINE
  8
CutLine
  6
CONTINUOUS
 62
8
 10
84.099018
 20
580.256599
 11
88.187944
 21
585.590417
  0
LINE
  8
CutLine
  6
CONTINUOUS
 62
8
 10
88.187944
 20
585.590417
 11
82.447389
 21
589.085406
  0
LINE
  8
CutLine
  6
CONTINUOUS
 62
8
 10
82.447389
 20
589.085406
 11
82.447389
 21
589.085406
  0
LINE
  8
CutLine
  6
CONTINUOUS
 62
8
 10
48.070457
 20
516.405508
 11
48.070457
 21
516.405508
  0
LINE
  8
CutLine
  6
CONTINUOUS
 62
8
 10
48.070457
 20
516.405508
 11
49.370705
 21
509.455015
  0
LINE
  8
CutLine
  6
CONTINUOUS
 62
8
 10
49.370705
 20
509.455015
 11
51.600400
 21
507.928082
  0
LINE
  8
CutLine
  6
CONTINUOUS
 62
8
 10
51.600400
 20
507.928082
 11
58.550893
 21
509.228330
  0
LINE
  8
CutLine
  6
CONTINUOUS
 62
8
 10
58.550893
 20
509.228330
 11
58.550893
 21
509.228330
  0
LINE
  8
CutLine
  6
CONTINUOUS
 62
8
 10
58.550893
 20
509.228330
 11
58.550893
 21
509.228330
  0
LINE
  8
CutLine
  6
CONTINUOUS
 62
8
 10
58.550893
 20
509.228330
 11
65.501386
 21
510.528578
  0
LINE
  8
CutLine
  6
CONTINUOUS
 62
8
 10
65.501386
 20
510.528578
 11
99.325620
 21
559.920234
  0
LINE
  8
CutLine
  6
CONTINUOUS
 62
8
 10
99.325620
 20
559.920234
 11
98.025372
 21
566.870727
  0
LINE
  8
CutLine
  6
CONTINUOUS
 62
8
 10
98.025372
 20
566.870727
 11
98.025372
 21
566.870727
  0
LINE
  8
CutLine
  6
CONTINUOUS
 62
8
 10
98.025372
 20
566.870727
 11
98.025372
 21
566.870727
  0
LINE
  8
CutLine
  6
CONTINUOUS
 62
8
 10
58.951188
 20
884.761058
 11
64.006320
 21
889.705311
  0
LINE
  8
CutLine
  6
CONTINUOUS
 62
8
 10
64.006320
 20
889.705311
 11
65.454661
 21
1020.320540
  0
LINE
  8
CutLine
  6
CONTINUOUS
 62
8
 10
65.454661
 20
1020.320540
 11
60.570887
 21
1030.829883
  0
LINE
  8
CutLine
  6
CONTINUOUS
 62
8
 10
11.902346
 20
1052.363186
 11
11.902346
 21
1052.363186
  0
LINE
  8
CutLine
  6
CONTINUOUS
 62
8
 10
11.902346
 20
1052.363186
 11
6.792546
 21
1042.488788
  0
LINE
  8
CutLine
  6
CONTINUOUS
 62
8
 10
6.792546
 20
1042.488788
 11
5.000000
 21
880.832210
  0
LINE
  8
CutLine
  6
CONTINUOUS
 62
8
 10
5.000000
 20
880.832210
 11
9.944253
 21
875.777077
  0
LINE
  8
CutLine
  6
CONTINUOUS
 62
8
 10
170.157968
 20
882.363186
 11
170.157968
 21
882.363186
  0
LINE
  8
CutLine
  6
CONTINUOUS
 62
8
 10
170.157968
 20
882.363186
 11
165.157968
 21
887.363186
  0
LINE
  8
CutLine
  6
CONTINUOUS
 62
8
 10
165.157968
 20
887.363186
 11
155.404836
 21
887.363186
  0
LINE
  8
CutLine
  6
CONTINUOUS
 62
8
 10
155.404836
 20
887.363186
 11
150.404836
 21
882.363186
  0
LINE
  8
CutLine
  6
CONTINUOUS
 62
8
 10
150.404836
 20
793.446261
 11
155.404836
 21
788.446261
  0
LINE
  8
CutLine
  6
CONTINUOUS
 62
8
 10
155.404836
 20
788.446261
 11
165.157968
 21
788.446261
  0
LINE
  8
CutLine
  6
CONTINUOUS
 62
8
 10
165.157968
 20
788.446261
 11
170.157968
 21
793.446261
  0
LINE
  8
CutLine
  6
CONTINUOUS
 62
8
 10
170.157968
 20
793.446261
 11
173.865196
 21
788.446261
  0
LINE
  8
CutLine
  6
CONTINUOUS
 62
8
 10
173.865196
 20
788.446261
 11
177.572423
 21
793.446261
  0
LINE
  8
CutLine
  6
CONTINUOUS
 62
8
 10
177.572423
 20
793.446261
 11
177.572423
 21
793.446261
  0
LINE
  8
CutLine
  6
CONTINUOUS
 62
8
 10
177.572423
 20
793.446261
 11
177.572423
 21
793.446261
  0
LINE
  8
CutLine
  6
CONTINUOUS
 62
8
 10
177.572423
 20
793.446261
 11
177.572423
 21
793.446261
  0
LINE
  8
CutLine
  6
CONTINUOUS
 62
8
 10
177.572423
 20
793.446261
 11
182.572423
 21
798.446261
  0
LINE
  8
CutLine
  6
CONTINUOUS
 62
8
 10
182.572423
 20
798.446261
 11
182.572423
 21
877.363186
  0
LINE
  8
CutLine
  6
CONTINUOUS
 62
8
 10
182.572423
 20
877.363186
 11
177.572423
 21
882.363186
  0
LINE
  8
CutLine
  6
CONTINUOUS
 62
8
 10
177.572423
 20
882.363186
 11
177.572423
 21
882.363186
  0
LINE
  8
CutLine
  6
CONTINUOUS
 62
8
 10
177.572423
 20
882.363186
 11
177.572423
 21
882.363186
  0
LINE
  8
CutLine
  6
CONTINUOUS
 62
8
 10
177.572423
 20
882.363186
 11
177.572423
 21
882.363186
  0
LINE
  8
CutLine
  6
CONTINUOUS
 62
8
 10
177.572423
 20
882.363186
 11
177.572423
 21
882.363186
  0
LINE
  8
CutLine
  6
CONTINUOUS
 62
8
 10
177.572423
 20
882.363186
 11
177.572423
 21
882.363186
  0
LINE
  8
CutLine
  6
CONTINUOUS
 62
8
 10
177.572423
 20
882.363186
 11
173.865196
 21
887.363186
  0
LINE
  8
CutLine
  6
CONTINUOUS
 62
8
 10
173.865196
 20
887.363186
 11
170.157968
 21
882.363186
  0
LINE
  8
CutLine
  6
CONTINUOUS
 62
8
 10
150.404836
 20
882.363186
 11
150.404836
 21
882.363186
  0
LINE
  8
CutLine
  6
CONTINUOUS
 62
8
 10
150.404836
 20
882.363186
 11
143.693697
 21
882.723115
  0
LINE
  8
CutLine
  6
CONTINUOUS
 62
8
 10
143.693697
 20
882.723115
 11
144.053627
 21
876.011977
  0
LINE
  8
CutLine
  6
CONTINUOUS
 62
8
 10
137.702418
 20
802.973074
 11
137.702418
 21
802.973074
  0
LINE
  8
CutLine
  6
CONTINUOUS
 62
8
 10
137.702418
 20
802.973074
 11
135.754686
 21
797.849738
  0
LINE
  8
CutLine
  6
CONTINUOUS
 62
8
 10
135.754686
 20
797.849738
 11
140.878022
 21
799.797470
  0
LINE
  8
CutLine
  6
CONTINUOUS
 62
8
 10
140.878022
 20
799.797470
 11
140.878022
 21
799.797470
  0
LINE
  8
CutLine
  6
CONTINUOUS
 62
8
 10
137.702418
 20
872.836372
 11
132.702418
 21
877.836372
  0
LINE
  8
CutLine
  6
CONTINUOUS
 62
8
 10
132.702418
 20
877.836372
 11
130.000000
 21
877.836372
  0
LINE
  8
CutLine
  6
CONTINUOUS
 62
8
 10
130.000000
 20
877.836372
 11
125.000000
 21
872.836372
  0
LINE
  8
CutLine
  6
CONTINUOUS
 62
8
 10
125.000000
 20
872.836372
 11
125.000000
 21
872.836372
  0
LINE
  8
CutLine
  6
CONTINUOUS
 62
8
 10
125.000000
 20
872.836372
 11
120.000000
 21
867.836372
  0
LINE
  8
CutLine
  6
CONTINUOUS
 62
8
 10
120.000000
 20
867.836372
 11
120.000000
 21
807.973074
  0
LINE
  8
CutLine
  6
CONTINUOUS
 62
8
 10
120.000000
 20
807.973074
 11
125.000000
 21
802.973074
  0
LINE
  8
CutLine
  6
CONTINUOUS
 62
8
 10
125.000000
 20
802.973074
 11
125.000000
 21
802.973074
  0
LINE
  8
CutLine
  6
CONTINUOUS
 62
8
 10
125.000000
 20
802.973074
 11
125.000000
 21
802.973074
  0
LINE
  8
CutLine
  6
CONTINUOUS
 62
8
 10
125.000000
 20
802.973074
 11
125.000000
 21
802.973074
  0
LINE
  8
CutLine
  6
CONTINUOUS
 62
8
 10
125.000000
 20
802.973074
 11
130.000000
 21
797.973074
  0
LINE
  8
CutLine
  6
CONTINUOUS
 62
8
 10
130.000000
 20
797.973074
 11
132.702418
 21
797.973074
  0
LINE
  8
CutLine
  6
CONTINUOUS
 62
8
 10
132.702418
 20
797.973074
 11
137.702418
 21
802.973074
  0
LINE
  8
CutLine
  6
CONTINUOUS
 62
8
 10
144.053627
 20
799.797470
 11
143.693697
 21
793.086332
  0
LINE
  8
CutLine
  6
CONTINUOUS
 62
8
 10
143.693697
 20
793.086332
 11
150.404836
 21
793.446261
  0
LINE
  8
CutLine
  6
CONTINUOUS
 62
8
 10
140.878022
 20
876.011977
 11
140.878022
 21
876.011977
  0
LINE
  8
CutLine
  6
CONTINUOUS
 62
8
 10
140.878022
 20
876.011977
 11
140.878022
 21
876.011977
  0
LINE
  8
CutLine
  6
CONTINUOUS
 62
8
 10
140.878022
 20
876.011977
 11
135.754686
 21
877.959708
  0
LINE
  8
CutLine
  6
CONTINUOUS
 62
8
 10
135.754686
 20
877.959708
 11
137.702418
 21
872.836372
  0
LINE
  8
CutLine
  6
CONTINUOUS
 62
8
 10
137.702418
 20
872.836372
 11
137.702418
 21
872.836372
  0
LINE
  8
CutLine
  6
CONTINUOUS
 62
8
 10
140.878022
 20
799.797470
 11
142.465824
 21
794.797470
  0
LINE
  8
CutLine
  6
CONTINUOUS
 62
8
 10
142.465824
 20
794.797470
 11
144.053627
 21
799.797470
  0
LINE
  8
CutLine
  6
CONTINUOUS
 62
8
 10
144.053627
 20
876.011977
 11
142.465824
 21
881.011977
  0
LINE
  8
CutLine
  6
CONTINUOUS
 62
8
 10
142.465824
 20
881.011977
 11
140.878022
 21
876.011977
  0
LINE
  8
CutLine
  6
CONTINUOUS
 62
8
 10
140.878022
 20
876.011977
 11
140.878022
 21
876.011977
  0
LINE
  8
CutLine
  6
CONTINUOUS
 62
8
 10
53.904309
 20
611.758568
 11
53.904309
 21
611.758568
  0
LINE
  8
CutLine
  6
CONTINUOUS
 62
8
 10
53.904309
 20
611.758568
 11
53.904309
 21
611.758568
  0
LINE
  8
CutLine
  6
CONTINUOUS
 62
8
 10
53.904309
 20
611.758568
 11
58.904309
 21
616.758568
  0
LINE
  8
CutLine
  6
CONTINUOUS
 62
8
 10
58.904309
 20
616.758568
 11
58.904309
 21
747.381827
  0
LINE
  8
CutLine
  6
CONTINUOUS
 62
8
 10
58.904309
 20
747.381827
 11
53.904309
 21
757.836372
  0
LINE
  8
CutLine
  6
CONTINUOUS
 62
8
 10
53.904309
 20
757.836372
 11
53.904309
 21
757.836372
  0
LINE
  8
CutLine
  6
CONTINUOUS
 62
8
 10
53.904309
 20
757.836372
 11
53.904309
 21
757.836372
  0
LINE
  8
CutLine
  6
CONTINUOUS
 62
8
 10
5.000000
 20
767.363186
 11
5.000000
 21
767.363186
  0
LINE
  8
CutLine
  6
CONTINUOUS
 62
8
 10
5.000000
 20
767.363186
 11
0.000000
 21
757.432738
  0
LINE
  8
CutLine
  6
CONTINUOUS
 62
8
 10
0.000000
 20
757.432738
 11
0.000000
 21
595.766221
  0
LINE
  8
CutLine
  6
CONTINUOUS
 62
8
 10
0.000000
 20
595.766221
 11
5.000000
 21
590.766221
  0
LINE
  8
CutLine
  6
CONTINUOUS
 62
8
 10
143.431127
 20
908.861770
 11
143.431127
 21
908.861770
  0
LINE
  8
CutLine
  6
CONTINUOUS
 62
8
 10
143.431127
 20
908.861770
 11
143.431127
 21
908.861770
  0
LINE
  8
CutLine
  6
CONTINUOUS
 62
8
 10
143.431127
 20
908.861770
 11
148.431127
 21
913.861770
  0
LINE
  8
CutLine
  6
CONTINUOUS
 62
8
 10
148.431127
 20
913.861770
 11
148.431127
 21
919.946788
  0
LINE
  8
CutLine
  6
CONTINUOUS
 62
8
 10
148.431127
 20
919.946788
 11
143.431127
 21
924.946788
  0
LINE
  8
CutLine
  6
CONTINUOUS
 62
8
 10
143.431127
 20
924.946788
 11
143.431127
 21
924.946788
  0
LINE
  8
CutLine
  6
CONTINUOUS
 62
8
 10
110.404836
 20
924.946788
 11
110.404836
 21
924.946788
  0
LINE
  8
CutLine
  6
CONTINUOUS
 62
8
 10
110.404836
 20
924.946788
 11
105.404836
 21
919.946788
  0
LINE
  8
CutLine
  6
CONTINUOUS
 62
8
 10
105.404836
 20
919.946788
 11
105.404836
 21
913.861770
  0
LINE
  8
CutLine
  6
CONTINUOUS
 62
8
 10
105.404836
 20
913.861770
 11
110.404836
 21
908.861770
  0
LINE
  8
CutLine
  6
CONTINUOUS
 62
8
 10
110.404836
 20
908.861770
 11
110.404836
 21
908.861770
  0
LINE
  8
CutLine
  6
CONTINUOUS
 62
8
 10
110.404836
 20
901.447315
 11
115.404836
 21
896.447315
  0
LINE
  8
CutLine
  6
CONTINUOUS
 62
8
 10
115.404836
 20
896.447315
 11
138.431127
 21
896.447315
  0
LINE
  8
CutLine
  6
CONTINUOUS
 62
8
 10
138.431127
 20
896.447315
 11
143.431127
 21
901.447315
  0
LINE
  8
CutLine
  6
CONTINUOUS
 62
8
 10
143.431127
 20
901.447315
 11
143.431127
 21
901.447315
  0
LINE
  8
CutLine
  6
CONTINUOUS
 62
8
 10
143.431127
 20
901.447315
 11
143.431127
 21
901.447315
  0
LINE
  8
CutLine
  6
CONTINUOUS
 62
8
 10
143.431127
 20
901.447315
 11
143.431127
 21
901.447315
  0
LINE
  8
CutLine
  6
CONTINUOUS
 62
8
 10
143.431127
 20
901.447315
 11
148.431127
 21
905.154542
  0
LINE
  8
CutLine
  6
CONTINUOUS
 62
8
 10
148.431127
 20
905.154542
 11
143.431127
 21
908.861770
  0
LINE
  8
CutLine
  6
CONTINUOUS
 62
8
 10
143.431127
 20
908.861770
 11
143.431127
 21
908.861770
  0
LINE
  8
CutLine
  6
CONTINUOUS
 62
8
 10
143.431127
 20
908.861770
 11
143.431127
 21
908.861770
  0
LINE
  8
CutLine
  6
CONTINUOUS
 62
8
 10
110.404836
 20
908.861770
 11
110.404836
 21
908.861770
  0
LINE
  8
CutLine
  6
CONTINUOUS
 62
8
 10
110.404836
 20
908.861770
 11
105.404836
 21
905.154542
  0
LINE
  8
CutLine
  6
CONTINUOUS
 62
8
 10
105.404836
 20
905.154542
 11
110.404836
 21
901.447315
  0
LINE
  8
CutLine
  6
CONTINUOUS
 62
8
 10
110.404836
 20
901.447315
 11
110.404836
 21
901.447315
  0
LINE
  8
CutLine
  6
CONTINUOUS
 62
8
 10
166.930600
 20
924.946788
 11
166.930600
 21
924.946788
  0
LINE
  8
CutLine
  6
CONTINUOUS
 62
8
 10
166.930600
 20
924.946788
 11
166.930600
 21
924.946788
  0
LINE
  8
CutLine
  6
CONTINUOUS
 62
8
 10
166.930600
 20
924.946788
 11
171.930600
 21
929.946788
  0
LINE
  8
CutLine
  6
CONTINUOUS
 62
8
 10
171.930600
 20
929.946788
 11
171.930600
 21
1000.402176
  0
LINE
  8
CutLine
  6
CONTINUOUS
 62
8
 10
171.930600
 20
1000.402176
 11
166.930600
 21
1013.863712
  0
LINE
  8
CutLine
  6
CONTINUOUS
 62
8
 10
166.930600
 20
1013.863712
 11
166.930600
 21
1013.863712
  0
LINE
  8
CutLine
  6
CONTINUOUS
 62
8
 10
166.930600
 20
1013.863712
 11
166.930600
 21
1013.863712
  0
LINE
  8
CutLine
  6
CONTINUOUS
 62
8
 10
143.431127
 20
1013.863712
 11
148.431127
 21
1018.863712
  0
LINE
  8
CutLine
  6
CONTINUOUS
 62
8
 10
148.431127
 20
1018.863712
 11
148.431127
 21
1024.948731
  0
LINE
  8
CutLine
  6
CONTINUOUS
 62
8
 10
148.431127
 20
1024.948731
 11
143.431127
 21
1029.948731
  0
LINE
  8
CutLine
  6
CONTINUOUS
 62
8
 10
143.431127
 20
1029.948731
 11
143.431127
 21
1029.948731
  0
LINE
  8
CutLine
  6
CONTINUOUS
 62
8
 10
143.431127
 20
1029.948731
 11
143.431127
 21
1029.948731
  0
LINE
  8
CutLine
  6
CONTINUOUS
 62
8
 10
143.431127
 20
1029.948731
 11
143.431127
 21
1029.948731
  0
LINE
  8
CutLine
  6
CONTINUOUS
 62
8
 10
143.431127
 20
1029.948731
 11
148.431127
 21
1033.655958
  0
LINE
  8
CutLine
  6
CONTINUOUS
 62
8
 10
148.431127
 20
1033.655958
 11
143.431127
 21
1037.363186
  0
LINE
  8
CutLine
  6
CONTINUOUS
 62
8
 10
143.431127
 20
1037.363186
 11
143.431127
 21
1037.363186
  0
LINE
  8
CutLine
  6
CONTINUOUS
 62
8
 10
143.431127
 20
1037.363186
 11
143.431127
 21
1037.363186
  0
LINE
  8
CutLine
  6
CONTINUOUS
 62
8
 10
143.431127
 20
1037.363186
 11
138.431127
 21
1042.363186
  0
LINE
  8
CutLine
  6
CONTINUOUS
 62
8
 10
138.431127
 20
1042.363186
 11
115.404836
 21
1042.363186
  0
LINE
  8
CutLine
  6
CONTINUOUS
 62
8
 10
115.404836
 20
1042.363186
 11
110.404836
 21
1037.363186
  0
LINE
  8
CutLine
  6
CONTINUOUS
 62
8
 10
110.404836
 20
1037.363186
 11
110.404836
 21
1037.363186
  0
LINE
  8
CutLine
  6
CONTINUOUS
 62
8
 10
110.404836
 20
1037.363186
 11
110.404836
 21
1037.363186
  0
LINE
  8
CutLine
  6
CONTINUOUS
 62
8
 10
110.404836
 20
1013.863712
 11
110.404836
 21
1013.863712
  0
LINE
  8
CutLine
  6
CONTINUOUS
 62
8
 10
110.404836
 20
1013.863712
 11
103.693697
 21
1014.223642
  0
LINE
  8
CutLine
  6
CONTINUOUS
 62
8
 10
103.693697
 20
1014.223642
 11
104.053627
 21
1007.512503
  0
LINE
  8
CutLine
  6
CONTINUOUS
 62
8
 10
104.053627
 20
1007.512503
 11
104.053627
 21
1007.512503
  0
LINE
  8
CutLine
  6
CONTINUOUS
 62
8
 10
104.053627
 20
931.297997
 11
104.053627
 21
931.297997
  0
LINE
  8
CutLine
  6
CONTINUOUS
 62
8
 10
104.053627
 20
931.297997
 11
104.053627
 21
931.297997
  0
LINE
  8
CutLine
  6
CONTINUOUS
 62
8
 10
104.053627
 20
931.297997
 11
103.693697
 21
924.586858
  0
LINE
  8
CutLine
  6
CONTINUOUS
 62
8
 10
103.693697
 20
924.586858
 11
110.404836
 21
924.946788
  0
LINE
  8
CutLine
  6
CONTINUOUS
 62
8
 10
104.053627
 20
1007.512503
 11
102.465824
 21
1012.512503
  0
LINE
  8
CutLine
  6
CONTINUOUS
 62
8
 10
102.465824
 20
1012.512503
 11
100.878022
 21
1007.512503
  0
LINE
  8
CutLine
  6
CONTINUOUS
 62
8
 10
100.878022
 20
1007.512503
 11
100.878022
 21
1007.512503
  0
LINE
  8
CutLine
  6
CONTINUOUS
 62
8
 10
100.878022
 20
931.297997
 11
100.878022
 21
931.297997
  0
LINE
  8
CutLine
  6
CONTINUOUS
 62
8
 10
100.878022
 20
931.297997
 11
100.878022
 21
931.297997
  0
LINE
  8
CutLine
  6
CONTINUOUS
 62
8
 10
100.878022
 20
931.297997
 11
102.465824
 21
926.297997
  0
LINE
  8
CutLine
  6
CONTINUOUS
 62
8
 10
102.465824
 20
926.297997
 11
104.053627
 21
931.297997
  0
LINE
  8
CutLine
  6
CONTINUOUS
 62
8
 10
97.702418
 20
1004.336899
 11
92.702418
 21
1009.336899
  0
LINE
  8
CutLine
  6
CONTINUOUS
 62
8
 10
92.702418
 20
1009.336899
 11
90.000000
 21
1009.336899
  0
LINE
  8
CutLine
  6
CONTINUOUS
 62
8
 10
90.000000
 20
1009.336899
 11
85.000000
 21
1004.336899
  0
LINE
  8
CutLine
  6
CONTINUOUS
 62
8
 10
85.000000
 20
1004.336899
 11
85.000000
 21
1004.336899
  0
LINE
  8
CutLine
  6
CONTINUOUS
 62
8
 10
97.702418
 20
934.473601
 11
95.754686
 21
929.350265
  0
LINE
  8
CutLine
  6
CONTINUOUS
 62
8
 10
95.754686
 20
929.350265
 11
100.878022
 21
931.297997
  0
LINE
  8
CutLine
  6
CONTINUOUS
 62
8
 10
100.878022
 20
931.297997
 11
100.878022
 21
931.297997
  0
LINE
  8
CutLine
  6
CONTINUOUS
 62
8
 10
100.878022
 20
931.297997
 11
100.878022
 21
931.297997
  0
LINE
  8
CutLine
  6
CONTINUOUS
 62
8
 10
110.404836
 20
1029.948731
 11
110.404836
 21
1029.948731
  0
LINE
  8
CutLine
  6
CONTINUOUS
 62
8
 10
110.404836
 20
1029.948731
 11
105.404836
 21
1024.948731
  0
LINE
  8
CutLine
  6
CONTINUOUS
 62
8
 10
105.404836
 20
1024.948731
 11
105.404836
 21
1018.863712
  0
LINE
  8
CutLine
  6
CONTINUOUS
 62
8
 10
105.404836
 20
1018.863712
 11
110.404836
 21
1013.863712
  0
LINE
  8
CutLine
  6
CONTINUOUS
 62
8
 10
110.404836
 20
1037.363186
 11
110.404836
 21
1037.363186
  0
LINE
  8
CutLine
  6
CONTINUOUS
 62
8
 10
110.404836
 20
1037.363186
 11
110.404836
 21
1037.363186
  0
LINE
  8
CutLine
  6
CONTINUOUS
 62
8
 10
110.404836
 20
1037.363186
 11
110.404836
 21
1037.363186
  0
LINE
  8
CutLine
  6
CONTINUOUS
 62
8
 10
110.404836
 20
1037.363186
 11
105.404836
 21
1033.655958
  0
LINE
  8
CutLine
  6
CONTINUOUS
 62
8
 10
105.404836
 20
1033.655958
 11
110.404836
 21
1029.948731
  0
LINE
  8
CutLine
  6
CONTINUOUS
 62
8
 10
100.878022
 20
1007.512503
 11
95.754686
 21
1009.460235
  0
LINE
  8
CutLine
  6
CONTINUOUS
 62
8
 10
95.754686
 20
1009.460235
 11
97.702418
 21
1004.336899
  0
LINE
  8
CutLine
  6
CONTINUOUS
 62
8
 10
85.000000
 20
1004.336899
 11
80.000000
 21
999.336899
  0
LINE
  8
CutLine
  6
CONTINUOUS
 62
8
 10
80.000000
 20
999.336899
 11
80.000000
 21
939.473601
  0
LINE
  8
CutLine
  6
CONTINUOUS
 62
8
 10
80.000000
 20
939.473601
 11
85.000000
 21
934.473601
  0
LINE
  8
CutLine
  6
CONTINUOUS
 62
8
 10
85.000000
 20
934.473601
 11
85.000000
 21
934.473601
  0
LINE
  8
CutLine
  6
CONTINUOUS
 62
8
 10
85.000000
 20
934.473601
 11
85.000000
 21
934.473601
  0
LINE
  8
CutLine
  6
CONTINUOUS
 62
8
 10
85.000000
 20
934.473601
 11
85.000000
 21
934.473601
  0
LINE
  8
CutLine
  6
CONTINUOUS
 62
8
 10
85.000000
 20
934.473601
 11
85.000000
 21
934.473601
  0
LINE
  8
CutLine
  6
CONTINUOUS
 62
8
 10
85.000000
 20
934.473601
 11
90.000000
 21
929.473601
  0
LINE
  8
CutLine
  6
CONTINUOUS
 62
8
 10
90.000000
 20
929.473601
 11
92.702418
 21
929.473601
  0
LINE
  8
CutLine
  6
CONTINUOUS
 62
8
 10
92.702418
 20
929.473601
 11
97.702418
 21
934.473601
  0
LINE
  8
CutLine
  6
CONTINUOUS
 62
8
 10
43.026291
 20
403.446267
 11
143.479155
 21
403.446267
  0
LINE
  8
CutLine
  6
CONTINUOUS
 62
8
 10
143.479155
 20
492.363186
 11
43.026291
 21
492.363186
  0
LINE
  8
CutLine
  6
CONTINUOUS
 62
8
 10
43.026291
 20
492.363186
 11
10.000000
 21
492.363186
  0
LINE
  8
CutLine
  6
CONTINUOUS
 62
8
 10
10.000000
 20
492.363186
 11
10.000000
 21
403.446267
  0
LINE
  8
CutLine
  6
CONTINUOUS
 62
8
 10
10.000000
 20
403.446267
 11
43.026291
 21
403.446267
  0
LINE
  8
CutLine
  6
CONTINUOUS
 62
8
 10
143.479155
 20
403.446267
 11
143.479155
 21
492.363186
  0
LINE
  8
MountainLine
  6
CONTINUOUS
 62
5
 10
172.300479
 20
544.660768
 11
102.437181
 21
544.660768
  0
LINE
  8
MountainLine
  6
CONTINUOUS
 62
5
 10
102.437181
 20
544.660768
 11
99.261576
 21
541.485163
  0
LINE
  8
ValleyLine
  6
CONTINUOUS
 62
1
 10
172.300479
 20
544.660768
 11
172.300479
 21
557.363186
  0
LINE
  8
MountainLine
  6
CONTINUOUS
 62
5
 10
181.827292
 20
531.958350
 11
92.910367
 21
531.958350
  0
LINE
  8
MountainLine
  6
CONTINUOUS
 62
5
 10
92.910367
 20
531.958350
 11
81.374428
 21
514.720881
  0
LINE
  8
CutLine
  6
CONTINUOUS
 62
8
 10
81.374428
 20
514.720881
 11
81.374428
 21
508.458877
  0
LINE
  8
CutLine
  6
CONTINUOUS
 62
8
 10
181.827292
 20
531.958350
 11
175.476083
 21
538.309559
  0
LINE
  8
MountainLine
  6
CONTINUOUS
 62
5
 10
175.476083
 20
538.309559
 11
99.261576
 21
538.309559
  0
LINE
  8
MountainLine
  6
CONTINUOUS
 62
5
 10
99.261576
 20
538.309559
 11
92.910367
 21
531.958350
  0
LINE
  8
CutLine
  6
CONTINUOUS
 62
8
 10
175.476083
 20
538.309559
 11
175.476083
 21
541.485163
  0
LINE
  8
ValleyLine
  6
CONTINUOUS
 62
1
 10
175.476083
 20
541.485163
 11
99.261576
 21
541.485163
  0
LINE
  8
CutLine
  6
CONTINUOUS
 62
8
 10
99.261576
 20
541.485163
 11
99.261576
 21
538.309559
  0
LINE
  8
CutLine
  6
CONTINUOUS
 62
8
 10
175.476083
 20
541.485163
 11
172.300479
 21
544.660768
  0
LINE
  8
ValleyLine
  6
CONTINUOUS
 62
1
 10
172.300479
 20
557.363186
 11
102.437181
 21
557.363186
  0
LINE
  8
ValleyLine
  6
CONTINUOUS
 62
1
 10
102.437181
 20
557.363186
 11
102.437181
 21
544.660768
  0
LINE
  8
MountainLine
  6
CONTINUOUS
 62
5
 10
81.374428
 20
508.458877
 11
181.827292
 21
508.458877
  0
LINE
  8
CutLine
  6
CONTINUOUS
 62
8
 10
181.827292
 20
514.720881
 11
181.827292
 21
531.958350
  0
LINE
  8
CutLine
  6
CONTINUOUS
 62
8
 10
181.827292
 20
508.458877
 11
181.827292
 21
514.720881
  0
LINE
  8
MountainLine
  6
CONTINUOUS
 62
5
 10
103.811136
 20
822.022463
 11
14.895075
 21
821.631833
  0
LINE
  8
CutLine
  6
CONTINUOUS
 62
8
 10
14.895075
 20
821.631833
 11
14.986197
 21
800.890572
  0
LINE
  8
MountainLine
  6
CONTINUOUS
 62
5
 10
103.902257
 20
801.281201
 11
14.986197
 21
800.890572
  0
LINE
  8
MountainLine
  6
CONTINUOUS
 62
5
 10
14.986197
 20
800.890572
 11
15.013707
 21
794.628628
  0
LINE
  8
CutLine
  6
CONTINUOUS
 62
8
 10
103.902257
 20
801.281201
 11
103.811136
 21
822.022463
  0
LINE
  8
MountainLine
  6
CONTINUOUS
 62
5
 10
15.013707
 20
794.628628
 11
103.929767
 21
795.019257
  0
LINE
  8
MountainLine
  6
CONTINUOUS
 62
5
 10
103.929767
 20
795.019257
 11
103.902257
 21
801.281201
  0
LINE
  8
MountainLine
  6
CONTINUOUS
 62
5
 10
97.432086
 20
828.345708
 11
21.218321
 21
828.010883
  0
LINE
  8
CutLine
  6
CONTINUOUS
 62
8
 10
103.811136
 20
822.022463
 11
97.432086
 21
828.345708
  0
LINE
  8
MountainLine
  6
CONTINUOUS
 62
5
 10
21.218321
 20
828.010883
 11
14.895075
 21
821.631833
  0
LINE
  8
MountainLine
  6
CONTINUOUS
 62
5
 10
94.228610
 20
834.682905
 11
24.365987
 21
834.375982
  0
LINE
  8
MountainLine
  6
CONTINUOUS
 62
5
 10
24.365987
 20
834.375982
 11
21.204370
 21
831.186457
  0
LINE
  8
CutLine
  6
CONTINUOUS
 62
8
 10
94.228610
 20
834.682905
 11
94.172806
 21
847.385200
  0
LINE
  8
ValleyLine
  6
CONTINUOUS
 62
1
 10
97.432086
 20
828.345708
 11
97.418135
 21
831.521282
  0
LINE
  8
ValleyLine
  6
CONTINUOUS
 62
1
 10
97.418135
 20
831.521282
 11
21.204370
 21
831.186457
  0
LINE
  8
ValleyLine
  6
CONTINUOUS
 62
1
 10
21.204370
 20
831.186457
 11
21.218321
 21
828.010883
  0
LINE
  8
CutLine
  6
CONTINUOUS
 62
8
 10
97.418135
 20
831.521282
 11
94.228610
 21
834.682905
  0
LINE
  8
CutLine
  6
CONTINUOUS
 62
8
 10
24.310182
 20
847.078277
 11
24.365987
 21
834.375982
  0
LINE
  8
ValleyLine
  6
CONTINUOUS
 62
1
 10
94.172806
 20
847.385200
 11
24.310182
 21
847.078277
  0
LINE
  8
CutLine
  6
CONTINUOUS
 62
8
 10
85.000000
 20
634.473607
 11
97.702418
 21
634.473607
  0
LINE
  8
ValleyLine
  6
CONTINUOUS
 62
1
 10
85.000000
 20
704.336905
 11
85.000000
 21
634.473607
  0
LINE
  8
MountainLine
  6
CONTINUOUS
 62
5
 10
104.053627
 20
631.298003
 11
104.053627
 21
707.512503
  0
LINE
  8
ValleyLine
  6
CONTINUOUS
 62
1
 10
104.053627
 20
707.512503
 11
100.878022
 21
707.512503
  0
LINE
  8
ValleyLine
  6
CONTINUOUS
 62
1
 10
100.878022
 20
707.512503
 11
100.878022
 21
631.298003
  0
LINE
  8
ValleyLine
  6
CONTINUOUS
 62
1
 10
100.878022
 20
631.298003
 11
104.053627
 21
631.298003
  0
LINE
  8
CutLine
  6
CONTINUOUS
 62
8
 10
100.878022
 20
707.512503
 11
97.702418
 21
704.336905
  0
LINE
  8
MountainLine
  6
CONTINUOUS
 62
5
 10
97.702418
 20
704.336905
 11
97.702418
 21
634.473607
  0
LINE
  8
MountainLine
  6
CONTINUOUS
 62
5
 10
97.702418
 20
634.473607
 11
100.878022
 21
631.298003
  0
LINE
  8
ValleyLine
  6
CONTINUOUS
 62
1
 10
97.702418
 20
704.336905
 11
85.000000
 21
704.336905
  0
LINE
  8
MountainLine
  6
CONTINUOUS
 62
5
 10
143.431127
 20
731.101181
 11
143.431127
 21
737.363186
  0
LINE
  8
MountainLine
  6
CONTINUOUS
 62
5
 10
143.431127
 20
737.363186
 11
110.404836
 21
737.363186
  0
LINE
  8
MountainLine
  6
CONTINUOUS
 62
5
 10
143.431127
 20
713.863712
 11
143.431127
 21
731.101181
  0
LINE
  8
MountainLine
  6
CONTINUOUS
 62
5
 10
110.404836
 20
713.863712
 11
143.431127
 21
713.863712
  0
LINE
  8
MountainLine
  6
CONTINUOUS
 62
5
 10
143.431127
 20
624.946794
 11
143.431127
 21
713.863712
  0
LINE
  8
MountainLine
  6
CONTINUOUS
 62
5
 10
110.404836
 20
601.447321
 11
143.431127
 21
601.447321
  0
LINE
  8
MountainLine
  6
CONTINUOUS
 62
5
 10
143.431127
 20
601.447321
 11
143.431127
 21
607.709325
  0
LINE
  8
MountainLine
  6
CONTINUOUS
 62
5
 10
110.404836
 20
624.946794
 11
110.404836
 21
607.709325
  0
LINE
  8
MountainLine
  6
CONTINUOUS
 62
5
 10
143.431127
 20
607.709325
 11
143.431127
 21
624.946794
  0
LINE
  8
MountainLine
  6
CONTINUOUS
 62
5
 10
143.431127
 20
624.946794
 11
110.404836
 21
624.946794
  0
LINE
  8
MountainLine
  6
CONTINUOUS
 62
5
 10
110.404836
 20
607.709325
 11
110.404836
 21
601.447321
  0
LINE
  8
CutLine
  6
CONTINUOUS
 62
8
 10
110.404836
 20
713.863712
 11
104.053627
 21
707.512503
  0
LINE
  8
MountainLine
  6
CONTINUOUS
 62
5
 10
104.053627
 20
631.298003
 11
110.404836
 21
624.946794
  0
LINE
  8
CutLine
  6
CONTINUOUS
 62
8
 10
166.930600
 20
713.863712
 11
160.668595
 21
713.863712
  0
LINE
  8
CutLine
  6
CONTINUOUS
 62
8
 10
160.668595
 20
713.863712
 11
143.431127
 21
713.863712
  0
LINE
  8
CutLine
  6
CONTINUOUS
 62
8
 10
143.431127
 20
624.946794
 11
160.668595
 21
624.946794
  0
LINE
  8
CutLine
  6
CONTINUOUS
 62
8
 10
160.668595
 20
624.946794
 11
166.930600
 21
624.946794
  0
LINE
  8
MountainLine
  6
CONTINUOUS
 62
5
 10
166.930600
 20
624.946794
 11
166.930600
 21
713.863712
  0
LINE
  8
MountainLine
  6
CONTINUOUS
 62
5
 10
110.404836
 20
731.101181
 11
110.404836
 21
713.863712
  0
LINE
  8
MountainLine
  6
CONTINUOUS
 62
5
 10
110.404836
 20
737.363186
 11
110.404836
 21
731.101181
  0
LINE
  8
CutLine
  6
CONTINUOUS
 62
8
 10
105.000000
 20
317.499888
 11
174.863298
 21
317.499888
  0
LINE
  8
CutLine
  6
CONTINUOUS
 62
8
 10
174.863298
 20
317.499888
 11
174.863298
 21
387.363186
  0
LINE
  8
CutLine
  6
CONTINUOUS
 62
8
 10
174.863298
 20
387.363186
 11
105.000000
 21
387.363186
  0
LINE
  8
CutLine
  6
CONTINUOUS
 62
8
 10
105.000000
 20
387.363186
 11
105.000000
 21
317.499888
  0
LINE
  8
ValleyLine
  6
CONTINUOUS
 62
1
 10
86.719127
 20
578.462305
 11
43.656059
 21
515.579690
  0
LINE
  8
MountainLine
  6
CONTINUOUS
 62
5
 10
48.070457
 20
516.405508
 11
87.544936
 21
574.047905
  0
LINE
  8
CutLine
  6
CONTINUOUS
 62
8
 10
43.656059
 20
515.579690
 11
48.070457
 21
516.405508
  0
LINE
  8
MountainLine
  6
CONTINUOUS
 62
5
 10
87.544936
 20
574.047905
 11
86.719127
 21
578.462305
  0
LINE
  8
MountainLine
  6
CONTINUOUS
 62
5
 10
32.207143
 20
515.722356
 11
82.447389
 21
589.085406
  0
LINE
  8
CutLine
  6
CONTINUOUS
 62
8
 10
82.447389
 20
589.085406
 11
68.225200
 21
598.824999
  0
LINE
  8
CutLine
  6
CONTINUOUS
 62
8
 10
68.225200
 20
598.824999
 11
63.058582
 21
602.363186
  0
LINE
  8
MountainLine
  6
CONTINUOUS
 62
5
 10
11.466865
 20
515.943944
 11
32.207143
 21
515.722356
  0
LINE
  8
MountainLine
  6
CONTINUOUS
 62
5
 10
63.058582
 20
602.363186
 11
6.300248
 21
519.482130
  0
LINE
  8
CutLine
  6
CONTINUOUS
 62
8
 10
6.300248
 20
519.482130
 11
11.466865
 21
515.943944
  0
LINE
  8
MountainLine
  6
CONTINUOUS
 62
5
 10
41.035950
 20
517.373985
 11
84.099018
 21
580.256599
  0
LINE
  8
CutLine
  6
CONTINUOUS
 62
8
 10
32.207143
 20
515.722356
 11
41.035950
 21
517.373985
  0
LINE
  8
CutLine
  6
CONTINUOUS
 62
8
 10
86.719127
 20
578.462305
 11
84.099018
 21
580.256599
  0
LINE
  8
CutLine
  6
CONTINUOUS
 62
8
 10
41.035950
 20
517.373985
 11
43.656059
 21
515.579690
  0
LINE
  8
MountainLine
  6
CONTINUOUS
 62
5
 10
84.099018
 20
580.256599
 11
82.447389
 21
589.085406
  0
LINE
  8
ValleyLine
  6
CONTINUOUS
 62
1
 10
48.070457
 20
516.405508
 11
58.550893
 21
509.228330
  0
LINE
  8
CutLine
  6
CONTINUOUS
 62
8
 10
98.025372
 20
566.870727
 11
87.544936
 21
574.047905
  0
LINE
  8
ValleyLine
  6
CONTINUOUS
 62
1
 10
58.550893
 20
509.228330
 11
98.025372
 21
566.870727
  0
LINE
  8
CutLine
  6
CONTINUOUS
 62
8
 10
82.074335
 20
241.302237
 11
79.855236
 21
387.363186
  0
LINE
  8
CutLine
  6
CONTINUOUS
 62
8
 10
12.219099
 20
240.240929
 11
82.074335
 21
241.302237
  0
LINE
  8
CutLine
  6
CONTINUOUS
 62
8
 10
79.855236
 20
387.363186
 11
10.000000
 21
386.301877
  0
LINE
  8
CutLine
  6
CONTINUOUS
 62
8
 10
10.000000
 20
386.301877
 11
12.219099
 21
240.240929
  0
LINE
  8
CutLine
  6
CONTINUOUS
 62
8
 10
93.575274
 20
34.002259
 11
94.243904
 21
0.982737
  0
LINE
  8
CutLine
  6
CONTINUOUS
 62
8
 10
182.473974
 20
35.802417
 11
178.898700
 21
212.363186
  0
LINE
  8
CutLine
  6
CONTINUOUS
 62
8
 10
90.000000
 20
210.563028
 11
93.575274
 21
34.002259
  0
LINE
  8
CutLine
  6
CONTINUOUS
 62
8
 10
94.243904
 20
0.982737
 11
183.142605
 21
2.782894
  0
LINE
  8
CutLine
  6
CONTINUOUS
 62
8
 10
183.142605
 20
2.782894
 11
182.473974
 21
35.802417
  0
LINE
  8
CutLine
  6
CONTINUOUS
 62
8
 10
178.898700
 20
212.363186
 11
90.000000
 21
210.563028
  0
LINE
  8
CutLine
  6
CONTINUOUS
 62
8
 10
39.863522
 20
881.796914
 11
43.038931
 21
881.761703
  0
LINE
  8
ValleyLine
  6
CONTINUOUS
 62
1
 10
43.038931
 20
881.761703
 11
44.729052
 21
1034.181346
  0
LINE
  8
CutLine
  6
CONTINUOUS
 62
8
 10
44.729052
 20
1034.181346
 11
41.553643
 21
1034.216557
  0
LINE
  8
MountainLine
  6
CONTINUOUS
 62
5
 10
41.553643
 20
1034.216557
 11
39.863522
 21
881.796914
  0
LINE
  8
CutLine
  6
CONTINUOUS
 62
8
 10
43.038931
 20
881.761703
 11
46.249551
 21
884.901901
  0
LINE
  8
MountainLine
  6
CONTINUOUS
 62
5
 10
46.249551
 20
884.901901
 11
47.869250
 21
1030.970726
  0
LINE
  8
CutLine
  6
CONTINUOUS
 62
8
 10
47.869250
 20
1030.970726
 11
44.729052
 21
1034.181346
  0
LINE
  8
CutLine
  6
CONTINUOUS
 62
8
 10
46.249551
 20
884.901901
 11
58.951188
 21
884.761058
  0
LINE
  8
ValleyLine
  6
CONTINUOUS
 62
1
 10
58.951188
 20
884.761058
 11
60.570887
 21
1030.829883
  0
LINE
  8
CutLine
  6
CONTINUOUS
 62
8
 10
60.570887
 20
1030.829883
 11
47.869250
 21
1030.970726
  0
LINE
  8
CutLine
  6
CONTINUOUS
 62
8
 10
35.273246
 20
1040.637797
 11
19.316346
 21
1052.280975
  0
LINE
  8
CutLine
  6
CONTINUOUS
 62
8
 10
19.316346
 20
1052.280975
 11
11.902346
 21
1052.363186
  0
LINE
  8
MountainLine
  6
CONTINUOUS
 62
5
 10
11.902346
 20
1052.363186
 11
9.944253
 21
875.777077
  0
LINE
  8
MountainLine
  6
CONTINUOUS
 62
5
 10
33.442282
 20
875.516517
 11
35.273246
 21
1040.637797
  0
LINE
  8
CutLine
  6
CONTINUOUS
 62
8
 10
41.553643
 20
1034.216557
 11
35.273246
 21
1040.637797
  0
LINE
  8
CutLine
  6
CONTINUOUS
 62
8
 10
33.442282
 20
875.516517
 11
39.863522
 21
881.796914
  0
LINE
  8
CutLine
  6
CONTINUOUS
 62
8
 10
9.944253
 20
875.777077
 11
17.358252
 21
875.694866
  0
LINE
  8
CutLine
  6
CONTINUOUS
 62
8
 10
17.358252
 20
875.694866
 11
33.442282
 21
875.516517
  0
LINE
  8
MountainLine
  6
CONTINUOUS
 62
5
 10
170.157968
 20
793.446261
 11
170.157968
 21
882.363186
  0
LINE
  8
MountainLine
  6
CONTINUOUS
 62
5
 10
170.157968
 20
882.363186
 11
150.404836
 21
882.363186
  0
LINE
  8
MountainLine
  6
CONTINUOUS
 62
5
 10
150.404836
 20
882.363186
 11
150.404836
 21
793.446261
  0
LINE
  8
MountainLine
  6
CONTINUOUS
 62
5
 10
150.404836
 20
793.446261
 11
170.157968
 21
793.446261
  0
LINE
  8
MountainLine
  6
CONTINUOUS
 62
5
 10
170.157968
 20
793.446261
 11
177.572423
 21
793.446261
  0
LINE
  8
MountainLine
  6
CONTINUOUS
 62
5
 10
177.572423
 20
793.446261
 11
177.572423
 21
882.363186
  0
LINE
  8
MountainLine
  6
CONTINUOUS
 62
5
 10
177.572423
 20
882.363186
 11
170.157968
 21
882.363186
  0
LINE
  8
MountainLine
  6
CONTINUOUS
 62
5
 10
150.404836
 20
882.363186
 11
144.053627
 21
876.011977
  0
LINE
  8
MountainLine
  6
CONTINUOUS
 62
5
 10
137.702418
 20
872.836372
 11
137.702418
 21
802.973074
  0
LINE
  8
MountainLine
  6
CONTINUOUS
 62
5
 10
137.702418
 20
802.973074
 11
140.878022
 21
799.797470
  0
LINE
  8
ValleyLine
  6
CONTINUOUS
 62
1
 10
137.702418
 20
872.836372
 11
125.000000
 21
872.836372
  0
LINE
  8
ValleyLine
  6
CONTINUOUS
 62
1
 10
125.000000
 20
872.836372
 11
125.000000
 21
802.973074
  0
LINE
  8
ValleyLine
  6
CONTINUOUS
 62
1
 10
125.000000
 20
802.973074
 11
137.702418
 21
802.973074
  0
LINE
  8
MountainLine
  6
CONTINUOUS
 62
5
 10
144.053627
 20
799.797470
 11
150.404836
 21
793.446261
  0
LINE
  8
ValleyLine
  6
CONTINUOUS
 62
1
 10
140.878022
 20
799.797470
 11
140.878022
 21
876.011977
  0
LINE
  8
MountainLine
  6
CONTINUOUS
 62
5
 10
140.878022
 20
876.011977
 11
137.702418
 21
872.836372
  0
LINE
  8
ValleyLine
  6
CONTINUOUS
 62
1
 10
140.878022
 20
799.797470
 11
144.053627
 21
799.797470
  0
LINE
  8
MountainLine
  6
CONTINUOUS
 62
5
 10
144.053627
 20
799.797470
 11
144.053627
 21
876.011977
  0
LINE
  8
ValleyLine
  6
CONTINUOUS
 62
1
 10
144.053627
 20
876.011977
 11
140.878022
 21
876.011977
  0
LINE
  8
CutLine
  6
CONTINUOUS
 62
8
 10
38.026287
 20
608.582963
 11
41.201891
 21
611.758568
  0
LINE
  8
ValleyLine
  6
CONTINUOUS
 62
1
 10
38.026287
 20
761.011977
 11
38.026287
 21
608.582963
  0
LINE
  8
MountainLine
  6
CONTINUOUS
 62
5
 10
41.201891
 20
611.758568
 11
41.201891
 21
757.836372
  0
LINE
  8
CutLine
  6
CONTINUOUS
 62
8
 10
41.201891
 20
757.836372
 11
38.026287
 21
761.011977
  0
LINE
  8
CutLine
  6
CONTINUOUS
 62
8
 10
41.201891
 20
611.758568
 11
53.904309
 21
611.758568
  0
LINE
  8
ValleyLine
  6
CONTINUOUS
 62
1
 10
53.904309
 20
611.758568
 11
53.904309
 21
757.836372
  0
LINE
  8
CutLine
  6
CONTINUOUS
 62
8
 10
53.904309
 20
757.836372
 11
41.201891
 21
757.836372
  0
LINE
  8
MountainLine
  6
CONTINUOUS
 62
5
 10
34.850682
 20
761.011977
 11
34.850682
 21
608.582963
  0
LINE
  8
CutLine
  6
CONTINUOUS
 62
8
 10
34.850682
 20
608.582963
 11
38.026287
 21
608.582963
  0
LINE
  8
CutLine
  6
CONTINUOUS
 62
8
 10
38.026287
 20
761.011977
 11
34.850682
 21
761.011977
  0
LINE
  8
CutLine
  6
CONTINUOUS
 62
8
 10
12.414455
 20
590.766221
 11
28.499473
 21
602.231754
  0
LINE
  8
CutLine
  6
CONTINUOUS
 62
8
 10
12.414455
 20
767.363186
 11
5.000000
 21
767.363186
  0
LINE
  8
MountainLine
  6
CONTINUOUS
 62
5
 10
5.000000
 20
767.363186
 11
5.000000
 21
590.766221
  0
LINE
  8
CutLine
  6
CONTINUOUS
 62
8
 10
5.000000
 20
590.766221
 11
12.414455
 21
590.766221
  0
LINE
  8
MountainLine
  6
CONTINUOUS
 62
5
 10
28.499473
 20
602.231754
 11
28.499473
 21
767.363186
  0
LINE
  8
CutLine
  6
CONTINUOUS
 62
8
 10
28.499473
 20
767.363186
 11
12.414455
 21
767.363186
  0
LINE
  8
CutLine
  6
CONTINUOUS
 62
8
 10
28.499473
 20
602.231754
 11
34.850682
 21
608.582963
  0
LINE
  8
CutLine
  6
CONTINUOUS
 62
8
 10
34.850682
 20
761.011977
 11
28.499473
 21
767.363186
  0
LINE
  8
MountainLine
  6
CONTINUOUS
 62
5
 10
143.431127
 20
908.861770
 11
143.431127
 21
924.946788
  0
LINE
  8
MountainLine
  6
CONTINUOUS
 62
5
 10
110.404836
 20
924.946788
 11
110.404836
 21
908.861770
  0
LINE
  8
MountainLine
  6
CONTINUOUS
 62
5
 10
110.404836
 20
901.447315
 11
143.431127
 21
901.447315
  0
LINE
  8
MountainLine
  6
CONTINUOUS
 62
5
 10
143.431127
 20
901.447315
 11
143.431127
 21
908.861770
  0
LINE
  8
MountainLine
  6
CONTINUOUS
 62
5
 10
110.404836
 20
908.861770
 11
110.404836
 21
901.447315
  0
LINE
  8
MountainLine
  6
CONTINUOUS
 62
5
 10
143.431127
 20
924.946788
 11
110.404836
 21
924.946788
  0
LINE
  8
CutLine
  6
CONTINUOUS
 62
8
 10
159.516145
 20
1013.863712
 11
143.431127
 21
1013.863712
  0
LINE
  8
CutLine
  6
CONTINUOUS
 62
8
 10
166.930600
 20
1013.863712
 11
159.516145
 21
1013.863712
  0
LINE
  8
CutLine
  6
CONTINUOUS
 62
8
 10
159.516145
 20
924.946788
 11
166.930600
 21
924.946788
  0
LINE
  8
MountainLine
  6
CONTINUOUS
 62
5
 10
143.431127
 20
1013.863712
 11
143.431127
 21
924.946788
  0
LINE
  8
CutLine
  6
CONTINUOUS
 62
8
 10
143.431127
 20
924.946788
 11
159.516145
 21
924.946788
  0
LINE
  8
MountainLine
  6
CONTINUOUS
 62
5
 10
166.930600
 20
924.946788
 11
166.930600
 21
1013.863712
  0
LINE
  8
MountainLine
  6
CONTINUOUS
 62
5
 10
143.431127
 20
1013.863712
 11
143.431127
 21
1029.948731
  0
LINE
  8
MountainLine
  6
CONTINUOUS
 62
5
 10
104.053627
 20
1007.512503
 11
104.053627
 21
931.297997
  0
LINE
  8
MountainLine
  6
CONTINUOUS
 62
5
 10
143.431127
 20
1013.863712
 11
110.404836
 21
1013.863712
  0
LINE
  8
MountainLine
  6
CONTINUOUS
 62
5
 10
143.431127
 20
1029.948731
 11
143.431127
 21
1037.363186
  0
LINE
  8
MountainLine
  6
CONTINUOUS
 62
5
 10
143.431127
 20
1037.363186
 11
110.404836
 21
1037.363186
  0
LINE
  8
MountainLine
  6
CONTINUOUS
 62
5
 10
110.404836
 20
1013.863712
 11
104.053627
 21
1007.512503
  0
LINE
  8
MountainLine
  6
CONTINUOUS
 62
5
 10
104.053627
 20
931.297997
 11
110.404836
 21
924.946788
  0
LINE
  8
ValleyLine
  6
CONTINUOUS
 62
1
 10
104.053627
 20
1007.512503
 11
100.878022
 21
1007.512503
  0
LINE
  8
ValleyLine
  6
CONTINUOUS
 62
1
 10
100.878022
 20
1007.512503
 11
100.878022
 21
931.297997
  0
LINE
  8
ValleyLine
  6
CONTINUOUS
 62
1
 10
100.878022
 20
931.297997
 11
104.053627
 21
931.297997
  0
LINE
  8
MountainLine
  6
CONTINUOUS
 62
5
 10
97.702418
 20
1004.336899
 11
97.702418
 21
934.473601
  0
LINE
  8
ValleyLine
  6
CONTINUOUS
 62
1
 10
97.702418
 20
1004.336899
 11
85.000000
 21
1004.336899
  0
LINE
  8
MountainLine
  6
CONTINUOUS
 62
5
 10
97.702418
 20
934.473601
 11
100.878022
 21
931.297997
  0
LINE
  8
MountainLine
  6
CONTINUOUS
 62
5
 10
110.404836
 20
1029.948731
 11
110.404836
 21
1013.863712
  0
LINE
  8
MountainLine
  6
CONTINUOUS
 62
5
 10
110.404836
 20
1037.363186
 11
110.404836
 21
1029.948731
  0
LINE
  8
MountainLine
  6
CONTINUOUS
 62
5
 10
100.878022
 20
1007.512503
 11
97.702418
 21
1004.336899
  0
LINE
  8
ValleyLine
  6
CONTINUOUS
 62
1
 10
85.000000
 20
1004.336899
 11
85.000000
 21
934.473601
  0
LINE
  8
ValleyLine
  6
CONTINUOUS
 62
1
 10
85.000000
 20
934.473601
 11
97.702418
 21
934.473601
  0
ENDSEC
  0
EOF
