0
SECTION
2
HEADER
9
$INSUNITS
70
4
9
$ACADVER
1
AC1014
9
$HANDSEED
5
FFFF
0
ENDSEC
0
SECTION
2
TABLES
0
TABLE
2
VPORT
5
8
100
AcDbSymbolTable
0
ENDTAB
0
TABLE
2
LTYPE
5
5
100
AcDbSymbolTable
0
LTYPE
5
14
100
AcDbSymbolTableRecord
100
AcDbLinetypeTableRecord
2
BYBLOCK
70
0
0
LTYPE
5
15
100
AcDbSymbolTableRecord
100
AcDbLinetypeTableRecord
2
BYLAYER
70
0
0
ENDTAB
0
TABLE
2
LAYER
5
2
100
AcDbSymbolTable
70
2
0
LAYER
5
50
100
AcDbSymbolTableRecord
100
AcDbLayerTableRecord
2
0
70
0
6
CONTINUOUS
0
ENDTAB
0
TABLE
2
STYLE
5
3
100
AcDbSymbolTable
70
1
0
STYLE
5
11
100
AcDbSymbolTableRecord
100
AcDbTextStyleTableRecord
2
STANDARD
70
0
0
ENDTAB
0
TABLE
2
VIEW
5
6
100
AcDbSymbolTable
70
0
0
ENDTAB
0
TABLE
2
UCS
5
7
100
AcDbSymbolTable
70
0
0
ENDTAB
0
TABLE
2
APPID
5
9
100
AcDbSymbolTable
70
2
0
APPID
5
12
100
AcDbSymbolTableRecord
100
AcDbRegAppTableRecord
2
ACAD
70
0
0
ENDTAB
0
TABLE
2
DIMSTYLE
5
A
100
AcDbSymbolTable
70
1
0
ENDTAB
0
TABLE
2
BLOCK_RECORD
5
1
100
AcDbSymbolTable
70
1
0
BLOCK_RECORD
5
1F
100
AcDbSymbolTableRecord
100
AcDbBlockTableRecord
2
*MODEL_SPACE
0
BLOCK_RECORD
5
1B
100
AcDbSymbolTableRecord
100
AcDbBlockTableRecord
2
*PAPER_SPACE
0
ENDTAB
0
ENDSEC
0
SECTION
2
BLOCKS
0
BLOCK
5
20
100
AcDbEntity
100
AcDbBlockBegin
2
*MODEL_SPACE
0
ENDBLK
5
21
100
AcDbEntity
100
AcDbBlockEnd
0
BLOCK
5
1C
100
AcDbEntity
100
AcDbBlockBegin
2
*PAPER_SPACE
0
ENDBLK
5
1D
100
AcDbEntity
100
AcDbBlockEnd
0
ENDSEC
0
SECTION
2
ENTITIES
0
LWPOLYLINE
5
100
100
AcDbEntity
8
0
100
AcDbPolyline
90
4
70
1
43
0.0
10
-218.84940000000032
20
274.63749999999999
10
219.8370000000001
20
274.63750000000005
10
219.83700000000013
20
-77.787499999999952
10
-218.84940000000023
20
-77.787500000000023
0
LINE
5
101
100
AcDbEntity
8
0
100
AcDbLine
10
-3.979951255686526e-15
20
274.63749999999999
30
0
11
0.49379999999995761
21
-77.787499999999994
31
0
0
LINE
5
102
100
AcDbEntity
8
0
100
AcDbLine
10
-218.84940000000029
20
98.424999999999983
30
0
11
219.83700000000013
21
98.425000000000267
31
0
0
CIRCLE
5
103
100
AcDbEntity
8
0
100
AcDbCircle
10
0.49379999999992208
20
98.425000000000182
30
0
40
76.200000000000003
0
CIRCLE
5
104
100
AcDbEntity
8
0
100
AcDbCircle
10
0.49379999999992208
20
98.425000000000182
30
0
40
150.8125
0
CIRCLE
5
105
100
AcDbEntity
8
0
100
AcDbCircle
10
0.49379999999992208
20
98.425000000000182
30
0
40
111.91874999999997
0
LINE
5
106
100
AcDbEntity
8
0
100
AcDbLine
10
-63.317781800000041
20
-77.787499999999994
30
0
11
-44.521781800000042
21
-77.787499999999994
31
0
0
LINE
5
107
100
AcDbEntity
8
0
100
AcDbLine
10
-44.521781800000042
20
-77.787499999999994
30
0
11
-44.521781800000042
21
-46.180239245594393
31
0
0
LINE
5
108
100
AcDbEntity
8
0
100
AcDbLine
10
-62.479032875511827
20
-38.925499999999992
30
0
11
-63.317781800000041
21
-38.925499999999992
31
0
0
LINE
5
109
100
AcDbEntity
8
0
100
AcDbLine
10
-63.317781800000041
20
-38.925499999999992
30
0
11
-63.317781800000041
21
-77.787499999999994
31
0
0
LINE
5
110
100
AcDbEntity
8
0
100
AcDbLine
10
-63.317781800000041
20
-38.925499999999992
30
0
11
-44.521781800000042
21
-46.180239245594393
31
0
0
LINE
5
111
100
AcDbEntity
8
0
100
AcDbLine
10
-53.919781800000059
20
-42.552869622797218
30
0
11
-53.811030558464388
21
-42.271110586847584
31
0
0
LINE
5
112
100
AcDbEntity
8
0
100
AcDbLine
10
-121.74928915932401
20
-16.048810578920474
30
0
11
-53.811030558464395
21
-42.271110586847598
31
0
0
LINE
5
113
100
AcDbEntity
8
0
100
AcDbLine
10
-62.479032875511827
20
-38.925499999999992
30
0
11
-23.440182709052728
21
-38.9255
31
0
0
LWPOLYLINE
5
114
100
AcDbEntity
8
0
100
AcDbPolyline
90
4
70
1
43
0.0
10
45.420632248322477
20
-46.054216505842504
10
45.509205049453598
20
-77.661353156540386
10
64.305131248268836
20
-77.608681259946849
10
64.196228543149786
20
-38.7468338488829
0
CIRCLE
5
115
100
AcDbEntity
8
0
100
AcDbCircle
10
0.49379999999992208
20
98.425000000000182
30
0
40
131.36562499999999
0
CIRCLE
5
116
100
AcDbEntity
8
0
100
AcDbCircle
10
0.43096281678033505
20
-32.940609971289575
30
0
40
1.5875000000000004
0
LINE
5
117
100
AcDbEntity
8
0
100
AcDbLine
10
219.8370000000001
20
255.84150000000011
30
0
11
-218.84940000000032
21
255.84149999999997
31
0
0
LINE
5
118
100
AcDbEntity
8
0
100
AcDbLine
10
219.83700000000013
20
-58.991499999999853
30
0
11
-218.84940000000023
21
-58.991500000000016
31
0
0
LINE
5
119
100
AcDbEntity
8
0
100
AcDbLine
10
-179.98740000000009
20
-77.787500000000023
30
0
11
-179.98740000000032
21
255.84149999999997
31
0
0
LINE
5
120
100
AcDbEntity
8
0
100
AcDbLine
10
-179.98740000000032
20
216.97949999999997
30
0
11
-218.84940000000032
21
216.97949999999997
31
0
0
LINE
5
121
100
AcDbEntity
8
0
100
AcDbLine
10
180.97500000000014
20
-77.787499999999952
30
0
11
180.97499999999991
21
255.84150000000011
31
0
0
LINE
5
122
100
AcDbEntity
8
0
100
AcDbLine
10
-180.97500000000008
20
274.63749999999999
30
0
11
-180.97500000000008
21
255.84149999999997
31
0
0
LINE
5
123
100
AcDbEntity
8
0
100
AcDbLine
10
180.97499999999985
20
274.63750000000005
30
0
11
180.97499999999985
21
255.84150000000011
31
0
0
LINE
5
124
100
AcDbEntity
8
0
100
AcDbLine
10
-179.98740000000024
20
-77.787500000000009
30
0
11
-179.98740000000024
21
-58.991499999999995
31
0
0
LINE
5
125
100
AcDbEntity
8
0
100
AcDbLine
10
180.97500000000022
20
-77.787499999999966
30
0
11
180.97500000000014
21
-58.991499999999874
31
0
0
LINE
5
126
100
AcDbEntity
8
0
100
AcDbLine
10
219.8370000000001
20
216.97950000000014
30
0
11
180.97499999999991
21
216.97950000000003
31
0
0
ENDSEC
0
SECTION
2
OBJECTS
0
DICTIONARY
5
C
100
AcDbDictionary
3
ACAD_GROUP
350
D
3
ACAD_MLINESTYLE
350
17
0
DICTIONARY
5
D
100
AcDbDictionary
0
DICTIONARY
5
1A
330
C
100
AcDbDictionary
0
DICTIONARY
5
17
100
AcDbDictionary
0
ENDSEC
0
EOF
