0
SECTION
2
HEADER
9
$INSUNITS
70
4
9
$ACADVER
1
AC1014
9
$HANDSEED
5
FFFF
0
ENDSEC
0
SECTION
2
TABLES
0
TABLE
2
VPORT
5
8
100
AcDbSymbolTable
0
ENDTAB
0
TABLE
2
LTYPE
5
5
100
AcDbSymbolTable
0
LTYPE
5
14
100
AcDbSymbolTableRecord
100
AcDbLinetypeTableRecord
2
BYBLOCK
70
0
0
LTYPE
5
15
100
AcDbSymbolTableRecord
100
AcDbLinetypeTableRecord
2
BYLAYER
70
0
0
ENDTAB
0
TABLE
2
LAYER
5
2
100
AcDbSymbolTable
70
2
0
LAYER
5
50
100
AcDbSymbolTableRecord
100
AcDbLayerTableRecord
2
0
70
0
6
CONTINUOUS
0
ENDTAB
0
TABLE
2
STYLE
5
3
100
AcDbSymbolTable
70
1
0
STYLE
5
11
100
AcDbSymbolTableRecord
100
AcDbTextStyleTableRecord
2
STANDARD
70
0
0
ENDTAB
0
TABLE
2
VIEW
5
6
100
AcDbSymbolTable
70
0
0
ENDTAB
0
TABLE
2
UCS
5
7
100
AcDbSymbolTable
70
0
0
ENDTAB
0
TABLE
2
APPID
5
9
100
AcDbSymbolTable
70
2
0
APPID
5
12
100
AcDbSymbolTableRecord
100
AcDbRegAppTableRecord
2
ACAD
70
0
0
ENDTAB
0
TABLE
2
DIMSTYLE
5
A
100
AcDbSymbolTable
70
1
0
ENDTAB
0
TABLE
2
BLOCK_RECORD
5
1
100
AcDbSymbolTable
70
1
0
BLOCK_RECORD
5
1F
100
AcDbSymbolTableRecord
100
AcDbBlockTableRecord
2
*MODEL_SPACE
0
BLOCK_RECORD
5
1B
100
AcDbSymbolTableRecord
100
AcDbBlockTableRecord
2
*PAPER_SPACE
0
ENDTAB
0
ENDSEC
0
SECTION
2
BLOCKS
0
BLOCK
5
20
100
AcDbEntity
100
AcDbBlockBegin
2
*MODEL_SPACE
0
ENDBLK
5
21
100
AcDbEntity
100
AcDbBlockEnd
0
BLOCK
5
1C
100
AcDbEntity
100
AcDbBlockBegin
2
*PAPER_SPACE
0
ENDBLK
5
1D
100
AcDbEntity
100
AcDbBlockEnd
0
ENDSEC
0
SECTION
2
ENTITIES
0
LWPOLYLINE
5
100
100
AcDbEntity
8
0
100
AcDbPolyline
90
34
70
1
43
0.0
10
-660.34918321533212
20
0
10
-882.6499832153321
20
0
10
-882.6499832153321
20
774.70000000000005
10
-895.34998321533203
20
774.70000000000005
10
-895.34998321533203
20
0
10
-1117.599983215332
20
0
10
-1117.6000356674194
20
101.59999847412109
10
-965.19998321533205
20
101.59999847412109
10
-965.19998321533205
20
1491.901079412828
10
-1041.3999832153322
20
1491.901079412828
10
-1053.3887832153321
20
1491.901079412828
10
-1053.3887832153321
20
1517.3010794128279
10
-1041.3999832153322
20
1517.3010794128279
10
-1041.3999832153322
20
1593.5010794128279
10
-1041.3999832153322
20
1618.901079412828
10
-1041.3999832153322
20
1720.5010794128279
10
-965.20003080368042
20
1720.5010794128279
10
-965.19998321533205
20
1600.1999999999998
10
-905.45918321533213
20
1600.1999999999998
10
-905.45918321533213
20
1549.3999999999996
10
-872.43918321533204
20
1549.3999999999996
10
-872.43918321533204
20
1600.1999999999998
10
-812.7491832153321
20
1600.1999999999998
10
-812.79998779296875
20
1720.5010794128279
10
-736.54918321533205
20
1720.5010794128279
10
-736.54918321533205
20
1618.901079412828
10
-736.54918321533205
20
1593.5010794128279
10
-736.54918321533205
20
1517.3010794128279
10
-724.56038321533197
20
1517.3010794128279
10
-724.56038321533197
20
1491.901079412828
10
-736.54918321533205
20
1491.901079412828
10
-812.7491832153321
20
1491.901079412828
10
-812.7491832153321
20
101.59999999999999
10
-660.34918321533212
20
101.59999999999999
0
LINE
5
101
100
AcDbEntity
8
0
100
AcDbLine
10
457.19999999999999
20
0
30
0
11
457.25080000000003
21
101.59999847412109
31
0
0
LINE
5
102
100
AcDbEntity
8
0
100
AcDbLine
10
304.85080000000005
20
101.59999847412109
30
0
11
457.25080000000003
21
101.59999847412109
31
0
0
LINE
5
103
100
AcDbEntity
8
0
100
AcDbLine
10
0
20
101.59999999999999
30
0
11
152.40000000000001
21
101.59999999999999
31
0
0
LINE
5
104
100
AcDbEntity
8
0
100
AcDbLine
10
0
20
0
30
0
11
0
21
101.59999999999999
31
0
0
LINE
5
105
100
AcDbEntity
8
0
100
AcDbLine
10
0
20
0
30
0
11
457.19999999999999
21
0
31
0
0
LINE
5
106
100
AcDbEntity
8
0
100
AcDbLine
10
304.85080000000005
20
1491.901079412828
30
0
11
381.05079999999998
21
1491.901079412828
31
0
0
LINE
5
107
100
AcDbEntity
8
0
100
AcDbLine
10
381.05079999999998
20
1517.3010794128279
30
0
11
381.05079999999998
21
1593.5010794128279
31
0
0
LINE
5
108
100
AcDbEntity
8
0
100
AcDbLine
10
381.05079999999998
20
1618.901079412828
30
0
11
381.05079999999998
21
1720.5010794128279
31
0
0
LINE
5
109
100
AcDbEntity
8
0
100
AcDbLine
10
381.05079999999998
20
1593.5010794128279
30
0
11
381.05079999999998
21
1618.901079412828
31
0
0
LINE
5
110
100
AcDbEntity
8
0
100
AcDbLine
10
381.05079999999998
20
1491.901079412828
30
0
11
393.03960000000006
21
1491.901079412828
31
0
0
LINE
5
111
100
AcDbEntity
8
0
100
AcDbLine
10
393.03960000000006
20
1491.901079412828
30
0
11
393.03960000000006
21
1517.3010794128279
31
0
0
LINE
5
112
100
AcDbEntity
8
0
100
AcDbLine
10
393.03960000000006
20
1517.3010794128279
30
0
11
381.05079999999998
21
1517.3010794128279
31
0
0
LINE
5
113
100
AcDbEntity
8
0
100
AcDbLine
10
234.95000000000002
20
774.70000000000016
30
0
11
222.25
21
774.70000000000016
31
0
0
LINE
5
114
100
AcDbEntity
8
0
100
AcDbLine
10
222.25
20
1549.4000000000001
30
0
11
222.25
21
774.70000000000016
31
0
0
LINE
5
115
100
AcDbEntity
8
0
100
AcDbLine
10
64.211199999999948
20
1517.3010794128279
30
0
11
76.199999999999946
21
1517.3010794128279
31
0
0
LINE
5
116
100
AcDbEntity
8
0
100
AcDbLine
10
304.85080000000005
20
1491.901079412828
30
0
11
304.85080000000005
21
101.59999847412109
31
0
0
LINE
5
117
100
AcDbEntity
8
0
100
AcDbLine
10
381.05079999999998
20
1720.5010794128279
30
0
11
304.85079999999999
21
1720.5010794128279
31
0
0
LINE
5
118
100
AcDbEntity
8
0
100
AcDbLine
10
152.40000000000001
20
101.59999999999999
30
0
11
152.39999999999995
21
1491.901079412828
31
0
0
LINE
5
119
100
AcDbEntity
8
0
100
AcDbLine
10
234.95000000000002
20
1549.4000000000001
30
0
11
234.95000000000002
21
774.70000000000016
31
0
0
LINE
5
120
100
AcDbEntity
8
0
100
AcDbLine
10
64.211199999999948
20
1491.901079412828
30
0
11
64.211199999999948
21
1517.3010794128279
31
0
0
LINE
5
121
100
AcDbEntity
8
0
100
AcDbLine
10
76.199999999999946
20
1491.901079412828
30
0
11
64.211199999999948
21
1491.901079412828
31
0
0
LINE
5
122
100
AcDbEntity
8
0
100
AcDbLine
10
76.199999999999946
20
1612.8999757766724
30
0
11
76.199999999999946
21
1618.901079412828
31
0
0
LINE
5
123
100
AcDbEntity
8
0
100
AcDbLine
10
76.199999999999946
20
1593.5010794128279
30
0
11
76.199999999999946
21
1612.8999757766724
31
0
0
LINE
5
124
100
AcDbEntity
8
0
100
AcDbLine
10
304.85079999999999
20
1720.5010794128279
30
0
11
304.85080000000005
21
1600.2
31
0
0
LINE
5
125
100
AcDbEntity
8
0
100
AcDbLine
10
152.40000486373901
20
1720.5010794128279
30
0
11
152.40000000000001
21
1600.2
31
0
0
LINE
5
126
100
AcDbEntity
8
0
100
AcDbLine
10
76.199999999999946
20
1720.5010794128279
30
0
11
152.40000486373901
21
1720.5010794128279
31
0
0
LINE
5
127
100
AcDbEntity
8
0
100
AcDbLine
10
76.199999999999946
20
1618.901079412828
30
0
11
76.199999999999946
21
1720.5010794128279
31
0
0
LINE
5
128
100
AcDbEntity
8
0
100
AcDbLine
10
76.199999999999946
20
1517.3010794128279
30
0
11
76.199999999999946
21
1593.5010794128279
31
0
0
LINE
5
129
100
AcDbEntity
8
0
100
AcDbLine
10
152.39999999999995
20
1491.901079412828
30
0
11
76.199999999999946
21
1491.901079412828
31
0
0
LINE
5
130
100
AcDbEntity
8
0
100
AcDbLine
10
241.35080000000002
20
1600.2
30
0
11
304.85080000000005
21
1600.2
31
0
0
LINE
5
131
100
AcDbEntity
8
0
100
AcDbLine
10
241.35080000000002
20
1549.4000000000001
30
0
11
241.35080000000002
21
1600.2
31
0
0
LINE
5
132
100
AcDbEntity
8
0
100
AcDbLine
10
234.95000000000002
20
1549.4000000000001
30
0
11
241.35080000000002
21
1549.4000000000001
31
0
0
LINE
5
133
100
AcDbEntity
8
0
100
AcDbLine
10
215.90000000000001
20
1549.4000000000001
30
0
11
222.25
21
1549.4000000000001
31
0
0
LINE
5
134
100
AcDbEntity
8
0
100
AcDbLine
10
215.90000000000001
20
1600.2
30
0
11
215.90000000000001
21
1549.4000000000001
31
0
0
LINE
5
135
100
AcDbEntity
8
0
100
AcDbLine
10
152.40000000000001
20
1600.2
30
0
11
215.90000000000001
21
1600.2
31
0
0
ENDSEC
0
SECTION
2
OBJECTS
0
DICTIONARY
5
C
100
AcDbDictionary
3
ACAD_GROUP
350
D
3
ACAD_MLINESTYLE
350
17
0
DICTIONARY
5
D
100
AcDbDictionary
0
DICTIONARY
5
1A
330
C
100
AcDbDictionary
0
DICTIONARY
5
17
100
AcDbDictionary
0
ENDSEC
0
EOF
