0
SECTION
2
HEADER
9
$INSUNITS
70
4
9
$ACADVER
1
AC1014
9
$HANDSEED
5
FFFF
0
ENDSEC
0
SECTION
2
TABLES
0
TABLE
2
VPORT
5
8
100
AcDbSymbolTable
0
ENDTAB
0
TABLE
2
LTYPE
5
5
100
AcDbSymbolTable
0
LTYPE
5
14
100
AcDbSymbolTableRecord
100
AcDbLinetypeTableRecord
2
BYBLOCK
70
0
0
LTYPE
5
15
100
AcDbSymbolTableRecord
100
AcDbLinetypeTableRecord
2
BYLAYER
70
0
0
ENDTAB
0
TABLE
2
LAYER
5
2
100
AcDbSymbolTable
70
2
0
LAYER
5
50
100
AcDbSymbolTableRecord
100
AcDbLayerTableRecord
2
0
70
0
6
CONTINUOUS
0
ENDTAB
0
TABLE
2
STYLE
5
3
100
AcDbSymbolTable
70
1
0
STYLE
5
11
100
AcDbSymbolTableRecord
100
AcDbTextStyleTableRecord
2
STANDARD
70
0
0
ENDTAB
0
TABLE
2
VIEW
5
6
100
AcDbSymbolTable
70
0
0
ENDTAB
0
TABLE
2
UCS
5
7
100
AcDbSymbolTable
70
0
0
ENDTAB
0
TABLE
2
APPID
5
9
100
AcDbSymbolTable
70
2
0
APPID
5
12
100
AcDbSymbolTableRecord
100
AcDbRegAppTableRecord
2
ACAD
70
0
0
ENDTAB
0
TABLE
2
DIMSTYLE
5
A
100
AcDbSymbolTable
70
1
0
ENDTAB
0
TABLE
2
BLOCK_RECORD
5
1
100
AcDbSymbolTable
70
1
0
BLOCK_RECORD
5
1F
100
AcDbSymbolTableRecord
100
AcDbBlockTableRecord
2
*MODEL_SPACE
0
BLOCK_RECORD
5
1B
100
AcDbSymbolTableRecord
100
AcDbBlockTableRecord
2
*PAPER_SPACE
0
ENDTAB
0
ENDSEC
0
SECTION
2
BLOCKS
0
BLOCK
5
20
100
AcDbEntity
100
AcDbBlockBegin
2
*MODEL_SPACE
0
ENDBLK
5
21
100
AcDbEntity
100
AcDbBlockEnd
0
BLOCK
5
1C
100
AcDbEntity
100
AcDbBlockBegin
2
*PAPER_SPACE
0
ENDBLK
5
1D
100
AcDbEntity
100
AcDbBlockEnd
0
ENDSEC
0
SECTION
2
ENTITIES
0
CIRCLE
5
100
100
AcDbEntity
8
0
100
AcDbCircle
10
5.9566528824735965
20
127.59862079706819
30
0
40
10.000000000000007
0
CIRCLE
5
101
100
AcDbEntity
8
0
100
AcDbCircle
10
12.93551768313359
20
103.59246645918898
30
0
40
10.000000000000002
0
CIRCLE
5
102
100
AcDbEntity
8
0
100
AcDbCircle
10
30.236024786577033
20
121.63941783507721
30
0
40
10.000000000000002
0
LWPOLYLINE
5
103
100
AcDbEntity
8
0
100
AcDbPolyline
90
6
70
1
43
0.0
10
165.36621687874256
20
96.588484438735307
42
-0.54204498836193538
10
165.78992918612164
20
94.967128346688469
10
127.02571095706742
20
52.326488294728755
42
-0.76665733155898774
10
123.59082995707129
20
54.093700762164154
42
0.23570759378452363
10
108.90949516833773
20
111.48629566554257
42
-0.76255291967735328
10
111.05423338174677
20
114.69247893773391
0
LWPOLYLINE
5
104
100
AcDbEntity
8
0
100
AcDbPolyline
90
11
70
1
43
0.0
10
17.043868979729432
20
69.845923293006138
42
-0.36019077641019215
10
16.459628219265348
20
72.328725020616986
42
-0.23230360974431549
10
80.069055926473141
20
121.08231276185469
42
0.76908046208474834
10
80.309197240759886
20
124.94082431806282
10
-23.422414835501684
20
159.51802834348348
42
0.63271990889897867
10
-27.174561338339132
20
155.60399246655595
10
8.4552620770155329
20
62.07570600124992
10
19.938573309025074
20
31.932014017224049
42
0.31120466573894046
10
22.742036513811996
20
30
10
92.070001858768961
20
29.999999999999893
42
0.88687441853027926
10
92.544492243805365
20
33.942899604845145
42
-0.10253401032162111
0
LWPOLYLINE
5
105
100
AcDbEntity
8
0
100
AcDbPolyline
90
4
70
1
43
0.0
10
0
20
0
10
120
20
0
10
220
20
110
10
-80
20
210
0
LWPOLYLINE
5
106
100
AcDbEntity
8
0
100
AcDbPolyline
90
4
70
1
43
0.0
10
190
20
100
10
-50.072623362632022
20
180.0242077875441
10
14.845152785754419
20
9.6150453980297748
10
109.65781813158202
20
9.6150453980297712
0
ARC
5
107
100
AcDbEntity
8
0
100
AcDbCircle
10
22.742036513811961
20
32.999999999999972
30
0
40
0.49999999999996908
100
AcDbArc
50
200.85445803957768
51
270.00000000000449
0
LWPOLYLINE
5
108
100
AcDbEntity
8
0
100
AcDbPolyline
90
9
70
1
43
0.0
10
21.900997552375916
20
32.679604205167209
10
10.417686320366371
20
62.823296189193094
10
-25.212137094988311
20
156.35158265449911
42
-0.632719908898983
10
-24.086493144137027
20
157.5257934175774
10
79.289363259874236
20
123.06717461624017
42
0.23124086540828606
10
14.578233531963761
20
73.261652686941304
42
0.36019077641019143
10
15.775927090915154
20
68.171909145338844
42
0.10153336280961037
10
91.245907911219007
20
32.099999999999895
10
22.742036513811968
20
32.100000000000001
42
-0.31120466573894062
0
LWPOLYLINE
5
109
100
AcDbEntity
8
0
100
AcDbPolyline
90
3
70
1
43
0.0
10
110.73407762290816
20
112.58560316189559
42
-0.23288234690050064
10
125.72069402227974
20
54.012844103399189
10
163.10015001672565
20
95.130245697289723
0
ENDSEC
0
SECTION
2
OBJECTS
0
DICTIONARY
5
C
100
AcDbDictionary
3
ACAD_GROUP
350
D
3
ACAD_MLINESTYLE
350
17
0
DICTIONARY
5
D
100
AcDbDictionary
0
DICTIONARY
5
1A
330
C
100
AcDbDictionary
0
DICTIONARY
5
17
100
AcDbDictionary
0
ENDSEC
0
EOF
